  0
SECTION
  2
HEADER
  9
$ACADVER
  1
AC1015
  9
$ACADMAINTVER
 70
     6
  9
$DWGCODEPAGE
  3
ANSI_1252
  9
$INSBASE
 10
0.0
 20
0.0
 30
0.0
  9
$EXTMIN
 10
1.000000000000000E+20
 20
1.000000000000000E+20
 30
1.000000000000000E+20
  9
$EXTMAX
 10
-1.000000000000000E+20
 20
-1.000000000000000E+20
 30
-1.000000000000000E+20
  9
$LIMMIN
 10
0.0
 20
0.0
  9
$LIMMAX
 10
12.0
 20
9.0
  9
$ORTHOMODE
 70
     0
  9
$REGENMODE
 70
     1
  9
$FILLMODE
 70
     1
  9
$QTEXTMODE
 70
     0
  9
$MIRRTEXT
 70
     1
  9
$LTSCALE
 40
1.0
  9
$ATTMODE
 70
     1
  9
$TEXTSIZE
 40
0.2
  9
$TRACEWID
 40
0.05
  9
$TEXTSTYLE
  7
Standard
  9
$CLAYER
  8
0
  9
$CELTYPE
  6
ByLayer
  9
$CECOLOR
 62
   256
  9
$CELTSCALE
 40
1.0
  9
$DISPSILH
 70
     0
  9
$DIMSCALE
 40
1.0
  9
$DIMASZ
 40
0.18
  9
$DIMEXO
 40
0.0625
  9
$DIMDLI
 40
0.38
  9
$DIMRND
 40
0.0
  9
$DIMDLE
 40
0.0
  9
$DIMEXE
 40
0.18
  9
$DIMTP
 40
0.0
  9
$DIMTM
 40
0.0
  9
$DIMTXT
 40
0.18
  9
$DIMCEN
 40
0.09
  9
$DIMTSZ
 40
0.0
  9
$DIMTOL
 70
     0
  9
$DIMLIM
 70
     0
  9
$DIMTIH
 70
     1
  9
$DIMTOH
 70
     1
  9
$DIMSE1
 70
     0
  9
$DIMSE2
 70
     0
  9
$DIMTAD
 70
     0
  9
$DIMZIN
 70
     0
  9
$DIMBLK
  1

  9
$DIMASO
 70
     1
  9
$DIMSHO
 70
     1
  9
$DIMPOST
  1

  9
$DIMAPOST
  1

  9
$DIMALT
 70
     0
  9
$DIMALTD
 70
     2
  9
$DIMALTF
 40
25.4
  9
$DIMLFAC
 40
1.0
  9
$DIMTOFL
 70
     0
  9
$DIMTVP
 40
0.0
  9
$DIMTIX
 70
     0
  9
$DIMSOXD
 70
     0
  9
$DIMSAH
 70
     0
  9
$DIMBLK1
  1

  9
$DIMBLK2
  1

  9
$DIMSTYLE
  2
Standard
  9
$DIMCLRD
 70
     0
  9
$DIMCLRE
 70
     0
  9
$DIMCLRT
 70
     0
  9
$DIMTFAC
 40
1.0
  9
$DIMGAP
 40
0.09
  9
$DIMJUST
 70
     0
  9
$DIMSD1
 70
     0
  9
$DIMSD2
 70
     0
  9
$DIMTOLJ
 70
     1
  9
$DIMTZIN
 70
     0
  9
$DIMALTZ
 70
     0
  9
$DIMALTTZ
 70
     0
  9
$DIMUPT
 70
     0
  9
$DIMDEC
 70
     4
  9
$DIMTDEC
 70
     4
  9
$DIMALTU
 70
     2
  9
$DIMALTTD
 70
     2
  9
$DIMTXSTY
  7
Standard
  9
$DIMAUNIT
 70
     0
  9
$DIMADEC
 70
     0
  9
$DIMALTRND
 40
0.0
  9
$DIMAZIN
 70
     0
  9
$DIMDSEP
 70
    46
  9
$DIMATFIT
 70
     3
  9
$DIMFRAC
 70
     0
  9
$DIMLDRBLK
  1

  9
$DIMLUNIT
 70
     2
  9
$DIMLWD
 70
    -2
  9
$DIMLWE
 70
    -2
  9
$DIMTMOVE
 70
     0
  9
$LUNITS
 70
     2
  9
$LUPREC
 70
     4
  9
$SKETCHINC
 40
0.1
  9
$FILLETRAD
 40
0.5
  9
$AUNITS
 70
     0
  9
$AUPREC
 70
     0
  9
$MENU
  1
.
  9
$ELEVATION
 40
0.0
  9
$PELEVATION
 40
0.0
  9
$THICKNESS
 40
0.0
  9
$LIMCHECK
 70
     0
  9
$CHAMFERA
 40
0.5
  9
$CHAMFERB
 40
0.5
  9
$CHAMFERC
 40
1.0
  9
$CHAMFERD
 40
0.0
  9
$SKPOLY
 70
     0
  9
$TDCREATE
 40
2458604.534136169
  9
$TDUCREATE
 40
2458604.700802836
  9
$TDUPDATE
 40
2458604.534139202
  9
$TDUUPDATE
 40
2458604.700805868
  9
$TDINDWG
 40
0.0000000116
  9
$TDUSRTIMER
 40
0.0000000116
  9
$USRTIMER
 70
     1
  9
$ANGBASE
 50
0.0
  9
$ANGDIR
 70
     0
  9
$PDMODE
 70
     0
  9
$PDSIZE
 40
0.0
  9
$PLINEWID
 40
0.0
  9
$SPLFRAME
 70
     0
  9
$SPLINETYPE
 70
     6
  9
$SPLINESEGS
 70
     8
  9
$HANDSEED
  5
8F1
  9
$SURFTAB1
 70
     6
  9
$SURFTAB2
 70
     6
  9
$SURFTYPE
 70
     6
  9
$SURFU
 70
     6
  9
$SURFV
 70
     6
  9
$UCSBASE
  2

  9
$UCSNAME
  2

  9
$UCSORG
 10
0.0
 20
0.0
 30
0.0
  9
$UCSXDIR
 10
1.0
 20
0.0
 30
0.0
  9
$UCSYDIR
 10
0.0
 20
1.0
 30
0.0
  9
$UCSORTHOREF
  2

  9
$UCSORTHOVIEW
 70
     0
  9
$UCSORGTOP
 10
0.0
 20
0.0
 30
0.0
  9
$UCSORGBOTTOM
 10
0.0
 20
0.0
 30
0.0
  9
$UCSORGLEFT
 10
0.0
 20
0.0
 30
0.0
  9
$UCSORGRIGHT
 10
0.0
 20
0.0
 30
0.0
  9
$UCSORGFRONT
 10
0.0
 20
0.0
 30
0.0
  9
$UCSORGBACK
 10
0.0
 20
0.0
 30
0.0
  9
$PUCSBASE
  2

  9
$PUCSNAME
  2

  9
$PUCSORG
 10
0.0
 20
0.0
 30
0.0
  9
$PUCSXDIR
 10
1.0
 20
0.0
 30
0.0
  9
$PUCSYDIR
 10
0.0
 20
1.0
 30
0.0
  9
$PUCSORTHOREF
  2

  9
$PUCSORTHOVIEW
 70
     0
  9
$PUCSORGTOP
 10
0.0
 20
0.0
 30
0.0
  9
$PUCSORGBOTTOM
 10
0.0
 20
0.0
 30
0.0
  9
$PUCSORGLEFT
 10
0.0
 20
0.0
 30
0.0
  9
$PUCSORGRIGHT
 10
0.0
 20
0.0
 30
0.0
  9
$PUCSORGFRONT
 10
0.0
 20
0.0
 30
0.0
  9
$PUCSORGBACK
 10
0.0
 20
0.0
 30
0.0
  9
$USERI1
 70
     0
  9
$USERI2
 70
     0
  9
$USERI3
 70
     0
  9
$USERI4
 70
     0
  9
$USERI5
 70
     0
  9
$USERR1
 40
0.0
  9
$USERR2
 40
0.0
  9
$USERR3
 40
0.0
  9
$USERR4
 40
0.0
  9
$USERR5
 40
0.0
  9
$WORLDVIEW
 70
     1
  9
$SHADEDGE
 70
     3
  9
$SHADEDIF
 70
    70
  9
$TILEMODE
 70
     1
  9
$MAXACTVP
 70
    64
  9
$PINSBASE
 10
0.0
 20
0.0
 30
0.0
  9
$PLIMCHECK
 70
     0
  9
$PEXTMIN
 10
1.000000000000000E+20
 20
1.000000000000000E+20
 30
1.000000000000000E+20
  9
$PEXTMAX
 10
-1.000000000000000E+20
 20
-1.000000000000000E+20
 30
-1.000000000000000E+20
  9
$PLIMMIN
 10
0.0
 20
0.0
  9
$PLIMMAX
 10
12.0
 20
9.0
  9
$UNITMODE
 70
     0
  9
$VISRETAIN
 70
     1
  9
$PLINEGEN
 70
     0
  9
$PSLTSCALE
 70
     1
  9
$TREEDEPTH
 70
  3020
  9
$CMLSTYLE
  2
Standard
  9
$CMLJUST
 70
     0
  9
$CMLSCALE
 40
1.0
  9
$PROXYGRAPHICS
 70
     1
  9
$MEASUREMENT
 70
     0
  9
$CELWEIGHT
370
    -1
  9
$ENDCAPS
280
     0
  9
$JOINSTYLE
280
     0
  9
$LWDISPLAY
290
     1
  9
$INSUNITS
 70
     1
  9
$HYPERLINKBASE
  1

  9
$STYLESHEET
  1

  9
$XEDIT
290
     1
  9
$CEPSNTYPE
380
     0
  9
$PSTYLEMODE
290
     1
  9
$FINGERPRINTGUID
  2
{BE71D0E7-E4CA-4888-B71B-84F939FFF6F2}
  9
$VERSIONGUID
  2
{FAEB1C32-E019-11D5-929B-00C0DF256EC4}
  9
$EXTNAMES
290
     1
  9
$PSVPSCALE
 40
0.0
  9
$OLESTARTUP
290
     0
  0
ENDSEC
  0
SECTION
  2
CLASSES
  0
CLASS
  1
ACDBDICTIONARYWDFLT
  2
AcDbDictionaryWithDefault
  3
ObjectDBX Classes
 90
        0
280
     0
281
     0
  0
CLASS
  1
VISUALSTYLE
  2
AcDbVisualStyle
  3
ObjectDBX Classes
 90
     4095
280
     0
281
     0
  0
CLASS
  1
MATERIAL
  2
AcDbMaterial
  3
ObjectDBX Classes
 90
     1153
280
     0
281
     0
  0
CLASS
  1
SUN
  2
AcDbSun
  3
SCENEOE
 90
     1024
280
     0
281
     0
  0
CLASS
  1
DICTIONARYVAR
  2
AcDbDictionaryVar
  3
ObjectDBX Classes
 90
        0
280
     0
281
     0
  0
CLASS
  1
ACDBPLACEHOLDER
  2
AcDbPlaceHolder
  3
ObjectDBX Classes
 90
        0
280
     0
281
     0
  0
CLASS
  1
LAYOUT
  2
AcDbLayout
  3
ObjectDBX Classes
 90
        0
280
     0
281
     0
  0
ENDSEC
  0
SECTION
  2
TABLES
  0
TABLE
  2
VPORT
  5
8
330
0
100
AcDbSymbolTable
 70
     1
  0
VPORT
  5
29
330
8
100
AcDbSymbolTableRecord
100
AcDbViewportTableRecord
  2
*Active
 70
     0
 10
0.0
 20
0.0
 11
1.0
 21
1.0
 12
0.0
 22
0.0
 13
0.0
 23
0.0
 14
0.5
 24
0.5
 15
0.5
 25
0.5
 16
0.0
 26
0.0
 36
1.0
 17
14.99999999624997
 27
-45.70555554412908
 37
0.0
 40
29.99999999249994
 41
1.0
 42
50.0
 43
0.0
 44
0.0
 50
0.0
 51
0.0
 71
     0
 72
   100
 73
     1
 74
     3
 75
     0
 76
     0
 77
     0
 78
     0
281
     0
 65
     1
110
0.0
120
0.0
130
0.0
111
1.0
121
0.0
131
0.0
112
0.0
122
1.0
132
0.0
 79
     0
146
0.0
  0
ENDTAB
  0
TABLE
  2
LTYPE
  5
5
330
0
100
AcDbSymbolTable
 70
     1
  0
LTYPE
  5
14
330
5
100
AcDbSymbolTableRecord
100
AcDbLinetypeTableRecord
  2
ByBlock
 70
     0
  3

 72
    65
 73
     0
 40
0.0
  0
LTYPE
  5
15
330
5
100
AcDbSymbolTableRecord
100
AcDbLinetypeTableRecord
  2
ByLayer
 70
     0
  3

 72
    65
 73
     0
 40
0.0
  0
LTYPE
  5
16
330
5
100
AcDbSymbolTableRecord
100
AcDbLinetypeTableRecord
  2
Continuous
 70
     0
  3
Solid line
 72
    65
 73
     0
 40
0.0
  0
ENDTAB
  0
TABLE
  2
LAYER
  5
2
330
0
100
AcDbSymbolTable
 70
     3
  0
LAYER
  5
10
330
2
100
AcDbSymbolTableRecord
100
AcDbLayerTableRecord
  2
0
 70
     0
 62
     7
  6
Continuous
370
    -3
390
F
  0
LAYER
  5
40
330
2
100
AcDbSymbolTableRecord
100
AcDbLayerTableRecord
  2
Capa 1
 70
     0
 62
     7
  6
Continuous
370
    -3
390
F
  0
LAYER
  5
8BD
330
2
100
AcDbSymbolTableRecord
100
AcDbLayerTableRecord
  2
Capa 2
 70
     4
 62
     7
  6
Continuous
370
    -3
390
F
  0
ENDTAB
  0
TABLE
  2
STYLE
  5
3
330
0
100
AcDbSymbolTable
 70
     1
  0
STYLE
  5
11
330
3
100
AcDbSymbolTableRecord
100
AcDbTextStyleTableRecord
  2
Standard
 70
     0
 40
0.0
 41
1.0
 50
0.0
 71
     0
 42
0.2
  3
txt
  4

  0
ENDTAB
  0
TABLE
  2
VIEW
  5
6
330
0
100
AcDbSymbolTable
 70
     0
  0
ENDTAB
  0
TABLE
  2
UCS
  5
7
330
0
100
AcDbSymbolTable
 70
     0
  0
ENDTAB
  0
TABLE
  2
APPID
  5
9
330
0
100
AcDbSymbolTable
 70
     1
  0
APPID
  5
12
330
9
100
AcDbSymbolTableRecord
100
AcDbRegAppTableRecord
  2
ACAD
 70
     0
  0
ENDTAB
  0
TABLE
  2
DIMSTYLE
  5
A
330
0
100
AcDbSymbolTable
 70
     1
100
AcDbDimStyleTable
  0
DIMSTYLE
105
27
330
A
100
AcDbSymbolTableRecord
100
AcDbDimStyleTableRecord
  2
Standard
 70
     0
178
     0
340
11
  0
ENDTAB
  0
TABLE
  2
BLOCK_RECORD
  5
1
330
0
100
AcDbSymbolTable
 70
     1
  0
BLOCK_RECORD
  5
1F
330
1
100
AcDbSymbolTableRecord
100
AcDbBlockTableRecord
  2
*Model_Space
340
22
  0
BLOCK_RECORD
  5
1B
330
1
100
AcDbSymbolTableRecord
100
AcDbBlockTableRecord
  2
*Paper_Space
340
1E
  0
BLOCK_RECORD
  5
23
330
1
100
AcDbSymbolTableRecord
100
AcDbBlockTableRecord
  2
*Paper_Space0
340
26
  0
ENDTAB
  0
ENDSEC
  0
SECTION
  2
BLOCKS
  0
BLOCK
  5
20
330
1F
100
AcDbEntity
  8
0
100
AcDbBlockBegin
  2
*Model_Space
 70
     0
 10
0.0
 20
0.0
 30
0.0
  3
*Model_Space
  1

  0
ENDBLK
  5
21
330
1F
100
AcDbEntity
  8
0
100
AcDbBlockEnd
  0
BLOCK
  5
1C
330
1B
100
AcDbEntity
 67
     1
  8
0
100
AcDbBlockBegin
  2
*Paper_Space
 70
     0
 10
0.0
 20
0.0
 30
0.0
  3
*Paper_Space
  1

  0
ENDBLK
  5
1D
330
1B
100
AcDbEntity
 67
     1
  8
0
100
AcDbBlockEnd
  0
BLOCK
  5
24
330
23
100
AcDbEntity
  8
0
100
AcDbBlockBegin
  2
*Paper_Space0
 70
     0
 10
0.0
 20
0.0
 30
0.0
  3
*Paper_Space0
  1

  0
ENDBLK
  5
25
330
23
100
AcDbEntity
  8
0
100
AcDbBlockEnd
  0
ENDSEC
  0
SECTION
  2
ENTITIES
  0
POLYLINE
  5
41
330
1F
100
AcDbEntity
  8
Capa 1
 62
   178
370
     9
100
AcDb2dPolyline
 66
     1
 10
0.0
 20
0.0
 30
0.0
  0
VERTEX
  5
42
330
41
100
AcDbEntity
  8
Capa 1
 62
   178
370
     9
100
AcDbVertex
100
AcDb2dVertex
 10
2.214236432954577
 20
-30.39772501298573
 30
0.0
  0
VERTEX
  5
43
330
41
100
AcDbEntity
  8
Capa 1
 62
   178
370
     9
100
AcDbVertex
100
AcDb2dVertex
 10
2.225812427131906
 20
-30.39702334866194
 30
0.0
  0
SEQEND
  5
44
330
41
100
AcDbEntity
  8
Capa 1
 62
   178
370
     9
  0
POLYLINE
  5
45
330
1F
100
AcDbEntity
  8
Capa 1
 62
   178
370
     9
100
AcDb2dPolyline
 66
     1
 10
0.0
 20
0.0
 30
0.0
  0
VERTEX
  5
46
330
45
100
AcDbEntity
  8
Capa 1
 62
   178
370
     9
100
AcDbVertex
100
AcDb2dVertex
 10
0.9561008585973529
 20
-32.36897058104718
 30
0.0
  0
VERTEX
  5
47
330
45
100
AcDbEntity
  8
Capa 1
 62
   178
370
     9
100
AcDbVertex
100
AcDb2dVertex
 10
0.967676129675061
 20
-32.36827161925471
 30
0.0
  0
SEQEND
  5
48
330
45
100
AcDbEntity
  8
Capa 1
 62
   178
370
     9
  0
POLYLINE
  5
49
330
1F
100
AcDbEntity
  8
Capa 1
 62
   178
370
     9
100
AcDb2dPolyline
 66
     1
 10
0.0
 20
0.0
 30
0.0
  0
VERTEX
  5
4A
330
49
100
AcDbEntity
  8
Capa 1
 62
   178
370
     9
100
AcDbVertex
100
AcDb2dVertex
 10
2.285472697402559
 20
-31.58704392878586
 30
0.0
  0
VERTEX
  5
4B
330
49
100
AcDbEntity
  8
Capa 1
 62
   178
370
     9
100
AcDbVertex
100
AcDb2dVertex
 10
2.297046308988573
 20
-31.58634683977807
 30
0.0
  0
SEQEND
  5
4C
330
49
100
AcDbEntity
  8
Capa 1
 62
   178
370
     9
  0
POLYLINE
  5
4D
330
1F
100
AcDbEntity
  8
Capa 1
 62
   178
370
     9
100
AcDb2dPolyline
 66
     1
 10
0.0
 20
0.0
 30
0.0
  0
VERTEX
  5
4E
330
4D
100
AcDbEntity
  8
Capa 1
 62
   178
370
     9
100
AcDbVertex
100
AcDb2dVertex
 10
-0.3405009372126262
 20
-30.88480968630326
 30
0.0
  0
VERTEX
  5
4F
330
4D
100
AcDbEntity
  8
Capa 1
 62
   178
370
     9
100
AcDbVertex
100
AcDb2dVertex
 10
-0.3289256661349181
 20
-30.88411072451075
 30
0.0
  0
SEQEND
  5
50
330
4D
100
AcDbEntity
  8
Capa 1
 62
   178
370
     9
  0
POLYLINE
  5
51
330
1F
100
AcDbEntity
  8
Capa 1
 62
   178
370
     9
100
AcDb2dPolyline
 66
     1
 10
0.0
 20
0.0
 30
0.0
  0
VERTEX
  5
52
330
51
100
AcDbEntity
  8
Capa 1
 62
   178
370
     9
100
AcDbVertex
100
AcDb2dVertex
 10
0.8621398278845886
 20
-31.40929117575548
 30
0.0
  0
VERTEX
  5
53
330
51
100
AcDbEntity
  8
Capa 1
 62
   178
370
     9
100
AcDbVertex
100
AcDb2dVertex
 10
0.8737150989625534
 20
-31.40859221396285
 30
0.0
  0
SEQEND
  5
54
330
51
100
AcDbEntity
  8
Capa 1
 62
   178
370
     9
  0
POLYLINE
  5
55
330
1F
100
AcDbEntity
  8
Capa 1
 62
   178
370
     9
100
AcDb2dPolyline
 66
     1
 10
0.0
 20
0.0
 30
0.0
  0
VERTEX
  5
56
330
55
100
AcDbEntity
  8
Capa 1
 62
   178
370
     9
100
AcDbVertex
100
AcDb2dVertex
 10
0.6413777632969918
 20
-31.75486132538608
 30
0.0
  0
VERTEX
  5
57
330
55
100
AcDbEntity
  8
Capa 1
 62
   178
370
     9
100
AcDbVertex
100
AcDb2dVertex
 10
0.6529530343747321
 20
-31.75416236359361
 30
0.0
  0
SEQEND
  5
58
330
55
100
AcDbEntity
  8
Capa 1
 62
   178
370
     9
  0
POLYLINE
  5
59
330
1F
100
AcDbEntity
  8
Capa 1
 62
   178
370
     9
100
AcDb2dPolyline
 66
     1
 10
0.0
 20
0.0
 30
0.0
  0
VERTEX
  5
5A
330
59
100
AcDbEntity
  8
Capa 1
 62
   178
370
     9
100
AcDbVertex
100
AcDb2dVertex
 10
0.6413777632969918
 20
-31.75486132538608
 30
0.0
  0
VERTEX
  5
5B
330
59
100
AcDbEntity
  8
Capa 1
 62
   178
370
     9
100
AcDbVertex
100
AcDb2dVertex
 10
0.1168962738448921
 20
-32.95750209048337
 30
0.0
  0
SEQEND
  5
5C
330
59
100
AcDbEntity
  8
Capa 1
 62
   178
370
     9
  0
POLYLINE
  5
5D
330
1F
100
AcDbEntity
  8
Capa 1
 62
   178
370
     9
100
AcDb2dPolyline
 66
     1
 10
0.0
 20
0.0
 30
0.0
  0
VERTEX
  5
5E
330
5D
100
AcDbEntity
  8
Capa 1
 62
   178
370
     9
100
AcDbVertex
100
AcDb2dVertex
 10
0.1168962738448921
 20
-32.95750209048337
 30
0.0
  0
VERTEX
  5
5F
330
5D
100
AcDbEntity
  8
Capa 1
 62
   178
370
     9
100
AcDbVertex
100
AcDb2dVertex
 10
0.1284706085302073
 20
-32.95680229894496
 30
0.0
  0
SEQEND
  5
60
330
5D
100
AcDbEntity
  8
Capa 1
 62
   178
370
     9
  0
POLYLINE
  5
61
330
1F
100
AcDbEntity
  8
Capa 1
 62
   178
370
     9
100
AcDb2dPolyline
 66
     1
 10
0.0
 20
0.0
 30
0.0
  0
VERTEX
  5
62
330
61
100
AcDbEntity
  8
Capa 1
 62
   178
370
     9
100
AcDbVertex
100
AcDb2dVertex
 10
0.6413777632969918
 20
-31.75486132538608
 30
0.0
  0
VERTEX
  5
63
330
61
100
AcDbEntity
  8
Capa 1
 62
   178
370
     9
100
AcDbVertex
100
AcDb2dVertex
 10
1.623256463806514
 20
-32.62491296446888
 30
0.0
  0
SEQEND
  5
64
330
61
100
AcDbEntity
  8
Capa 1
 62
   178
370
     9
  0
POLYLINE
  5
65
330
1F
100
AcDbEntity
  8
Capa 1
 62
   178
370
     9
100
AcDb2dPolyline
 66
     1
 10
0.0
 20
0.0
 30
0.0
  0
VERTEX
  5
66
330
65
100
AcDbEntity
  8
Capa 1
 62
   178
370
     9
100
AcDbVertex
100
AcDb2dVertex
 10
1.623256463806514
 20
-32.62491296446888
 30
0.0
  0
VERTEX
  5
67
330
65
100
AcDbEntity
  8
Capa 1
 62
   178
370
     9
100
AcDbVertex
100
AcDb2dVertex
 10
1.634831734884286
 20
-32.62421400267643
 30
0.0
  0
SEQEND
  5
68
330
65
100
AcDbEntity
  8
Capa 1
 62
   178
370
     9
  0
POLYLINE
  5
69
330
1F
100
AcDbEntity
  8
Capa 1
 62
   178
370
     9
100
AcDb2dPolyline
 66
     1
 10
0.0
 20
0.0
 30
0.0
  0
VERTEX
  5
6A
330
69
100
AcDbEntity
  8
Capa 1
 62
   178
370
     9
100
AcDbVertex
100
AcDb2dVertex
 10
1.623256463806514
 20
-32.62491296446888
 30
0.0
  0
VERTEX
  5
6B
330
69
100
AcDbEntity
  8
Capa 1
 62
   178
370
     9
100
AcDbVertex
100
AcDb2dVertex
 10
2.28864007625145
 20
-33.75570485113126
 30
0.0
  0
SEQEND
  5
6C
330
69
100
AcDbEntity
  8
Capa 1
 62
   178
370
     9
  0
POLYLINE
  5
6D
330
1F
100
AcDbEntity
  8
Capa 1
 62
   178
370
     9
100
AcDb2dPolyline
 66
     1
 10
0.0
 20
0.0
 30
0.0
  0
VERTEX
  5
6E
330
6D
100
AcDbEntity
  8
Capa 1
 62
   178
370
     9
100
AcDbVertex
100
AcDb2dVertex
 10
2.28864007625145
 20
-33.75570485113126
 30
0.0
  0
VERTEX
  5
6F
330
6D
100
AcDbEntity
  8
Capa 1
 62
   178
370
     9
100
AcDbVertex
100
AcDb2dVertex
 10
2.300215347329382
 20
-33.75500588933862
 30
0.0
  0
SEQEND
  5
70
330
6D
100
AcDbEntity
  8
Capa 1
 62
   178
370
     9
  0
POLYLINE
  5
71
330
1F
100
AcDbEntity
  8
Capa 1
 62
   178
370
     9
100
AcDb2dPolyline
 66
     1
 10
0.0
 20
0.0
 30
0.0
  0
VERTEX
  5
72
330
71
100
AcDbEntity
  8
Capa 1
 62
   178
370
     9
100
AcDbVertex
100
AcDb2dVertex
 10
1.623256463806514
 20
-32.62491296446888
 30
0.0
  0
VERTEX
  5
73
330
71
100
AcDbEntity
  8
Capa 1
 62
   178
370
     9
100
AcDbVertex
100
AcDb2dVertex
 10
2.903764221666465
 20
-32.3419734216716
 30
0.0
  0
SEQEND
  5
74
330
71
100
AcDbEntity
  8
Capa 1
 62
   178
370
     9
  0
POLYLINE
  5
75
330
1F
100
AcDbEntity
  8
Capa 1
 62
   178
370
     9
100
AcDb2dPolyline
 66
     1
 10
0.0
 20
0.0
 30
0.0
  0
VERTEX
  5
76
330
75
100
AcDbEntity
  8
Capa 1
 62
   178
370
     9
100
AcDbVertex
100
AcDb2dVertex
 10
2.903764221666465
 20
-32.3419734216716
 30
0.0
  0
VERTEX
  5
77
330
75
100
AcDbEntity
  8
Capa 1
 62
   178
370
     9
100
AcDbVertex
100
AcDb2dVertex
 10
2.915337833252544
 20
-32.3412763326642
 30
0.0
  0
SEQEND
  5
78
330
75
100
AcDbEntity
  8
Capa 1
 62
   178
370
     9
  0
POLYLINE
  5
79
330
1F
100
AcDbEntity
  8
Capa 1
 62
   178
370
     9
100
AcDb2dPolyline
 66
     1
 10
0.0
 20
0.0
 30
0.0
  0
VERTEX
  5
7A
330
79
100
AcDbEntity
  8
Capa 1
 62
   178
370
     9
100
AcDbVertex
100
AcDb2dVertex
 10
2.903764221666465
 20
-32.3419734216716
 30
0.0
  0
VERTEX
  5
7B
330
79
100
AcDbEntity
  8
Capa 1
 62
   178
370
     9
100
AcDbVertex
100
AcDb2dVertex
 10
4.035168722315923
 20
-31.67713599532367
 30
0.0
  0
SEQEND
  5
7C
330
79
100
AcDbEntity
  8
Capa 1
 62
   178
370
     9
  0
POLYLINE
  5
7D
330
1F
100
AcDbEntity
  8
Capa 1
 62
   178
370
     9
100
AcDb2dPolyline
 66
     1
 10
0.0
 20
0.0
 30
0.0
  0
VERTEX
  5
7E
330
7D
100
AcDbEntity
  8
Capa 1
 62
   178
370
     9
100
AcDbVertex
100
AcDb2dVertex
 10
4.035168722315923
 20
-31.67713599532367
 30
0.0
  0
VERTEX
  5
7F
330
7D
100
AcDbEntity
  8
Capa 1
 62
   178
370
     9
100
AcDbVertex
100
AcDb2dVertex
 10
4.046744716493285
 20
-31.67643433100003
 30
0.0
  0
SEQEND
  5
80
330
7D
100
AcDbEntity
  8
Capa 1
 62
   178
370
     9
  0
POLYLINE
  5
81
330
1F
100
AcDbEntity
  8
Capa 1
 62
   178
370
     9
100
AcDb2dPolyline
 66
     1
 10
0.0
 20
0.0
 30
0.0
  0
VERTEX
  5
82
330
81
100
AcDbEntity
  8
Capa 1
 62
   178
370
     9
100
AcDbVertex
100
AcDb2dVertex
 10
2.903764221666465
 20
-32.3419734216716
 30
0.0
  0
VERTEX
  5
83
330
81
100
AcDbEntity
  8
Capa 1
 62
   178
370
     9
100
AcDbVertex
100
AcDb2dVertex
 10
4.185430566317257
 20
-32.05896391870741
 30
0.0
  0
SEQEND
  5
84
330
81
100
AcDbEntity
  8
Capa 1
 62
   178
370
     9
  0
POLYLINE
  5
85
330
1F
100
AcDbEntity
  8
Capa 1
 62
   178
370
     9
100
AcDb2dPolyline
 66
     1
 10
0.0
 20
0.0
 30
0.0
  0
VERTEX
  5
86
330
85
100
AcDbEntity
  8
Capa 1
 62
   178
370
     9
100
AcDbVertex
100
AcDb2dVertex
 10
4.185430566317257
 20
-32.05896391870741
 30
0.0
  0
VERTEX
  5
87
330
85
100
AcDbEntity
  8
Capa 1
 62
   178
370
     9
100
AcDbVertex
100
AcDb2dVertex
 10
4.197004177902984
 20
-32.05826682970005
 30
0.0
  0
SEQEND
  5
88
330
85
100
AcDbEntity
  8
Capa 1
 62
   178
370
     9
  0
POLYLINE
  5
89
330
1F
100
AcDbEntity
  8
Capa 1
 62
   178
370
     9
100
AcDb2dPolyline
 66
     1
 10
0.0
 20
0.0
 30
0.0
  0
VERTEX
  5
8A
330
89
100
AcDbEntity
  8
Capa 1
 62
   178
370
     9
100
AcDbVertex
100
AcDb2dVertex
 10
4.185430566317257
 20
-32.05896391870741
 30
0.0
  0
VERTEX
  5
8B
330
89
100
AcDbEntity
  8
Capa 1
 62
   178
370
     9
100
AcDbVertex
100
AcDb2dVertex
 10
4.850269865450098
 20
-33.19037007884882
 30
0.0
  0
SEQEND
  5
8C
330
89
100
AcDbEntity
  8
Capa 1
 62
   178
370
     9
  0
POLYLINE
  5
8D
330
1F
100
AcDbEntity
  8
Capa 1
 62
   178
370
     9
100
AcDb2dPolyline
 66
     1
 10
0.0
 20
0.0
 30
0.0
  0
VERTEX
  5
8E
330
8D
100
AcDbEntity
  8
Capa 1
 62
   178
370
     9
100
AcDbVertex
100
AcDb2dVertex
 10
4.850269865450098
 20
-33.19037007884882
 30
0.0
  0
VERTEX
  5
8F
330
8D
100
AcDbEntity
  8
Capa 1
 62
   178
370
     9
100
AcDbVertex
100
AcDb2dVertex
 10
4.861843477036369
 20
-33.1896729898412
 30
0.0
  0
SEQEND
  5
90
330
8D
100
AcDbEntity
  8
Capa 1
 62
   178
370
     9
  0
POLYLINE
  5
91
330
1F
100
AcDbEntity
  8
Capa 1
 62
   178
370
     9
100
AcDb2dPolyline
 66
     1
 10
0.0
 20
0.0
 30
0.0
  0
VERTEX
  5
92
330
91
100
AcDbEntity
  8
Capa 1
 62
   178
370
     9
100
AcDbVertex
100
AcDb2dVertex
 10
4.185430566317257
 20
-32.05896391870741
 30
0.0
  0
VERTEX
  5
93
330
91
100
AcDbEntity
  8
Capa 1
 62
   178
370
     9
100
AcDbVertex
100
AcDb2dVertex
 10
5.465939260569731
 20
-31.7760252056561
 30
0.0
  0
SEQEND
  5
94
330
91
100
AcDbEntity
  8
Capa 1
 62
   178
370
     9
  0
POLYLINE
  5
95
330
1F
100
AcDbEntity
  8
Capa 1
 62
   178
370
     9
100
AcDb2dPolyline
 66
     1
 10
0.0
 20
0.0
 30
0.0
  0
VERTEX
  5
96
330
95
100
AcDbEntity
  8
Capa 1
 62
   178
370
     9
100
AcDbVertex
100
AcDb2dVertex
 10
5.465939260569731
 20
-31.7760252056561
 30
0.0
  0
VERTEX
  5
97
330
95
100
AcDbEntity
  8
Capa 1
 62
   178
370
     9
100
AcDbVertex
100
AcDb2dVertex
 10
5.477511935763095
 20
-31.77532728690261
 30
0.0
  0
SEQEND
  5
98
330
95
100
AcDbEntity
  8
Capa 1
 62
   178
370
     9
  0
POLYLINE
  5
99
330
1F
100
AcDbEntity
  8
Capa 1
 62
   178
370
     9
100
AcDb2dPolyline
 66
     1
 10
0.0
 20
0.0
 30
0.0
  0
VERTEX
  5
9A
330
99
100
AcDbEntity
  8
Capa 1
 62
   178
370
     9
100
AcDbVertex
100
AcDb2dVertex
 10
5.465939260569731
 20
-31.7760252056561
 30
0.0
  0
VERTEX
  5
9B
330
99
100
AcDbEntity
  8
Capa 1
 62
   178
370
     9
100
AcDbVertex
100
AcDb2dVertex
 10
6.77234480639897
 20
-31.90275732240307
 30
0.0
  0
SEQEND
  5
9C
330
99
100
AcDbEntity
  8
Capa 1
 62
   178
370
     9
  0
POLYLINE
  5
9D
330
1F
100
AcDbEntity
  8
Capa 1
 62
   178
370
     9
100
AcDb2dPolyline
 66
     1
 10
0.0
 20
0.0
 30
0.0
  0
VERTEX
  5
9E
330
9D
100
AcDbEntity
  8
Capa 1
 62
   178
370
     9
100
AcDbVertex
100
AcDb2dVertex
 10
6.77234480639897
 20
-31.90275732240307
 30
0.0
  0
VERTEX
  5
9F
330
9D
100
AcDbEntity
  8
Capa 1
 62
   178
370
     9
100
AcDbVertex
100
AcDb2dVertex
 10
6.783920800575882
 20
-31.90205565807998
 30
0.0
  0
SEQEND
  5
A0
330
9D
100
AcDbEntity
  8
Capa 1
 62
   178
370
     9
  0
POLYLINE
  5
A1
330
1F
100
AcDbEntity
  8
Capa 1
 62
   178
370
     9
100
AcDb2dPolyline
 66
     1
 10
0.0
 20
0.0
 30
0.0
  0
VERTEX
  5
A2
330
A1
100
AcDbEntity
  8
Capa 1
 62
   178
370
     9
100
AcDbVertex
100
AcDb2dVertex
 10
1.623256463806514
 20
-32.62491296446888
 30
0.0
  0
VERTEX
  5
A3
330
A1
100
AcDbEntity
  8
Capa 1
 62
   178
370
     9
100
AcDbVertex
100
AcDb2dVertex
 10
1.098774974354478
 20
-33.82755372956619
 30
0.0
  0
SEQEND
  5
A4
330
A1
100
AcDbEntity
  8
Capa 1
 62
   178
370
     9
  0
POLYLINE
  5
A5
330
1F
100
AcDbEntity
  8
Capa 1
 62
   178
370
     9
100
AcDb2dPolyline
 66
     1
 10
0.0
 20
0.0
 30
0.0
  0
VERTEX
  5
A6
330
A5
100
AcDbEntity
  8
Capa 1
 62
   178
370
     9
100
AcDbVertex
100
AcDb2dVertex
 10
1.098774974354478
 20
-33.82755372956619
 30
0.0
  0
VERTEX
  5
A7
330
A5
100
AcDbEntity
  8
Capa 1
 62
   178
370
     9
100
AcDbVertex
100
AcDb2dVertex
 10
1.110349309039697
 20
-33.82685393802769
 30
0.0
  0
SEQEND
  5
A8
330
A5
100
AcDbEntity
  8
Capa 1
 62
   178
370
     9
  0
POLYLINE
  5
A9
330
1F
100
AcDbEntity
  8
Capa 1
 62
   178
370
     9
100
AcDb2dPolyline
 66
     1
 10
0.0
 20
0.0
 30
0.0
  0
VERTEX
  5
AA
330
A9
100
AcDbEntity
  8
Capa 1
 62
   178
370
     9
100
AcDbVertex
100
AcDb2dVertex
 10
1.098774974354478
 20
-33.82755372956619
 30
0.0
  0
VERTEX
  5
AB
330
A9
100
AcDbEntity
  8
Capa 1
 62
   178
370
     9
100
AcDbVertex
100
AcDb2dVertex
 10
0.9725882139584221
 20
-35.13334759780054
 30
0.0
  0
SEQEND
  5
AC
330
A9
100
AcDbEntity
  8
Capa 1
 62
   178
370
     9
  0
POLYLINE
  5
AD
330
1F
100
AcDbEntity
  8
Capa 1
 62
   178
370
     9
100
AcDb2dPolyline
 66
     1
 10
0.0
 20
0.0
 30
0.0
  0
VERTEX
  5
AE
330
AD
100
AcDbEntity
  8
Capa 1
 62
   178
370
     9
100
AcDbVertex
100
AcDb2dVertex
 10
0.9725882139584221
 20
-35.13334759780054
 30
0.0
  0
VERTEX
  5
AF
330
AD
100
AcDbEntity
  8
Capa 1
 62
   178
370
     9
100
AcDbVertex
100
AcDb2dVertex
 10
0.9841625486435768
 20
-35.1326478062624
 30
0.0
  0
SEQEND
  5
B0
330
AD
100
AcDbEntity
  8
Capa 1
 62
   178
370
     9
  0
POLYLINE
  5
B1
330
1F
100
AcDbEntity
  8
Capa 1
 62
   178
370
     9
100
AcDb2dPolyline
 66
     1
 10
0.0
 20
0.0
 30
0.0
  0
VERTEX
  5
B2
330
B1
100
AcDbEntity
  8
Capa 1
 62
   178
370
     9
100
AcDbVertex
100
AcDb2dVertex
 10
1.098774974354478
 20
-33.82755372956619
 30
0.0
  0
VERTEX
  5
B3
330
B1
100
AcDbEntity
  8
Capa 1
 62
   178
370
     9
100
AcDbVertex
100
AcDb2dVertex
 10
0.575451135300729
 20
-35.03012370475044
 30
0.0
  0
SEQEND
  5
B4
330
B1
100
AcDbEntity
  8
Capa 1
 62
   178
370
     9
  0
POLYLINE
  5
B5
330
1F
100
AcDbEntity
  8
Capa 1
 62
   178
370
     9
100
AcDb2dPolyline
 66
     1
 10
0.0
 20
0.0
 30
0.0
  0
VERTEX
  5
B6
330
B5
100
AcDbEntity
  8
Capa 1
 62
   178
370
     9
100
AcDbVertex
100
AcDb2dVertex
 10
0.575451135300729
 20
-35.03012370475044
 30
0.0
  0
VERTEX
  5
B7
330
B5
100
AcDbEntity
  8
Capa 1
 62
   178
370
     9
100
AcDbVertex
100
AcDb2dVertex
 10
0.5870264063785333
 20
-35.02942474295768
 30
0.0
  0
SEQEND
  5
B8
330
B5
100
AcDbEntity
  8
Capa 1
 62
   178
370
     9
  0
POLYLINE
  5
B9
330
1F
100
AcDbEntity
  8
Capa 1
 62
   178
370
     9
100
AcDb2dPolyline
 66
     1
 10
0.0
 20
0.0
 30
0.0
  0
VERTEX
  5
BA
330
B9
100
AcDbEntity
  8
Capa 1
 62
   178
370
     9
100
AcDbVertex
100
AcDb2dVertex
 10
0.575451135300729
 20
-35.03012370475044
 30
0.0
  0
VERTEX
  5
BB
330
B9
100
AcDbEntity
  8
Capa 1
 62
   178
370
     9
100
AcDbVertex
100
AcDb2dVertex
 10
1.240290434434019
 20
-36.16152986489153
 30
0.0
  0
SEQEND
  5
BC
330
B9
100
AcDbEntity
  8
Capa 1
 62
   178
370
     9
  0
POLYLINE
  5
BD
330
1F
100
AcDbEntity
  8
Capa 1
 62
   178
370
     9
100
AcDb2dPolyline
 66
     1
 10
0.0
 20
0.0
 30
0.0
  0
VERTEX
  5
BE
330
BD
100
AcDbEntity
  8
Capa 1
 62
   178
370
     9
100
AcDbVertex
100
AcDb2dVertex
 10
1.240290434434019
 20
-36.16152986489153
 30
0.0
  0
VERTEX
  5
BF
330
BD
100
AcDbEntity
  8
Capa 1
 62
   178
370
     9
100
AcDbVertex
100
AcDb2dVertex
 10
1.251865705511823
 20
-36.16083090309902
 30
0.0
  0
SEQEND
  5
C0
330
BD
100
AcDbEntity
  8
Capa 1
 62
   178
370
     9
  0
POLYLINE
  5
C1
330
1F
100
AcDbEntity
  8
Capa 1
 62
   178
370
     9
100
AcDb2dPolyline
 66
     1
 10
0.0
 20
0.0
 30
0.0
  0
VERTEX
  5
C2
330
C1
100
AcDbEntity
  8
Capa 1
 62
   178
370
     9
100
AcDbVertex
100
AcDb2dVertex
 10
0.575451135300729
 20
-35.03012370475044
 30
0.0
  0
VERTEX
  5
C3
330
C1
100
AcDbEntity
  8
Capa 1
 62
   178
370
     9
100
AcDbVertex
100
AcDb2dVertex
 10
0.0509696458487897
 20
-36.23276446984753
 30
0.0
  0
SEQEND
  5
C4
330
C1
100
AcDbEntity
  8
Capa 1
 62
   178
370
     9
  0
POLYLINE
  5
C5
330
1F
100
AcDbEntity
  8
Capa 1
 62
   178
370
     9
100
AcDb2dPolyline
 66
     1
 10
0.0
 20
0.0
 30
0.0
  0
VERTEX
  5
C6
330
C5
100
AcDbEntity
  8
Capa 1
 62
   178
370
     9
100
AcDbVertex
100
AcDb2dVertex
 10
0.0509696458487897
 20
-36.23276446984753
 30
0.0
  0
VERTEX
  5
C7
330
C5
100
AcDbEntity
  8
Capa 1
 62
   178
370
     9
100
AcDbVertex
100
AcDb2dVertex
 10
0.0625439805341049
 20
-36.23206467830916
 30
0.0
  0
SEQEND
  5
C8
330
C5
100
AcDbEntity
  8
Capa 1
 62
   178
370
     9
  0
POLYLINE
  5
C9
330
1F
100
AcDbEntity
  8
Capa 1
 62
   178
370
     9
100
AcDb2dPolyline
 66
     1
 10
0.0
 20
0.0
 30
0.0
  0
VERTEX
  5
CA
330
C9
100
AcDbEntity
  8
Capa 1
 62
   178
370
     9
100
AcDbVertex
100
AcDb2dVertex
 10
1.623256463806514
 20
-32.62491296446888
 30
0.0
  0
VERTEX
  5
CB
330
C9
100
AcDbEntity
  8
Capa 1
 62
   178
370
     9
100
AcDbVertex
100
AcDb2dVertex
 10
2.605135164316035
 20
-33.49496460355161
 30
0.0
  0
SEQEND
  5
CC
330
C9
100
AcDbEntity
  8
Capa 1
 62
   178
370
     9
  0
POLYLINE
  5
CD
330
1F
100
AcDbEntity
  8
Capa 1
 62
   178
370
     9
100
AcDb2dPolyline
 66
     1
 10
0.0
 20
0.0
 30
0.0
  0
VERTEX
  5
CE
330
CD
100
AcDbEntity
  8
Capa 1
 62
   178
370
     9
100
AcDbVertex
100
AcDb2dVertex
 10
2.605135164316035
 20
-33.49496460355161
 30
0.0
  0
VERTEX
  5
CF
330
CD
100
AcDbEntity
  8
Capa 1
 62
   178
370
     9
100
AcDbVertex
100
AcDb2dVertex
 10
2.616710435393904
 20
-33.49426564175923
 30
0.0
  0
SEQEND
  5
D0
330
CD
100
AcDbEntity
  8
Capa 1
 62
   178
370
     9
  0
POLYLINE
  5
D1
330
1F
100
AcDbEntity
  8
Capa 1
 62
   178
370
     9
100
AcDb2dPolyline
 66
     1
 10
0.0
 20
0.0
 30
0.0
  0
VERTEX
  5
D2
330
D1
100
AcDbEntity
  8
Capa 1
 62
   178
370
     9
100
AcDbVertex
100
AcDb2dVertex
 10
2.605135164316035
 20
-33.49496460355161
 30
0.0
  0
VERTEX
  5
D3
330
D1
100
AcDbEntity
  8
Capa 1
 62
   178
370
     9
100
AcDbVertex
100
AcDb2dVertex
 10
3.807775929413282
 20
-34.01944609300384
 30
0.0
  0
SEQEND
  5
D4
330
D1
100
AcDbEntity
  8
Capa 1
 62
   178
370
     9
  0
POLYLINE
  5
D5
330
1F
100
AcDbEntity
  8
Capa 1
 62
   178
370
     9
100
AcDb2dPolyline
 66
     1
 10
0.0
 20
0.0
 30
0.0
  0
VERTEX
  5
D6
330
D5
100
AcDbEntity
  8
Capa 1
 62
   178
370
     9
100
AcDbVertex
100
AcDb2dVertex
 10
3.807775929413282
 20
-34.01944609300384
 30
0.0
  0
VERTEX
  5
D7
330
D5
100
AcDbEntity
  8
Capa 1
 62
   178
370
     9
100
AcDbVertex
100
AcDb2dVertex
 10
3.819351200491087
 20
-34.01874713121111
 30
0.0
  0
SEQEND
  5
D8
330
D5
100
AcDbEntity
  8
Capa 1
 62
   178
370
     9
  0
POLYLINE
  5
D9
330
1F
100
AcDbEntity
  8
Capa 1
 62
   178
370
     9
100
AcDb2dPolyline
 66
     1
 10
0.0
 20
0.0
 30
0.0
  0
VERTEX
  5
DA
330
D9
100
AcDbEntity
  8
Capa 1
 62
   178
370
     9
100
AcDbVertex
100
AcDb2dVertex
 10
2.605135164316035
 20
-33.49496460355161
 30
0.0
  0
VERTEX
  5
DB
330
D9
100
AcDbEntity
  8
Capa 1
 62
   178
370
     9
100
AcDbVertex
100
AcDb2dVertex
 10
3.587013864825621
 20
-34.36501624263447
 30
0.0
  0
SEQEND
  5
DC
330
D9
100
AcDbEntity
  8
Capa 1
 62
   178
370
     9
  0
POLYLINE
  5
DD
330
1F
100
AcDbEntity
  8
Capa 1
 62
   178
370
     9
100
AcDb2dPolyline
 66
     1
 10
0.0
 20
0.0
 30
0.0
  0
VERTEX
  5
DE
330
DD
100
AcDbEntity
  8
Capa 1
 62
   178
370
     9
100
AcDbVertex
100
AcDb2dVertex
 10
3.587013864825621
 20
-34.36501624263447
 30
0.0
  0
VERTEX
  5
DF
330
DD
100
AcDbEntity
  8
Capa 1
 62
   178
370
     9
100
AcDbVertex
100
AcDb2dVertex
 10
3.598589135903426
 20
-34.36431728084199
 30
0.0
  0
SEQEND
  5
E0
330
DD
100
AcDbEntity
  8
Capa 1
 62
   178
370
     9
  0
POLYLINE
  5
E1
330
1F
100
AcDbEntity
  8
Capa 1
 62
   178
370
     9
100
AcDb2dPolyline
 66
     1
 10
0.0
 20
0.0
 30
0.0
  0
VERTEX
  5
E2
330
E1
100
AcDbEntity
  8
Capa 1
 62
   178
370
     9
100
AcDbVertex
100
AcDb2dVertex
 10
3.587013864825621
 20
-34.36501624263447
 30
0.0
  0
VERTEX
  5
E3
330
E1
100
AcDbEntity
  8
Capa 1
 62
   178
370
     9
100
AcDbVertex
100
AcDb2dVertex
 10
4.867521622685669
 20
-34.08207669983725
 30
0.0
  0
SEQEND
  5
E4
330
E1
100
AcDbEntity
  8
Capa 1
 62
   178
370
     9
  0
POLYLINE
  5
E5
330
1F
100
AcDbEntity
  8
Capa 1
 62
   178
370
     9
100
AcDb2dPolyline
 66
     1
 10
0.0
 20
0.0
 30
0.0
  0
VERTEX
  5
E6
330
E5
100
AcDbEntity
  8
Capa 1
 62
   178
370
     9
100
AcDbVertex
100
AcDb2dVertex
 10
4.867521622685669
 20
-34.08207669983725
 30
0.0
  0
VERTEX
  5
E7
330
E5
100
AcDbEntity
  8
Capa 1
 62
   178
370
     9
100
AcDbVertex
100
AcDb2dVertex
 10
4.879095234271652
 20
-34.08137961082979
 30
0.0
  0
SEQEND
  5
E8
330
E5
100
AcDbEntity
  8
Capa 1
 62
   178
370
     9
  0
POLYLINE
  5
E9
330
1F
100
AcDbEntity
  8
Capa 1
 62
   178
370
     9
100
AcDb2dPolyline
 66
     1
 10
0.0
 20
0.0
 30
0.0
  0
VERTEX
  5
EA
330
E9
100
AcDbEntity
  8
Capa 1
 62
   178
370
     9
100
AcDbVertex
100
AcDb2dVertex
 10
3.587013864825621
 20
-34.36501624263447
 30
0.0
  0
VERTEX
  5
EB
330
E9
100
AcDbEntity
  8
Capa 1
 62
   178
370
     9
100
AcDbVertex
100
AcDb2dVertex
 10
3.062532375373586
 20
-35.56765700773177
 30
0.0
  0
SEQEND
  5
EC
330
E9
100
AcDbEntity
  8
Capa 1
 62
   178
370
     9
  0
POLYLINE
  5
ED
330
1F
100
AcDbEntity
  8
Capa 1
 62
   178
370
     9
100
AcDb2dPolyline
 66
     1
 10
0.0
 20
0.0
 30
0.0
  0
VERTEX
  5
EE
330
ED
100
AcDbEntity
  8
Capa 1
 62
   178
370
     9
100
AcDbVertex
100
AcDb2dVertex
 10
3.062532375373586
 20
-35.56765700773177
 30
0.0
  0
VERTEX
  5
EF
330
ED
100
AcDbEntity
  8
Capa 1
 62
   178
370
     9
100
AcDbVertex
100
AcDb2dVertex
 10
3.074106710058901
 20
-35.56695721619337
 30
0.0
  0
SEQEND
  5
F0
330
ED
100
AcDbEntity
  8
Capa 1
 62
   178
370
     9
  0
POLYLINE
  5
F1
330
1F
100
AcDbEntity
  8
Capa 1
 62
   178
370
     9
100
AcDb2dPolyline
 66
     1
 10
0.0
 20
0.0
 30
0.0
  0
VERTEX
  5
F2
330
F1
100
AcDbEntity
  8
Capa 1
 62
   178
370
     9
100
AcDbVertex
100
AcDb2dVertex
 10
3.587013864825621
 20
-34.36501624263447
 30
0.0
  0
VERTEX
  5
F3
330
F1
100
AcDbEntity
  8
Capa 1
 62
   178
370
     9
100
AcDbVertex
100
AcDb2dVertex
 10
4.568892565335271
 20
-35.23506788171729
 30
0.0
  0
SEQEND
  5
F4
330
F1
100
AcDbEntity
  8
Capa 1
 62
   178
370
     9
  0
POLYLINE
  5
F5
330
1F
100
AcDbEntity
  8
Capa 1
 62
   178
370
     9
100
AcDb2dPolyline
 66
     1
 10
0.0
 20
0.0
 30
0.0
  0
VERTEX
  5
F6
330
F5
100
AcDbEntity
  8
Capa 1
 62
   178
370
     9
100
AcDbVertex
100
AcDb2dVertex
 10
4.568892565335271
 20
-35.23506788171729
 30
0.0
  0
VERTEX
  5
F7
330
F5
100
AcDbEntity
  8
Capa 1
 62
   178
370
     9
100
AcDbVertex
100
AcDb2dVertex
 10
4.580467836412947
 20
-35.23436891992475
 30
0.0
  0
SEQEND
  5
F8
330
F5
100
AcDbEntity
  8
Capa 1
 62
   178
370
     9
  0
POLYLINE
  5
F9
330
1F
100
AcDbEntity
  8
Capa 1
 62
   178
370
     9
100
AcDb2dPolyline
 66
     1
 10
0.0
 20
0.0
 30
0.0
  0
VERTEX
  5
FA
330
F9
100
AcDbEntity
  8
Capa 1
 62
   178
370
     9
100
AcDbVertex
100
AcDb2dVertex
 10
4.568892565335271
 20
-35.23506788171729
 30
0.0
  0
VERTEX
  5
FB
330
F9
100
AcDbEntity
  8
Capa 1
 62
   178
370
     9
100
AcDbVertex
100
AcDb2dVertex
 10
5.234276177780111
 20
-36.36585976837964
 30
0.0
  0
SEQEND
  5
FC
330
F9
100
AcDbEntity
  8
Capa 1
 62
   178
370
     9
  0
POLYLINE
  5
FD
330
1F
100
AcDbEntity
  8
Capa 1
 62
   178
370
     9
100
AcDb2dPolyline
 66
     1
 10
0.0
 20
0.0
 30
0.0
  0
VERTEX
  5
FE
330
FD
100
AcDbEntity
  8
Capa 1
 62
   178
370
     9
100
AcDbVertex
100
AcDb2dVertex
 10
5.234276177780111
 20
-36.36585976837964
 30
0.0
  0
VERTEX
  5
FF
330
FD
100
AcDbEntity
  8
Capa 1
 62
   178
370
     9
100
AcDbVertex
100
AcDb2dVertex
 10
5.245851448858011
 20
-36.36516080658696
 30
0.0
  0
SEQEND
  5
100
330
FD
100
AcDbEntity
  8
Capa 1
 62
   178
370
     9
  0
POLYLINE
  5
101
330
1F
100
AcDbEntity
  8
Capa 1
 62
   178
370
     9
100
AcDb2dPolyline
 66
     1
 10
0.0
 20
0.0
 30
0.0
  0
VERTEX
  5
102
330
101
100
AcDbEntity
  8
Capa 1
 62
   178
370
     9
100
AcDbVertex
100
AcDb2dVertex
 10
5.234276177780111
 20
-36.36585976837964
 30
0.0
  0
VERTEX
  5
103
330
101
100
AcDbEntity
  8
Capa 1
 62
   178
370
     9
100
AcDbVertex
100
AcDb2dVertex
 10
5.245851448858011
 20
-36.36516080658696
 30
0.0
  0
SEQEND
  5
104
330
101
100
AcDbEntity
  8
Capa 1
 62
   178
370
     9
  0
POLYLINE
  5
105
330
1F
100
AcDbEntity
  8
Capa 1
 62
   178
370
     9
100
AcDb2dPolyline
 66
     1
 10
0.0
 20
0.0
 30
0.0
  0
VERTEX
  5
106
330
105
100
AcDbEntity
  8
Capa 1
 62
   178
370
     9
100
AcDbVertex
100
AcDb2dVertex
 10
5.234276177780111
 20
-36.36585976837964
 30
0.0
  0
VERTEX
  5
107
330
105
100
AcDbEntity
  8
Capa 1
 62
   178
370
     9
100
AcDbVertex
100
AcDb2dVertex
 10
6.216154878289633
 20
-37.23591140746237
 30
0.0
  0
SEQEND
  5
108
330
105
100
AcDbEntity
  8
Capa 1
 62
   178
370
     9
  0
POLYLINE
  5
109
330
1F
100
AcDbEntity
  8
Capa 1
 62
   178
370
     9
100
AcDb2dPolyline
 66
     1
 10
0.0
 20
0.0
 30
0.0
  0
VERTEX
  5
10A
330
109
100
AcDbEntity
  8
Capa 1
 62
   178
370
     9
100
AcDbVertex
100
AcDb2dVertex
 10
6.216154878289633
 20
-37.23591140746237
 30
0.0
  0
VERTEX
  5
10B
330
109
100
AcDbEntity
  8
Capa 1
 62
   178
370
     9
100
AcDbVertex
100
AcDb2dVertex
 10
6.22773014936763
 20
-37.2352124456698
 30
0.0
  0
SEQEND
  5
10C
330
109
100
AcDbEntity
  8
Capa 1
 62
   178
370
     9
  0
POLYLINE
  5
10D
330
1F
100
AcDbEntity
  8
Capa 1
 62
   178
370
     9
100
AcDb2dPolyline
 66
     1
 10
0.0
 20
0.0
 30
0.0
  0
VERTEX
  5
10E
330
10D
100
AcDbEntity
  8
Capa 1
 62
   178
370
     9
100
AcDbVertex
100
AcDb2dVertex
 10
5.234276177780111
 20
-36.36585976837964
 30
0.0
  0
VERTEX
  5
10F
330
10D
100
AcDbEntity
  8
Capa 1
 62
   178
370
     9
100
AcDbVertex
100
AcDb2dVertex
 10
5.898501203434272
 20
-37.49672161520914
 30
0.0
  0
SEQEND
  5
110
330
10D
100
AcDbEntity
  8
Capa 1
 62
   178
370
     9
  0
POLYLINE
  5
111
330
1F
100
AcDbEntity
  8
Capa 1
 62
   178
370
     9
100
AcDb2dPolyline
 66
     1
 10
0.0
 20
0.0
 30
0.0
  0
VERTEX
  5
112
330
111
100
AcDbEntity
  8
Capa 1
 62
   178
370
     9
100
AcDbVertex
100
AcDb2dVertex
 10
5.898501203434272
 20
-37.49672161520914
 30
0.0
  0
VERTEX
  5
113
330
111
100
AcDbEntity
  8
Capa 1
 62
   178
370
     9
100
AcDbVertex
100
AcDb2dVertex
 10
5.910076474512172
 20
-37.49602265341647
 30
0.0
  0
SEQEND
  5
114
330
111
100
AcDbEntity
  8
Capa 1
 62
   178
370
     9
  0
POLYLINE
  5
115
330
1F
100
AcDbEntity
  8
Capa 1
 62
   178
370
     9
100
AcDb2dPolyline
 66
     1
 10
0.0
 20
0.0
 30
0.0
  0
VERTEX
  5
116
330
115
100
AcDbEntity
  8
Capa 1
 62
   178
370
     9
100
AcDbVertex
100
AcDb2dVertex
 10
7.204909345147629
 20
-37.62345268891713
 30
0.0
  0
VERTEX
  5
117
330
115
100
AcDbEntity
  8
Capa 1
 62
   178
370
     9
100
AcDbVertex
100
AcDb2dVertex
 10
7.216484616225818
 20
-37.62275372712446
 30
0.0
  0
SEQEND
  5
118
330
115
100
AcDbEntity
  8
Capa 1
 62
   178
370
     9
  0
POLYLINE
  5
119
330
1F
100
AcDbEntity
  8
Capa 1
 62
   178
370
     9
100
AcDb2dPolyline
 66
     1
 10
0.0
 20
0.0
 30
0.0
  0
VERTEX
  5
11A
330
119
100
AcDbEntity
  8
Capa 1
 62
   178
370
     9
100
AcDbVertex
100
AcDb2dVertex
 10
5.898501203434272
 20
-37.49672161520914
 30
0.0
  0
VERTEX
  5
11B
330
119
100
AcDbEntity
  8
Capa 1
 62
   178
370
     9
100
AcDbVertex
100
AcDb2dVertex
 10
5.028449564351509
 20
-38.47860031571869
 30
0.0
  0
SEQEND
  5
11C
330
119
100
AcDbEntity
  8
Capa 1
 62
   178
370
     9
  0
POLYLINE
  5
11D
330
1F
100
AcDbEntity
  8
Capa 1
 62
   178
370
     9
100
AcDb2dPolyline
 66
     1
 10
0.0
 20
0.0
 30
0.0
  0
VERTEX
  5
11E
330
11D
100
AcDbEntity
  8
Capa 1
 62
   178
370
     9
100
AcDbVertex
100
AcDb2dVertex
 10
5.028449564351509
 20
-38.47860031571869
 30
0.0
  0
VERTEX
  5
11F
330
11D
100
AcDbEntity
  8
Capa 1
 62
   178
370
     9
100
AcDbVertex
100
AcDb2dVertex
 10
5.040024835429378
 20
-38.47790135392603
 30
0.0
  0
SEQEND
  5
120
330
11D
100
AcDbEntity
  8
Capa 1
 62
   178
370
     9
  0
POLYLINE
  5
121
330
1F
100
AcDbEntity
  8
Capa 1
 62
   178
370
     9
100
AcDb2dPolyline
 66
     1
 10
0.0
 20
0.0
 30
0.0
  0
VERTEX
  5
122
330
121
100
AcDbEntity
  8
Capa 1
 62
   178
370
     9
100
AcDbVertex
100
AcDb2dVertex
 10
4.568892565335271
 20
-35.23506788171729
 30
0.0
  0
VERTEX
  5
123
330
121
100
AcDbEntity
  8
Capa 1
 62
   178
370
     9
100
AcDbVertex
100
AcDb2dVertex
 10
5.77153333043239
 20
-35.75954937116943
 30
0.0
  0
SEQEND
  5
124
330
121
100
AcDbEntity
  8
Capa 1
 62
   178
370
     9
  0
POLYLINE
  5
125
330
1F
100
AcDbEntity
  8
Capa 1
 62
   178
370
     9
100
AcDb2dPolyline
 66
     1
 10
0.0
 20
0.0
 30
0.0
  0
VERTEX
  5
126
330
125
100
AcDbEntity
  8
Capa 1
 62
   178
370
     9
100
AcDbVertex
100
AcDb2dVertex
 10
5.77153333043239
 20
-35.75954937116943
 30
0.0
  0
VERTEX
  5
127
330
125
100
AcDbEntity
  8
Capa 1
 62
   178
370
     9
100
AcDbVertex
100
AcDb2dVertex
 10
5.783108601510291
 20
-35.75885040937679
 30
0.0
  0
SEQEND
  5
128
330
125
100
AcDbEntity
  8
Capa 1
 62
   178
370
     9
  0
POLYLINE
  5
129
330
1F
100
AcDbEntity
  8
Capa 1
 62
   178
370
     9
100
AcDb2dPolyline
 66
     1
 10
0.0
 20
0.0
 30
0.0
  0
VERTEX
  5
12A
330
129
100
AcDbEntity
  8
Capa 1
 62
   178
370
     9
100
AcDbVertex
100
AcDb2dVertex
 10
5.77153333043239
 20
-35.75954937116943
 30
0.0
  0
VERTEX
  5
12B
330
129
100
AcDbEntity
  8
Capa 1
 62
   178
370
     9
100
AcDbVertex
100
AcDb2dVertex
 10
7.07732553917531
 20
-35.88573800435052
 30
0.0
  0
SEQEND
  5
12C
330
129
100
AcDbEntity
  8
Capa 1
 62
   178
370
     9
  0
POLYLINE
  5
12D
330
1F
100
AcDbEntity
  8
Capa 1
 62
   178
370
     9
100
AcDb2dPolyline
 66
     1
 10
0.0
 20
0.0
 30
0.0
  0
VERTEX
  5
12E
330
12D
100
AcDbEntity
  8
Capa 1
 62
   178
370
     9
100
AcDbVertex
100
AcDb2dVertex
 10
7.07732553917531
 20
-35.88573800435052
 30
0.0
  0
VERTEX
  5
12F
330
12D
100
AcDbEntity
  8
Capa 1
 62
   178
370
     9
100
AcDbVertex
100
AcDb2dVertex
 10
7.088902469744904
 20
-35.88503716977278
 30
0.0
  0
SEQEND
  5
130
330
12D
100
AcDbEntity
  8
Capa 1
 62
   178
370
     9
  0
POLYLINE
  5
131
330
1F
100
AcDbEntity
  8
Capa 1
 62
   178
370
     9
100
AcDb2dPolyline
 66
     1
 10
0.0
 20
0.0
 30
0.0
  0
VERTEX
  5
132
330
131
100
AcDbEntity
  8
Capa 1
 62
   178
370
     9
100
AcDbVertex
100
AcDb2dVertex
 10
5.77153333043239
 20
-35.75954937116943
 30
0.0
  0
VERTEX
  5
133
330
131
100
AcDbEntity
  8
Capa 1
 62
   178
370
     9
100
AcDbVertex
100
AcDb2dVertex
 10
6.974104135362635
 20
-36.28287227383049
 30
0.0
  0
SEQEND
  5
134
330
131
100
AcDbEntity
  8
Capa 1
 62
   178
370
     9
  0
POLYLINE
  5
135
330
1F
100
AcDbEntity
  8
Capa 1
 62
   178
370
     9
100
AcDb2dPolyline
 66
     1
 10
0.0
 20
0.0
 30
0.0
  0
VERTEX
  5
136
330
135
100
AcDbEntity
  8
Capa 1
 62
   178
370
     9
100
AcDbVertex
100
AcDb2dVertex
 10
6.974104135362635
 20
-36.28287227383049
 30
0.0
  0
VERTEX
  5
137
330
135
100
AcDbEntity
  8
Capa 1
 62
   178
370
     9
100
AcDbVertex
100
AcDb2dVertex
 10
6.985677746948554
 20
-36.282175184823
 30
0.0
  0
SEQEND
  5
138
330
135
100
AcDbEntity
  8
Capa 1
 62
   178
370
     9
  0
POLYLINE
  5
139
330
1F
100
AcDbEntity
  8
Capa 1
 62
   178
370
     9
100
AcDb2dPolyline
 66
     1
 10
0.0
 20
0.0
 30
0.0
  0
VERTEX
  5
13A
330
139
100
AcDbEntity
  8
Capa 1
 62
   178
370
     9
100
AcDbVertex
100
AcDb2dVertex
 10
6.974104135362635
 20
-36.28287227383049
 30
0.0
  0
VERTEX
  5
13B
330
139
100
AcDbEntity
  8
Capa 1
 62
   178
370
     9
100
AcDbVertex
100
AcDb2dVertex
 10
8.105508636011963
 20
-35.61803484748251
 30
0.0
  0
SEQEND
  5
13C
330
139
100
AcDbEntity
  8
Capa 1
 62
   178
370
     9
  0
POLYLINE
  5
13D
330
1F
100
AcDbEntity
  8
Capa 1
 62
   178
370
     9
100
AcDb2dPolyline
 66
     1
 10
0.0
 20
0.0
 30
0.0
  0
VERTEX
  5
13E
330
13D
100
AcDbEntity
  8
Capa 1
 62
   178
370
     9
100
AcDbVertex
100
AcDb2dVertex
 10
8.105508636011963
 20
-35.61803484748251
 30
0.0
  0
VERTEX
  5
13F
330
13D
100
AcDbEntity
  8
Capa 1
 62
   178
370
     9
100
AcDbVertex
100
AcDb2dVertex
 10
8.117085566581816
 20
-35.61733401290466
 30
0.0
  0
SEQEND
  5
140
330
13D
100
AcDbEntity
  8
Capa 1
 62
   178
370
     9
  0
POLYLINE
  5
141
330
1F
100
AcDbEntity
  8
Capa 1
 62
   178
370
     9
100
AcDb2dPolyline
 66
     1
 10
0.0
 20
0.0
 30
0.0
  0
VERTEX
  5
142
330
141
100
AcDbEntity
  8
Capa 1
 62
   178
370
     9
100
AcDbVertex
100
AcDb2dVertex
 10
6.974104135362635
 20
-36.28287227383049
 30
0.0
  0
VERTEX
  5
143
330
141
100
AcDbEntity
  8
Capa 1
 62
   178
370
     9
100
AcDbVertex
100
AcDb2dVertex
 10
8.176744900459882
 20
-36.80735376328256
 30
0.0
  0
SEQEND
  5
144
330
141
100
AcDbEntity
  8
Capa 1
 62
   178
370
     9
  0
POLYLINE
  5
145
330
1F
100
AcDbEntity
  8
Capa 1
 62
   178
370
     9
100
AcDb2dPolyline
 66
     1
 10
0.0
 20
0.0
 30
0.0
  0
VERTEX
  5
146
330
145
100
AcDbEntity
  8
Capa 1
 62
   178
370
     9
100
AcDbVertex
100
AcDb2dVertex
 10
8.176744900459882
 20
-36.80735376328256
 30
0.0
  0
VERTEX
  5
147
330
145
100
AcDbEntity
  8
Capa 1
 62
   178
370
     9
100
AcDbVertex
100
AcDb2dVertex
 10
8.18831851204596
 20
-36.80665667427487
 30
0.0
  0
SEQEND
  5
148
330
145
100
AcDbEntity
  8
Capa 1
 62
   178
370
     9
  0
POLYLINE
  5
149
330
1F
100
AcDbEntity
  8
Capa 1
 62
   178
370
     9
100
AcDb2dPolyline
 66
     1
 10
0.0
 20
0.0
 30
0.0
  0
VERTEX
  5
14A
330
149
100
AcDbEntity
  8
Capa 1
 62
   178
370
     9
100
AcDbVertex
100
AcDb2dVertex
 10
8.176744900459882
 20
-36.80735376328256
 30
0.0
  0
VERTEX
  5
14B
330
149
100
AcDbEntity
  8
Capa 1
 62
   178
370
     9
100
AcDbVertex
100
AcDb2dVertex
 10
9.158623600969468
 20
-37.67740540236539
 30
0.0
  0
SEQEND
  5
14C
330
149
100
AcDbEntity
  8
Capa 1
 62
   178
370
     9
  0
POLYLINE
  5
14D
330
1F
100
AcDbEntity
  8
Capa 1
 62
   178
370
     9
100
AcDb2dPolyline
 66
     1
 10
0.0
 20
0.0
 30
0.0
  0
VERTEX
  5
14E
330
14D
100
AcDbEntity
  8
Capa 1
 62
   178
370
     9
100
AcDbVertex
100
AcDb2dVertex
 10
9.158623600969468
 20
-37.67740540236539
 30
0.0
  0
VERTEX
  5
14F
330
14D
100
AcDbEntity
  8
Capa 1
 62
   178
370
     9
100
AcDbVertex
100
AcDb2dVertex
 10
9.170197212555482
 20
-37.6767083133576
 30
0.0
  0
SEQEND
  5
150
330
14D
100
AcDbEntity
  8
Capa 1
 62
   178
370
     9
  0
POLYLINE
  5
151
330
1F
100
AcDbEntity
  8
Capa 1
 62
   178
370
     9
100
AcDb2dPolyline
 66
     1
 10
0.0
 20
0.0
 30
0.0
  0
VERTEX
  5
152
330
151
100
AcDbEntity
  8
Capa 1
 62
   178
370
     9
100
AcDbVertex
100
AcDb2dVertex
 10
8.176744900459882
 20
-36.80735376328256
 30
0.0
  0
VERTEX
  5
153
330
151
100
AcDbEntity
  8
Capa 1
 62
   178
370
     9
100
AcDbVertex
100
AcDb2dVertex
 10
9.483151382681482
 20
-36.93408670977569
 30
0.0
  0
SEQEND
  5
154
330
151
100
AcDbEntity
  8
Capa 1
 62
   178
370
     9
  0
POLYLINE
  5
155
330
1F
100
AcDbEntity
  8
Capa 1
 62
   178
370
     9
100
AcDb2dPolyline
 66
     1
 10
0.0
 20
0.0
 30
0.0
  0
VERTEX
  5
156
330
155
100
AcDbEntity
  8
Capa 1
 62
   178
370
     9
100
AcDbVertex
100
AcDb2dVertex
 10
9.483151382681482
 20
-36.93408670977569
 30
0.0
  0
VERTEX
  5
157
330
155
100
AcDbEntity
  8
Capa 1
 62
   178
370
     9
100
AcDbVertex
100
AcDb2dVertex
 10
9.494728313251173
 20
-36.93338587519779
 30
0.0
  0
SEQEND
  5
158
330
155
100
AcDbEntity
  8
Capa 1
 62
   178
370
     9
  0
POLYLINE
  5
159
330
1F
100
AcDbEntity
  8
Capa 1
 62
   178
370
     9
100
AcDb2dPolyline
 66
     1
 10
0.0
 20
0.0
 30
0.0
  0
VERTEX
  5
15A
330
159
100
AcDbEntity
  8
Capa 1
 62
   178
370
     9
100
AcDbVertex
100
AcDb2dVertex
 10
9.483151382681482
 20
-36.93408670977569
 30
0.0
  0
VERTEX
  5
15B
330
159
100
AcDbEntity
  8
Capa 1
 62
   178
370
     9
100
AcDbVertex
100
AcDb2dVertex
 10
10.76365914054147
 20
-36.65114716697854
 30
0.0
  0
SEQEND
  5
15C
330
159
100
AcDbEntity
  8
Capa 1
 62
   178
370
     9
  0
POLYLINE
  5
15D
330
1F
100
AcDbEntity
  8
Capa 1
 62
   178
370
     9
100
AcDb2dPolyline
 66
     1
 10
0.0
 20
0.0
 30
0.0
  0
VERTEX
  5
15E
330
15D
100
AcDbEntity
  8
Capa 1
 62
   178
370
     9
100
AcDbVertex
100
AcDb2dVertex
 10
10.76365914054147
 20
-36.65114716697854
 30
0.0
  0
VERTEX
  5
15F
330
15D
100
AcDbEntity
  8
Capa 1
 62
   178
370
     9
100
AcDbVertex
100
AcDb2dVertex
 10
10.77523607111103
 20
-36.65044633240076
 30
0.0
  0
SEQEND
  5
160
330
15D
100
AcDbEntity
  8
Capa 1
 62
   178
370
     9
  0
POLYLINE
  5
161
330
1F
100
AcDbEntity
  8
Capa 1
 62
   178
370
     9
100
AcDb2dPolyline
 66
     1
 10
0.0
 20
0.0
 30
0.0
  0
VERTEX
  5
162
330
161
100
AcDbEntity
  8
Capa 1
 62
   178
370
     9
100
AcDbVertex
100
AcDb2dVertex
 10
9.483151382681482
 20
-36.93408670977569
 30
0.0
  0
VERTEX
  5
163
330
161
100
AcDbEntity
  8
Capa 1
 62
   178
370
     9
100
AcDbVertex
100
AcDb2dVertex
 10
10.78840259709595
 20
-37.06088587086583
 30
0.0
  0
SEQEND
  5
164
330
161
100
AcDbEntity
  8
Capa 1
 62
   178
370
     9
  0
POLYLINE
  5
165
330
1F
100
AcDbEntity
  8
Capa 1
 62
   178
370
     9
100
AcDb2dPolyline
 66
     1
 10
0.0
 20
0.0
 30
0.0
  0
VERTEX
  5
166
330
165
100
AcDbEntity
  8
Capa 1
 62
   178
370
     9
100
AcDbVertex
100
AcDb2dVertex
 10
10.78840259709595
 20
-37.06088587086583
 30
0.0
  0
VERTEX
  5
167
330
165
100
AcDbEntity
  8
Capa 1
 62
   178
370
     9
100
AcDbVertex
100
AcDb2dVertex
 10
10.79997620868193
 20
-37.06018878185805
 30
0.0
  0
SEQEND
  5
168
330
165
100
AcDbEntity
  8
Capa 1
 62
   178
370
     9
  0
POLYLINE
  5
169
330
1F
100
AcDbEntity
  8
Capa 1
 62
   178
370
     9
100
AcDb2dPolyline
 66
     1
 10
0.0
 20
0.0
 30
0.0
  0
VERTEX
  5
16A
330
169
100
AcDbEntity
  8
Capa 1
 62
   178
370
     9
100
AcDbVertex
100
AcDb2dVertex
 10
10.78840259709595
 20
-37.06088587086583
 30
0.0
  0
VERTEX
  5
16B
330
169
100
AcDbEntity
  8
Capa 1
 62
   178
370
     9
100
AcDbVertex
100
AcDb2dVertex
 10
11.65845423617881
 20
-36.07900717035615
 30
0.0
  0
SEQEND
  5
16C
330
169
100
AcDbEntity
  8
Capa 1
 62
   178
370
     9
  0
POLYLINE
  5
16D
330
1F
100
AcDbEntity
  8
Capa 1
 62
   178
370
     9
100
AcDb2dPolyline
 66
     1
 10
0.0
 20
0.0
 30
0.0
  0
VERTEX
  5
16E
330
16D
100
AcDbEntity
  8
Capa 1
 62
   178
370
     9
100
AcDbVertex
100
AcDb2dVertex
 10
11.65845423617881
 20
-36.07900717035615
 30
0.0
  0
VERTEX
  5
16F
330
16D
100
AcDbEntity
  8
Capa 1
 62
   178
370
     9
100
AcDbVertex
100
AcDb2dVertex
 10
11.67002784776485
 20
-36.07831008134836
 30
0.0
  0
SEQEND
  5
170
330
16D
100
AcDbEntity
  8
Capa 1
 62
   178
370
     9
  0
POLYLINE
  5
171
330
1F
100
AcDbEntity
  8
Capa 1
 62
   178
370
     9
100
AcDb2dPolyline
 66
     1
 10
0.0
 20
0.0
 30
0.0
  0
VERTEX
  5
172
330
171
100
AcDbEntity
  8
Capa 1
 62
   178
370
     9
100
AcDbVertex
100
AcDb2dVertex
 10
8.176744900459882
 20
-36.80735376328256
 30
0.0
  0
VERTEX
  5
173
330
171
100
AcDbEntity
  8
Capa 1
 62
   178
370
     9
100
AcDbVertex
100
AcDb2dVertex
 10
9.379929978868839
 20
-37.33122097925563
 30
0.0
  0
SEQEND
  5
174
330
171
100
AcDbEntity
  8
Capa 1
 62
   178
370
     9
  0
POLYLINE
  5
175
330
1F
100
AcDbEntity
  8
Capa 1
 62
   178
370
     9
100
AcDb2dPolyline
 66
     1
 10
0.0
 20
0.0
 30
0.0
  0
VERTEX
  5
176
330
175
100
AcDbEntity
  8
Capa 1
 62
   178
370
     9
100
AcDbVertex
100
AcDb2dVertex
 10
9.379929978868839
 20
-37.33122097925563
 30
0.0
  0
VERTEX
  5
177
330
175
100
AcDbEntity
  8
Capa 1
 62
   178
370
     9
100
AcDbVertex
100
AcDb2dVertex
 10
9.391503590454821
 20
-37.3305238902481
 30
0.0
  0
SEQEND
  5
178
330
175
100
AcDbEntity
  8
Capa 1
 62
   178
370
     9
  0
POLYLINE
  5
179
330
1F
100
AcDbEntity
  8
Capa 1
 62
   178
370
     9
100
AcDb2dPolyline
 66
     1
 10
0.0
 20
0.0
 30
0.0
  0
VERTEX
  5
17A
330
179
100
AcDbEntity
  8
Capa 1
 62
   178
370
     9
100
AcDbVertex
100
AcDb2dVertex
 10
9.379929978868839
 20
-37.33122097925563
 30
0.0
  0
VERTEX
  5
17B
330
179
100
AcDbEntity
  8
Capa 1
 62
   178
370
     9
100
AcDbVertex
100
AcDb2dVertex
 10
10.68517787429976
 20
-37.45802388591576
 30
0.0
  0
SEQEND
  5
17C
330
179
100
AcDbEntity
  8
Capa 1
 62
   178
370
     9
  0
POLYLINE
  5
17D
330
1F
100
AcDbEntity
  8
Capa 1
 62
   178
370
     9
100
AcDb2dPolyline
 66
     1
 10
0.0
 20
0.0
 30
0.0
  0
VERTEX
  5
17E
330
17D
100
AcDbEntity
  8
Capa 1
 62
   178
370
     9
100
AcDbVertex
100
AcDb2dVertex
 10
10.68517787429976
 20
-37.45802388591576
 30
0.0
  0
VERTEX
  5
17F
330
17D
100
AcDbEntity
  8
Capa 1
 62
   178
370
     9
100
AcDbVertex
100
AcDb2dVertex
 10
10.69675480486945
 20
-37.45732305133811
 30
0.0
  0
SEQEND
  5
180
330
17D
100
AcDbEntity
  8
Capa 1
 62
   178
370
     9
  0
POLYLINE
  5
181
330
1F
100
AcDbEntity
  8
Capa 1
 62
   178
370
     9
100
AcDb2dPolyline
 66
     1
 10
0.0
 20
0.0
 30
0.0
  0
VERTEX
  5
182
330
181
100
AcDbEntity
  8
Capa 1
 62
   178
370
     9
100
AcDbVertex
100
AcDb2dVertex
 10
9.379929978868839
 20
-37.33122097925563
 30
0.0
  0
VERTEX
  5
183
330
181
100
AcDbEntity
  8
Capa 1
 62
   178
370
     9
100
AcDbVertex
100
AcDb2dVertex
 10
10.58195315150344
 20
-37.85516190096594
 30
0.0
  0
SEQEND
  5
184
330
181
100
AcDbEntity
  8
Capa 1
 62
   178
370
     9
  0
POLYLINE
  5
185
330
1F
100
AcDbEntity
  8
Capa 1
 62
   178
370
     9
100
AcDb2dPolyline
 66
     1
 10
0.0
 20
0.0
 30
0.0
  0
VERTEX
  5
186
330
185
100
AcDbEntity
  8
Capa 1
 62
   178
370
     9
100
AcDbVertex
100
AcDb2dVertex
 10
10.58195315150344
 20
-37.85516190096594
 30
0.0
  0
VERTEX
  5
187
330
185
100
AcDbEntity
  8
Capa 1
 62
   178
370
     9
100
AcDbVertex
100
AcDb2dVertex
 10
10.59353008207313
 20
-37.85446106638826
 30
0.0
  0
SEQEND
  5
188
330
185
100
AcDbEntity
  8
Capa 1
 62
   178
370
     9
  0
POLYLINE
  5
189
330
1F
100
AcDbEntity
  8
Capa 1
 62
   178
370
     9
100
AcDb2dPolyline
 66
     1
 10
0.0
 20
0.0
 30
0.0
  0
VERTEX
  5
18A
330
189
100
AcDbEntity
  8
Capa 1
 62
   178
370
     9
100
AcDbVertex
100
AcDb2dVertex
 10
10.58195315150344
 20
-37.85516190096594
 30
0.0
  0
VERTEX
  5
18B
330
189
100
AcDbEntity
  8
Capa 1
 62
   178
370
     9
100
AcDbVertex
100
AcDb2dVertex
 10
11.71336097113667
 20
-37.19032072904786
 30
0.0
  0
SEQEND
  5
18C
330
189
100
AcDbEntity
  8
Capa 1
 62
   178
370
     9
  0
POLYLINE
  5
18D
330
1F
100
AcDbEntity
  8
Capa 1
 62
   178
370
     9
100
AcDb2dPolyline
 66
     1
 10
0.0
 20
0.0
 30
0.0
  0
VERTEX
  5
18E
330
18D
100
AcDbEntity
  8
Capa 1
 62
   178
370
     9
100
AcDbVertex
100
AcDb2dVertex
 10
11.71336097113667
 20
-37.19032072904786
 30
0.0
  0
VERTEX
  5
18F
330
18D
100
AcDbEntity
  8
Capa 1
 62
   178
370
     9
100
AcDbVertex
100
AcDb2dVertex
 10
11.72493458272269
 20
-37.18962364004011
 30
0.0
  0
SEQEND
  5
190
330
18D
100
AcDbEntity
  8
Capa 1
 62
   178
370
     9
  0
POLYLINE
  5
191
330
1F
100
AcDbEntity
  8
Capa 1
 62
   178
370
     9
100
AcDb2dPolyline
 66
     1
 10
0.0
 20
0.0
 30
0.0
  0
VERTEX
  5
192
330
191
100
AcDbEntity
  8
Capa 1
 62
   178
370
     9
100
AcDbVertex
100
AcDb2dVertex
 10
10.58195315150344
 20
-37.85516190096594
 30
0.0
  0
VERTEX
  5
193
330
191
100
AcDbEntity
  8
Capa 1
 62
   178
370
     9
100
AcDbVertex
100
AcDb2dVertex
 10
10.45576805059924
 20
-39.16095389641526
 30
0.0
  0
SEQEND
  5
194
330
191
100
AcDbEntity
  8
Capa 1
 62
   178
370
     9
  0
POLYLINE
  5
195
330
1F
100
AcDbEntity
  8
Capa 1
 62
   178
370
     9
100
AcDb2dPolyline
 66
     1
 10
0.0
 20
0.0
 30
0.0
  0
VERTEX
  5
196
330
195
100
AcDbEntity
  8
Capa 1
 62
   178
370
     9
100
AcDbVertex
100
AcDb2dVertex
 10
10.45576805059924
 20
-39.16095389641526
 30
0.0
  0
VERTEX
  5
197
330
195
100
AcDbEntity
  8
Capa 1
 62
   178
370
     9
100
AcDbVertex
100
AcDb2dVertex
 10
10.46734332167714
 20
-39.16025493462269
 30
0.0
  0
SEQEND
  5
198
330
195
100
AcDbEntity
  8
Capa 1
 62
   178
370
     9
  0
POLYLINE
  5
199
330
1F
100
AcDbEntity
  8
Capa 1
 62
   178
370
     9
100
AcDb2dPolyline
 66
     1
 10
0.0
 20
0.0
 30
0.0
  0
VERTEX
  5
19A
330
199
100
AcDbEntity
  8
Capa 1
 62
   178
370
     9
100
AcDbVertex
100
AcDb2dVertex
 10
10.58195315150344
 20
-37.85516190096594
 30
0.0
  0
VERTEX
  5
19B
330
199
100
AcDbEntity
  8
Capa 1
 62
   178
370
     9
100
AcDbVertex
100
AcDb2dVertex
 10
11.78513822991282
 20
-38.37902911693885
 30
0.0
  0
SEQEND
  5
19C
330
199
100
AcDbEntity
  8
Capa 1
 62
   178
370
     9
  0
POLYLINE
  5
19D
330
1F
100
AcDbEntity
  8
Capa 1
 62
   178
370
     9
100
AcDb2dPolyline
 66
     1
 10
0.0
 20
0.0
 30
0.0
  0
VERTEX
  5
19E
330
19D
100
AcDbEntity
  8
Capa 1
 62
   178
370
     9
100
AcDbVertex
100
AcDb2dVertex
 10
11.78513822991282
 20
-38.37902911693885
 30
0.0
  0
VERTEX
  5
19F
330
19D
100
AcDbEntity
  8
Capa 1
 62
   178
370
     9
100
AcDbVertex
100
AcDb2dVertex
 10
11.79671516048222
 20
-38.37832828236133
 30
0.0
  0
SEQEND
  5
1A0
330
19D
100
AcDbEntity
  8
Capa 1
 62
   178
370
     9
  0
POLYLINE
  5
1A1
330
1F
100
AcDbEntity
  8
Capa 1
 62
   178
370
     9
100
AcDb2dPolyline
 66
     1
 10
0.0
 20
0.0
 30
0.0
  0
VERTEX
  5
1A2
330
1A1
100
AcDbEntity
  8
Capa 1
 62
   178
370
     9
100
AcDbVertex
100
AcDb2dVertex
 10
11.78513822991282
 20
-38.37902911693885
 30
0.0
  0
VERTEX
  5
1A3
330
1A1
100
AcDbEntity
  8
Capa 1
 62
   178
370
     9
100
AcDbVertex
100
AcDb2dVertex
 10
12.76701693042214
 20
-39.24908075602145
 30
0.0
  0
SEQEND
  5
1A4
330
1A1
100
AcDbEntity
  8
Capa 1
 62
   178
370
     9
  0
POLYLINE
  5
1A5
330
1F
100
AcDbEntity
  8
Capa 1
 62
   178
370
     9
100
AcDb2dPolyline
 66
     1
 10
0.0
 20
0.0
 30
0.0
  0
VERTEX
  5
1A6
330
1A5
100
AcDbEntity
  8
Capa 1
 62
   178
370
     9
100
AcDbVertex
100
AcDb2dVertex
 10
12.76701693042214
 20
-39.24908075602145
 30
0.0
  0
VERTEX
  5
1A7
330
1A5
100
AcDbEntity
  8
Capa 1
 62
   178
370
     9
100
AcDbVertex
100
AcDb2dVertex
 10
12.77859386099177
 20
-39.24837992144415
 30
0.0
  0
SEQEND
  5
1A8
330
1A5
100
AcDbEntity
  8
Capa 1
 62
   178
370
     9
  0
POLYLINE
  5
1A9
330
1F
100
AcDbEntity
  8
Capa 1
 62
   178
370
     9
100
AcDb2dPolyline
 66
     1
 10
0.0
 20
0.0
 30
0.0
  0
VERTEX
  5
1AA
330
1A9
100
AcDbEntity
  8
Capa 1
 62
   178
370
     9
100
AcDbVertex
100
AcDb2dVertex
 10
11.78513822991282
 20
-38.37902911693885
 30
0.0
  0
VERTEX
  5
1AB
330
1A9
100
AcDbEntity
  8
Capa 1
 62
   178
370
     9
100
AcDbVertex
100
AcDb2dVertex
 10
12.91600173623389
 20
-37.71480221849974
 30
0.0
  0
SEQEND
  5
1AC
330
1A9
100
AcDbEntity
  8
Capa 1
 62
   178
370
     9
  0
POLYLINE
  5
1AD
330
1F
100
AcDbEntity
  8
Capa 1
 62
   178
370
     9
100
AcDb2dPolyline
 66
     1
 10
0.0
 20
0.0
 30
0.0
  0
VERTEX
  5
1AE
330
1AD
100
AcDbEntity
  8
Capa 1
 62
   178
370
     9
100
AcDbVertex
100
AcDb2dVertex
 10
12.91600173623389
 20
-37.71480221849974
 30
0.0
  0
VERTEX
  5
1AF
330
1AD
100
AcDbEntity
  8
Capa 1
 62
   178
370
     9
100
AcDbVertex
100
AcDb2dVertex
 10
12.92757534781993
 20
-37.71410512949224
 30
0.0
  0
SEQEND
  5
1B0
330
1AD
100
AcDbEntity
  8
Capa 1
 62
   178
370
     9
  0
POLYLINE
  5
1B1
330
1F
100
AcDbEntity
  8
Capa 1
 62
   178
370
     9
100
AcDb2dPolyline
 66
     1
 10
0.0
 20
0.0
 30
0.0
  0
VERTEX
  5
1B2
330
1B1
100
AcDbEntity
  8
Capa 1
 62
   178
370
     9
100
AcDbVertex
100
AcDb2dVertex
 10
12.91600173623389
 20
-37.71480221849974
 30
0.0
  0
VERTEX
  5
1B3
330
1B1
100
AcDbEntity
  8
Capa 1
 62
   178
370
     9
100
AcDbVertex
100
AcDb2dVertex
 10
13.78605337531665
 20
-36.73292351799022
 30
0.0
  0
SEQEND
  5
1B4
330
1B1
100
AcDbEntity
  8
Capa 1
 62
   178
370
     9
  0
POLYLINE
  5
1B5
330
1F
100
AcDbEntity
  8
Capa 1
 62
   178
370
     9
100
AcDb2dPolyline
 66
     1
 10
0.0
 20
0.0
 30
0.0
  0
VERTEX
  5
1B6
330
1B5
100
AcDbEntity
  8
Capa 1
 62
   178
370
     9
100
AcDbVertex
100
AcDb2dVertex
 10
13.78605337531665
 20
-36.73292351799022
 30
0.0
  0
VERTEX
  5
1B7
330
1B5
100
AcDbEntity
  8
Capa 1
 62
   178
370
     9
100
AcDbVertex
100
AcDb2dVertex
 10
13.79762698690266
 20
-36.73222642898278
 30
0.0
  0
SEQEND
  5
1B8
330
1B5
100
AcDbEntity
  8
Capa 1
 62
   178
370
     9
  0
POLYLINE
  5
1B9
330
1F
100
AcDbEntity
  8
Capa 1
 62
   178
370
     9
100
AcDb2dPolyline
 66
     1
 10
0.0
 20
0.0
 30
0.0
  0
VERTEX
  5
1BA
330
1B9
100
AcDbEntity
  8
Capa 1
 62
   178
370
     9
100
AcDbVertex
100
AcDb2dVertex
 10
12.91600173623389
 20
-37.71480221849974
 30
0.0
  0
VERTEX
  5
1BB
330
1B9
100
AcDbEntity
  8
Capa 1
 62
   178
370
     9
100
AcDbVertex
100
AcDb2dVertex
 10
14.0467919634045
 20
-37.04942047883979
 30
0.0
  0
SEQEND
  5
1BC
330
1B9
100
AcDbEntity
  8
Capa 1
 62
   178
370
     9
  0
POLYLINE
  5
1BD
330
1F
100
AcDbEntity
  8
Capa 1
 62
   178
370
     9
100
AcDb2dPolyline
 66
     1
 10
0.0
 20
0.0
 30
0.0
  0
VERTEX
  5
1BE
330
1BD
100
AcDbEntity
  8
Capa 1
 62
   178
370
     9
100
AcDbVertex
100
AcDb2dVertex
 10
14.0467919634045
 20
-37.04942047883979
 30
0.0
  0
VERTEX
  5
1BF
330
1BD
100
AcDbEntity
  8
Capa 1
 62
   178
370
     9
100
AcDbVertex
100
AcDb2dVertex
 10
14.05836889397397
 20
-37.04871964426233
 30
0.0
  0
SEQEND
  5
1C0
330
1BD
100
AcDbEntity
  8
Capa 1
 62
   178
370
     9
  0
POLYLINE
  5
1C1
330
1F
100
AcDbEntity
  8
Capa 1
 62
   178
370
     9
100
AcDb2dPolyline
 66
     1
 10
0.0
 20
0.0
 30
0.0
  0
VERTEX
  5
1C2
330
1C1
100
AcDbEntity
  8
Capa 1
 62
   178
370
     9
100
AcDbVertex
100
AcDb2dVertex
 10
14.0467919634045
 20
-37.04942047883979
 30
0.0
  0
VERTEX
  5
1C3
330
1C1
100
AcDbEntity
  8
Capa 1
 62
   178
370
     9
100
AcDbVertex
100
AcDb2dVertex
 10
14.17359299727972
 20
-35.74417092391707
 30
0.0
  0
SEQEND
  5
1C4
330
1C1
100
AcDbEntity
  8
Capa 1
 62
   178
370
     9
  0
POLYLINE
  5
1C5
330
1F
100
AcDbEntity
  8
Capa 1
 62
   178
370
     9
100
AcDb2dPolyline
 66
     1
 10
0.0
 20
0.0
 30
0.0
  0
VERTEX
  5
1C6
330
1C5
100
AcDbEntity
  8
Capa 1
 62
   178
370
     9
100
AcDbVertex
100
AcDb2dVertex
 10
14.17359299727972
 20
-35.74417092391707
 30
0.0
  0
VERTEX
  5
1C7
330
1C5
100
AcDbEntity
  8
Capa 1
 62
   178
370
     9
100
AcDbVertex
100
AcDb2dVertex
 10
14.18516992784915
 20
-35.74347008933955
 30
0.0
  0
SEQEND
  5
1C8
330
1C5
100
AcDbEntity
  8
Capa 1
 62
   178
370
     9
  0
POLYLINE
  5
1C9
330
1F
100
AcDbEntity
  8
Capa 1
 62
   178
370
     9
100
AcDb2dPolyline
 66
     1
 10
0.0
 20
0.0
 30
0.0
  0
VERTEX
  5
1CA
330
1C9
100
AcDbEntity
  8
Capa 1
 62
   178
370
     9
100
AcDbVertex
100
AcDb2dVertex
 10
14.0467919634045
 20
-37.04942047883979
 30
0.0
  0
VERTEX
  5
1CB
330
1C9
100
AcDbEntity
  8
Capa 1
 62
   178
370
     9
100
AcDbVertex
100
AcDb2dVertex
 10
15.02867066391422
 20
-37.91947211792271
 30
0.0
  0
SEQEND
  5
1CC
330
1C9
100
AcDbEntity
  8
Capa 1
 62
   178
370
     9
  0
POLYLINE
  5
1CD
330
1F
100
AcDbEntity
  8
Capa 1
 62
   178
370
     9
100
AcDb2dPolyline
 66
     1
 10
0.0
 20
0.0
 30
0.0
  0
VERTEX
  5
1CE
330
1CD
100
AcDbEntity
  8
Capa 1
 62
   178
370
     9
100
AcDbVertex
100
AcDb2dVertex
 10
15.02867066391422
 20
-37.91947211792271
 30
0.0
  0
VERTEX
  5
1CF
330
1CD
100
AcDbEntity
  8
Capa 1
 62
   178
370
     9
100
AcDbVertex
100
AcDb2dVertex
 10
15.04024759448359
 20
-37.91877128334522
 30
0.0
  0
SEQEND
  5
1D0
330
1CD
100
AcDbEntity
  8
Capa 1
 62
   178
370
     9
  0
POLYLINE
  5
1D1
330
1F
100
AcDbEntity
  8
Capa 1
 62
   178
370
     9
100
AcDb2dPolyline
 66
     1
 10
0.0
 20
0.0
 30
0.0
  0
VERTEX
  5
1D2
330
1D1
100
AcDbEntity
  8
Capa 1
 62
   178
370
     9
100
AcDbVertex
100
AcDb2dVertex
 10
14.0467919634045
 20
-37.04942047883979
 30
0.0
  0
VERTEX
  5
1D3
330
1D1
100
AcDbEntity
  8
Capa 1
 62
   178
370
     9
100
AcDbVertex
100
AcDb2dVertex
 10
15.17758550955841
 20
-36.38403499360987
 30
0.0
  0
SEQEND
  5
1D4
330
1D1
100
AcDbEntity
  8
Capa 1
 62
   178
370
     9
  0
POLYLINE
  5
1D5
330
1F
100
AcDbEntity
  8
Capa 1
 62
   178
370
     9
100
AcDb2dPolyline
 66
     1
 10
0.0
 20
0.0
 30
0.0
  0
VERTEX
  5
1D6
330
1D5
100
AcDbEntity
  8
Capa 1
 62
   178
370
     9
100
AcDbVertex
100
AcDb2dVertex
 10
15.17758550955841
 20
-36.38403499360987
 30
0.0
  0
VERTEX
  5
1D7
330
1D5
100
AcDbEntity
  8
Capa 1
 62
   178
370
     9
100
AcDbVertex
100
AcDb2dVertex
 10
15.1891591211443
 20
-36.38333790460231
 30
0.0
  0
SEQEND
  5
1D8
330
1D5
100
AcDbEntity
  8
Capa 1
 62
   178
370
     9
  0
POLYLINE
  5
1D9
330
1F
100
AcDbEntity
  8
Capa 1
 62
   178
370
     9
100
AcDb2dPolyline
 66
     1
 10
0.0
 20
0.0
 30
0.0
  0
VERTEX
  5
1DA
330
1D9
100
AcDbEntity
  8
Capa 1
 62
   178
370
     9
100
AcDbVertex
100
AcDb2dVertex
 10
15.17758550955841
 20
-36.38403499360987
 30
0.0
  0
VERTEX
  5
1DB
330
1D9
100
AcDbEntity
  8
Capa 1
 62
   178
370
     9
100
AcDbVertex
100
AcDb2dVertex
 10
16.4587075408974
 20
-36.10163976412472
 30
0.0
  0
SEQEND
  5
1DC
330
1D9
100
AcDbEntity
  8
Capa 1
 62
   178
370
     9
  0
POLYLINE
  5
1DD
330
1F
100
AcDbEntity
  8
Capa 1
 62
   178
370
     9
100
AcDb2dPolyline
 66
     1
 10
0.0
 20
0.0
 30
0.0
  0
VERTEX
  5
1DE
330
1DD
100
AcDbEntity
  8
Capa 1
 62
   178
370
     9
100
AcDbVertex
100
AcDb2dVertex
 10
16.4587075408974
 20
-36.10163976412472
 30
0.0
  0
VERTEX
  5
1DF
330
1DD
100
AcDbEntity
  8
Capa 1
 62
   178
370
     9
100
AcDbVertex
100
AcDb2dVertex
 10
16.47028115248341
 20
-36.1009426751169
 30
0.0
  0
SEQEND
  5
1E0
330
1DD
100
AcDbEntity
  8
Capa 1
 62
   178
370
     9
  0
POLYLINE
  5
1E1
330
1F
100
AcDbEntity
  8
Capa 1
 62
   178
370
     9
100
AcDb2dPolyline
 66
     1
 10
0.0
 20
0.0
 30
0.0
  0
VERTEX
  5
1E2
330
1E1
100
AcDbEntity
  8
Capa 1
 62
   178
370
     9
100
AcDbVertex
100
AcDb2dVertex
 10
11.78513822991282
 20
-38.37902911693885
 30
0.0
  0
VERTEX
  5
1E3
330
1E1
100
AcDbEntity
  8
Capa 1
 62
   178
370
     9
100
AcDbVertex
100
AcDb2dVertex
 10
11.65840715620466
 20
-39.68543725865253
 30
0.0
  0
SEQEND
  5
1E4
330
1E1
100
AcDbEntity
  8
Capa 1
 62
   178
370
     9
  0
POLYLINE
  5
1E5
330
1F
100
AcDbEntity
  8
Capa 1
 62
   178
370
     9
100
AcDb2dPolyline
 66
     1
 10
0.0
 20
0.0
 30
0.0
  0
VERTEX
  5
1E6
330
1E5
100
AcDbEntity
  8
Capa 1
 62
   178
370
     9
100
AcDbVertex
100
AcDb2dVertex
 10
11.65840715620466
 20
-39.68543725865253
 30
0.0
  0
VERTEX
  5
1E7
330
1E5
100
AcDbEntity
  8
Capa 1
 62
   178
370
     9
100
AcDbVertex
100
AcDb2dVertex
 10
11.66998408677429
 20
-39.68473642407475
 30
0.0
  0
SEQEND
  5
1E8
330
1E5
100
AcDbEntity
  8
Capa 1
 62
   178
370
     9
  0
POLYLINE
  5
1E9
330
1F
100
AcDbEntity
  8
Capa 1
 62
   178
370
     9
100
AcDb2dPolyline
 66
     1
 10
0.0
 20
0.0
 30
0.0
  0
VERTEX
  5
1EA
330
1E9
100
AcDbEntity
  8
Capa 1
 62
   178
370
     9
100
AcDbVertex
100
AcDb2dVertex
 10
11.65840715620466
 20
-39.68543725865253
 30
0.0
  0
VERTEX
  5
1EB
330
1E9
100
AcDbEntity
  8
Capa 1
 62
   178
370
     9
100
AcDbVertex
100
AcDb2dVertex
 10
11.5316077818212
 20
-40.99068494079032
 30
0.0
  0
SEQEND
  5
1EC
330
1E9
100
AcDbEntity
  8
Capa 1
 62
   178
370
     9
  0
POLYLINE
  5
1ED
330
1F
100
AcDbEntity
  8
Capa 1
 62
   178
370
     9
100
AcDb2dPolyline
 66
     1
 10
0.0
 20
0.0
 30
0.0
  0
VERTEX
  5
1EE
330
1ED
100
AcDbEntity
  8
Capa 1
 62
   178
370
     9
100
AcDbVertex
100
AcDb2dVertex
 10
11.5316077818212
 20
-40.99068494079032
 30
0.0
  0
VERTEX
  5
1EF
330
1ED
100
AcDbEntity
  8
Capa 1
 62
   178
370
     9
100
AcDbVertex
100
AcDb2dVertex
 10
11.54318305289907
 20
-40.98998597899752
 30
0.0
  0
SEQEND
  5
1F0
330
1ED
100
AcDbEntity
  8
Capa 1
 62
   178
370
     9
  0
POLYLINE
  5
1F1
330
1F
100
AcDbEntity
  8
Capa 1
 62
   178
370
     9
100
AcDb2dPolyline
 66
     1
 10
0.0
 20
0.0
 30
0.0
  0
VERTEX
  5
1F2
330
1F1
100
AcDbEntity
  8
Capa 1
 62
   178
370
     9
100
AcDbVertex
100
AcDb2dVertex
 10
11.5316077818212
 20
-40.99068494079032
 30
0.0
  0
VERTEX
  5
1F3
330
1F1
100
AcDbEntity
  8
Capa 1
 62
   178
370
     9
100
AcDbVertex
100
AcDb2dVertex
 10
10.2505557106497
 20
-41.27423875706621
 30
0.0
  0
SEQEND
  5
1F4
330
1F1
100
AcDbEntity
  8
Capa 1
 62
   178
370
     9
  0
POLYLINE
  5
1F5
330
1F
100
AcDbEntity
  8
Capa 1
 62
   178
370
     9
100
AcDb2dPolyline
 66
     1
 10
0.0
 20
0.0
 30
0.0
  0
VERTEX
  5
1F6
330
1F5
100
AcDbEntity
  8
Capa 1
 62
   178
370
     9
100
AcDbVertex
100
AcDb2dVertex
 10
10.2505557106497
 20
-41.27423875706621
 30
0.0
  0
VERTEX
  5
1F7
330
1F5
100
AcDbEntity
  8
Capa 1
 62
   178
370
     9
100
AcDbVertex
100
AcDb2dVertex
 10
10.26213098172715
 20
-41.27353979527383
 30
0.0
  0
SEQEND
  5
1F8
330
1F5
100
AcDbEntity
  8
Capa 1
 62
   178
370
     9
  0
POLYLINE
  5
1F9
330
1F
100
AcDbEntity
  8
Capa 1
 62
   178
370
     9
100
AcDb2dPolyline
 66
     1
 10
0.0
 20
0.0
 30
0.0
  0
VERTEX
  5
1FA
330
1F9
100
AcDbEntity
  8
Capa 1
 62
   178
370
     9
100
AcDbVertex
100
AcDb2dVertex
 10
11.5316077818212
 20
-40.99068494079032
 30
0.0
  0
VERTEX
  5
1FB
330
1F9
100
AcDbEntity
  8
Capa 1
 62
   178
370
     9
100
AcDbVertex
100
AcDb2dVertex
 10
11.40487670811334
 20
-42.29709308250352
 30
0.0
  0
SEQEND
  5
1FC
330
1F9
100
AcDbEntity
  8
Capa 1
 62
   178
370
     9
  0
POLYLINE
  5
1FD
330
1F
100
AcDbEntity
  8
Capa 1
 62
   178
370
     9
100
AcDb2dPolyline
 66
     1
 10
0.0
 20
0.0
 30
0.0
  0
VERTEX
  5
1FE
330
1FD
100
AcDbEntity
  8
Capa 1
 62
   178
370
     9
100
AcDbVertex
100
AcDb2dVertex
 10
11.40487670811334
 20
-42.29709308250352
 30
0.0
  0
VERTEX
  5
1FF
330
1FD
100
AcDbEntity
  8
Capa 1
 62
   178
370
     9
100
AcDbVertex
100
AcDb2dVertex
 10
11.41645197919102
 20
-42.29639412071127
 30
0.0
  0
SEQEND
  5
200
330
1FD
100
AcDbEntity
  8
Capa 1
 62
   178
370
     9
  0
POLYLINE
  5
201
330
1F
100
AcDbEntity
  8
Capa 1
 62
   178
370
     9
100
AcDb2dPolyline
 66
     1
 10
0.0
 20
0.0
 30
0.0
  0
VERTEX
  5
202
330
201
100
AcDbEntity
  8
Capa 1
 62
   178
370
     9
100
AcDbVertex
100
AcDb2dVertex
 10
11.40487670811334
 20
-42.29709308250352
 30
0.0
  0
VERTEX
  5
203
330
201
100
AcDbEntity
  8
Capa 1
 62
   178
370
     9
100
AcDbVertex
100
AcDb2dVertex
 10
10.88093953197311
 20
-43.49911957412189
 30
0.0
  0
SEQEND
  5
204
330
201
100
AcDbEntity
  8
Capa 1
 62
   178
370
     9
  0
POLYLINE
  5
205
330
1F
100
AcDbEntity
  8
Capa 1
 62
   178
370
     9
100
AcDb2dPolyline
 66
     1
 10
0.0
 20
0.0
 30
0.0
  0
VERTEX
  5
206
330
205
100
AcDbEntity
  8
Capa 1
 62
   178
370
     9
100
AcDbVertex
100
AcDb2dVertex
 10
10.88093953197311
 20
-43.49911957412189
 30
0.0
  0
VERTEX
  5
207
330
205
100
AcDbEntity
  8
Capa 1
 62
   178
370
     9
100
AcDbVertex
100
AcDb2dVertex
 10
10.89251480305076
 20
-43.49842061232935
 30
0.0
  0
SEQEND
  5
208
330
205
100
AcDbEntity
  8
Capa 1
 62
   178
370
     9
  0
POLYLINE
  5
209
330
1F
100
AcDbEntity
  8
Capa 1
 62
   178
370
     9
100
AcDb2dPolyline
 66
     1
 10
0.0
 20
0.0
 30
0.0
  0
VERTEX
  5
20A
330
209
100
AcDbEntity
  8
Capa 1
 62
   178
370
     9
100
AcDbVertex
100
AcDb2dVertex
 10
11.78513822991282
 20
-38.37902911693885
 30
0.0
  0
VERTEX
  5
20B
330
209
100
AcDbEntity
  8
Capa 1
 62
   178
370
     9
100
AcDbVertex
100
AcDb2dVertex
 10
12.98777899500987
 20
-38.90351060639085
 30
0.0
  0
SEQEND
  5
20C
330
209
100
AcDbEntity
  8
Capa 1
 62
   178
370
     9
  0
POLYLINE
  5
20D
330
1F
100
AcDbEntity
  8
Capa 1
 62
   178
370
     9
100
AcDb2dPolyline
 66
     1
 10
0.0
 20
0.0
 30
0.0
  0
VERTEX
  5
20E
330
20D
100
AcDbEntity
  8
Capa 1
 62
   178
370
     9
100
AcDbVertex
100
AcDb2dVertex
 10
12.98777899500987
 20
-38.90351060639085
 30
0.0
  0
VERTEX
  5
20F
330
20D
100
AcDbEntity
  8
Capa 1
 62
   178
370
     9
100
AcDbVertex
100
AcDb2dVertex
 10
12.9993559255795
 20
-38.90280977181352
 30
0.0
  0
SEQEND
  5
210
330
20D
100
AcDbEntity
  8
Capa 1
 62
   178
370
     9
  0
POLYLINE
  5
211
330
1F
100
AcDbEntity
  8
Capa 1
 62
   178
370
     9
100
AcDb2dPolyline
 66
     1
 10
0.0
 20
0.0
 30
0.0
  0
VERTEX
  5
212
330
211
100
AcDbEntity
  8
Capa 1
 62
   178
370
     9
100
AcDbVertex
100
AcDb2dVertex
 10
12.98777899500987
 20
-38.90351060639085
 30
0.0
  0
VERTEX
  5
213
330
211
100
AcDbEntity
  8
Capa 1
 62
   178
370
     9
100
AcDbVertex
100
AcDb2dVertex
 10
14.19041976010709
 20
-39.42799209584295
 30
0.0
  0
SEQEND
  5
214
330
211
100
AcDbEntity
  8
Capa 1
 62
   178
370
     9
  0
POLYLINE
  5
215
330
1F
100
AcDbEntity
  8
Capa 1
 62
   178
370
     9
100
AcDb2dPolyline
 66
     1
 10
0.0
 20
0.0
 30
0.0
  0
VERTEX
  5
216
330
215
100
AcDbEntity
  8
Capa 1
 62
   178
370
     9
100
AcDbVertex
100
AcDb2dVertex
 10
14.19041976010709
 20
-39.42799209584295
 30
0.0
  0
VERTEX
  5
217
330
215
100
AcDbEntity
  8
Capa 1
 62
   178
370
     9
100
AcDbVertex
100
AcDb2dVertex
 10
14.20199669067661
 20
-39.42729126126533
 30
0.0
  0
SEQEND
  5
218
330
215
100
AcDbEntity
  8
Capa 1
 62
   178
370
     9
  0
POLYLINE
  5
219
330
1F
100
AcDbEntity
  8
Capa 1
 62
   178
370
     9
100
AcDb2dPolyline
 66
     1
 10
0.0
 20
0.0
 30
0.0
  0
VERTEX
  5
21A
330
219
100
AcDbEntity
  8
Capa 1
 62
   178
370
     9
100
AcDbVertex
100
AcDb2dVertex
 10
14.19041976010709
 20
-39.42799209584295
 30
0.0
  0
VERTEX
  5
21B
330
219
100
AcDbEntity
  8
Capa 1
 62
   178
370
     9
100
AcDbVertex
100
AcDb2dVertex
 10
15.32121330626141
 20
-38.76260661061294
 30
0.0
  0
SEQEND
  5
21C
330
219
100
AcDbEntity
  8
Capa 1
 62
   178
370
     9
  0
POLYLINE
  5
21D
330
1F
100
AcDbEntity
  8
Capa 1
 62
   178
370
     9
100
AcDb2dPolyline
 66
     1
 10
0.0
 20
0.0
 30
0.0
  0
VERTEX
  5
21E
330
21D
100
AcDbEntity
  8
Capa 1
 62
   178
370
     9
100
AcDbVertex
100
AcDb2dVertex
 10
15.32121330626141
 20
-38.76260661061294
 30
0.0
  0
VERTEX
  5
21F
330
21D
100
AcDbEntity
  8
Capa 1
 62
   178
370
     9
100
AcDbVertex
100
AcDb2dVertex
 10
15.33278691784726
 20
-38.76190952160538
 30
0.0
  0
SEQEND
  5
220
330
21D
100
AcDbEntity
  8
Capa 1
 62
   178
370
     9
  0
POLYLINE
  5
221
330
1F
100
AcDbEntity
  8
Capa 1
 62
   178
370
     9
100
AcDb2dPolyline
 66
     1
 10
0.0
 20
0.0
 30
0.0
  0
VERTEX
  5
222
330
221
100
AcDbEntity
  8
Capa 1
 62
   178
370
     9
100
AcDbVertex
100
AcDb2dVertex
 10
14.19041976010709
 20
-39.42799209584295
 30
0.0
  0
VERTEX
  5
223
330
221
100
AcDbEntity
  8
Capa 1
 62
   178
370
     9
100
AcDbVertex
100
AcDb2dVertex
 10
14.06362059901694
 20
-40.73324331025771
 30
0.0
  0
SEQEND
  5
224
330
221
100
AcDbEntity
  8
Capa 1
 62
   178
370
     9
  0
POLYLINE
  5
225
330
1F
100
AcDbEntity
  8
Capa 1
 62
   178
370
     9
100
AcDb2dPolyline
 66
     1
 10
0.0
 20
0.0
 30
0.0
  0
VERTEX
  5
226
330
225
100
AcDbEntity
  8
Capa 1
 62
   178
370
     9
100
AcDbVertex
100
AcDb2dVertex
 10
14.06362059901694
 20
-40.73324331025771
 30
0.0
  0
VERTEX
  5
227
330
225
100
AcDbEntity
  8
Capa 1
 62
   178
370
     9
100
AcDbVertex
100
AcDb2dVertex
 10
14.07519565680156
 20
-40.73254081618785
 30
0.0
  0
SEQEND
  5
228
330
225
100
AcDbEntity
  8
Capa 1
 62
   178
370
     9
  0
POLYLINE
  5
229
330
1F
100
AcDbEntity
  8
Capa 1
 62
   178
370
     9
100
AcDb2dPolyline
 66
     1
 10
0.0
 20
0.0
 30
0.0
  0
VERTEX
  5
22A
330
229
100
AcDbEntity
  8
Capa 1
 62
   178
370
     9
100
AcDbVertex
100
AcDb2dVertex
 10
14.19041976010709
 20
-39.42799209584295
 30
0.0
  0
VERTEX
  5
22B
330
229
100
AcDbEntity
  8
Capa 1
 62
   178
370
     9
100
AcDbVertex
100
AcDb2dVertex
 10
15.39299243782215
 20
-39.95131665799607
 30
0.0
  0
SEQEND
  5
22C
330
229
100
AcDbEntity
  8
Capa 1
 62
   178
370
     9
  0
POLYLINE
  5
22D
330
1F
100
AcDbEntity
  8
Capa 1
 62
   178
370
     9
100
AcDb2dPolyline
 66
     1
 10
0.0
 20
0.0
 30
0.0
  0
VERTEX
  5
22E
330
22D
100
AcDbEntity
  8
Capa 1
 62
   178
370
     9
100
AcDbVertex
100
AcDb2dVertex
 10
15.39299243782215
 20
-39.95131665799607
 30
0.0
  0
VERTEX
  5
22F
330
22D
100
AcDbEntity
  8
Capa 1
 62
   178
370
     9
100
AcDbVertex
100
AcDb2dVertex
 10
15.40456417662309
 20
-39.95061790949671
 30
0.0
  0
SEQEND
  5
230
330
22D
100
AcDbEntity
  8
Capa 1
 62
   178
370
     9
  0
POLYLINE
  5
231
330
1F
100
AcDbEntity
  8
Capa 1
 62
   178
370
     9
100
AcDb2dPolyline
 66
     1
 10
0.0
 20
0.0
 30
0.0
  0
VERTEX
  5
232
330
231
100
AcDbEntity
  8
Capa 1
 62
   178
370
     9
100
AcDbVertex
100
AcDb2dVertex
 10
15.39299243782215
 20
-39.95131665799607
 30
0.0
  0
VERTEX
  5
233
330
231
100
AcDbEntity
  8
Capa 1
 62
   178
370
     9
100
AcDbVertex
100
AcDb2dVertex
 10
16.37487113833164
 20
-40.82136829707883
 30
0.0
  0
SEQEND
  5
234
330
231
100
AcDbEntity
  8
Capa 1
 62
   178
370
     9
  0
POLYLINE
  5
235
330
1F
100
AcDbEntity
  8
Capa 1
 62
   178
370
     9
100
AcDb2dPolyline
 66
     1
 10
0.0
 20
0.0
 30
0.0
  0
VERTEX
  5
236
330
235
100
AcDbEntity
  8
Capa 1
 62
   178
370
     9
100
AcDbVertex
100
AcDb2dVertex
 10
16.37487113833164
 20
-40.82136829707883
 30
0.0
  0
VERTEX
  5
237
330
235
100
AcDbEntity
  8
Capa 1
 62
   178
370
     9
100
AcDbVertex
100
AcDb2dVertex
 10
16.38644287713254
 20
-40.82066954857947
 30
0.0
  0
SEQEND
  5
238
330
235
100
AcDbEntity
  8
Capa 1
 62
   178
370
     9
  0
POLYLINE
  5
239
330
1F
100
AcDbEntity
  8
Capa 1
 62
   178
370
     9
100
AcDb2dPolyline
 66
     1
 10
0.0
 20
0.0
 30
0.0
  0
VERTEX
  5
23A
330
239
100
AcDbEntity
  8
Capa 1
 62
   178
370
     9
100
AcDbVertex
100
AcDb2dVertex
 10
16.37487113833164
 20
-40.82136829707883
 30
0.0
  0
VERTEX
  5
23B
330
239
100
AcDbEntity
  8
Capa 1
 62
   178
370
     9
100
AcDbVertex
100
AcDb2dVertex
 10
16.38644287713254
 20
-40.82066954857947
 30
0.0
  0
SEQEND
  5
23C
330
239
100
AcDbEntity
  8
Capa 1
 62
   178
370
     9
  0
POLYLINE
  5
23D
330
1F
100
AcDbEntity
  8
Capa 1
 62
   178
370
     9
100
AcDb2dPolyline
 66
     1
 10
0.0
 20
0.0
 30
0.0
  0
VERTEX
  5
23E
330
23D
100
AcDbEntity
  8
Capa 1
 62
   178
370
     9
100
AcDbVertex
100
AcDb2dVertex
 10
16.37487113833164
 20
-40.82136829707883
 30
0.0
  0
VERTEX
  5
23F
330
23D
100
AcDbEntity
  8
Capa 1
 62
   178
370
     9
100
AcDbVertex
100
AcDb2dVertex
 10
17.57751190342898
 20
-41.3458497865308
 30
0.0
  0
SEQEND
  5
240
330
23D
100
AcDbEntity
  8
Capa 1
 62
   178
370
     9
  0
POLYLINE
  5
241
330
1F
100
AcDbEntity
  8
Capa 1
 62
   178
370
     9
100
AcDb2dPolyline
 66
     1
 10
0.0
 20
0.0
 30
0.0
  0
VERTEX
  5
242
330
241
100
AcDbEntity
  8
Capa 1
 62
   178
370
     9
100
AcDbVertex
100
AcDb2dVertex
 10
17.57751190342898
 20
-41.3458497865308
 30
0.0
  0
VERTEX
  5
243
330
241
100
AcDbEntity
  8
Capa 1
 62
   178
370
     9
100
AcDbVertex
100
AcDb2dVertex
 10
17.58908364223005
 20
-41.34515103803164
 30
0.0
  0
SEQEND
  5
244
330
241
100
AcDbEntity
  8
Capa 1
 62
   178
370
     9
  0
POLYLINE
  5
245
330
1F
100
AcDbEntity
  8
Capa 1
 62
   178
370
     9
100
AcDb2dPolyline
 66
     1
 10
0.0
 20
0.0
 30
0.0
  0
VERTEX
  5
246
330
245
100
AcDbEntity
  8
Capa 1
 62
   178
370
     9
100
AcDbVertex
100
AcDb2dVertex
 10
18.6378699973951
 20
-41.40902304718468
 30
0.0
  0
VERTEX
  5
247
330
245
100
AcDbEntity
  8
Capa 1
 62
   178
370
     9
100
AcDbVertex
100
AcDb2dVertex
 10
18.64944360898108
 20
-41.40832595817683
 30
0.0
  0
SEQEND
  5
248
330
245
100
AcDbEntity
  8
Capa 1
 62
   178
370
     9
  0
POLYLINE
  5
249
330
1F
100
AcDbEntity
  8
Capa 1
 62
   178
370
     9
100
AcDb2dPolyline
 66
     1
 10
0.0
 20
0.0
 30
0.0
  0
VERTEX
  5
24A
330
249
100
AcDbEntity
  8
Capa 1
 62
   178
370
     9
100
AcDbVertex
100
AcDb2dVertex
 10
4.568892565335271
 20
-35.23506788171729
 30
0.0
  0
VERTEX
  5
24B
330
249
100
AcDbEntity
  8
Capa 1
 62
   178
370
     9
100
AcDbVertex
100
AcDb2dVertex
 10
5.550771265844857
 20
-36.10511952080012
 30
0.0
  0
SEQEND
  5
24C
330
249
100
AcDbEntity
  8
Capa 1
 62
   178
370
     9
  0
POLYLINE
  5
24D
330
1F
100
AcDbEntity
  8
Capa 1
 62
   178
370
     9
100
AcDb2dPolyline
 66
     1
 10
0.0
 20
0.0
 30
0.0
  0
VERTEX
  5
24E
330
24D
100
AcDbEntity
  8
Capa 1
 62
   178
370
     9
100
AcDbVertex
100
AcDb2dVertex
 10
5.550771265844857
 20
-36.10511952080012
 30
0.0
  0
VERTEX
  5
24F
330
24D
100
AcDbEntity
  8
Capa 1
 62
   178
370
     9
100
AcDbVertex
100
AcDb2dVertex
 10
5.562346536922534
 20
-36.10442055900755
 30
0.0
  0
SEQEND
  5
250
330
24D
100
AcDbEntity
  8
Capa 1
 62
   178
370
     9
  0
POLYLINE
  5
251
330
1F
100
AcDbEntity
  8
Capa 1
 62
   178
370
     9
100
AcDb2dPolyline
 66
     1
 10
0.0
 20
0.0
 30
0.0
  0
VERTEX
  5
252
330
251
100
AcDbEntity
  8
Capa 1
 62
   178
370
     9
100
AcDbVertex
100
AcDb2dVertex
 10
5.550771265844857
 20
-36.10511952080012
 30
0.0
  0
VERTEX
  5
253
330
251
100
AcDbEntity
  8
Capa 1
 62
   178
370
     9
100
AcDbVertex
100
AcDb2dVertex
 10
6.753412030941879
 20
-36.62960101025215
 30
0.0
  0
SEQEND
  5
254
330
251
100
AcDbEntity
  8
Capa 1
 62
   178
370
     9
  0
POLYLINE
  5
255
330
1F
100
AcDbEntity
  8
Capa 1
 62
   178
370
     9
100
AcDb2dPolyline
 66
     1
 10
0.0
 20
0.0
 30
0.0
  0
VERTEX
  5
256
330
255
100
AcDbEntity
  8
Capa 1
 62
   178
370
     9
100
AcDbVertex
100
AcDb2dVertex
 10
6.753412030941879
 20
-36.62960101025215
 30
0.0
  0
VERTEX
  5
257
330
255
100
AcDbEntity
  8
Capa 1
 62
   178
370
     9
100
AcDbVertex
100
AcDb2dVertex
 10
6.764987302019908
 20
-36.62890204845958
 30
0.0
  0
SEQEND
  5
258
330
255
100
AcDbEntity
  8
Capa 1
 62
   178
370
     9
  0
POLYLINE
  5
259
330
1F
100
AcDbEntity
  8
Capa 1
 62
   178
370
     9
100
AcDb2dPolyline
 66
     1
 10
0.0
 20
0.0
 30
0.0
  0
VERTEX
  5
25A
330
259
100
AcDbEntity
  8
Capa 1
 62
   178
370
     9
100
AcDbVertex
100
AcDb2dVertex
 10
5.550771265844857
 20
-36.10511952080012
 30
0.0
  0
VERTEX
  5
25B
330
259
100
AcDbEntity
  8
Capa 1
 62
   178
370
     9
100
AcDbVertex
100
AcDb2dVertex
 10
6.532649966354347
 20
-36.97517115988285
 30
0.0
  0
SEQEND
  5
25C
330
259
100
AcDbEntity
  8
Capa 1
 62
   178
370
     9
  0
POLYLINE
  5
25D
330
1F
100
AcDbEntity
  8
Capa 1
 62
   178
370
     9
100
AcDb2dPolyline
 66
     1
 10
0.0
 20
0.0
 30
0.0
  0
VERTEX
  5
25E
330
25D
100
AcDbEntity
  8
Capa 1
 62
   178
370
     9
100
AcDbVertex
100
AcDb2dVertex
 10
6.532649966354347
 20
-36.97517115988285
 30
0.0
  0
VERTEX
  5
25F
330
25D
100
AcDbEntity
  8
Capa 1
 62
   178
370
     9
100
AcDbVertex
100
AcDb2dVertex
 10
6.544225237432055
 20
-36.97447219809034
 30
0.0
  0
SEQEND
  5
260
330
25D
100
AcDbEntity
  8
Capa 1
 62
   178
370
     9
  0
POLYLINE
  5
261
330
1F
100
AcDbEntity
  8
Capa 1
 62
   178
370
     9
100
AcDb2dPolyline
 66
     1
 10
0.0
 20
0.0
 30
0.0
  0
VERTEX
  5
262
330
261
100
AcDbEntity
  8
Capa 1
 62
   178
370
     9
100
AcDbVertex
100
AcDb2dVertex
 10
6.532649966354347
 20
-36.97517115988285
 30
0.0
  0
VERTEX
  5
263
330
261
100
AcDbEntity
  8
Capa 1
 62
   178
370
     9
100
AcDbVertex
100
AcDb2dVertex
 10
7.813157724214267
 20
-36.69223161708554
 30
0.0
  0
SEQEND
  5
264
330
261
100
AcDbEntity
  8
Capa 1
 62
   178
370
     9
  0
POLYLINE
  5
265
330
1F
100
AcDbEntity
  8
Capa 1
 62
   178
370
     9
100
AcDb2dPolyline
 66
     1
 10
0.0
 20
0.0
 30
0.0
  0
VERTEX
  5
266
330
265
100
AcDbEntity
  8
Capa 1
 62
   178
370
     9
100
AcDbVertex
100
AcDb2dVertex
 10
7.813157724214267
 20
-36.69223161708554
 30
0.0
  0
VERTEX
  5
267
330
265
100
AcDbEntity
  8
Capa 1
 62
   178
370
     9
100
AcDbVertex
100
AcDb2dVertex
 10
7.824731335800282
 20
-36.69153452807814
 30
0.0
  0
SEQEND
  5
268
330
265
100
AcDbEntity
  8
Capa 1
 62
   178
370
     9
  0
POLYLINE
  5
269
330
1F
100
AcDbEntity
  8
Capa 1
 62
   178
370
     9
100
AcDb2dPolyline
 66
     1
 10
0.0
 20
0.0
 30
0.0
  0
VERTEX
  5
26A
330
269
100
AcDbEntity
  8
Capa 1
 62
   178
370
     9
100
AcDbVertex
100
AcDb2dVertex
 10
6.532649966354347
 20
-36.97517115988285
 30
0.0
  0
VERTEX
  5
26B
330
269
100
AcDbEntity
  8
Capa 1
 62
   178
370
     9
100
AcDbVertex
100
AcDb2dVertex
 10
6.008168476902247
 20
-38.17781192498013
 30
0.0
  0
SEQEND
  5
26C
330
269
100
AcDbEntity
  8
Capa 1
 62
   178
370
     9
  0
POLYLINE
  5
26D
330
1F
100
AcDbEntity
  8
Capa 1
 62
   178
370
     9
100
AcDb2dPolyline
 66
     1
 10
0.0
 20
0.0
 30
0.0
  0
VERTEX
  5
26E
330
26D
100
AcDbEntity
  8
Capa 1
 62
   178
370
     9
100
AcDbVertex
100
AcDb2dVertex
 10
6.008168476902247
 20
-38.17781192498013
 30
0.0
  0
VERTEX
  5
26F
330
26D
100
AcDbEntity
  8
Capa 1
 62
   178
370
     9
100
AcDbVertex
100
AcDb2dVertex
 10
6.019743747980051
 20
-38.17711296318762
 30
0.0
  0
SEQEND
  5
270
330
26D
100
AcDbEntity
  8
Capa 1
 62
   178
370
     9
  0
POLYLINE
  5
271
330
1F
100
AcDbEntity
  8
Capa 1
 62
   178
370
     9
100
AcDb2dPolyline
 66
     1
 10
0.0
 20
0.0
 30
0.0
  0
VERTEX
  5
272
330
271
100
AcDbEntity
  8
Capa 1
 62
   178
370
     9
100
AcDbVertex
100
AcDb2dVertex
 10
6.532649966354347
 20
-36.97517115988285
 30
0.0
  0
VERTEX
  5
273
330
271
100
AcDbEntity
  8
Capa 1
 62
   178
370
     9
100
AcDbVertex
100
AcDb2dVertex
 10
7.514528666863933
 20
-37.84522279896568
 30
0.0
  0
SEQEND
  5
274
330
271
100
AcDbEntity
  8
Capa 1
 62
   178
370
     9
  0
POLYLINE
  5
275
330
1F
100
AcDbEntity
  8
Capa 1
 62
   178
370
     9
100
AcDb2dPolyline
 66
     1
 10
0.0
 20
0.0
 30
0.0
  0
VERTEX
  5
276
330
275
100
AcDbEntity
  8
Capa 1
 62
   178
370
     9
100
AcDbVertex
100
AcDb2dVertex
 10
7.514528666863933
 20
-37.84522279896568
 30
0.0
  0
VERTEX
  5
277
330
275
100
AcDbEntity
  8
Capa 1
 62
   178
370
     9
100
AcDbVertex
100
AcDb2dVertex
 10
7.526103937941577
 20
-37.84452383717311
 30
0.0
  0
SEQEND
  5
278
330
275
100
AcDbEntity
  8
Capa 1
 62
   178
370
     9
  0
POLYLINE
  5
279
330
1F
100
AcDbEntity
  8
Capa 1
 62
   178
370
     9
100
AcDb2dPolyline
 66
     1
 10
0.0
 20
0.0
 30
0.0
  0
VERTEX
  5
27A
330
279
100
AcDbEntity
  8
Capa 1
 62
   178
370
     9
100
AcDbVertex
100
AcDb2dVertex
 10
7.514528666863933
 20
-37.84522279896568
 30
0.0
  0
VERTEX
  5
27B
330
279
100
AcDbEntity
  8
Capa 1
 62
   178
370
     9
100
AcDbVertex
100
AcDb2dVertex
 10
8.179912279308837
 20
-38.97601468562802
 30
0.0
  0
SEQEND
  5
27C
330
279
100
AcDbEntity
  8
Capa 1
 62
   178
370
     9
  0
POLYLINE
  5
27D
330
1F
100
AcDbEntity
  8
Capa 1
 62
   178
370
     9
100
AcDb2dPolyline
 66
     1
 10
0.0
 20
0.0
 30
0.0
  0
VERTEX
  5
27E
330
27D
100
AcDbEntity
  8
Capa 1
 62
   178
370
     9
100
AcDbVertex
100
AcDb2dVertex
 10
8.179912279308837
 20
-38.97601468562802
 30
0.0
  0
VERTEX
  5
27F
330
27D
100
AcDbEntity
  8
Capa 1
 62
   178
370
     9
100
AcDbVertex
100
AcDb2dVertex
 10
8.191487550386706
 20
-38.97531572383535
 30
0.0
  0
SEQEND
  5
280
330
27D
100
AcDbEntity
  8
Capa 1
 62
   178
370
     9
  0
POLYLINE
  5
281
330
1F
100
AcDbEntity
  8
Capa 1
 62
   178
370
     9
100
AcDb2dPolyline
 66
     1
 10
0.0
 20
0.0
 30
0.0
  0
VERTEX
  5
282
330
281
100
AcDbEntity
  8
Capa 1
 62
   178
370
     9
100
AcDbVertex
100
AcDb2dVertex
 10
7.514528666863933
 20
-37.84522279896568
 30
0.0
  0
VERTEX
  5
283
330
281
100
AcDbEntity
  8
Capa 1
 62
   178
370
     9
100
AcDbVertex
100
AcDb2dVertex
 10
8.717169431961084
 20
-38.36970428841781
 30
0.0
  0
SEQEND
  5
284
330
281
100
AcDbEntity
  8
Capa 1
 62
   178
370
     9
  0
POLYLINE
  5
285
330
1F
100
AcDbEntity
  8
Capa 1
 62
   178
370
     9
100
AcDb2dPolyline
 66
     1
 10
0.0
 20
0.0
 30
0.0
  0
VERTEX
  5
286
330
285
100
AcDbEntity
  8
Capa 1
 62
   178
370
     9
100
AcDbVertex
100
AcDb2dVertex
 10
8.717169431961084
 20
-38.36970428841781
 30
0.0
  0
VERTEX
  5
287
330
285
100
AcDbEntity
  8
Capa 1
 62
   178
370
     9
100
AcDbVertex
100
AcDb2dVertex
 10
8.728744703038984
 20
-38.36900532662517
 30
0.0
  0
SEQEND
  5
288
330
285
100
AcDbEntity
  8
Capa 1
 62
   178
370
     9
  0
POLYLINE
  5
289
330
1F
100
AcDbEntity
  8
Capa 1
 62
   178
370
     9
100
AcDb2dPolyline
 66
     1
 10
0.0
 20
0.0
 30
0.0
  0
VERTEX
  5
28A
330
289
100
AcDbEntity
  8
Capa 1
 62
   178
370
     9
100
AcDbVertex
100
AcDb2dVertex
 10
8.717169431961084
 20
-38.36970428841781
 30
0.0
  0
VERTEX
  5
28B
330
289
100
AcDbEntity
  8
Capa 1
 62
   178
370
     9
100
AcDbVertex
100
AcDb2dVertex
 10
10.02296164070387
 20
-38.49589292159881
 30
0.0
  0
SEQEND
  5
28C
330
289
100
AcDbEntity
  8
Capa 1
 62
   178
370
     9
  0
POLYLINE
  5
28D
330
1F
100
AcDbEntity
  8
Capa 1
 62
   178
370
     9
100
AcDb2dPolyline
 66
     1
 10
0.0
 20
0.0
 30
0.0
  0
VERTEX
  5
28E
330
28D
100
AcDbEntity
  8
Capa 1
 62
   178
370
     9
100
AcDbVertex
100
AcDb2dVertex
 10
10.02296164070387
 20
-38.49589292159881
 30
0.0
  0
VERTEX
  5
28F
330
28D
100
AcDbEntity
  8
Capa 1
 62
   178
370
     9
100
AcDbVertex
100
AcDb2dVertex
 10
10.03453857127356
 20
-38.49519208702119
 30
0.0
  0
SEQEND
  5
290
330
28D
100
AcDbEntity
  8
Capa 1
 62
   178
370
     9
  0
POLYLINE
  5
291
330
1F
100
AcDbEntity
  8
Capa 1
 62
   178
370
     9
100
AcDb2dPolyline
 66
     1
 10
0.0
 20
0.0
 30
0.0
  0
VERTEX
  5
292
330
291
100
AcDbEntity
  8
Capa 1
 62
   178
370
     9
100
AcDbVertex
100
AcDb2dVertex
 10
8.717169431961084
 20
-38.36970428841781
 30
0.0
  0
VERTEX
  5
293
330
291
100
AcDbEntity
  8
Capa 1
 62
   178
370
     9
100
AcDbVertex
100
AcDb2dVertex
 10
9.919740236891297
 20
-38.89302719107884
 30
0.0
  0
SEQEND
  5
294
330
291
100
AcDbEntity
  8
Capa 1
 62
   178
370
     9
  0
POLYLINE
  5
295
330
1F
100
AcDbEntity
  8
Capa 1
 62
   178
370
     9
100
AcDb2dPolyline
 66
     1
 10
0.0
 20
0.0
 30
0.0
  0
VERTEX
  5
296
330
295
100
AcDbEntity
  8
Capa 1
 62
   178
370
     9
100
AcDbVertex
100
AcDb2dVertex
 10
9.919740236891297
 20
-38.89302719107884
 30
0.0
  0
VERTEX
  5
297
330
295
100
AcDbEntity
  8
Capa 1
 62
   178
370
     9
100
AcDbVertex
100
AcDb2dVertex
 10
9.931313848477151
 20
-38.89233010207128
 30
0.0
  0
SEQEND
  5
298
330
295
100
AcDbEntity
  8
Capa 1
 62
   178
370
     9
  0
POLYLINE
  5
299
330
1F
100
AcDbEntity
  8
Capa 1
 62
   178
370
     9
100
AcDb2dPolyline
 66
     1
 10
0.0
 20
0.0
 30
0.0
  0
VERTEX
  5
29A
330
299
100
AcDbEntity
  8
Capa 1
 62
   178
370
     9
100
AcDbVertex
100
AcDb2dVertex
 10
7.514528666863933
 20
-37.84522279896568
 30
0.0
  0
VERTEX
  5
29B
330
299
100
AcDbEntity
  8
Capa 1
 62
   178
370
     9
100
AcDbVertex
100
AcDb2dVertex
 10
8.496407367373454
 20
-38.71527443804844
 30
0.0
  0
SEQEND
  5
29C
330
299
100
AcDbEntity
  8
Capa 1
 62
   178
370
     9
  0
POLYLINE
  5
29D
330
1F
100
AcDbEntity
  8
Capa 1
 62
   178
370
     9
100
AcDb2dPolyline
 66
     1
 10
0.0
 20
0.0
 30
0.0
  0
VERTEX
  5
29E
330
29D
100
AcDbEntity
  8
Capa 1
 62
   178
370
     9
100
AcDbVertex
100
AcDb2dVertex
 10
8.496407367373454
 20
-38.71527443804844
 30
0.0
  0
VERTEX
  5
29F
330
29D
100
AcDbEntity
  8
Capa 1
 62
   178
370
     9
100
AcDbVertex
100
AcDb2dVertex
 10
8.507982638451162
 20
-38.7145754762559
 30
0.0
  0
SEQEND
  5
2A0
330
29D
100
AcDbEntity
  8
Capa 1
 62
   178
370
     9
  0
POLYLINE
  5
2A1
330
1F
100
AcDbEntity
  8
Capa 1
 62
   178
370
     9
100
AcDb2dPolyline
 66
     1
 10
0.0
 20
0.0
 30
0.0
  0
VERTEX
  5
2A2
330
2A1
100
AcDbEntity
  8
Capa 1
 62
   178
370
     9
100
AcDbVertex
100
AcDb2dVertex
 10
8.496407367373454
 20
-38.71527443804844
 30
0.0
  0
VERTEX
  5
2A3
330
2A1
100
AcDbEntity
  8
Capa 1
 62
   178
370
     9
100
AcDbVertex
100
AcDb2dVertex
 10
9.69904813247067
 20
-39.23975592750063
 30
0.0
  0
SEQEND
  5
2A4
330
2A1
100
AcDbEntity
  8
Capa 1
 62
   178
370
     9
  0
POLYLINE
  5
2A5
330
1F
100
AcDbEntity
  8
Capa 1
 62
   178
370
     9
100
AcDb2dPolyline
 66
     1
 10
0.0
 20
0.0
 30
0.0
  0
VERTEX
  5
2A6
330
2A5
100
AcDbEntity
  8
Capa 1
 62
   178
370
     9
100
AcDbVertex
100
AcDb2dVertex
 10
9.69904813247067
 20
-39.23975592750063
 30
0.0
  0
VERTEX
  5
2A7
330
2A5
100
AcDbEntity
  8
Capa 1
 62
   178
370
     9
100
AcDbVertex
100
AcDb2dVertex
 10
9.71062340354857
 20
-39.23905696570797
 30
0.0
  0
SEQEND
  5
2A8
330
2A5
100
AcDbEntity
  8
Capa 1
 62
   178
370
     9
  0
POLYLINE
  5
2A9
330
1F
100
AcDbEntity
  8
Capa 1
 62
   178
370
     9
100
AcDb2dPolyline
 66
     1
 10
0.0
 20
0.0
 30
0.0
  0
VERTEX
  5
2AA
330
2A9
100
AcDbEntity
  8
Capa 1
 62
   178
370
     9
100
AcDbVertex
100
AcDb2dVertex
 10
8.496407367373454
 20
-38.71527443804844
 30
0.0
  0
VERTEX
  5
2AB
330
2A9
100
AcDbEntity
  8
Capa 1
 62
   178
370
     9
100
AcDbVertex
100
AcDb2dVertex
 10
9.478286067883008
 20
-39.5853260771312
 30
0.0
  0
SEQEND
  5
2AC
330
2A9
100
AcDbEntity
  8
Capa 1
 62
   178
370
     9
  0
POLYLINE
  5
2AD
330
1F
100
AcDbEntity
  8
Capa 1
 62
   178
370
     9
100
AcDb2dPolyline
 66
     1
 10
0.0
 20
0.0
 30
0.0
  0
VERTEX
  5
2AE
330
2AD
100
AcDbEntity
  8
Capa 1
 62
   178
370
     9
100
AcDbVertex
100
AcDb2dVertex
 10
9.478286067883008
 20
-39.5853260771312
 30
0.0
  0
VERTEX
  5
2AF
330
2AD
100
AcDbEntity
  8
Capa 1
 62
   178
370
     9
100
AcDbVertex
100
AcDb2dVertex
 10
9.48986133896078
 20
-39.58462711533875
 30
0.0
  0
SEQEND
  5
2B0
330
2AD
100
AcDbEntity
  8
Capa 1
 62
   178
370
     9
  0
POLYLINE
  5
2B1
330
1F
100
AcDbEntity
  8
Capa 1
 62
   178
370
     9
100
AcDb2dPolyline
 66
     1
 10
0.0
 20
0.0
 30
0.0
  0
VERTEX
  5
2B2
330
2B1
100
AcDbEntity
  8
Capa 1
 62
   178
370
     9
100
AcDbVertex
100
AcDb2dVertex
 10
9.478286067883008
 20
-39.5853260771312
 30
0.0
  0
VERTEX
  5
2B3
330
2B1
100
AcDbEntity
  8
Capa 1
 62
   178
370
     9
100
AcDbVertex
100
AcDb2dVertex
 10
10.75879382574302
 20
-39.30238653433402
 30
0.0
  0
SEQEND
  5
2B4
330
2B1
100
AcDbEntity
  8
Capa 1
 62
   178
370
     9
  0
POLYLINE
  5
2B5
330
1F
100
AcDbEntity
  8
Capa 1
 62
   178
370
     9
100
AcDb2dPolyline
 66
     1
 10
0.0
 20
0.0
 30
0.0
  0
VERTEX
  5
2B6
330
2B5
100
AcDbEntity
  8
Capa 1
 62
   178
370
     9
100
AcDbVertex
100
AcDb2dVertex
 10
10.75879382574302
 20
-39.30238653433402
 30
0.0
  0
VERTEX
  5
2B7
330
2B5
100
AcDbEntity
  8
Capa 1
 62
   178
370
     9
100
AcDbVertex
100
AcDb2dVertex
 10
10.77036743732901
 20
-39.30168944532655
 30
0.0
  0
SEQEND
  5
2B8
330
2B5
100
AcDbEntity
  8
Capa 1
 62
   178
370
     9
  0
POLYLINE
  5
2B9
330
1F
100
AcDbEntity
  8
Capa 1
 62
   178
370
     9
100
AcDb2dPolyline
 66
     1
 10
0.0
 20
0.0
 30
0.0
  0
VERTEX
  5
2BA
330
2B9
100
AcDbEntity
  8
Capa 1
 62
   178
370
     9
100
AcDbVertex
100
AcDb2dVertex
 10
9.478286067883008
 20
-39.5853260771312
 30
0.0
  0
VERTEX
  5
2BB
330
2B9
100
AcDbEntity
  8
Capa 1
 62
   178
370
     9
100
AcDbVertex
100
AcDb2dVertex
 10
8.95380457843094
 20
-40.78796684222848
 30
0.0
  0
SEQEND
  5
2BC
330
2B9
100
AcDbEntity
  8
Capa 1
 62
   178
370
     9
  0
POLYLINE
  5
2BD
330
1F
100
AcDbEntity
  8
Capa 1
 62
   178
370
     9
100
AcDb2dPolyline
 66
     1
 10
0.0
 20
0.0
 30
0.0
  0
VERTEX
  5
2BE
330
2BD
100
AcDbEntity
  8
Capa 1
 62
   178
370
     9
100
AcDbVertex
100
AcDb2dVertex
 10
8.95380457843094
 20
-40.78796684222848
 30
0.0
  0
VERTEX
  5
2BF
330
2BD
100
AcDbEntity
  8
Capa 1
 62
   178
370
     9
100
AcDbVertex
100
AcDb2dVertex
 10
8.965379849508649
 20
-40.78726788043591
 30
0.0
  0
SEQEND
  5
2C0
330
2BD
100
AcDbEntity
  8
Capa 1
 62
   178
370
     9
  0
POLYLINE
  5
2C1
330
1F
100
AcDbEntity
  8
Capa 1
 62
   178
370
     9
100
AcDb2dPolyline
 66
     1
 10
0.0
 20
0.0
 30
0.0
  0
VERTEX
  5
2C2
330
2C1
100
AcDbEntity
  8
Capa 1
 62
   178
370
     9
100
AcDbVertex
100
AcDb2dVertex
 10
9.478286067883008
 20
-39.5853260771312
 30
0.0
  0
VERTEX
  5
2C3
330
2C1
100
AcDbEntity
  8
Capa 1
 62
   178
370
     9
100
AcDbVertex
100
AcDb2dVertex
 10
10.46016476839253
 20
-40.45537771621396
 30
0.0
  0
SEQEND
  5
2C4
330
2C1
100
AcDbEntity
  8
Capa 1
 62
   178
370
     9
  0
POLYLINE
  5
2C5
330
1F
100
AcDbEntity
  8
Capa 1
 62
   178
370
     9
100
AcDb2dPolyline
 66
     1
 10
0.0
 20
0.0
 30
0.0
  0
VERTEX
  5
2C6
330
2C5
100
AcDbEntity
  8
Capa 1
 62
   178
370
     9
100
AcDbVertex
100
AcDb2dVertex
 10
10.46016476839253
 20
-40.45537771621396
 30
0.0
  0
VERTEX
  5
2C7
330
2C5
100
AcDbEntity
  8
Capa 1
 62
   178
370
     9
100
AcDbVertex
100
AcDb2dVertex
 10
10.4717400394704
 20
-40.45467875442155
 30
0.0
  0
SEQEND
  5
2C8
330
2C5
100
AcDbEntity
  8
Capa 1
 62
   178
370
     9
  0
POLYLINE
  5
2C9
330
1F
100
AcDbEntity
  8
Capa 1
 62
   178
370
     9
100
AcDb2dPolyline
 66
     1
 10
0.0
 20
0.0
 30
0.0
  0
VERTEX
  5
2CA
330
2C9
100
AcDbEntity
  8
Capa 1
 62
   178
370
     9
100
AcDbVertex
100
AcDb2dVertex
 10
10.46016476839253
 20
-40.45537771621396
 30
0.0
  0
VERTEX
  5
2CB
330
2C9
100
AcDbEntity
  8
Capa 1
 62
   178
370
     9
100
AcDbVertex
100
AcDb2dVertex
 10
11.74067252625245
 20
-40.17243817341665
 30
0.0
  0
SEQEND
  5
2CC
330
2C9
100
AcDbEntity
  8
Capa 1
 62
   178
370
     9
  0
POLYLINE
  5
2CD
330
1F
100
AcDbEntity
  8
Capa 1
 62
   178
370
     9
100
AcDb2dPolyline
 66
     1
 10
0.0
 20
0.0
 30
0.0
  0
VERTEX
  5
2CE
330
2CD
100
AcDbEntity
  8
Capa 1
 62
   178
370
     9
100
AcDbVertex
100
AcDb2dVertex
 10
11.74067252625245
 20
-40.17243817341665
 30
0.0
  0
VERTEX
  5
2CF
330
2CD
100
AcDbEntity
  8
Capa 1
 62
   178
370
     9
100
AcDbVertex
100
AcDb2dVertex
 10
11.75224613783869
 20
-40.17174108440944
 30
0.0
  0
SEQEND
  5
2D0
330
2CD
100
AcDbEntity
  8
Capa 1
 62
   178
370
     9
  0
POLYLINE
  5
2D1
330
1F
100
AcDbEntity
  8
Capa 1
 62
   178
370
     9
100
AcDb2dPolyline
 66
     1
 10
0.0
 20
0.0
 30
0.0
  0
VERTEX
  5
2D2
330
2D1
100
AcDbEntity
  8
Capa 1
 62
   178
370
     9
100
AcDbVertex
100
AcDb2dVertex
 10
11.74067252625245
 20
-40.17243817341665
 30
0.0
  0
VERTEX
  5
2D3
330
2D1
100
AcDbEntity
  8
Capa 1
 62
   178
370
     9
100
AcDbVertex
100
AcDb2dVertex
 10
12.87207702690197
 20
-39.50760074706879
 30
0.0
  0
SEQEND
  5
2D4
330
2D1
100
AcDbEntity
  8
Capa 1
 62
   178
370
     9
  0
POLYLINE
  5
2D5
330
1F
100
AcDbEntity
  8
Capa 1
 62
   178
370
     9
100
AcDb2dPolyline
 66
     1
 10
0.0
 20
0.0
 30
0.0
  0
VERTEX
  5
2D6
330
2D5
100
AcDbEntity
  8
Capa 1
 62
   178
370
     9
100
AcDbVertex
100
AcDb2dVertex
 10
12.87207702690197
 20
-39.50760074706879
 30
0.0
  0
VERTEX
  5
2D7
330
2D5
100
AcDbEntity
  8
Capa 1
 62
   178
370
     9
100
AcDbVertex
100
AcDb2dVertex
 10
12.88365395747173
 20
-39.50689991249095
 30
0.0
  0
SEQEND
  5
2D8
330
2D5
100
AcDbEntity
  8
Capa 1
 62
   178
370
     9
  0
POLYLINE
  5
2D9
330
1F
100
AcDbEntity
  8
Capa 1
 62
   178
370
     9
100
AcDb2dPolyline
 66
     1
 10
0.0
 20
0.0
 30
0.0
  0
VERTEX
  5
2DA
330
2D9
100
AcDbEntity
  8
Capa 1
 62
   178
370
     9
100
AcDbVertex
100
AcDb2dVertex
 10
11.74067252625245
 20
-40.17243817341665
 30
0.0
  0
VERTEX
  5
2DB
330
2D9
100
AcDbEntity
  8
Capa 1
 62
   178
370
     9
100
AcDbVertex
100
AcDb2dVertex
 10
13.02233887090321
 20
-39.88942867045247
 30
0.0
  0
SEQEND
  5
2DC
330
2D9
100
AcDbEntity
  8
Capa 1
 62
   178
370
     9
  0
POLYLINE
  5
2DD
330
1F
100
AcDbEntity
  8
Capa 1
 62
   178
370
     9
100
AcDb2dPolyline
 66
     1
 10
0.0
 20
0.0
 30
0.0
  0
VERTEX
  5
2DE
330
2DD
100
AcDbEntity
  8
Capa 1
 62
   178
370
     9
100
AcDbVertex
100
AcDb2dVertex
 10
13.02233887090321
 20
-39.88942867045247
 30
0.0
  0
VERTEX
  5
2DF
330
2DD
100
AcDbEntity
  8
Capa 1
 62
   178
370
     9
100
AcDbVertex
100
AcDb2dVertex
 10
13.0339124824889
 20
-39.88873158144506
 30
0.0
  0
SEQEND
  5
2E0
330
2DD
100
AcDbEntity
  8
Capa 1
 62
   178
370
     9
  0
POLYLINE
  5
2E1
330
1F
100
AcDbEntity
  8
Capa 1
 62
   178
370
     9
100
AcDb2dPolyline
 66
     1
 10
0.0
 20
0.0
 30
0.0
  0
VERTEX
  5
2E2
330
2E1
100
AcDbEntity
  8
Capa 1
 62
   178
370
     9
100
AcDbVertex
100
AcDb2dVertex
 10
13.02233887090321
 20
-39.88942867045247
 30
0.0
  0
VERTEX
  5
2E3
330
2E1
100
AcDbEntity
  8
Capa 1
 62
   178
370
     9
100
AcDbVertex
100
AcDb2dVertex
 10
13.68717817003618
 20
-41.02083483059397
 30
0.0
  0
SEQEND
  5
2E4
330
2E1
100
AcDbEntity
  8
Capa 1
 62
   178
370
     9
  0
POLYLINE
  5
2E5
330
1F
100
AcDbEntity
  8
Capa 1
 62
   178
370
     9
100
AcDb2dPolyline
 66
     1
 10
0.0
 20
0.0
 30
0.0
  0
VERTEX
  5
2E6
330
2E5
100
AcDbEntity
  8
Capa 1
 62
   178
370
     9
100
AcDbVertex
100
AcDb2dVertex
 10
13.68717817003618
 20
-41.02083483059397
 30
0.0
  0
VERTEX
  5
2E7
330
2E5
100
AcDbEntity
  8
Capa 1
 62
   178
370
     9
100
AcDbVertex
100
AcDb2dVertex
 10
13.69875178162242
 20
-41.02013774158631
 30
0.0
  0
SEQEND
  5
2E8
330
2E5
100
AcDbEntity
  8
Capa 1
 62
   178
370
     9
  0
POLYLINE
  5
2E9
330
1F
100
AcDbEntity
  8
Capa 1
 62
   178
370
     9
100
AcDb2dPolyline
 66
     1
 10
0.0
 20
0.0
 30
0.0
  0
VERTEX
  5
2EA
330
2E9
100
AcDbEntity
  8
Capa 1
 62
   178
370
     9
100
AcDbVertex
100
AcDb2dVertex
 10
10.46016476839253
 20
-40.45537771621396
 30
0.0
  0
VERTEX
  5
2EB
330
2E9
100
AcDbEntity
  8
Capa 1
 62
   178
370
     9
100
AcDbVertex
100
AcDb2dVertex
 10
9.935683278940463
 20
-41.65801848131125
 30
0.0
  0
SEQEND
  5
2EC
330
2E9
100
AcDbEntity
  8
Capa 1
 62
   178
370
     9
  0
POLYLINE
  5
2ED
330
1F
100
AcDbEntity
  8
Capa 1
 62
   178
370
     9
100
AcDb2dPolyline
 66
     1
 10
0.0
 20
0.0
 30
0.0
  0
VERTEX
  5
2EE
330
2ED
100
AcDbEntity
  8
Capa 1
 62
   178
370
     9
100
AcDbVertex
100
AcDb2dVertex
 10
9.935683278940463
 20
-41.65801848131125
 30
0.0
  0
VERTEX
  5
2EF
330
2ED
100
AcDbEntity
  8
Capa 1
 62
   178
370
     9
100
AcDbVertex
100
AcDb2dVertex
 10
9.94725855001814
 20
-41.65731951951861
 30
0.0
  0
SEQEND
  5
2F0
330
2ED
100
AcDbEntity
  8
Capa 1
 62
   178
370
     9
  0
POLYLINE
  5
2F1
330
1F
100
AcDbEntity
  8
Capa 1
 62
   178
370
     9
100
AcDb2dPolyline
 66
     1
 10
0.0
 20
0.0
 30
0.0
  0
VERTEX
  5
2F2
330
2F1
100
AcDbEntity
  8
Capa 1
 62
   178
370
     9
100
AcDbVertex
100
AcDb2dVertex
 10
9.935683278940463
 20
-41.65801848131125
 30
0.0
  0
VERTEX
  5
2F3
330
2F1
100
AcDbEntity
  8
Capa 1
 62
   178
370
     9
100
AcDbVertex
100
AcDb2dVertex
 10
9.809496518544503
 20
-42.9638123495457
 30
0.0
  0
SEQEND
  5
2F4
330
2F1
100
AcDbEntity
  8
Capa 1
 62
   178
370
     9
  0
POLYLINE
  5
2F5
330
1F
100
AcDbEntity
  8
Capa 1
 62
   178
370
     9
100
AcDb2dPolyline
 66
     1
 10
0.0
 20
0.0
 30
0.0
  0
VERTEX
  5
2F6
330
2F5
100
AcDbEntity
  8
Capa 1
 62
   178
370
     9
100
AcDbVertex
100
AcDb2dVertex
 10
9.809496518544503
 20
-42.9638123495457
 30
0.0
  0
VERTEX
  5
2F7
330
2F5
100
AcDbEntity
  8
Capa 1
 62
   178
370
     9
100
AcDbVertex
100
AcDb2dVertex
 10
9.821071789621987
 20
-42.96311338775335
 30
0.0
  0
SEQEND
  5
2F8
330
2F5
100
AcDbEntity
  8
Capa 1
 62
   178
370
     9
  0
POLYLINE
  5
2F9
330
1F
100
AcDbEntity
  8
Capa 1
 62
   178
370
     9
100
AcDb2dPolyline
 66
     1
 10
0.0
 20
0.0
 30
0.0
  0
VERTEX
  5
2FA
330
2F9
100
AcDbEntity
  8
Capa 1
 62
   178
370
     9
100
AcDbVertex
100
AcDb2dVertex
 10
9.935683278940463
 20
-41.65801848131125
 30
0.0
  0
VERTEX
  5
2FB
330
2F9
100
AcDbEntity
  8
Capa 1
 62
   178
370
     9
100
AcDbVertex
100
AcDb2dVertex
 10
9.412360376279363
 20
-42.86058928624152
 30
0.0
  0
SEQEND
  5
2FC
330
2F9
100
AcDbEntity
  8
Capa 1
 62
   178
370
     9
  0
POLYLINE
  5
2FD
330
1F
100
AcDbEntity
  8
Capa 1
 62
   178
370
     9
100
AcDb2dPolyline
 66
     1
 10
0.0
 20
0.0
 30
0.0
  0
VERTEX
  5
2FE
330
2FD
100
AcDbEntity
  8
Capa 1
 62
   178
370
     9
100
AcDbVertex
100
AcDb2dVertex
 10
9.412360376279363
 20
-42.86058928624152
 30
0.0
  0
VERTEX
  5
2FF
330
2FD
100
AcDbEntity
  8
Capa 1
 62
   178
370
     9
100
AcDbVertex
100
AcDb2dVertex
 10
9.42393377457203
 20
-42.85988866495687
 30
0.0
  0
SEQEND
  5
300
330
2FD
100
AcDbEntity
  8
Capa 1
 62
   178
370
     9
  0
POLYLINE
  5
301
330
1F
100
AcDbEntity
  8
Capa 1
 62
   178
370
     9
100
AcDb2dPolyline
 66
     1
 10
0.0
 20
0.0
 30
0.0
  0
VERTEX
  5
302
330
301
100
AcDbEntity
  8
Capa 1
 62
   178
370
     9
100
AcDbVertex
100
AcDb2dVertex
 10
9.412360376279363
 20
-42.86058928624152
 30
0.0
  0
VERTEX
  5
303
330
301
100
AcDbEntity
  8
Capa 1
 62
   178
370
     9
100
AcDbVertex
100
AcDb2dVertex
 10
10.07719780262767
 20
-43.99199378689084
 30
0.0
  0
SEQEND
  5
304
330
301
100
AcDbEntity
  8
Capa 1
 62
   178
370
     9
  0
POLYLINE
  5
305
330
1F
100
AcDbEntity
  8
Capa 1
 62
   178
370
     9
100
AcDb2dPolyline
 66
     1
 10
0.0
 20
0.0
 30
0.0
  0
VERTEX
  5
306
330
305
100
AcDbEntity
  8
Capa 1
 62
   178
370
     9
100
AcDbVertex
100
AcDb2dVertex
 10
10.07719780262767
 20
-43.99199378689084
 30
0.0
  0
VERTEX
  5
307
330
305
100
AcDbEntity
  8
Capa 1
 62
   178
370
     9
100
AcDbVertex
100
AcDb2dVertex
 10
10.08877307370535
 20
-43.99129482509824
 30
0.0
  0
SEQEND
  5
308
330
305
100
AcDbEntity
  8
Capa 1
 62
   178
370
     9
  0
POLYLINE
  5
309
330
1F
100
AcDbEntity
  8
Capa 1
 62
   178
370
     9
100
AcDb2dPolyline
 66
     1
 10
0.0
 20
0.0
 30
0.0
  0
VERTEX
  5
30A
330
309
100
AcDbEntity
  8
Capa 1
 62
   178
370
     9
100
AcDbVertex
100
AcDb2dVertex
 10
9.412360376279363
 20
-42.86058928624152
 30
0.0
  0
VERTEX
  5
30B
330
309
100
AcDbEntity
  8
Capa 1
 62
   178
370
     9
100
AcDbVertex
100
AcDb2dVertex
 10
8.105952234565812
 20
-42.73385821253333
 30
0.0
  0
SEQEND
  5
30C
330
309
100
AcDbEntity
  8
Capa 1
 62
   178
370
     9
  0
POLYLINE
  5
30D
330
1F
100
AcDbEntity
  8
Capa 1
 62
   178
370
     9
100
AcDb2dPolyline
 66
     1
 10
0.0
 20
0.0
 30
0.0
  0
VERTEX
  5
30E
330
30D
100
AcDbEntity
  8
Capa 1
 62
   178
370
     9
100
AcDbVertex
100
AcDb2dVertex
 10
8.105952234565812
 20
-42.73385821253333
 30
0.0
  0
VERTEX
  5
30F
330
30D
100
AcDbEntity
  8
Capa 1
 62
   178
370
     9
100
AcDbVertex
100
AcDb2dVertex
 10
8.117527505643649
 20
-42.73315925074067
 30
0.0
  0
SEQEND
  5
310
330
30D
100
AcDbEntity
  8
Capa 1
 62
   178
370
     9
  0
POLYLINE
  5
311
330
1F
100
AcDbEntity
  8
Capa 1
 62
   178
370
     9
100
AcDb2dPolyline
 66
     1
 10
0.0
 20
0.0
 30
0.0
  0
VERTEX
  5
312
330
311
100
AcDbEntity
  8
Capa 1
 62
   178
370
     9
100
AcDbVertex
100
AcDb2dVertex
 10
9.412360376279363
 20
-42.86058928624152
 30
0.0
  0
VERTEX
  5
313
330
311
100
AcDbEntity
  8
Capa 1
 62
   178
370
     9
100
AcDbVertex
100
AcDb2dVertex
 10
8.887877014042413
 20
-44.06322839184678
 30
0.0
  0
SEQEND
  5
314
330
311
100
AcDbEntity
  8
Capa 1
 62
   178
370
     9
  0
POLYLINE
  5
315
330
1F
100
AcDbEntity
  8
Capa 1
 62
   178
370
     9
100
AcDb2dPolyline
 66
     1
 10
0.0
 20
0.0
 30
0.0
  0
VERTEX
  5
316
330
315
100
AcDbEntity
  8
Capa 1
 62
   178
370
     9
100
AcDbVertex
100
AcDb2dVertex
 10
8.887877014042413
 20
-44.06322839184678
 30
0.0
  0
VERTEX
  5
317
330
315
100
AcDbEntity
  8
Capa 1
 62
   178
370
     9
100
AcDbVertex
100
AcDb2dVertex
 10
8.89945228512009
 20
-44.06252943005421
 30
0.0
  0
SEQEND
  5
318
330
315
100
AcDbEntity
  8
Capa 1
 62
   178
370
     9
  0
POLYLINE
  5
319
330
1F
100
AcDbEntity
  8
Capa 1
 62
   178
370
     9
100
AcDb2dPolyline
 66
     1
 10
0.0
 20
0.0
 30
0.0
  0
VERTEX
  5
31A
330
319
100
AcDbEntity
  8
Capa 1
 62
   178
370
     9
100
AcDbVertex
100
AcDb2dVertex
 10
8.887877014042413
 20
-44.06322839184678
 30
0.0
  0
VERTEX
  5
31B
330
319
100
AcDbEntity
  8
Capa 1
 62
   178
370
     9
100
AcDbVertex
100
AcDb2dVertex
 10
8.017825374959491
 20
-45.0451070923564
 30
0.0
  0
SEQEND
  5
31C
330
319
100
AcDbEntity
  8
Capa 1
 62
   178
370
     9
  0
POLYLINE
  5
31D
330
1F
100
AcDbEntity
  8
Capa 1
 62
   178
370
     9
100
AcDb2dPolyline
 66
     1
 10
0.0
 20
0.0
 30
0.0
  0
VERTEX
  5
31E
330
31D
100
AcDbEntity
  8
Capa 1
 62
   178
370
     9
100
AcDbVertex
100
AcDb2dVertex
 10
8.017825374959491
 20
-45.0451070923564
 30
0.0
  0
VERTEX
  5
31F
330
31D
100
AcDbEntity
  8
Capa 1
 62
   178
370
     9
100
AcDbVertex
100
AcDb2dVertex
 10
8.029400646037391
 20
-45.0444081305637
 30
0.0
  0
SEQEND
  5
320
330
31D
100
AcDbEntity
  8
Capa 1
 62
   178
370
     9
  0
POLYLINE
  5
321
330
1F
100
AcDbEntity
  8
Capa 1
 62
   178
370
     9
100
AcDb2dPolyline
 66
     1
 10
0.0
 20
0.0
 30
0.0
  0
VERTEX
  5
322
330
321
100
AcDbEntity
  8
Capa 1
 62
   178
370
     9
100
AcDbVertex
100
AcDb2dVertex
 10
10.46016476839253
 20
-40.45537771621396
 30
0.0
  0
VERTEX
  5
323
330
321
100
AcDbEntity
  8
Capa 1
 62
   178
370
     9
100
AcDbVertex
100
AcDb2dVertex
 10
11.44204346890215
 20
-41.32542935529679
 30
0.0
  0
SEQEND
  5
324
330
321
100
AcDbEntity
  8
Capa 1
 62
   178
370
     9
  0
POLYLINE
  5
325
330
1F
100
AcDbEntity
  8
Capa 1
 62
   178
370
     9
100
AcDb2dPolyline
 66
     1
 10
0.0
 20
0.0
 30
0.0
  0
VERTEX
  5
326
330
325
100
AcDbEntity
  8
Capa 1
 62
   178
370
     9
100
AcDbVertex
100
AcDb2dVertex
 10
11.44204346890215
 20
-41.32542935529679
 30
0.0
  0
VERTEX
  5
327
330
325
100
AcDbEntity
  8
Capa 1
 62
   178
370
     9
100
AcDbVertex
100
AcDb2dVertex
 10
11.45361873998002
 20
-41.32473039350441
 30
0.0
  0
SEQEND
  5
328
330
325
100
AcDbEntity
  8
Capa 1
 62
   178
370
     9
  0
POLYLINE
  5
329
330
1F
100
AcDbEntity
  8
Capa 1
 62
   178
370
     9
100
AcDb2dPolyline
 66
     1
 10
0.0
 20
0.0
 30
0.0
  0
VERTEX
  5
32A
330
329
100
AcDbEntity
  8
Capa 1
 62
   178
370
     9
100
AcDbVertex
100
AcDb2dVertex
 10
11.44204346890215
 20
-41.32542935529679
 30
0.0
  0
VERTEX
  5
32B
330
329
100
AcDbEntity
  8
Capa 1
 62
   178
370
     9
100
AcDbVertex
100
AcDb2dVertex
 10
12.42392216941177
 20
-42.19548099437965
 30
0.0
  0
SEQEND
  5
32C
330
329
100
AcDbEntity
  8
Capa 1
 62
   178
370
     9
  0
POLYLINE
  5
32D
330
1F
100
AcDbEntity
  8
Capa 1
 62
   178
370
     9
100
AcDb2dPolyline
 66
     1
 10
0.0
 20
0.0
 30
0.0
  0
VERTEX
  5
32E
330
32D
100
AcDbEntity
  8
Capa 1
 62
   178
370
     9
100
AcDbVertex
100
AcDb2dVertex
 10
12.42392216941177
 20
-42.19548099437965
 30
0.0
  0
VERTEX
  5
32F
330
32D
100
AcDbEntity
  8
Capa 1
 62
   178
370
     9
100
AcDbVertex
100
AcDb2dVertex
 10
12.43549744048947
 20
-42.19478203258714
 30
0.0
  0
SEQEND
  5
330
330
32D
100
AcDbEntity
  8
Capa 1
 62
   178
370
     9
  0
POLYLINE
  5
331
330
1F
100
AcDbEntity
  8
Capa 1
 62
   178
370
     9
100
AcDb2dPolyline
 66
     1
 10
0.0
 20
0.0
 30
0.0
  0
VERTEX
  5
332
330
331
100
AcDbEntity
  8
Capa 1
 62
   178
370
     9
100
AcDbVertex
100
AcDb2dVertex
 10
12.42392216941177
 20
-42.19548099437965
 30
0.0
  0
VERTEX
  5
333
330
331
100
AcDbEntity
  8
Capa 1
 62
   178
370
     9
100
AcDbVertex
100
AcDb2dVertex
 10
13.70442992727181
 20
-41.91254145158246
 30
0.0
  0
SEQEND
  5
334
330
331
100
AcDbEntity
  8
Capa 1
 62
   178
370
     9
  0
POLYLINE
  5
335
330
1F
100
AcDbEntity
  8
Capa 1
 62
   178
370
     9
100
AcDb2dPolyline
 66
     1
 10
0.0
 20
0.0
 30
0.0
  0
VERTEX
  5
336
330
335
100
AcDbEntity
  8
Capa 1
 62
   178
370
     9
100
AcDbVertex
100
AcDb2dVertex
 10
13.70442992727181
 20
-41.91254145158246
 30
0.0
  0
VERTEX
  5
337
330
335
100
AcDbEntity
  8
Capa 1
 62
   178
370
     9
100
AcDbVertex
100
AcDb2dVertex
 10
13.71600353885767
 20
-41.9118443625749
 30
0.0
  0
SEQEND
  5
338
330
335
100
AcDbEntity
  8
Capa 1
 62
   178
370
     9
  0
POLYLINE
  5
339
330
1F
100
AcDbEntity
  8
Capa 1
 62
   178
370
     9
100
AcDb2dPolyline
 66
     1
 10
0.0
 20
0.0
 30
0.0
  0
VERTEX
  5
33A
330
339
100
AcDbEntity
  8
Capa 1
 62
   178
370
     9
100
AcDbVertex
100
AcDb2dVertex
 10
12.42392216941177
 20
-42.19548099437965
 30
0.0
  0
VERTEX
  5
33B
330
339
100
AcDbEntity
  8
Capa 1
 62
   178
370
     9
100
AcDbVertex
100
AcDb2dVertex
 10
11.89944067995964
 20
-43.39812175947687
 30
0.0
  0
SEQEND
  5
33C
330
339
100
AcDbEntity
  8
Capa 1
 62
   178
370
     9
  0
POLYLINE
  5
33D
330
1F
100
AcDbEntity
  8
Capa 1
 62
   178
370
     9
100
AcDb2dPolyline
 66
     1
 10
0.0
 20
0.0
 30
0.0
  0
VERTEX
  5
33E
330
33D
100
AcDbEntity
  8
Capa 1
 62
   178
370
     9
100
AcDbVertex
100
AcDb2dVertex
 10
11.89944067995964
 20
-43.39812175947687
 30
0.0
  0
VERTEX
  5
33F
330
33D
100
AcDbEntity
  8
Capa 1
 62
   178
370
     9
100
AcDbVertex
100
AcDb2dVertex
 10
11.91101595103754
 20
-43.39742279768448
 30
0.0
  0
SEQEND
  5
340
330
33D
100
AcDbEntity
  8
Capa 1
 62
   178
370
     9
  0
POLYLINE
  5
341
330
1F
100
AcDbEntity
  8
Capa 1
 62
   178
370
     9
100
AcDb2dPolyline
 66
     1
 10
0.0
 20
0.0
 30
0.0
  0
VERTEX
  5
342
330
341
100
AcDbEntity
  8
Capa 1
 62
   178
370
     9
100
AcDbVertex
100
AcDb2dVertex
 10
12.42392216941177
 20
-42.19548099437965
 30
0.0
  0
VERTEX
  5
343
330
341
100
AcDbEntity
  8
Capa 1
 62
   178
370
     9
100
AcDbVertex
100
AcDb2dVertex
 10
13.40580086992129
 20
-43.06553263346241
 30
0.0
  0
SEQEND
  5
344
330
341
100
AcDbEntity
  8
Capa 1
 62
   178
370
     9
  0
POLYLINE
  5
345
330
1F
100
AcDbEntity
  8
Capa 1
 62
   178
370
     9
100
AcDb2dPolyline
 66
     1
 10
0.0
 20
0.0
 30
0.0
  0
VERTEX
  5
346
330
345
100
AcDbEntity
  8
Capa 1
 62
   178
370
     9
100
AcDbVertex
100
AcDb2dVertex
 10
13.40580086992129
 20
-43.06553263346241
 30
0.0
  0
VERTEX
  5
347
330
345
100
AcDbEntity
  8
Capa 1
 62
   178
370
     9
100
AcDbVertex
100
AcDb2dVertex
 10
13.41737614099893
 20
-43.0648336716698
 30
0.0
  0
SEQEND
  5
348
330
345
100
AcDbEntity
  8
Capa 1
 62
   178
370
     9
  0
POLYLINE
  5
349
330
1F
100
AcDbEntity
  8
Capa 1
 62
   178
370
     9
100
AcDb2dPolyline
 66
     1
 10
0.0
 20
0.0
 30
0.0
  0
VERTEX
  5
34A
330
349
100
AcDbEntity
  8
Capa 1
 62
   178
370
     9
100
AcDbVertex
100
AcDb2dVertex
 10
13.40580086992129
 20
-43.06553263346241
 30
0.0
  0
VERTEX
  5
34B
330
349
100
AcDbEntity
  8
Capa 1
 62
   178
370
     9
100
AcDbVertex
100
AcDb2dVertex
 10
14.071184482366
 20
-44.19632452012459
 30
0.0
  0
SEQEND
  5
34C
330
349
100
AcDbEntity
  8
Capa 1
 62
   178
370
     9
  0
POLYLINE
  5
34D
330
1F
100
AcDbEntity
  8
Capa 1
 62
   178
370
     9
100
AcDb2dPolyline
 66
     1
 10
0.0
 20
0.0
 30
0.0
  0
VERTEX
  5
34E
330
34D
100
AcDbEntity
  8
Capa 1
 62
   178
370
     9
100
AcDbVertex
100
AcDb2dVertex
 10
14.071184482366
 20
-44.19632452012459
 30
0.0
  0
VERTEX
  5
34F
330
34D
100
AcDbEntity
  8
Capa 1
 62
   178
370
     9
100
AcDbVertex
100
AcDb2dVertex
 10
14.08275975344419
 20
-44.19562555833221
 30
0.0
  0
SEQEND
  5
350
330
34D
100
AcDbEntity
  8
Capa 1
 62
   178
370
     9
  0
POLYLINE
  5
351
330
1F
100
AcDbEntity
  8
Capa 1
 62
   178
370
     9
100
AcDb2dPolyline
 66
     1
 10
0.0
 20
0.0
 30
0.0
  0
VERTEX
  5
352
330
351
100
AcDbEntity
  8
Capa 1
 62
   178
370
     9
100
AcDbVertex
100
AcDb2dVertex
 10
14.071184482366
 20
-44.19632452012459
 30
0.0
  0
VERTEX
  5
353
330
351
100
AcDbEntity
  8
Capa 1
 62
   178
370
     9
100
AcDbVertex
100
AcDb2dVertex
 10
14.08275975344419
 20
-44.19562555833221
 30
0.0
  0
SEQEND
  5
354
330
351
100
AcDbEntity
  8
Capa 1
 62
   178
370
     9
  0
POLYLINE
  5
355
330
1F
100
AcDbEntity
  8
Capa 1
 62
   178
370
     9
100
AcDb2dPolyline
 66
     1
 10
0.0
 20
0.0
 30
0.0
  0
VERTEX
  5
356
330
355
100
AcDbEntity
  8
Capa 1
 62
   178
370
     9
100
AcDbVertex
100
AcDb2dVertex
 10
14.071184482366
 20
-44.19632452012459
 30
0.0
  0
VERTEX
  5
357
330
355
100
AcDbEntity
  8
Capa 1
 62
   178
370
     9
100
AcDbVertex
100
AcDb2dVertex
 10
15.05306318287568
 20
-45.06637615920751
 30
0.0
  0
SEQEND
  5
358
330
355
100
AcDbEntity
  8
Capa 1
 62
   178
370
     9
  0
POLYLINE
  5
359
330
1F
100
AcDbEntity
  8
Capa 1
 62
   178
370
     9
100
AcDb2dPolyline
 66
     1
 10
0.0
 20
0.0
 30
0.0
  0
VERTEX
  5
35A
330
359
100
AcDbEntity
  8
Capa 1
 62
   178
370
     9
100
AcDbVertex
100
AcDb2dVertex
 10
15.05306318287568
 20
-45.06637615920751
 30
0.0
  0
VERTEX
  5
35B
330
359
100
AcDbEntity
  8
Capa 1
 62
   178
370
     9
100
AcDbVertex
100
AcDb2dVertex
 10
15.06463845395371
 20
-45.06567719741491
 30
0.0
  0
SEQEND
  5
35C
330
359
100
AcDbEntity
  8
Capa 1
 62
   178
370
     9
  0
POLYLINE
  5
35D
330
1F
100
AcDbEntity
  8
Capa 1
 62
   178
370
     9
100
AcDb2dPolyline
 66
     1
 10
0.0
 20
0.0
 30
0.0
  0
VERTEX
  5
35E
330
35D
100
AcDbEntity
  8
Capa 1
 62
   178
370
     9
100
AcDbVertex
100
AcDb2dVertex
 10
14.071184482366
 20
-44.19632452012459
 30
0.0
  0
VERTEX
  5
35F
330
35D
100
AcDbEntity
  8
Capa 1
 62
   178
370
     9
100
AcDbVertex
100
AcDb2dVertex
 10
14.73540950802022
 20
-45.32718636695422
 30
0.0
  0
SEQEND
  5
360
330
35D
100
AcDbEntity
  8
Capa 1
 62
   178
370
     9
  0
POLYLINE
  5
361
330
1F
100
AcDbEntity
  8
Capa 1
 62
   178
370
     9
100
AcDb2dPolyline
 66
     1
 10
0.0
 20
0.0
 30
0.0
  0
VERTEX
  5
362
330
361
100
AcDbEntity
  8
Capa 1
 62
   178
370
     9
100
AcDbVertex
100
AcDb2dVertex
 10
14.73540950802022
 20
-45.32718636695422
 30
0.0
  0
VERTEX
  5
363
330
361
100
AcDbEntity
  8
Capa 1
 62
   178
370
     9
100
AcDbVertex
100
AcDb2dVertex
 10
14.74698477909825
 20
-45.32648740516165
 30
0.0
  0
SEQEND
  5
364
330
361
100
AcDbEntity
  8
Capa 1
 62
   178
370
     9
  0
POLYLINE
  5
365
330
1F
100
AcDbEntity
  8
Capa 1
 62
   178
370
     9
100
AcDb2dPolyline
 66
     1
 10
0.0
 20
0.0
 30
0.0
  0
VERTEX
  5
366
330
365
100
AcDbEntity
  8
Capa 1
 62
   178
370
     9
100
AcDbVertex
100
AcDb2dVertex
 10
14.73540950802022
 20
-45.32718636695422
 30
0.0
  0
VERTEX
  5
367
330
365
100
AcDbEntity
  8
Capa 1
 62
   178
370
     9
100
AcDbVertex
100
AcDb2dVertex
 10
16.04181764973358
 20
-45.45391744066218
 30
0.0
  0
SEQEND
  5
368
330
365
100
AcDbEntity
  8
Capa 1
 62
   178
370
     9
  0
POLYLINE
  5
369
330
1F
100
AcDbEntity
  8
Capa 1
 62
   178
370
     9
100
AcDb2dPolyline
 66
     1
 10
0.0
 20
0.0
 30
0.0
  0
VERTEX
  5
36A
330
369
100
AcDbEntity
  8
Capa 1
 62
   178
370
     9
100
AcDbVertex
100
AcDb2dVertex
 10
16.04181764973358
 20
-45.45391744066218
 30
0.0
  0
VERTEX
  5
36B
330
369
100
AcDbEntity
  8
Capa 1
 62
   178
370
     9
100
AcDbVertex
100
AcDb2dVertex
 10
16.05339292081177
 20
-45.45321847886952
 30
0.0
  0
SEQEND
  5
36C
330
369
100
AcDbEntity
  8
Capa 1
 62
   178
370
     9
  0
POLYLINE
  5
36D
330
1F
100
AcDbEntity
  8
Capa 1
 62
   178
370
     9
100
AcDb2dPolyline
 66
     1
 10
0.0
 20
0.0
 30
0.0
  0
VERTEX
  5
36E
330
36D
100
AcDbEntity
  8
Capa 1
 62
   178
370
     9
100
AcDbVertex
100
AcDb2dVertex
 10
14.73540950802022
 20
-45.32718636695422
 30
0.0
  0
VERTEX
  5
36F
330
36D
100
AcDbEntity
  8
Capa 1
 62
   178
370
     9
100
AcDbVertex
100
AcDb2dVertex
 10
13.86535786893746
 20
-46.30906506746378
 30
0.0
  0
SEQEND
  5
370
330
36D
100
AcDbEntity
  8
Capa 1
 62
   178
370
     9
  0
POLYLINE
  5
371
330
1F
100
AcDbEntity
  8
Capa 1
 62
   178
370
     9
100
AcDb2dPolyline
 66
     1
 10
0.0
 20
0.0
 30
0.0
  0
VERTEX
  5
372
330
371
100
AcDbEntity
  8
Capa 1
 62
   178
370
     9
100
AcDbVertex
100
AcDb2dVertex
 10
13.86535786893746
 20
-46.30906506746378
 30
0.0
  0
VERTEX
  5
373
330
371
100
AcDbEntity
  8
Capa 1
 62
   178
370
     9
100
AcDbVertex
100
AcDb2dVertex
 10
13.87693314001546
 20
-46.30836610567118
 30
0.0
  0
SEQEND
  5
374
330
371
100
AcDbEntity
  8
Capa 1
 62
   178
370
     9
  0
POLYLINE
  5
375
330
1F
100
AcDbEntity
  8
Capa 1
 62
   178
370
     9
100
AcDb2dPolyline
 66
     1
 10
0.0
 20
0.0
 30
0.0
  0
VERTEX
  5
376
330
375
100
AcDbEntity
  8
Capa 1
 62
   178
370
     9
100
AcDbVertex
100
AcDb2dVertex
 10
14.73540950802022
 20
-45.32718636695422
 30
0.0
  0
VERTEX
  5
377
330
375
100
AcDbEntity
  8
Capa 1
 62
   178
370
     9
100
AcDbVertex
100
AcDb2dVertex
 10
15.4007947799574
 20
-46.4579763808314
 30
0.0
  0
SEQEND
  5
378
330
375
100
AcDbEntity
  8
Capa 1
 62
   178
370
     9
  0
POLYLINE
  5
379
330
1F
100
AcDbEntity
  8
Capa 1
 62
   178
370
     9
100
AcDb2dPolyline
 66
     1
 10
0.0
 20
0.0
 30
0.0
  0
VERTEX
  5
37A
330
379
100
AcDbEntity
  8
Capa 1
 62
   178
370
     9
100
AcDbVertex
100
AcDb2dVertex
 10
15.4007947799574
 20
-46.4579763808314
 30
0.0
  0
VERTEX
  5
37B
330
379
100
AcDbEntity
  8
Capa 1
 62
   178
370
     9
100
AcDbVertex
100
AcDb2dVertex
 10
15.41236839154325
 20
-46.45727929182384
 30
0.0
  0
SEQEND
  5
37C
330
379
100
AcDbEntity
  8
Capa 1
 62
   178
370
     9
  0
POLYLINE
  5
37D
330
1F
100
AcDbEntity
  8
Capa 1
 62
   178
370
     9
100
AcDb2dPolyline
 66
     1
 10
0.0
 20
0.0
 30
0.0
  0
VERTEX
  5
37E
330
37D
100
AcDbEntity
  8
Capa 1
 62
   178
370
     9
100
AcDbVertex
100
AcDb2dVertex
 10
15.68380428292146
 20
-47.73964272548241
 30
0.0
  0
VERTEX
  5
37F
330
37D
100
AcDbEntity
  8
Capa 1
 62
   178
370
     9
100
AcDbVertex
100
AcDb2dVertex
 10
15.69537789450731
 20
-47.73894563647482
 30
0.0
  0
SEQEND
  5
380
330
37D
100
AcDbEntity
  8
Capa 1
 62
   178
370
     9
  0
POLYLINE
  5
381
330
1F
100
AcDbEntity
  8
Capa 1
 62
   178
370
     9
100
AcDb2dPolyline
 66
     1
 10
0.0
 20
0.0
 30
0.0
  0
VERTEX
  5
382
330
381
100
AcDbEntity
  8
Capa 1
 62
   178
370
     9
100
AcDbVertex
100
AcDb2dVertex
 10
13.40580086992129
 20
-43.06553263346241
 30
0.0
  0
VERTEX
  5
383
330
381
100
AcDbEntity
  8
Capa 1
 62
   178
370
     9
100
AcDbVertex
100
AcDb2dVertex
 10
14.6863086277813
 20
-42.78259309066519
 30
0.0
  0
SEQEND
  5
384
330
381
100
AcDbEntity
  8
Capa 1
 62
   178
370
     9
  0
POLYLINE
  5
385
330
1F
100
AcDbEntity
  8
Capa 1
 62
   178
370
     9
100
AcDb2dPolyline
 66
     1
 10
0.0
 20
0.0
 30
0.0
  0
VERTEX
  5
386
330
385
100
AcDbEntity
  8
Capa 1
 62
   178
370
     9
100
AcDbVertex
100
AcDb2dVertex
 10
14.6863086277813
 20
-42.78259309066519
 30
0.0
  0
VERTEX
  5
387
330
385
100
AcDbEntity
  8
Capa 1
 62
   178
370
     9
100
AcDbVertex
100
AcDb2dVertex
 10
14.69788223936716
 20
-42.78189600165764
 30
0.0
  0
SEQEND
  5
388
330
385
100
AcDbEntity
  8
Capa 1
 62
   178
370
     9
  0
POLYLINE
  5
389
330
1F
100
AcDbEntity
  8
Capa 1
 62
   178
370
     9
100
AcDb2dPolyline
 66
     1
 10
0.0
 20
0.0
 30
0.0
  0
VERTEX
  5
38A
330
389
100
AcDbEntity
  8
Capa 1
 62
   178
370
     9
100
AcDbVertex
100
AcDb2dVertex
 10
14.6863086277813
 20
-42.78259309066519
 30
0.0
  0
VERTEX
  5
38B
330
389
100
AcDbEntity
  8
Capa 1
 62
   178
370
     9
100
AcDbVertex
100
AcDb2dVertex
 10
15.81771312843047
 20
-42.11775566431701
 30
0.0
  0
SEQEND
  5
38C
330
389
100
AcDbEntity
  8
Capa 1
 62
   178
370
     9
  0
POLYLINE
  5
38D
330
1F
100
AcDbEntity
  8
Capa 1
 62
   178
370
     9
100
AcDb2dPolyline
 66
     1
 10
0.0
 20
0.0
 30
0.0
  0
VERTEX
  5
38E
330
38D
100
AcDbEntity
  8
Capa 1
 62
   178
370
     9
100
AcDbVertex
100
AcDb2dVertex
 10
15.81771312843047
 20
-42.11775566431701
 30
0.0
  0
VERTEX
  5
38F
330
38D
100
AcDbEntity
  8
Capa 1
 62
   178
370
     9
100
AcDbVertex
100
AcDb2dVertex
 10
15.82929005900058
 20
-42.11705482973949
 30
0.0
  0
SEQEND
  5
390
330
38D
100
AcDbEntity
  8
Capa 1
 62
   178
370
     9
  0
POLYLINE
  5
391
330
1F
100
AcDbEntity
  8
Capa 1
 62
   178
370
     9
100
AcDb2dPolyline
 66
     1
 10
0.0
 20
0.0
 30
0.0
  0
VERTEX
  5
392
330
391
100
AcDbEntity
  8
Capa 1
 62
   178
370
     9
100
AcDbVertex
100
AcDb2dVertex
 10
14.6863086277813
 20
-42.78259309066519
 30
0.0
  0
VERTEX
  5
393
330
391
100
AcDbEntity
  8
Capa 1
 62
   178
370
     9
100
AcDbVertex
100
AcDb2dVertex
 10
15.96797497243187
 20
-42.49958358770085
 30
0.0
  0
SEQEND
  5
394
330
391
100
AcDbEntity
  8
Capa 1
 62
   178
370
     9
  0
POLYLINE
  5
395
330
1F
100
AcDbEntity
  8
Capa 1
 62
   178
370
     9
100
AcDb2dPolyline
 66
     1
 10
0.0
 20
0.0
 30
0.0
  0
VERTEX
  5
396
330
395
100
AcDbEntity
  8
Capa 1
 62
   178
370
     9
100
AcDbVertex
100
AcDb2dVertex
 10
15.96797497243187
 20
-42.49958358770085
 30
0.0
  0
VERTEX
  5
397
330
395
100
AcDbEntity
  8
Capa 1
 62
   178
370
     9
100
AcDbVertex
100
AcDb2dVertex
 10
15.97954858401779
 20
-42.49888649869358
 30
0.0
  0
SEQEND
  5
398
330
395
100
AcDbEntity
  8
Capa 1
 62
   178
370
     9
  0
POLYLINE
  5
399
330
1F
100
AcDbEntity
  8
Capa 1
 62
   178
370
     9
100
AcDb2dPolyline
 66
     1
 10
0.0
 20
0.0
 30
0.0
  0
VERTEX
  5
39A
330
399
100
AcDbEntity
  8
Capa 1
 62
   178
370
     9
100
AcDbVertex
100
AcDb2dVertex
 10
15.96797497243187
 20
-42.49958358770085
 30
0.0
  0
VERTEX
  5
39B
330
399
100
AcDbEntity
  8
Capa 1
 62
   178
370
     9
100
AcDbVertex
100
AcDb2dVertex
 10
16.49184052891299
 20
-41.29640038207694
 30
0.0
  0
SEQEND
  5
39C
330
399
100
AcDbEntity
  8
Capa 1
 62
   178
370
     9
  0
POLYLINE
  5
39D
330
1F
100
AcDbEntity
  8
Capa 1
 62
   178
370
     9
100
AcDb2dPolyline
 66
     1
 10
0.0
 20
0.0
 30
0.0
  0
VERTEX
  5
39E
330
39D
100
AcDbEntity
  8
Capa 1
 62
   178
370
     9
100
AcDbVertex
100
AcDb2dVertex
 10
16.49184052891299
 20
-41.29640038207694
 30
0.0
  0
VERTEX
  5
39F
330
39D
100
AcDbEntity
  8
Capa 1
 62
   178
370
     9
100
AcDbVertex
100
AcDb2dVertex
 10
16.50341745948278
 20
-41.29569954749945
 30
0.0
  0
SEQEND
  5
3A0
330
39D
100
AcDbEntity
  8
Capa 1
 62
   178
370
     9
  0
POLYLINE
  5
3A1
330
1F
100
AcDbEntity
  8
Capa 1
 62
   178
370
     9
100
AcDb2dPolyline
 66
     1
 10
0.0
 20
0.0
 30
0.0
  0
VERTEX
  5
3A2
330
3A1
100
AcDbEntity
  8
Capa 1
 62
   178
370
     9
100
AcDbVertex
100
AcDb2dVertex
 10
15.96797497243187
 20
-42.49958358770085
 30
0.0
  0
VERTEX
  5
3A3
330
3A1
100
AcDbEntity
  8
Capa 1
 62
   178
370
     9
100
AcDbVertex
100
AcDb2dVertex
 10
16.63281427156487
 20
-43.63098974784238
 30
0.0
  0
SEQEND
  5
3A4
330
3A1
100
AcDbEntity
  8
Capa 1
 62
   178
370
     9
  0
POLYLINE
  5
3A5
330
1F
100
AcDbEntity
  8
Capa 1
 62
   178
370
     9
100
AcDb2dPolyline
 66
     1
 10
0.0
 20
0.0
 30
0.0
  0
VERTEX
  5
3A6
330
3A5
100
AcDbEntity
  8
Capa 1
 62
   178
370
     9
100
AcDbVertex
100
AcDb2dVertex
 10
16.63281427156487
 20
-43.63098974784238
 30
0.0
  0
VERTEX
  5
3A7
330
3A5
100
AcDbEntity
  8
Capa 1
 62
   178
370
     9
100
AcDbVertex
100
AcDb2dVertex
 10
16.64438788315114
 20
-43.63029265883473
 30
0.0
  0
SEQEND
  5
3A8
330
3A5
100
AcDbEntity
  8
Capa 1
 62
   178
370
     9
  0
POLYLINE
  5
3A9
330
1F
100
AcDbEntity
  8
Capa 1
 62
   178
370
     9
100
AcDb2dPolyline
 66
     1
 10
0.0
 20
0.0
 30
0.0
  0
VERTEX
  5
3AA
330
3A9
100
AcDbEntity
  8
Capa 1
 62
   178
370
     9
100
AcDbVertex
100
AcDb2dVertex
 10
15.96797497243187
 20
-42.49958358770085
 30
0.0
  0
VERTEX
  5
3AB
330
3A9
100
AcDbEntity
  8
Capa 1
 62
   178
370
     9
100
AcDbVertex
100
AcDb2dVertex
 10
17.24848273029189
 20
-42.21664404490364
 30
0.0
  0
SEQEND
  5
3AC
330
3A9
100
AcDbEntity
  8
Capa 1
 62
   178
370
     9
  0
POLYLINE
  5
3AD
330
1F
100
AcDbEntity
  8
Capa 1
 62
   178
370
     9
100
AcDb2dPolyline
 66
     1
 10
0.0
 20
0.0
 30
0.0
  0
VERTEX
  5
3AE
330
3AD
100
AcDbEntity
  8
Capa 1
 62
   178
370
     9
100
AcDbVertex
100
AcDb2dVertex
 10
17.24848273029189
 20
-42.21664404490364
 30
0.0
  0
VERTEX
  5
3AF
330
3AD
100
AcDbEntity
  8
Capa 1
 62
   178
370
     9
100
AcDbVertex
100
AcDb2dVertex
 10
17.26005634187797
 20
-42.21594695589624
 30
0.0
  0
SEQEND
  5
3B0
330
3AD
100
AcDbEntity
  8
Capa 1
 62
   178
370
     9
  0
POLYLINE
  5
3B1
330
1F
100
AcDbEntity
  8
Capa 1
 62
   178
370
     9
100
AcDb2dPolyline
 66
     1
 10
0.0
 20
0.0
 30
0.0
  0
VERTEX
  5
3B2
330
3B1
100
AcDbEntity
  8
Capa 1
 62
   178
370
     9
100
AcDbVertex
100
AcDb2dVertex
 10
17.24848273029189
 20
-42.21664404490364
 30
0.0
  0
VERTEX
  5
3B3
330
3B1
100
AcDbEntity
  8
Capa 1
 62
   178
370
     9
100
AcDbVertex
100
AcDb2dVertex
 10
18.55488921251387
 20
-42.34337699139667
 30
0.0
  0
SEQEND
  5
3B4
330
3B1
100
AcDbEntity
  8
Capa 1
 62
   178
370
     9
  0
POLYLINE
  5
3B5
330
1F
100
AcDbEntity
  8
Capa 1
 62
   178
370
     9
100
AcDb2dPolyline
 66
     1
 10
0.0
 20
0.0
 30
0.0
  0
VERTEX
  5
3B6
330
3B5
100
AcDbEntity
  8
Capa 1
 62
   178
370
     9
100
AcDbVertex
100
AcDb2dVertex
 10
18.55488921251387
 20
-42.34337699139667
 30
0.0
  0
VERTEX
  5
3B7
330
3B5
100
AcDbEntity
  8
Capa 1
 62
   178
370
     9
100
AcDbVertex
100
AcDb2dVertex
 10
18.56646614308308
 20
-42.34267615681934
 30
0.0
  0
SEQEND
  5
3B8
330
3B5
100
AcDbEntity
  8
Capa 1
 62
   178
370
     9
  0
POLYLINE
  5
3B9
330
1F
100
AcDbEntity
  8
Capa 1
 62
   178
370
     9
100
AcDb2dPolyline
 66
     1
 10
0.0
 20
0.0
 30
0.0
  0
VERTEX
  5
3BA
330
3B9
100
AcDbEntity
  8
Capa 1
 62
   178
370
     9
100
AcDbVertex
100
AcDb2dVertex
 10
17.24848273029189
 20
-42.21664404490364
 30
0.0
  0
VERTEX
  5
3BB
330
3B9
100
AcDbEntity
  8
Capa 1
 62
   178
370
     9
100
AcDbVertex
100
AcDb2dVertex
 10
18.37988723094144
 20
-41.55180661855545
 30
0.0
  0
SEQEND
  5
3BC
330
3B9
100
AcDbEntity
  8
Capa 1
 62
   178
370
     9
  0
POLYLINE
  5
3BD
330
1F
100
AcDbEntity
  8
Capa 1
 62
   178
370
     9
100
AcDb2dPolyline
 66
     1
 10
0.0
 20
0.0
 30
0.0
  0
VERTEX
  5
3BE
330
3BD
100
AcDbEntity
  8
Capa 1
 62
   178
370
     9
100
AcDbVertex
100
AcDb2dVertex
 10
18.37988723094144
 20
-41.55180661855545
 30
0.0
  0
VERTEX
  5
3BF
330
3BD
100
AcDbEntity
  8
Capa 1
 62
   178
370
     9
100
AcDbVertex
100
AcDb2dVertex
 10
18.39146416151081
 20
-41.55110578397797
 30
0.0
  0
SEQEND
  5
3C0
330
3BD
100
AcDbEntity
  8
Capa 1
 62
   178
370
     9
  0
POLYLINE
  5
3C1
330
1F
100
AcDbEntity
  8
Capa 1
 62
   178
370
     9
100
AcDb2dPolyline
 66
     1
 10
0.0
 20
0.0
 30
0.0
  0
VERTEX
  5
3C2
330
3C1
100
AcDbEntity
  8
Capa 1
 62
   178
370
     9
100
AcDbVertex
100
AcDb2dVertex
 10
18.37988723094144
 20
-41.55180661855545
 30
0.0
  0
VERTEX
  5
3C3
330
3C1
100
AcDbEntity
  8
Capa 1
 62
   178
370
     9
100
AcDbVertex
100
AcDb2dVertex
 10
19.24993887002411
 20
-40.56992791804606
 30
0.0
  0
SEQEND
  5
3C4
330
3C1
100
AcDbEntity
  8
Capa 1
 62
   178
370
     9
  0
POLYLINE
  5
3C5
330
1F
100
AcDbEntity
  8
Capa 1
 62
   178
370
     9
100
AcDb2dPolyline
 66
     1
 10
0.0
 20
0.0
 30
0.0
  0
VERTEX
  5
3C6
330
3C5
100
AcDbEntity
  8
Capa 1
 62
   178
370
     9
100
AcDbVertex
100
AcDb2dVertex
 10
19.24993887002411
 20
-40.56992791804606
 30
0.0
  0
VERTEX
  5
3C7
330
3C5
100
AcDbEntity
  8
Capa 1
 62
   178
370
     9
100
AcDbVertex
100
AcDb2dVertex
 10
19.26151580059373
 20
-40.56922708346828
 30
0.0
  0
SEQEND
  5
3C8
330
3C5
100
AcDbEntity
  8
Capa 1
 62
   178
370
     9
  0
POLYLINE
  5
3C9
330
1F
100
AcDbEntity
  8
Capa 1
 62
   178
370
     9
100
AcDb2dPolyline
 66
     1
 10
0.0
 20
0.0
 30
0.0
  0
VERTEX
  5
3CA
330
3C9
100
AcDbEntity
  8
Capa 1
 62
   178
370
     9
100
AcDbVertex
100
AcDb2dVertex
 10
18.37988723094144
 20
-41.55180661855545
 30
0.0
  0
VERTEX
  5
3CB
330
3C9
100
AcDbEntity
  8
Capa 1
 62
   178
370
     9
100
AcDbVertex
100
AcDb2dVertex
 10
19.51068077709541
 20
-40.88642113332589
 30
0.0
  0
SEQEND
  5
3CC
330
3C9
100
AcDbEntity
  8
Capa 1
 62
   178
370
     9
  0
POLYLINE
  5
3CD
330
1F
100
AcDbEntity
  8
Capa 1
 62
   178
370
     9
100
AcDb2dPolyline
 66
     1
 10
0.0
 20
0.0
 30
0.0
  0
VERTEX
  5
3CE
330
3CD
100
AcDbEntity
  8
Capa 1
 62
   178
370
     9
100
AcDbVertex
100
AcDb2dVertex
 10
19.51068077709541
 20
-40.88642113332589
 30
0.0
  0
VERTEX
  5
3CF
330
3CD
100
AcDbEntity
  8
Capa 1
 62
   178
370
     9
100
AcDbVertex
100
AcDb2dVertex
 10
19.52225438868143
 20
-40.8857240443181
 30
0.0
  0
SEQEND
  5
3D0
330
3CD
100
AcDbEntity
  8
Capa 1
 62
   178
370
     9
  0
POLYLINE
  5
3D1
330
1F
100
AcDbEntity
  8
Capa 1
 62
   178
370
     9
100
AcDb2dPolyline
 66
     1
 10
0.0
 20
0.0
 30
0.0
  0
VERTEX
  5
3D2
330
3D1
100
AcDbEntity
  8
Capa 1
 62
   178
370
     9
100
AcDbVertex
100
AcDb2dVertex
 10
19.51068077709541
 20
-40.88642113332589
 30
0.0
  0
VERTEX
  5
3D3
330
3D1
100
AcDbEntity
  8
Capa 1
 62
   178
370
     9
100
AcDbVertex
100
AcDb2dVertex
 10
19.63748181097063
 20
-39.58117157840309
 30
0.0
  0
SEQEND
  5
3D4
330
3D1
100
AcDbEntity
  8
Capa 1
 62
   178
370
     9
  0
POLYLINE
  5
3D5
330
1F
100
AcDbEntity
  8
Capa 1
 62
   178
370
     9
100
AcDb2dPolyline
 66
     1
 10
0.0
 20
0.0
 30
0.0
  0
VERTEX
  5
3D6
330
3D5
100
AcDbEntity
  8
Capa 1
 62
   178
370
     9
100
AcDbVertex
100
AcDb2dVertex
 10
19.63748181097063
 20
-39.58117157840309
 30
0.0
  0
VERTEX
  5
3D7
330
3D5
100
AcDbEntity
  8
Capa 1
 62
   178
370
     9
100
AcDbVertex
100
AcDb2dVertex
 10
19.6490535497717
 20
-39.58047282990354
 30
0.0
  0
SEQEND
  5
3D8
330
3D5
100
AcDbEntity
  8
Capa 1
 62
   178
370
     9
  0
POLYLINE
  5
3D9
330
1F
100
AcDbEntity
  8
Capa 1
 62
   178
370
     9
100
AcDb2dPolyline
 66
     1
 10
0.0
 20
0.0
 30
0.0
  0
VERTEX
  5
3DA
330
3D9
100
AcDbEntity
  8
Capa 1
 62
   178
370
     9
100
AcDbVertex
100
AcDb2dVertex
 10
20.49255947760484
 20
-41.75647277240859
 30
0.0
  0
VERTEX
  5
3DB
330
3D9
100
AcDbEntity
  8
Capa 1
 62
   178
370
     9
100
AcDbVertex
100
AcDb2dVertex
 10
20.50413308919092
 20
-41.75577568340083
 30
0.0
  0
SEQEND
  5
3DC
330
3D9
100
AcDbEntity
  8
Capa 1
 62
   178
370
     9
  0
POLYLINE
  5
3DD
330
1F
100
AcDbEntity
  8
Capa 1
 62
   178
370
     9
100
AcDb2dPolyline
 66
     1
 10
0.0
 20
0.0
 30
0.0
  0
VERTEX
  5
3DE
330
3DD
100
AcDbEntity
  8
Capa 1
 62
   178
370
     9
100
AcDbVertex
100
AcDb2dVertex
 10
19.51068077709541
 20
-40.88642113332589
 30
0.0
  0
VERTEX
  5
3DF
330
3DD
100
AcDbEntity
  8
Capa 1
 62
   178
370
     9
100
AcDbVertex
100
AcDb2dVertex
 10
20.64153909164834
 20
-40.22219632096456
 30
0.0
  0
SEQEND
  5
3E0
330
3DD
100
AcDbEntity
  8
Capa 1
 62
   178
370
     9
  0
POLYLINE
  5
3E1
330
1F
100
AcDbEntity
  8
Capa 1
 62
   178
370
     9
100
AcDb2dPolyline
 66
     1
 10
0.0
 20
0.0
 30
0.0
  0
VERTEX
  5
3E2
330
3E1
100
AcDbEntity
  8
Capa 1
 62
   178
370
     9
100
AcDbVertex
100
AcDb2dVertex
 10
20.64153909164834
 20
-40.22219632096456
 30
0.0
  0
VERTEX
  5
3E3
330
3E1
100
AcDbEntity
  8
Capa 1
 62
   178
370
     9
100
AcDbVertex
100
AcDb2dVertex
 10
20.65311602221768
 20
-40.22149548638734
 30
0.0
  0
SEQEND
  5
3E4
330
3E1
100
AcDbEntity
  8
Capa 1
 62
   178
370
     9
  0
POLYLINE
  5
3E5
330
1F
100
AcDbEntity
  8
Capa 1
 62
   178
370
     9
100
AcDb2dPolyline
 66
     1
 10
0.0
 20
0.0
 30
0.0
  0
VERTEX
  5
3E6
330
3E5
100
AcDbEntity
  8
Capa 1
 62
   178
370
     9
100
AcDbVertex
100
AcDb2dVertex
 10
21.92259303560492
 20
-39.9386441641805
 30
0.0
  0
VERTEX
  5
3E7
330
3E5
100
AcDbEntity
  8
Capa 1
 62
   178
370
     9
100
AcDbVertex
100
AcDb2dVertex
 10
21.93416809338953
 20
-39.9379416701109
 30
0.0
  0
SEQEND
  5
3E8
330
3E5
100
AcDbEntity
  8
Capa 1
 62
   178
370
     9
  0
POLYLINE
  5
3E9
330
1F
100
AcDbEntity
  8
Capa 1
 62
   178
370
     9
100
AcDb2dPolyline
 66
     1
 10
0.0
 20
0.0
 30
0.0
  0
VERTEX
  5
3EA
330
3E9
100
AcDbEntity
  8
Capa 1
 62
   178
370
     9
100
AcDbVertex
100
AcDb2dVertex
 10
17.24848273029189
 20
-42.21664404490364
 30
0.0
  0
VERTEX
  5
3EB
330
3E9
100
AcDbEntity
  8
Capa 1
 62
   178
370
     9
100
AcDbVertex
100
AcDb2dVertex
 10
18.53014907494236
 20
-41.93363454193948
 30
0.0
  0
SEQEND
  5
3EC
330
3E9
100
AcDbEntity
  8
Capa 1
 62
   178
370
     9
  0
POLYLINE
  5
3ED
330
1F
100
AcDbEntity
  8
Capa 1
 62
   178
370
     9
100
AcDb2dPolyline
 66
     1
 10
0.0
 20
0.0
 30
0.0
  0
VERTEX
  5
3EE
330
3ED
100
AcDbEntity
  8
Capa 1
 62
   178
370
     9
100
AcDbVertex
100
AcDb2dVertex
 10
18.53014907494236
 20
-41.93363454193948
 30
0.0
  0
VERTEX
  5
3EF
330
3ED
100
AcDbEntity
  8
Capa 1
 62
   178
370
     9
100
AcDbVertex
100
AcDb2dVertex
 10
18.54172268652876
 20
-41.93293745293208
 30
0.0
  0
SEQEND
  5
3F0
330
3ED
100
AcDbEntity
  8
Capa 1
 62
   178
370
     9
  0
POLYLINE
  5
3F1
330
1F
100
AcDbEntity
  8
Capa 1
 62
   178
370
     9
100
AcDb2dPolyline
 66
     1
 10
0.0
 20
0.0
 30
0.0
  0
VERTEX
  5
3F2
330
3F1
100
AcDbEntity
  8
Capa 1
 62
   178
370
     9
100
AcDbVertex
100
AcDb2dVertex
 10
18.53014907494236
 20
-41.93363454193948
 30
0.0
  0
VERTEX
  5
3F3
330
3F1
100
AcDbEntity
  8
Capa 1
 62
   178
370
     9
100
AcDbVertex
100
AcDb2dVertex
 10
19.66039498880142
 20
-41.2688670757583
 30
0.0
  0
SEQEND
  5
3F4
330
3F1
100
AcDbEntity
  8
Capa 1
 62
   178
370
     9
  0
POLYLINE
  5
3F5
330
1F
100
AcDbEntity
  8
Capa 1
 62
   178
370
     9
100
AcDb2dPolyline
 66
     1
 10
0.0
 20
0.0
 30
0.0
  0
VERTEX
  5
3F6
330
3F5
100
AcDbEntity
  8
Capa 1
 62
   178
370
     9
100
AcDbVertex
100
AcDb2dVertex
 10
19.66039498880142
 20
-41.2688670757583
 30
0.0
  0
VERTEX
  5
3F7
330
3F5
100
AcDbEntity
  8
Capa 1
 62
   178
370
     9
100
AcDbVertex
100
AcDb2dVertex
 10
19.67197191937063
 20
-41.26816624118098
 30
0.0
  0
SEQEND
  5
3F8
330
3F5
100
AcDbEntity
  8
Capa 1
 62
   178
370
     9
  0
POLYLINE
  5
3F9
330
1F
100
AcDbEntity
  8
Capa 1
 62
   178
370
     9
100
AcDb2dPolyline
 66
     1
 10
0.0
 20
0.0
 30
0.0
  0
VERTEX
  5
3FA
330
3F9
100
AcDbEntity
  8
Capa 1
 62
   178
370
     9
100
AcDbVertex
100
AcDb2dVertex
 10
18.53014907494236
 20
-41.93363454193948
 30
0.0
  0
VERTEX
  5
3FB
330
3F9
100
AcDbEntity
  8
Capa 1
 62
   178
370
     9
100
AcDbVertex
100
AcDb2dVertex
 10
19.81065351381883
 20
-41.65069874471222
 30
0.0
  0
SEQEND
  5
3FC
330
3F9
100
AcDbEntity
  8
Capa 1
 62
   178
370
     9
  0
POLYLINE
  5
3FD
330
1F
100
AcDbEntity
  8
Capa 1
 62
   178
370
     9
100
AcDb2dPolyline
 66
     1
 10
0.0
 20
0.0
 30
0.0
  0
VERTEX
  5
3FE
330
3FD
100
AcDbEntity
  8
Capa 1
 62
   178
370
     9
100
AcDbVertex
100
AcDb2dVertex
 10
19.81065351381883
 20
-41.65069874471222
 30
0.0
  0
VERTEX
  5
3FF
330
3FD
100
AcDbEntity
  8
Capa 1
 62
   178
370
     9
100
AcDbVertex
100
AcDb2dVertex
 10
19.82223044438858
 20
-41.64999791013471
 30
0.0
  0
SEQEND
  5
400
330
3FD
100
AcDbEntity
  8
Capa 1
 62
   178
370
     9
  0
POLYLINE
  5
401
330
1F
100
AcDbEntity
  8
Capa 1
 62
   178
370
     9
100
AcDb2dPolyline
 66
     1
 10
0.0
 20
0.0
 30
0.0
  0
VERTEX
  5
402
330
401
100
AcDbEntity
  8
Capa 1
 62
   178
370
     9
100
AcDbVertex
100
AcDb2dVertex
 10
20.33513666276281
 20
-40.4480561068299
 30
0.0
  0
VERTEX
  5
403
330
401
100
AcDbEntity
  8
Capa 1
 62
   178
370
     9
100
AcDbVertex
100
AcDb2dVertex
 10
20.34671027434889
 20
-40.44735901782244
 30
0.0
  0
SEQEND
  5
404
330
401
100
AcDbEntity
  8
Capa 1
 62
   178
370
     9
  0
POLYLINE
  5
405
330
1F
100
AcDbEntity
  8
Capa 1
 62
   178
370
     9
100
AcDb2dPolyline
 66
     1
 10
0.0
 20
0.0
 30
0.0
  0
VERTEX
  5
406
330
405
100
AcDbEntity
  8
Capa 1
 62
   178
370
     9
100
AcDbVertex
100
AcDb2dVertex
 10
19.81065351381883
 20
-41.65069874471222
 30
0.0
  0
VERTEX
  5
407
330
405
100
AcDbEntity
  8
Capa 1
 62
   178
370
     9
100
AcDbVertex
100
AcDb2dVertex
 10
20.47604044524753
 20
-42.78148688580468
 30
0.0
  0
SEQEND
  5
408
330
405
100
AcDbEntity
  8
Capa 1
 62
   178
370
     9
  0
POLYLINE
  5
409
330
1F
100
AcDbEntity
  8
Capa 1
 62
   178
370
     9
100
AcDb2dPolyline
 66
     1
 10
0.0
 20
0.0
 30
0.0
  0
VERTEX
  5
40A
330
409
100
AcDbEntity
  8
Capa 1
 62
   178
370
     9
100
AcDbVertex
100
AcDb2dVertex
 10
20.47604044524753
 20
-42.78148688580468
 30
0.0
  0
VERTEX
  5
40B
330
409
100
AcDbEntity
  8
Capa 1
 62
   178
370
     9
100
AcDbVertex
100
AcDb2dVertex
 10
20.48761405683339
 20
-42.78078979679708
 30
0.0
  0
SEQEND
  5
40C
330
409
100
AcDbEntity
  8
Capa 1
 62
   178
370
     9
  0
POLYLINE
  5
40D
330
1F
100
AcDbEntity
  8
Capa 1
 62
   178
370
     9
100
AcDb2dPolyline
 66
     1
 10
0.0
 20
0.0
 30
0.0
  0
VERTEX
  5
40E
330
40D
100
AcDbEntity
  8
Capa 1
 62
   178
370
     9
100
AcDbVertex
100
AcDb2dVertex
 10
19.81065351381883
 20
-41.65069874471222
 30
0.0
  0
VERTEX
  5
40F
330
40D
100
AcDbEntity
  8
Capa 1
 62
   178
370
     9
100
AcDbVertex
100
AcDb2dVertex
 10
21.09231985846955
 20
-41.36768924174801
 30
0.0
  0
SEQEND
  5
410
330
40D
100
AcDbEntity
  8
Capa 1
 62
   178
370
     9
  0
POLYLINE
  5
411
330
1F
100
AcDbEntity
  8
Capa 1
 62
   178
370
     9
100
AcDb2dPolyline
 66
     1
 10
0.0
 20
0.0
 30
0.0
  0
VERTEX
  5
412
330
411
100
AcDbEntity
  8
Capa 1
 62
   178
370
     9
100
AcDbVertex
100
AcDb2dVertex
 10
21.09231985846955
 20
-41.36768924174801
 30
0.0
  0
VERTEX
  5
413
330
411
100
AcDbEntity
  8
Capa 1
 62
   178
370
     9
100
AcDbVertex
100
AcDb2dVertex
 10
21.10389678903934
 20
-41.36698840717014
 30
0.0
  0
SEQEND
  5
414
330
411
100
AcDbEntity
  8
Capa 1
 62
   178
370
     9
  0
POLYLINE
  5
415
330
1F
100
AcDbEntity
  8
Capa 1
 62
   178
370
     9
100
AcDb2dPolyline
 66
     1
 10
0.0
 20
0.0
 30
0.0
  0
VERTEX
  5
416
330
415
100
AcDbEntity
  8
Capa 1
 62
   178
370
     9
100
AcDbVertex
100
AcDb2dVertex
 10
21.09231985846955
 20
-41.36768924174801
 30
0.0
  0
VERTEX
  5
417
330
415
100
AcDbEntity
  8
Capa 1
 62
   178
370
     9
100
AcDbVertex
100
AcDb2dVertex
 10
22.39757107288409
 20
-41.49448840283831
 30
0.0
  0
SEQEND
  5
418
330
415
100
AcDbEntity
  8
Capa 1
 62
   178
370
     9
  0
POLYLINE
  5
419
330
1F
100
AcDbEntity
  8
Capa 1
 62
   178
370
     9
100
AcDb2dPolyline
 66
     1
 10
0.0
 20
0.0
 30
0.0
  0
VERTEX
  5
41A
330
419
100
AcDbEntity
  8
Capa 1
 62
   178
370
     9
100
AcDbVertex
100
AcDb2dVertex
 10
22.39757107288409
 20
-41.49448840283831
 30
0.0
  0
VERTEX
  5
41B
330
419
100
AcDbEntity
  8
Capa 1
 62
   178
370
     9
100
AcDbVertex
100
AcDb2dVertex
 10
22.40914468447014
 20
-41.49379131383053
 30
0.0
  0
SEQEND
  5
41C
330
419
100
AcDbEntity
  8
Capa 1
 62
   178
370
     9
  0
POLYLINE
  5
41D
330
1F
100
AcDbEntity
  8
Capa 1
 62
   178
370
     9
100
AcDb2dPolyline
 66
     1
 10
0.0
 20
0.0
 30
0.0
  0
VERTEX
  5
41E
330
41D
100
AcDbEntity
  8
Capa 1
 62
   178
370
     9
100
AcDbVertex
100
AcDb2dVertex
 10
21.09231985846955
 20
-41.36768924174801
 30
0.0
  0
VERTEX
  5
41F
330
41D
100
AcDbEntity
  8
Capa 1
 62
   178
370
     9
100
AcDbVertex
100
AcDb2dVertex
 10
21.61564629340765
 20
-40.16511822352464
 30
0.0
  0
SEQEND
  5
420
330
41D
100
AcDbEntity
  8
Capa 1
 62
   178
370
     9
  0
POLYLINE
  5
421
330
1F
100
AcDbEntity
  8
Capa 1
 62
   178
370
     9
100
AcDb2dPolyline
 66
     1
 10
0.0
 20
0.0
 30
0.0
  0
VERTEX
  5
422
330
421
100
AcDbEntity
  8
Capa 1
 62
   178
370
     9
100
AcDbVertex
100
AcDb2dVertex
 10
21.61564629340765
 20
-40.16511822352464
 30
0.0
  0
VERTEX
  5
423
330
421
100
AcDbEntity
  8
Capa 1
 62
   178
370
     9
100
AcDbVertex
100
AcDb2dVertex
 10
21.62721803220872
 20
-40.16441947502548
 30
0.0
  0
SEQEND
  5
424
330
421
100
AcDbEntity
  8
Capa 1
 62
   178
370
     9
  0
POLYLINE
  5
425
330
1F
100
AcDbEntity
  8
Capa 1
 62
   178
370
     9
100
AcDb2dPolyline
 66
     1
 10
0.0
 20
0.0
 30
0.0
  0
VERTEX
  5
426
330
425
100
AcDbEntity
  8
Capa 1
 62
   178
370
     9
100
AcDbVertex
100
AcDb2dVertex
 10
21.61564629340765
 20
-40.16511822352464
 30
0.0
  0
VERTEX
  5
427
330
425
100
AcDbEntity
  8
Capa 1
 62
   178
370
     9
100
AcDbVertex
100
AcDb2dVertex
 10
21.74298976780979
 20
-38.85925273563101
 30
0.0
  0
SEQEND
  5
428
330
425
100
AcDbEntity
  8
Capa 1
 62
   178
370
     9
  0
POLYLINE
  5
429
330
1F
100
AcDbEntity
  8
Capa 1
 62
   178
370
     9
100
AcDb2dPolyline
 66
     1
 10
0.0
 20
0.0
 30
0.0
  0
VERTEX
  5
42A
330
429
100
AcDbEntity
  8
Capa 1
 62
   178
370
     9
100
AcDbVertex
100
AcDb2dVertex
 10
21.74298976780979
 20
-38.85925273563101
 30
0.0
  0
VERTEX
  5
42B
330
429
100
AcDbEntity
  8
Capa 1
 62
   178
370
     9
100
AcDbVertex
100
AcDb2dVertex
 10
21.75456337939564
 20
-38.8585556466238
 30
0.0
  0
SEQEND
  5
42C
330
429
100
AcDbEntity
  8
Capa 1
 62
   178
370
     9
  0
POLYLINE
  5
42D
330
1F
100
AcDbEntity
  8
Capa 1
 62
   178
370
     9
100
AcDb2dPolyline
 66
     1
 10
0.0
 20
0.0
 30
0.0
  0
VERTEX
  5
42E
330
42D
100
AcDbEntity
  8
Capa 1
 62
   178
370
     9
100
AcDbVertex
100
AcDb2dVertex
 10
21.61564629340765
 20
-40.16511822352464
 30
0.0
  0
VERTEX
  5
42F
330
42D
100
AcDbEntity
  8
Capa 1
 62
   178
370
     9
100
AcDbVertex
100
AcDb2dVertex
 10
22.14012612336776
 20
-38.96247933121234
 30
0.0
  0
SEQEND
  5
430
330
42D
100
AcDbEntity
  8
Capa 1
 62
   178
370
     9
  0
POLYLINE
  5
431
330
1F
100
AcDbEntity
  8
Capa 1
 62
   178
370
     9
100
AcDb2dPolyline
 66
     1
 10
0.0
 20
0.0
 30
0.0
  0
VERTEX
  5
432
330
431
100
AcDbEntity
  8
Capa 1
 62
   178
370
     9
100
AcDbVertex
100
AcDb2dVertex
 10
22.14012612336776
 20
-38.96247933121234
 30
0.0
  0
VERTEX
  5
433
330
431
100
AcDbEntity
  8
Capa 1
 62
   178
370
     9
100
AcDbVertex
100
AcDb2dVertex
 10
22.15170305393758
 20
-38.96177849663479
 30
0.0
  0
SEQEND
  5
434
330
431
100
AcDbEntity
  8
Capa 1
 62
   178
370
     9
  0
POLYLINE
  5
435
330
1F
100
AcDbEntity
  8
Capa 1
 62
   178
370
     9
100
AcDb2dPolyline
 66
     1
 10
0.0
 20
0.0
 30
0.0
  0
VERTEX
  5
436
330
435
100
AcDbEntity
  8
Capa 1
 62
   178
370
     9
100
AcDbVertex
100
AcDb2dVertex
 10
22.14012612336776
 20
-38.96247933121234
 30
0.0
  0
VERTEX
  5
437
330
435
100
AcDbEntity
  8
Capa 1
 62
   178
370
     9
100
AcDbVertex
100
AcDb2dVertex
 10
21.47474251092293
 20
-37.83168744455025
 30
0.0
  0
SEQEND
  5
438
330
435
100
AcDbEntity
  8
Capa 1
 62
   178
370
     9
  0
POLYLINE
  5
439
330
1F
100
AcDbEntity
  8
Capa 1
 62
   178
370
     9
100
AcDb2dPolyline
 66
     1
 10
0.0
 20
0.0
 30
0.0
  0
VERTEX
  5
43A
330
439
100
AcDbEntity
  8
Capa 1
 62
   178
370
     9
100
AcDbVertex
100
AcDb2dVertex
 10
21.47474251092293
 20
-37.83168744455025
 30
0.0
  0
VERTEX
  5
43B
330
439
100
AcDbEntity
  8
Capa 1
 62
   178
370
     9
100
AcDbVertex
100
AcDb2dVertex
 10
21.48631944149268
 20
-37.83098660997245
 30
0.0
  0
SEQEND
  5
43C
330
439
100
AcDbEntity
  8
Capa 1
 62
   178
370
     9
  0
POLYLINE
  5
43D
330
1F
100
AcDbEntity
  8
Capa 1
 62
   178
370
     9
100
AcDb2dPolyline
 66
     1
 10
0.0
 20
0.0
 30
0.0
  0
VERTEX
  5
43E
330
43D
100
AcDbEntity
  8
Capa 1
 62
   178
370
     9
100
AcDbVertex
100
AcDb2dVertex
 10
22.14012612336776
 20
-38.96247933121234
 30
0.0
  0
VERTEX
  5
43F
330
43D
100
AcDbEntity
  8
Capa 1
 62
   178
370
     9
100
AcDbVertex
100
AcDb2dVertex
 10
23.44537733778226
 20
-39.08927849230258
 30
0.0
  0
SEQEND
  5
440
330
43D
100
AcDbEntity
  8
Capa 1
 62
   178
370
     9
  0
POLYLINE
  5
441
330
1F
100
AcDbEntity
  8
Capa 1
 62
   178
370
     9
100
AcDb2dPolyline
 66
     1
 10
0.0
 20
0.0
 30
0.0
  0
VERTEX
  5
442
330
441
100
AcDbEntity
  8
Capa 1
 62
   178
370
     9
100
AcDbVertex
100
AcDb2dVertex
 10
23.44537733778226
 20
-39.08927849230258
 30
0.0
  0
VERTEX
  5
443
330
441
100
AcDbEntity
  8
Capa 1
 62
   178
370
     9
100
AcDbVertex
100
AcDb2dVertex
 10
23.4569490765832
 20
-39.08857974380326
 30
0.0
  0
SEQEND
  5
444
330
441
100
AcDbEntity
  8
Capa 1
 62
   178
370
     9
  0
POLYLINE
  5
445
330
1F
100
AcDbEntity
  8
Capa 1
 62
   178
370
     9
100
AcDb2dPolyline
 66
     1
 10
0.0
 20
0.0
 30
0.0
  0
VERTEX
  5
446
330
445
100
AcDbEntity
  8
Capa 1
 62
   178
370
     9
100
AcDbVertex
100
AcDb2dVertex
 10
22.14012612336776
 20
-38.96247933121234
 30
0.0
  0
VERTEX
  5
447
330
445
100
AcDbEntity
  8
Capa 1
 62
   178
370
     9
100
AcDbVertex
100
AcDb2dVertex
 10
22.66399499883281
 20
-37.75929238001844
 30
0.0
  0
SEQEND
  5
448
330
445
100
AcDbEntity
  8
Capa 1
 62
   178
370
     9
  0
POLYLINE
  5
449
330
1F
100
AcDbEntity
  8
Capa 1
 62
   178
370
     9
100
AcDb2dPolyline
 66
     1
 10
0.0
 20
0.0
 30
0.0
  0
VERTEX
  5
44A
330
449
100
AcDbEntity
  8
Capa 1
 62
   178
370
     9
100
AcDbVertex
100
AcDb2dVertex
 10
22.66399499883281
 20
-37.75929238001844
 30
0.0
  0
VERTEX
  5
44B
330
449
100
AcDbEntity
  8
Capa 1
 62
   178
370
     9
100
AcDbVertex
100
AcDb2dVertex
 10
22.67556861041886
 20
-37.75859529101068
 30
0.0
  0
SEQEND
  5
44C
330
449
100
AcDbEntity
  8
Capa 1
 62
   178
370
     9
  0
POLYLINE
  5
44D
330
1F
100
AcDbEntity
  8
Capa 1
 62
   178
370
     9
100
AcDb2dPolyline
 66
     1
 10
0.0
 20
0.0
 30
0.0
  0
VERTEX
  5
44E
330
44D
100
AcDbEntity
  8
Capa 1
 62
   178
370
     9
100
AcDbVertex
100
AcDb2dVertex
 10
22.66399499883281
 20
-37.75929238001844
 30
0.0
  0
VERTEX
  5
44F
330
44D
100
AcDbEntity
  8
Capa 1
 62
   178
370
     9
100
AcDbVertex
100
AcDb2dVertex
 10
23.53404663791551
 20
-36.77741367950901
 30
0.0
  0
SEQEND
  5
450
330
44D
100
AcDbEntity
  8
Capa 1
 62
   178
370
     9
  0
POLYLINE
  5
451
330
1F
100
AcDbEntity
  8
Capa 1
 62
   178
370
     9
100
AcDb2dPolyline
 66
     1
 10
0.0
 20
0.0
 30
0.0
  0
VERTEX
  5
452
330
451
100
AcDbEntity
  8
Capa 1
 62
   178
370
     9
100
AcDbVertex
100
AcDb2dVertex
 10
23.53404663791551
 20
-36.77741367950901
 30
0.0
  0
VERTEX
  5
453
330
451
100
AcDbEntity
  8
Capa 1
 62
   178
370
     9
100
AcDbVertex
100
AcDb2dVertex
 10
23.54562024950156
 20
-36.77671659050122
 30
0.0
  0
SEQEND
  5
454
330
451
100
AcDbEntity
  8
Capa 1
 62
   178
370
     9
  0
POLYLINE
  5
455
330
1F
100
AcDbEntity
  8
Capa 1
 62
   178
370
     9
100
AcDb2dPolyline
 66
     1
 10
0.0
 20
0.0
 30
0.0
  0
VERTEX
  5
456
330
455
100
AcDbEntity
  8
Capa 1
 62
   178
370
     9
100
AcDbVertex
100
AcDb2dVertex
 10
21.09231985846955
 20
-41.36768924174801
 30
0.0
  0
VERTEX
  5
457
330
455
100
AcDbEntity
  8
Capa 1
 62
   178
370
     9
100
AcDbVertex
100
AcDb2dVertex
 10
21.75654675690895
 20
-42.49855274806914
 30
0.0
  0
SEQEND
  5
458
330
455
100
AcDbEntity
  8
Capa 1
 62
   178
370
     9
  0
POLYLINE
  5
459
330
1F
100
AcDbEntity
  8
Capa 1
 62
   178
370
     9
100
AcDb2dPolyline
 66
     1
 10
0.0
 20
0.0
 30
0.0
  0
VERTEX
  5
45A
330
459
100
AcDbEntity
  8
Capa 1
 62
   178
370
     9
100
AcDbVertex
100
AcDb2dVertex
 10
21.75654675690895
 20
-42.49855274806914
 30
0.0
  0
VERTEX
  5
45B
330
459
100
AcDbEntity
  8
Capa 1
 62
   178
370
     9
100
AcDbVertex
100
AcDb2dVertex
 10
21.76812181469318
 20
-42.49785025400013
 30
0.0
  0
SEQEND
  5
45C
330
459
100
AcDbEntity
  8
Capa 1
 62
   178
370
     9
  0
POLYLINE
  5
45D
330
1F
100
AcDbEntity
  8
Capa 1
 62
   178
370
     9
100
AcDb2dPolyline
 66
     1
 10
0.0
 20
0.0
 30
0.0
  0
VERTEX
  5
45E
330
45D
100
AcDbEntity
  8
Capa 1
 62
   178
370
     9
100
AcDbVertex
100
AcDb2dVertex
 10
21.75654675690895
 20
-42.49855274806914
 30
0.0
  0
VERTEX
  5
45F
330
45D
100
AcDbEntity
  8
Capa 1
 62
   178
370
     9
100
AcDbVertex
100
AcDb2dVertex
 10
22.73842545741841
 20
-43.36860438715184
 30
0.0
  0
SEQEND
  5
460
330
45D
100
AcDbEntity
  8
Capa 1
 62
   178
370
     9
  0
POLYLINE
  5
461
330
1F
100
AcDbEntity
  8
Capa 1
 62
   178
370
     9
100
AcDb2dPolyline
 66
     1
 10
0.0
 20
0.0
 30
0.0
  0
VERTEX
  5
462
330
461
100
AcDbEntity
  8
Capa 1
 62
   178
370
     9
100
AcDbVertex
100
AcDb2dVertex
 10
22.73842545741841
 20
-43.36860438715184
 30
0.0
  0
VERTEX
  5
463
330
461
100
AcDbEntity
  8
Capa 1
 62
   178
370
     9
100
AcDbVertex
100
AcDb2dVertex
 10
22.75000051520267
 20
-43.36790189308285
 30
0.0
  0
SEQEND
  5
464
330
461
100
AcDbEntity
  8
Capa 1
 62
   178
370
     9
  0
POLYLINE
  5
465
330
1F
100
AcDbEntity
  8
Capa 1
 62
   178
370
     9
100
AcDb2dPolyline
 66
     1
 10
0.0
 20
0.0
 30
0.0
  0
VERTEX
  5
466
330
465
100
AcDbEntity
  8
Capa 1
 62
   178
370
     9
100
AcDbVertex
100
AcDb2dVertex
 10
21.75654675690895
 20
-42.49855274806914
 30
0.0
  0
VERTEX
  5
467
330
465
100
AcDbEntity
  8
Capa 1
 62
   178
370
     9
100
AcDbVertex
100
AcDb2dVertex
 10
22.42193181555217
 20
-43.62933922966971
 30
0.0
  0
SEQEND
  5
468
330
465
100
AcDbEntity
  8
Capa 1
 62
   178
370
     9
  0
POLYLINE
  5
469
330
1F
100
AcDbEntity
  8
Capa 1
 62
   178
370
     9
100
AcDb2dPolyline
 66
     1
 10
0.0
 20
0.0
 30
0.0
  0
VERTEX
  5
46A
330
469
100
AcDbEntity
  8
Capa 1
 62
   178
370
     9
100
AcDbVertex
100
AcDb2dVertex
 10
22.42193181555217
 20
-43.62933922966971
 30
0.0
  0
VERTEX
  5
46B
330
469
100
AcDbEntity
  8
Capa 1
 62
   178
370
     9
100
AcDbVertex
100
AcDb2dVertex
 10
22.43350542713837
 20
-43.62864214066208
 30
0.0
  0
SEQEND
  5
46C
330
469
100
AcDbEntity
  8
Capa 1
 62
   178
370
     9
  0
POLYLINE
  5
46D
330
1F
100
AcDbEntity
  8
Capa 1
 62
   178
370
     9
100
AcDb2dPolyline
 66
     1
 10
0.0
 20
0.0
 30
0.0
  0
VERTEX
  5
46E
330
46D
100
AcDbEntity
  8
Capa 1
 62
   178
370
     9
100
AcDbVertex
100
AcDb2dVertex
 10
22.42193181555217
 20
-43.62933922966971
 30
0.0
  0
VERTEX
  5
46F
330
46D
100
AcDbEntity
  8
Capa 1
 62
   178
370
     9
100
AcDbVertex
100
AcDb2dVertex
 10
23.72779398446222
 20
-43.75668644964174
 30
0.0
  0
SEQEND
  5
470
330
46D
100
AcDbEntity
  8
Capa 1
 62
   178
370
     9
  0
POLYLINE
  5
471
330
1F
100
AcDbEntity
  8
Capa 1
 62
   178
370
     9
100
AcDb2dPolyline
 66
     1
 10
0.0
 20
0.0
 30
0.0
  0
VERTEX
  5
472
330
471
100
AcDbEntity
  8
Capa 1
 62
   178
370
     9
100
AcDbVertex
100
AcDb2dVertex
 10
23.72779398446222
 20
-43.75668644964174
 30
0.0
  0
VERTEX
  5
473
330
471
100
AcDbEntity
  8
Capa 1
 62
   178
370
     9
100
AcDbVertex
100
AcDb2dVertex
 10
23.73937091503184
 20
-43.75598561506403
 30
0.0
  0
SEQEND
  5
474
330
471
100
AcDbEntity
  8
Capa 1
 62
   178
370
     9
  0
POLYLINE
  5
475
330
1F
100
AcDbEntity
  8
Capa 1
 62
   178
370
     9
100
AcDb2dPolyline
 66
     1
 10
0.0
 20
0.0
 30
0.0
  0
VERTEX
  5
476
330
475
100
AcDbEntity
  8
Capa 1
 62
   178
370
     9
100
AcDbVertex
100
AcDb2dVertex
 10
22.42193181555217
 20
-43.62933922966971
 30
0.0
  0
VERTEX
  5
477
330
475
100
AcDbEntity
  8
Capa 1
 62
   178
370
     9
100
AcDbVertex
100
AcDb2dVertex
 10
21.55188017646928
 20
-44.61121793017939
 30
0.0
  0
SEQEND
  5
478
330
475
100
AcDbEntity
  8
Capa 1
 62
   178
370
     9
  0
POLYLINE
  5
479
330
1F
100
AcDbEntity
  8
Capa 1
 62
   178
370
     9
100
AcDb2dPolyline
 66
     1
 10
0.0
 20
0.0
 30
0.0
  0
VERTEX
  5
47A
330
479
100
AcDbEntity
  8
Capa 1
 62
   178
370
     9
100
AcDbVertex
100
AcDb2dVertex
 10
21.55188017646928
 20
-44.61121793017939
 30
0.0
  0
VERTEX
  5
47B
330
479
100
AcDbEntity
  8
Capa 1
 62
   178
370
     9
100
AcDbVertex
100
AcDb2dVertex
 10
21.56345378805548
 20
-44.61052084117176
 30
0.0
  0
SEQEND
  5
47C
330
479
100
AcDbEntity
  8
Capa 1
 62
   178
370
     9
  0
POLYLINE
  5
47D
330
1F
100
AcDbEntity
  8
Capa 1
 62
   178
370
     9
100
AcDb2dPolyline
 66
     1
 10
0.0
 20
0.0
 30
0.0
  0
VERTEX
  5
47E
330
47D
100
AcDbEntity
  8
Capa 1
 62
   178
370
     9
100
AcDbVertex
100
AcDb2dVertex
 10
22.42193181555217
 20
-43.62933922966971
 30
0.0
  0
VERTEX
  5
47F
330
47D
100
AcDbEntity
  8
Capa 1
 62
   178
370
     9
100
AcDbVertex
100
AcDb2dVertex
 10
23.08677111468549
 20
-44.76074538981118
 30
0.0
  0
SEQEND
  5
480
330
47D
100
AcDbEntity
  8
Capa 1
 62
   178
370
     9
  0
POLYLINE
  5
481
330
1F
100
AcDbEntity
  8
Capa 1
 62
   178
370
     9
100
AcDb2dPolyline
 66
     1
 10
0.0
 20
0.0
 30
0.0
  0
VERTEX
  5
482
330
481
100
AcDbEntity
  8
Capa 1
 62
   178
370
     9
100
AcDbVertex
100
AcDb2dVertex
 10
23.08677111468549
 20
-44.76074538981118
 30
0.0
  0
VERTEX
  5
483
330
481
100
AcDbEntity
  8
Capa 1
 62
   178
370
     9
100
AcDbVertex
100
AcDb2dVertex
 10
23.09834472627137
 20
-44.76004830080358
 30
0.0
  0
SEQEND
  5
484
330
481
100
AcDbEntity
  8
Capa 1
 62
   178
370
     9
  0
POLYLINE
  5
485
330
1F
100
AcDbEntity
  8
Capa 1
 62
   178
370
     9
100
AcDb2dPolyline
 66
     1
 10
0.0
 20
0.0
 30
0.0
  0
VERTEX
  5
486
330
485
100
AcDbEntity
  8
Capa 1
 62
   178
370
     9
100
AcDbVertex
100
AcDb2dVertex
 10
23.08677111468549
 20
-44.76074538981118
 30
0.0
  0
VERTEX
  5
487
330
485
100
AcDbEntity
  8
Capa 1
 62
   178
370
     9
100
AcDbVertex
100
AcDb2dVertex
 10
23.36970899799075
 20
-46.04125502045595
 30
0.0
  0
SEQEND
  5
488
330
485
100
AcDbEntity
  8
Capa 1
 62
   178
370
     9
  0
POLYLINE
  5
489
330
1F
100
AcDbEntity
  8
Capa 1
 62
   178
370
     9
100
AcDb2dPolyline
 66
     1
 10
0.0
 20
0.0
 30
0.0
  0
VERTEX
  5
48A
330
489
100
AcDbEntity
  8
Capa 1
 62
   178
370
     9
100
AcDbVertex
100
AcDb2dVertex
 10
23.36970899799075
 20
-46.04125502045595
 30
0.0
  0
VERTEX
  5
48B
330
489
100
AcDbEntity
  8
Capa 1
 62
   178
370
     9
100
AcDbVertex
100
AcDb2dVertex
 10
23.38128592856073
 20
-46.04055418587859
 30
0.0
  0
SEQEND
  5
48C
330
489
100
AcDbEntity
  8
Capa 1
 62
   178
370
     9
  0
POLYLINE
  5
48D
330
1F
100
AcDbEntity
  8
Capa 1
 62
   178
370
     9
100
AcDb2dPolyline
 66
     1
 10
0.0
 20
0.0
 30
0.0
  0
VERTEX
  5
48E
330
48D
100
AcDbEntity
  8
Capa 1
 62
   178
370
     9
100
AcDbVertex
100
AcDb2dVertex
 10
21.09231985846955
 20
-41.36768924174801
 30
0.0
  0
VERTEX
  5
48F
330
48D
100
AcDbEntity
  8
Capa 1
 62
   178
370
     9
100
AcDbVertex
100
AcDb2dVertex
 10
22.37282761632957
 20
-41.08474969895079
 30
0.0
  0
SEQEND
  5
490
330
48D
100
AcDbEntity
  8
Capa 1
 62
   178
370
     9
  0
POLYLINE
  5
491
330
1F
100
AcDbEntity
  8
Capa 1
 62
   178
370
     9
100
AcDb2dPolyline
 66
     1
 10
0.0
 20
0.0
 30
0.0
  0
VERTEX
  5
492
330
491
100
AcDbEntity
  8
Capa 1
 62
   178
370
     9
100
AcDbVertex
100
AcDb2dVertex
 10
22.37282761632957
 20
-41.08474969895079
 30
0.0
  0
VERTEX
  5
493
330
491
100
AcDbEntity
  8
Capa 1
 62
   178
370
     9
100
AcDbVertex
100
AcDb2dVertex
 10
22.38440454689929
 20
-41.08404886437327
 30
0.0
  0
SEQEND
  5
494
330
491
100
AcDbEntity
  8
Capa 1
 62
   178
370
     9
  0
POLYLINE
  5
495
330
1F
100
AcDbEntity
  8
Capa 1
 62
   178
370
     9
100
AcDb2dPolyline
 66
     1
 10
0.0
 20
0.0
 30
0.0
  0
VERTEX
  5
496
330
495
100
AcDbEntity
  8
Capa 1
 62
   178
370
     9
100
AcDbVertex
100
AcDb2dVertex
 10
22.37282761632957
 20
-41.08474969895079
 30
0.0
  0
VERTEX
  5
497
330
495
100
AcDbEntity
  8
Capa 1
 62
   178
370
     9
100
AcDbVertex
100
AcDb2dVertex
 10
23.50423543596277
 20
-40.41990852703253
 30
0.0
  0
SEQEND
  5
498
330
495
100
AcDbEntity
  8
Capa 1
 62
   178
370
     9
  0
POLYLINE
  5
499
330
1F
100
AcDbEntity
  8
Capa 1
 62
   178
370
     9
100
AcDb2dPolyline
 66
     1
 10
0.0
 20
0.0
 30
0.0
  0
VERTEX
  5
49A
330
499
100
AcDbEntity
  8
Capa 1
 62
   178
370
     9
100
AcDbVertex
100
AcDb2dVertex
 10
23.50423543596277
 20
-40.41990852703253
 30
0.0
  0
VERTEX
  5
49B
330
499
100
AcDbEntity
  8
Capa 1
 62
   178
370
     9
100
AcDbVertex
100
AcDb2dVertex
 10
23.51580904754869
 20
-40.41921143802529
 30
0.0
  0
SEQEND
  5
49C
330
499
100
AcDbEntity
  8
Capa 1
 62
   178
370
     9
  0
POLYLINE
  5
49D
330
1F
100
AcDbEntity
  8
Capa 1
 62
   178
370
     9
100
AcDb2dPolyline
 66
     1
 10
0.0
 20
0.0
 30
0.0
  0
VERTEX
  5
49E
330
49D
100
AcDbEntity
  8
Capa 1
 62
   178
370
     9
100
AcDbVertex
100
AcDb2dVertex
 10
22.37282761632957
 20
-41.08474969895079
 30
0.0
  0
VERTEX
  5
49F
330
49D
100
AcDbEntity
  8
Capa 1
 62
   178
370
     9
100
AcDbVertex
100
AcDb2dVertex
 10
23.65394964766856
 20
-40.80235446946555
 30
0.0
  0
SEQEND
  5
4A0
330
49D
100
AcDbEntity
  8
Capa 1
 62
   178
370
     9
  0
POLYLINE
  5
4A1
330
1F
100
AcDbEntity
  8
Capa 1
 62
   178
370
     9
100
AcDb2dPolyline
 66
     1
 10
0.0
 20
0.0
 30
0.0
  0
VERTEX
  5
4A2
330
4A1
100
AcDbEntity
  8
Capa 1
 62
   178
370
     9
100
AcDbVertex
100
AcDb2dVertex
 10
23.65394964766856
 20
-40.80235446946555
 30
0.0
  0
VERTEX
  5
4A3
330
4A1
100
AcDbEntity
  8
Capa 1
 62
   178
370
     9
100
AcDbVertex
100
AcDb2dVertex
 10
23.66552657823805
 20
-40.80165363488803
 30
0.0
  0
SEQEND
  5
4A4
330
4A1
100
AcDbEntity
  8
Capa 1
 62
   178
370
     9
  0
POLYLINE
  5
4A5
330
1F
100
AcDbEntity
  8
Capa 1
 62
   178
370
     9
100
AcDb2dPolyline
 66
     1
 10
0.0
 20
0.0
 30
0.0
  0
VERTEX
  5
4A6
330
4A5
100
AcDbEntity
  8
Capa 1
 62
   178
370
     9
100
AcDbVertex
100
AcDb2dVertex
 10
23.65394964766856
 20
-40.80235446946555
 30
0.0
  0
VERTEX
  5
4A7
330
4A5
100
AcDbEntity
  8
Capa 1
 62
   178
370
     9
100
AcDbVertex
100
AcDb2dVertex
 10
24.17782039591839
 20
-39.59916917776327
 30
0.0
  0
SEQEND
  5
4A8
330
4A5
100
AcDbEntity
  8
Capa 1
 62
   178
370
     9
  0
POLYLINE
  5
4A9
330
1F
100
AcDbEntity
  8
Capa 1
 62
   178
370
     9
100
AcDb2dPolyline
 66
     1
 10
0.0
 20
0.0
 30
0.0
  0
VERTEX
  5
4AA
330
4A9
100
AcDbEntity
  8
Capa 1
 62
   178
370
     9
100
AcDbVertex
100
AcDb2dVertex
 10
24.17782039591839
 20
-39.59916917776327
 30
0.0
  0
VERTEX
  5
4AB
330
4A9
100
AcDbEntity
  8
Capa 1
 62
   178
370
     9
100
AcDbVertex
100
AcDb2dVertex
 10
24.18939400750437
 20
-39.59847208875552
 30
0.0
  0
SEQEND
  5
4AC
330
4A9
100
AcDbEntity
  8
Capa 1
 62
   178
370
     9
  0
POLYLINE
  5
4AD
330
1F
100
AcDbEntity
  8
Capa 1
 62
   178
370
     9
100
AcDb2dPolyline
 66
     1
 10
0.0
 20
0.0
 30
0.0
  0
VERTEX
  5
4AE
330
4AD
100
AcDbEntity
  8
Capa 1
 62
   178
370
     9
100
AcDbVertex
100
AcDb2dVertex
 10
23.65394964766856
 20
-40.80235446946555
 30
0.0
  0
VERTEX
  5
4AF
330
4AD
100
AcDbEntity
  8
Capa 1
 62
   178
370
     9
100
AcDbVertex
100
AcDb2dVertex
 10
24.31872085941931
 20
-41.93260370230777
 30
0.0
  0
SEQEND
  5
4B0
330
4AD
100
AcDbEntity
  8
Capa 1
 62
   178
370
     9
  0
POLYLINE
  5
4B1
330
1F
100
AcDbEntity
  8
Capa 1
 62
   178
370
     9
100
AcDb2dPolyline
 66
     1
 10
0.0
 20
0.0
 30
0.0
  0
VERTEX
  5
4B2
330
4B1
100
AcDbEntity
  8
Capa 1
 62
   178
370
     9
100
AcDbVertex
100
AcDb2dVertex
 10
24.31872085941931
 20
-41.93260370230777
 30
0.0
  0
VERTEX
  5
4B3
330
4B1
100
AcDbEntity
  8
Capa 1
 62
   178
370
     9
100
AcDbVertex
100
AcDb2dVertex
 10
24.33029591720399
 20
-41.93190120823831
 30
0.0
  0
SEQEND
  5
4B4
330
4B1
100
AcDbEntity
  8
Capa 1
 62
   178
370
     9
  0
POLYLINE
  5
4B5
330
1F
100
AcDbEntity
  8
Capa 1
 62
   178
370
     9
100
AcDb2dPolyline
 66
     1
 10
0.0
 20
0.0
 30
0.0
  0
VERTEX
  5
4B6
330
4B5
100
AcDbEntity
  8
Capa 1
 62
   178
370
     9
100
AcDbVertex
100
AcDb2dVertex
 10
23.65394964766856
 20
-40.80235446946555
 30
0.0
  0
VERTEX
  5
4B7
330
4B5
100
AcDbEntity
  8
Capa 1
 62
   178
370
     9
100
AcDbVertex
100
AcDb2dVertex
 10
24.93500359162507
 20
-40.51880231268103
 30
0.0
  0
SEQEND
  5
4B8
330
4B5
100
AcDbEntity
  8
Capa 1
 62
   178
370
     9
  0
POLYLINE
  5
4B9
330
1F
100
AcDbEntity
  8
Capa 1
 62
   178
370
     9
100
AcDb2dPolyline
 66
     1
 10
0.0
 20
0.0
 30
0.0
  0
VERTEX
  5
4BA
330
4B9
100
AcDbEntity
  8
Capa 1
 62
   178
370
     9
100
AcDbVertex
100
AcDb2dVertex
 10
24.93500359162507
 20
-40.51880231268103
 30
0.0
  0
VERTEX
  5
4BB
330
4B9
100
AcDbEntity
  8
Capa 1
 62
   178
370
     9
100
AcDbVertex
100
AcDb2dVertex
 10
24.9465753304262
 20
-40.51810356418184
 30
0.0
  0
SEQEND
  5
4BC
330
4B9
100
AcDbEntity
  8
Capa 1
 62
   178
370
     9
  0
POLYLINE
  5
4BD
330
1F
100
AcDbEntity
  8
Capa 1
 62
   178
370
     9
100
AcDb2dPolyline
 66
     1
 10
0.0
 20
0.0
 30
0.0
  0
VERTEX
  5
4BE
330
4BD
100
AcDbEntity
  8
Capa 1
 62
   178
370
     9
100
AcDbVertex
100
AcDb2dVertex
 10
24.93500359162507
 20
-40.51880231268103
 30
0.0
  0
VERTEX
  5
4BF
330
4BD
100
AcDbEntity
  8
Capa 1
 62
   178
370
     9
100
AcDbVertex
100
AcDb2dVertex
 10
26.24086720673356
 20
-40.64614412759125
 30
0.0
  0
SEQEND
  5
4C0
330
4BD
100
AcDbEntity
  8
Capa 1
 62
   178
370
     9
  0
POLYLINE
  5
4C1
330
1F
100
AcDbEntity
  8
Capa 1
 62
   178
370
     9
100
AcDb2dPolyline
 66
     1
 10
0.0
 20
0.0
 30
0.0
  0
VERTEX
  5
4C2
330
4C1
100
AcDbEntity
  8
Capa 1
 62
   178
370
     9
100
AcDbVertex
100
AcDb2dVertex
 10
26.24086720673356
 20
-40.64614412759125
 30
0.0
  0
VERTEX
  5
4C3
330
4C1
100
AcDbEntity
  8
Capa 1
 62
   178
370
     9
100
AcDbVertex
100
AcDb2dVertex
 10
26.25244081831964
 20
-40.64544703858388
 30
0.0
  0
SEQEND
  5
4C4
330
4C1
100
AcDbEntity
  8
Capa 1
 62
   178
370
     9
  0
POLYLINE
  5
4C5
330
1F
100
AcDbEntity
  8
Capa 1
 62
   178
370
     9
100
AcDb2dPolyline
 66
     1
 10
0.0
 20
0.0
 30
0.0
  0
VERTEX
  5
4C6
330
4C5
100
AcDbEntity
  8
Capa 1
 62
   178
370
     9
100
AcDbVertex
100
AcDb2dVertex
 10
26.24086720673356
 20
-40.64614412759125
 30
0.0
  0
VERTEX
  5
4C7
330
4C5
100
AcDbEntity
  8
Capa 1
 62
   178
370
     9
100
AcDbVertex
100
AcDb2dVertex
 10
26.25244081831964
 20
-40.64544703858388
 30
0.0
  0
SEQEND
  5
4C8
330
4C5
100
AcDbEntity
  8
Capa 1
 62
   178
370
     9
  0
POLYLINE
  5
4C9
330
1F
100
AcDbEntity
  8
Capa 1
 62
   178
370
     9
100
AcDb2dPolyline
 66
     1
 10
0.0
 20
0.0
 30
0.0
  0
VERTEX
  5
4CA
330
4C9
100
AcDbEntity
  8
Capa 1
 62
   178
370
     9
100
AcDbVertex
100
AcDb2dVertex
 10
26.24086720673356
 20
-40.64614412759125
 30
0.0
  0
VERTEX
  5
4CB
330
4C9
100
AcDbEntity
  8
Capa 1
 62
   178
370
     9
100
AcDbVertex
100
AcDb2dVertex
 10
27.52191595892174
 20
-40.36259405688509
 30
0.0
  0
SEQEND
  5
4CC
330
4C9
100
AcDbEntity
  8
Capa 1
 62
   178
370
     9
  0
POLYLINE
  5
4CD
330
1F
100
AcDbEntity
  8
Capa 1
 62
   178
370
     9
100
AcDb2dPolyline
 66
     1
 10
0.0
 20
0.0
 30
0.0
  0
VERTEX
  5
4CE
330
4CD
100
AcDbEntity
  8
Capa 1
 62
   178
370
     9
100
AcDbVertex
100
AcDb2dVertex
 10
27.52191595892174
 20
-40.36259405688509
 30
0.0
  0
VERTEX
  5
4CF
330
4CD
100
AcDbEntity
  8
Capa 1
 62
   178
370
     9
100
AcDbVertex
100
AcDb2dVertex
 10
27.53349288949156
 20
-40.36189322230789
 30
0.0
  0
SEQEND
  5
4D0
330
4CD
100
AcDbEntity
  8
Capa 1
 62
   178
370
     9
  0
POLYLINE
  5
4D1
330
1F
100
AcDbEntity
  8
Capa 1
 62
   178
370
     9
100
AcDb2dPolyline
 66
     1
 10
0.0
 20
0.0
 30
0.0
  0
VERTEX
  5
4D2
330
4D1
100
AcDbEntity
  8
Capa 1
 62
   178
370
     9
100
AcDbVertex
100
AcDb2dVertex
 10
26.24086720673356
 20
-40.64614412759125
 30
0.0
  0
VERTEX
  5
4D3
330
4D1
100
AcDbEntity
  8
Capa 1
 62
   178
370
     9
100
AcDbVertex
100
AcDb2dVertex
 10
27.54665941547667
 20
-40.77233276077257
 30
0.0
  0
SEQEND
  5
4D4
330
4D1
100
AcDbEntity
  8
Capa 1
 62
   178
370
     9
  0
POLYLINE
  5
4D5
330
1F
100
AcDbEntity
  8
Capa 1
 62
   178
370
     9
100
AcDb2dPolyline
 66
     1
 10
0.0
 20
0.0
 30
0.0
  0
VERTEX
  5
4D6
330
4D5
100
AcDbEntity
  8
Capa 1
 62
   178
370
     9
100
AcDbVertex
100
AcDb2dVertex
 10
27.54665941547667
 20
-40.77233276077257
 30
0.0
  0
VERTEX
  5
4D7
330
4D5
100
AcDbEntity
  8
Capa 1
 62
   178
370
     9
100
AcDbVertex
100
AcDb2dVertex
 10
27.55823302706253
 20
-40.77163567176498
 30
0.0
  0
SEQEND
  5
4D8
330
4D5
100
AcDbEntity
  8
Capa 1
 62
   178
370
     9
  0
POLYLINE
  5
4D9
330
1F
100
AcDbEntity
  8
Capa 1
 62
   178
370
     9
100
AcDb2dPolyline
 66
     1
 10
0.0
 20
0.0
 30
0.0
  0
VERTEX
  5
4DA
330
4D9
100
AcDbEntity
  8
Capa 1
 62
   178
370
     9
100
AcDbVertex
100
AcDb2dVertex
 10
27.54665941547667
 20
-40.77233276077257
 30
0.0
  0
VERTEX
  5
4DB
330
4D9
100
AcDbEntity
  8
Capa 1
 62
   178
370
     9
100
AcDbVertex
100
AcDb2dVertex
 10
28.41671105455944
 20
-39.79045406026299
 30
0.0
  0
SEQEND
  5
4DC
330
4D9
100
AcDbEntity
  8
Capa 1
 62
   178
370
     9
  0
POLYLINE
  5
4DD
330
1F
100
AcDbEntity
  8
Capa 1
 62
   178
370
     9
100
AcDb2dPolyline
 66
     1
 10
0.0
 20
0.0
 30
0.0
  0
VERTEX
  5
4DE
330
4DD
100
AcDbEntity
  8
Capa 1
 62
   178
370
     9
100
AcDbVertex
100
AcDb2dVertex
 10
28.41671105455944
 20
-39.79045406026299
 30
0.0
  0
VERTEX
  5
4DF
330
4DD
100
AcDbEntity
  8
Capa 1
 62
   178
370
     9
100
AcDbVertex
100
AcDb2dVertex
 10
28.42828466614522
 20
-39.78975697125546
 30
0.0
  0
SEQEND
  5
4E0
330
4DD
100
AcDbEntity
  8
Capa 1
 62
   178
370
     9
  0
POLYLINE
  5
4E1
330
1F
100
AcDbEntity
  8
Capa 1
 62
   178
370
     9
100
AcDb2dPolyline
 66
     1
 10
0.0
 20
0.0
 30
0.0
  0
VERTEX
  5
4E2
330
4E1
100
AcDbEntity
  8
Capa 1
 62
   178
370
     9
100
AcDbVertex
100
AcDb2dVertex
 10
27.54665941547667
 20
-40.77233276077257
 30
0.0
  0
VERTEX
  5
4E3
330
4E1
100
AcDbEntity
  8
Capa 1
 62
   178
370
     9
100
AcDbVertex
100
AcDb2dVertex
 10
27.82905630445371
 20
-42.05345291932667
 30
0.0
  0
SEQEND
  5
4E4
330
4E1
100
AcDbEntity
  8
Capa 1
 62
   178
370
     9
  0
POLYLINE
  5
4E5
330
1F
100
AcDbEntity
  8
Capa 1
 62
   178
370
     9
100
AcDb2dPolyline
 66
     1
 10
0.0
 20
0.0
 30
0.0
  0
VERTEX
  5
4E6
330
4E5
100
AcDbEntity
  8
Capa 1
 62
   178
370
     9
100
AcDbVertex
100
AcDb2dVertex
 10
27.82905630445371
 20
-42.05345291932667
 30
0.0
  0
VERTEX
  5
4E7
330
4E5
100
AcDbEntity
  8
Capa 1
 62
   178
370
     9
100
AcDbVertex
100
AcDb2dVertex
 10
27.8406299160394
 20
-42.05275583031889
 30
0.0
  0
SEQEND
  5
4E8
330
4E5
100
AcDbEntity
  8
Capa 1
 62
   178
370
     9
  0
POLYLINE
  5
4E9
330
1F
100
AcDbEntity
  8
Capa 1
 62
   178
370
     9
100
AcDb2dPolyline
 66
     1
 10
0.0
 20
0.0
 30
0.0
  0
VERTEX
  5
4EA
330
4E9
100
AcDbEntity
  8
Capa 1
 62
   178
370
     9
100
AcDbVertex
100
AcDb2dVertex
 10
27.54665941547667
 20
-40.77233276077257
 30
0.0
  0
VERTEX
  5
4EB
330
4E9
100
AcDbEntity
  8
Capa 1
 62
   178
370
     9
100
AcDbVertex
100
AcDb2dVertex
 10
28.8519106298912
 20
-40.89913192186281
 30
0.0
  0
SEQEND
  5
4EC
330
4E9
100
AcDbEntity
  8
Capa 1
 62
   178
370
     9
  0
POLYLINE
  5
4ED
330
1F
100
AcDbEntity
  8
Capa 1
 62
   178
370
     9
100
AcDb2dPolyline
 66
     1
 10
0.0
 20
0.0
 30
0.0
  0
VERTEX
  5
4EE
330
4ED
100
AcDbEntity
  8
Capa 1
 62
   178
370
     9
100
AcDbVertex
100
AcDb2dVertex
 10
28.8519106298912
 20
-40.89913192186281
 30
0.0
  0
VERTEX
  5
4EF
330
4ED
100
AcDbEntity
  8
Capa 1
 62
   178
370
     9
100
AcDbVertex
100
AcDb2dVertex
 10
28.8634842414768
 20
-40.89843483285502
 30
0.0
  0
SEQEND
  5
4F0
330
4ED
100
AcDbEntity
  8
Capa 1
 62
   178
370
     9
  0
POLYLINE
  5
4F1
330
1F
100
AcDbEntity
  8
Capa 1
 62
   178
370
     9
100
AcDb2dPolyline
 66
     1
 10
0.0
 20
0.0
 30
0.0
  0
VERTEX
  5
4F2
330
4F1
100
AcDbEntity
  8
Capa 1
 62
   178
370
     9
100
AcDbVertex
100
AcDb2dVertex
 10
28.8519106298912
 20
-40.89913192186281
 30
0.0
  0
VERTEX
  5
4F3
330
4F1
100
AcDbEntity
  8
Capa 1
 62
   178
370
     9
100
AcDbVertex
100
AcDb2dVertex
 10
30.05509238931636
 20
-41.42300288340574
 30
0.0
  0
SEQEND
  5
4F4
330
4F1
100
AcDbEntity
  8
Capa 1
 62
   178
370
     9
  0
POLYLINE
  5
4F5
330
1F
100
AcDbEntity
  8
Capa 1
 62
   178
370
     9
100
AcDb2dPolyline
 66
     1
 10
0.0
 20
0.0
 30
0.0
  0
VERTEX
  5
4F6
330
4F5
100
AcDbEntity
  8
Capa 1
 62
   178
370
     9
100
AcDbVertex
100
AcDb2dVertex
 10
30.05509238931636
 20
-41.42300288340574
 30
0.0
  0
VERTEX
  5
4F7
330
4F5
100
AcDbEntity
  8
Capa 1
 62
   178
370
     9
100
AcDbVertex
100
AcDb2dVertex
 10
30.06666744710113
 20
-41.42230038933646
 30
0.0
  0
SEQEND
  5
4F8
330
4F5
100
AcDbEntity
  8
Capa 1
 62
   178
370
     9
  0
POLYLINE
  5
4F9
330
1F
100
AcDbEntity
  8
Capa 1
 62
   178
370
     9
100
AcDb2dPolyline
 66
     1
 10
0.0
 20
0.0
 30
0.0
  0
VERTEX
  5
4FA
330
4F9
100
AcDbEntity
  8
Capa 1
 62
   178
370
     9
100
AcDbVertex
100
AcDb2dVertex
 10
13.40580086992129
 20
-43.06553263346241
 30
0.0
  0
VERTEX
  5
4FB
330
4F9
100
AcDbEntity
  8
Capa 1
 62
   178
370
     9
100
AcDbVertex
100
AcDb2dVertex
 10
12.88131938046916
 20
-44.26817339855965
 30
0.0
  0
SEQEND
  5
4FC
330
4F9
100
AcDbEntity
  8
Capa 1
 62
   178
370
     9
  0
POLYLINE
  5
4FD
330
1F
100
AcDbEntity
  8
Capa 1
 62
   178
370
     9
100
AcDb2dPolyline
 66
     1
 10
0.0
 20
0.0
 30
0.0
  0
VERTEX
  5
4FE
330
4FD
100
AcDbEntity
  8
Capa 1
 62
   178
370
     9
100
AcDbVertex
100
AcDb2dVertex
 10
12.88131938046916
 20
-44.26817339855965
 30
0.0
  0
VERTEX
  5
4FF
330
4FD
100
AcDbEntity
  8
Capa 1
 62
   178
370
     9
100
AcDbVertex
100
AcDb2dVertex
 10
12.89289465154702
 20
-44.26747443676718
 30
0.0
  0
SEQEND
  5
500
330
4FD
100
AcDbEntity
  8
Capa 1
 62
   178
370
     9
  0
POLYLINE
  5
501
330
1F
100
AcDbEntity
  8
Capa 1
 62
   178
370
     9
100
AcDb2dPolyline
 66
     1
 10
0.0
 20
0.0
 30
0.0
  0
VERTEX
  5
502
330
501
100
AcDbEntity
  8
Capa 1
 62
   178
370
     9
100
AcDbVertex
100
AcDb2dVertex
 10
12.88131938046916
 20
-44.26817339855965
 30
0.0
  0
VERTEX
  5
503
330
501
100
AcDbEntity
  8
Capa 1
 62
   178
370
     9
100
AcDbVertex
100
AcDb2dVertex
 10
12.75513262007297
 20
-45.57396726679389
 30
0.0
  0
SEQEND
  5
504
330
501
100
AcDbEntity
  8
Capa 1
 62
   178
370
     9
  0
POLYLINE
  5
505
330
1F
100
AcDbEntity
  8
Capa 1
 62
   178
370
     9
100
AcDb2dPolyline
 66
     1
 10
0.0
 20
0.0
 30
0.0
  0
VERTEX
  5
506
330
505
100
AcDbEntity
  8
Capa 1
 62
   178
370
     9
100
AcDbVertex
100
AcDb2dVertex
 10
12.88131938046916
 20
-44.26817339855965
 30
0.0
  0
VERTEX
  5
507
330
505
100
AcDbEntity
  8
Capa 1
 62
   178
370
     9
100
AcDbVertex
100
AcDb2dVertex
 10
12.3579964778078
 20
-45.47074420348971
 30
0.0
  0
SEQEND
  5
508
330
505
100
AcDbEntity
  8
Capa 1
 62
   178
370
     9
  0
POLYLINE
  5
509
330
1F
100
AcDbEntity
  8
Capa 1
 62
   178
370
     9
100
AcDb2dPolyline
 66
     1
 10
0.0
 20
0.0
 30
0.0
  0
VERTEX
  5
50A
330
509
100
AcDbEntity
  8
Capa 1
 62
   178
370
     9
100
AcDbVertex
100
AcDb2dVertex
 10
12.3579964778078
 20
-45.47074420348971
 30
0.0
  0
VERTEX
  5
50B
330
509
100
AcDbEntity
  8
Capa 1
 62
   178
370
     9
100
AcDbVertex
100
AcDb2dVertex
 10
13.02283390415621
 20
-46.60214870413913
 30
0.0
  0
SEQEND
  5
50C
330
509
100
AcDbEntity
  8
Capa 1
 62
   178
370
     9
  0
POLYLINE
  5
50D
330
1F
100
AcDbEntity
  8
Capa 1
 62
   178
370
     9
100
AcDb2dPolyline
 66
     1
 10
0.0
 20
0.0
 30
0.0
  0
VERTEX
  5
50E
330
50D
100
AcDbEntity
  8
Capa 1
 62
   178
370
     9
100
AcDbVertex
100
AcDb2dVertex
 10
13.02283390415621
 20
-46.60214870413913
 30
0.0
  0
VERTEX
  5
50F
330
50D
100
AcDbEntity
  8
Capa 1
 62
   178
370
     9
100
AcDbVertex
100
AcDb2dVertex
 10
13.03440917523388
 20
-46.6014497423465
 30
0.0
  0
SEQEND
  5
510
330
50D
100
AcDbEntity
  8
Capa 1
 62
   178
370
     9
  0
POLYLINE
  5
511
330
1F
100
AcDbEntity
  8
Capa 1
 62
   178
370
     9
100
AcDb2dPolyline
 66
     1
 10
0.0
 20
0.0
 30
0.0
  0
VERTEX
  5
512
330
511
100
AcDbEntity
  8
Capa 1
 62
   178
370
     9
100
AcDbVertex
100
AcDb2dVertex
 10
12.3579964778078
 20
-45.47074420348971
 30
0.0
  0
VERTEX
  5
513
330
511
100
AcDbEntity
  8
Capa 1
 62
   178
370
     9
100
AcDbVertex
100
AcDb2dVertex
 10
11.05158833609444
 20
-45.34401312978172
 30
0.0
  0
SEQEND
  5
514
330
511
100
AcDbEntity
  8
Capa 1
 62
   178
370
     9
  0
POLYLINE
  5
515
330
1F
100
AcDbEntity
  8
Capa 1
 62
   178
370
     9
100
AcDb2dPolyline
 66
     1
 10
0.0
 20
0.0
 30
0.0
  0
VERTEX
  5
516
330
515
100
AcDbEntity
  8
Capa 1
 62
   178
370
     9
100
AcDbVertex
100
AcDb2dVertex
 10
11.05158833609444
 20
-45.34401312978172
 30
0.0
  0
VERTEX
  5
517
330
515
100
AcDbEntity
  8
Capa 1
 62
   178
370
     9
100
AcDbVertex
100
AcDb2dVertex
 10
11.06316360717228
 20
-45.34331416798899
 30
0.0
  0
SEQEND
  5
518
330
515
100
AcDbEntity
  8
Capa 1
 62
   178
370
     9
  0
POLYLINE
  5
519
330
1F
100
AcDbEntity
  8
Capa 1
 62
   178
370
     9
100
AcDb2dPolyline
 66
     1
 10
0.0
 20
0.0
 30
0.0
  0
VERTEX
  5
51A
330
519
100
AcDbEntity
  8
Capa 1
 62
   178
370
     9
100
AcDbVertex
100
AcDb2dVertex
 10
12.3579964778078
 20
-45.47074420348971
 30
0.0
  0
VERTEX
  5
51B
330
519
100
AcDbEntity
  8
Capa 1
 62
   178
370
     9
100
AcDbVertex
100
AcDb2dVertex
 10
11.83351311557111
 20
-46.6733833090952
 30
0.0
  0
SEQEND
  5
51C
330
519
100
AcDbEntity
  8
Capa 1
 62
   178
370
     9
  0
POLYLINE
  5
51D
330
1F
100
AcDbEntity
  8
Capa 1
 62
   178
370
     9
100
AcDb2dPolyline
 66
     1
 10
0.0
 20
0.0
 30
0.0
  0
VERTEX
  5
51E
330
51D
100
AcDbEntity
  8
Capa 1
 62
   178
370
     9
100
AcDbVertex
100
AcDb2dVertex
 10
11.83351311557111
 20
-46.6733833090952
 30
0.0
  0
VERTEX
  5
51F
330
51D
100
AcDbEntity
  8
Capa 1
 62
   178
370
     9
100
AcDbVertex
100
AcDb2dVertex
 10
10.96346147648822
 20
-47.65526200960482
 30
0.0
  0
SEQEND
  5
520
330
51D
100
AcDbEntity
  8
Capa 1
 62
   178
370
     9
  0
POLYLINE
  5
521
330
1F
100
AcDbEntity
  8
Capa 1
 62
   178
370
     9
100
AcDb2dPolyline
 66
     1
 10
0.0
 20
0.0
 30
0.0
  0
VERTEX
  5
522
330
521
100
AcDbEntity
  8
Capa 1
 62
   178
370
     9
100
AcDbVertex
100
AcDb2dVertex
 10
10.96346147648822
 20
-47.65526200960482
 30
0.0
  0
VERTEX
  5
523
330
521
100
AcDbEntity
  8
Capa 1
 62
   178
370
     9
100
AcDbVertex
100
AcDb2dVertex
 10
10.97503674756602
 20
-47.65456304781205
 30
0.0
  0
SEQEND
  5
524
330
521
100
AcDbEntity
  8
Capa 1
 62
   178
370
     9
  0
POLYLINE
  5
525
330
1F
100
AcDbEntity
  8
Capa 1
 62
   178
370
     9
100
AcDb2dPolyline
 66
     1
 10
0.0
 20
0.0
 30
0.0
  0
VERTEX
  5
526
330
525
100
AcDbEntity
  8
Capa 1
 62
   178
370
     9
100
AcDbVertex
100
AcDb2dVertex
 10
11.83351311557111
 20
-46.6733833090952
 30
0.0
  0
VERTEX
  5
527
330
525
100
AcDbEntity
  8
Capa 1
 62
   178
370
     9
100
AcDbVertex
100
AcDb2dVertex
 10
11.70678204186296
 20
-47.97979145080862
 30
0.0
  0
SEQEND
  5
528
330
525
100
AcDbEntity
  8
Capa 1
 62
   178
370
     9
  0
POLYLINE
  5
529
330
1F
100
AcDbEntity
  8
Capa 1
 62
   178
370
     9
100
AcDb2dPolyline
 66
     1
 10
0.0
 20
0.0
 30
0.0
  0
VERTEX
  5
52A
330
529
100
AcDbEntity
  8
Capa 1
 62
   178
370
     9
100
AcDbVertex
100
AcDb2dVertex
 10
11.70678204186296
 20
-47.97979145080862
 30
0.0
  0
VERTEX
  5
52B
330
529
100
AcDbEntity
  8
Capa 1
 62
   178
370
     9
100
AcDbVertex
100
AcDb2dVertex
 10
11.71890162625241
 20
-47.97847821553708
 30
0.0
  0
SEQEND
  5
52C
330
529
100
AcDbEntity
  8
Capa 1
 62
   178
370
     9
  0
POLYLINE
  5
52D
330
1F
100
AcDbEntity
  8
Capa 1
 62
   178
370
     9
100
AcDb2dPolyline
 66
     1
 10
0.0
 20
0.0
 30
0.0
  0
VERTEX
  5
52E
330
52D
100
AcDbEntity
  8
Capa 1
 62
   178
370
     9
100
AcDbVertex
100
AcDb2dVertex
 10
11.70678204186296
 20
-47.97979145080862
 30
0.0
  0
VERTEX
  5
52F
330
52D
100
AcDbEntity
  8
Capa 1
 62
   178
370
     9
100
AcDbVertex
100
AcDb2dVertex
 10
11.98972158466007
 20
-49.2602992086687
 30
0.0
  0
SEQEND
  5
530
330
52D
100
AcDbEntity
  8
Capa 1
 62
   178
370
     9
  0
POLYLINE
  5
531
330
1F
100
AcDbEntity
  8
Capa 1
 62
   178
370
     9
100
AcDb2dPolyline
 66
     1
 10
0.0
 20
0.0
 30
0.0
  0
VERTEX
  5
532
330
531
100
AcDbEntity
  8
Capa 1
 62
   178
370
     9
100
AcDbVertex
100
AcDb2dVertex
 10
11.98972158466007
 20
-49.2602992086687
 30
0.0
  0
VERTEX
  5
533
330
531
100
AcDbEntity
  8
Capa 1
 62
   178
370
     9
100
AcDbVertex
100
AcDb2dVertex
 10
12.00129685573785
 20
-49.25960024687593
 30
0.0
  0
SEQEND
  5
534
330
531
100
AcDbEntity
  8
Capa 1
 62
   178
370
     9
  0
POLYLINE
  5
535
330
1F
100
AcDbEntity
  8
Capa 1
 62
   178
370
     9
100
AcDb2dPolyline
 66
     1
 10
0.0
 20
0.0
 30
0.0
  0
VERTEX
  5
536
330
535
100
AcDbEntity
  8
Capa 1
 62
   178
370
     9
100
AcDbVertex
100
AcDb2dVertex
 10
11.70678204186296
 20
-47.97979145080862
 30
0.0
  0
VERTEX
  5
537
330
535
100
AcDbEntity
  8
Capa 1
 62
   178
370
     9
100
AcDbVertex
100
AcDb2dVertex
 10
11.57998288077262
 20
-49.28504266522319
 30
0.0
  0
SEQEND
  5
538
330
535
100
AcDbEntity
  8
Capa 1
 62
   178
370
     9
  0
POLYLINE
  5
539
330
1F
100
AcDbEntity
  8
Capa 1
 62
   178
370
     9
100
AcDb2dPolyline
 66
     1
 10
0.0
 20
0.0
 30
0.0
  0
VERTEX
  5
53A
330
539
100
AcDbEntity
  8
Capa 1
 62
   178
370
     9
100
AcDbVertex
100
AcDb2dVertex
 10
11.57998288077262
 20
-49.28504266522319
 30
0.0
  0
VERTEX
  5
53B
330
539
100
AcDbEntity
  8
Capa 1
 62
   178
370
     9
100
AcDbVertex
100
AcDb2dVertex
 10
11.5915562790657
 20
-49.2843420439385
 30
0.0
  0
SEQEND
  5
53C
330
539
100
AcDbEntity
  8
Capa 1
 62
   178
370
     9
  0
POLYLINE
  5
53D
330
1F
100
AcDbEntity
  8
Capa 1
 62
   178
370
     9
100
AcDb2dPolyline
 66
     1
 10
0.0
 20
0.0
 30
0.0
  0
VERTEX
  5
53E
330
53D
100
AcDbEntity
  8
Capa 1
 62
   178
370
     9
100
AcDbVertex
100
AcDb2dVertex
 10
11.57998288077262
 20
-49.28504266522319
 30
0.0
  0
VERTEX
  5
53F
330
53D
100
AcDbEntity
  8
Capa 1
 62
   178
370
     9
100
AcDbVertex
100
AcDb2dVertex
 10
12.56186158128237
 20
-50.15509430430614
 30
0.0
  0
SEQEND
  5
540
330
53D
100
AcDbEntity
  8
Capa 1
 62
   178
370
     9
  0
POLYLINE
  5
541
330
1F
100
AcDbEntity
  8
Capa 1
 62
   178
370
     9
100
AcDb2dPolyline
 66
     1
 10
0.0
 20
0.0
 30
0.0
  0
VERTEX
  5
542
330
541
100
AcDbEntity
  8
Capa 1
 62
   178
370
     9
100
AcDbVertex
100
AcDb2dVertex
 10
12.56186158128237
 20
-50.15509430430614
 30
0.0
  0
VERTEX
  5
543
330
541
100
AcDbEntity
  8
Capa 1
 62
   178
370
     9
100
AcDbVertex
100
AcDb2dVertex
 10
12.57343497957535
 20
-50.15439368302139
 30
0.0
  0
SEQEND
  5
544
330
541
100
AcDbEntity
  8
Capa 1
 62
   178
370
     9
  0
POLYLINE
  5
545
330
1F
100
AcDbEntity
  8
Capa 1
 62
   178
370
     9
100
AcDb2dPolyline
 66
     1
 10
0.0
 20
0.0
 30
0.0
  0
VERTEX
  5
546
330
545
100
AcDbEntity
  8
Capa 1
 62
   178
370
     9
100
AcDbVertex
100
AcDb2dVertex
 10
11.57998288077262
 20
-49.28504266522319
 30
0.0
  0
VERTEX
  5
547
330
545
100
AcDbEntity
  8
Capa 1
 62
   178
370
     9
100
AcDbVertex
100
AcDb2dVertex
 10
10.29947325012766
 20
-49.56798054852861
 30
0.0
  0
SEQEND
  5
548
330
545
100
AcDbEntity
  8
Capa 1
 62
   178
370
     9
  0
POLYLINE
  5
549
330
1F
100
AcDbEntity
  8
Capa 1
 62
   178
370
     9
100
AcDb2dPolyline
 66
     1
 10
0.0
 20
0.0
 30
0.0
  0
VERTEX
  5
54A
330
549
100
AcDbEntity
  8
Capa 1
 62
   178
370
     9
100
AcDbVertex
100
AcDb2dVertex
 10
10.29947325012766
 20
-49.56798054852861
 30
0.0
  0
VERTEX
  5
54B
330
549
100
AcDbEntity
  8
Capa 1
 62
   178
370
     9
100
AcDbVertex
100
AcDb2dVertex
 10
10.31104852120553
 20
-49.56728158673591
 30
0.0
  0
SEQEND
  5
54C
330
549
100
AcDbEntity
  8
Capa 1
 62
   178
370
     9
  0
POLYLINE
  5
54D
330
1F
100
AcDbEntity
  8
Capa 1
 62
   178
370
     9
100
AcDb2dPolyline
 66
     1
 10
0.0
 20
0.0
 30
0.0
  0
VERTEX
  5
54E
330
54D
100
AcDbEntity
  8
Capa 1
 62
   178
370
     9
100
AcDbVertex
100
AcDb2dVertex
 10
11.57998288077262
 20
-49.28504266522319
 30
0.0
  0
VERTEX
  5
54F
330
54D
100
AcDbEntity
  8
Capa 1
 62
   178
370
     9
100
AcDbVertex
100
AcDb2dVertex
 10
11.45379424759152
 20
-50.59083487396604
 30
0.0
  0
SEQEND
  5
550
330
54D
100
AcDbEntity
  8
Capa 1
 62
   178
370
     9
  0
POLYLINE
  5
551
330
1F
100
AcDbEntity
  8
Capa 1
 62
   178
370
     9
100
AcDb2dPolyline
 66
     1
 10
0.0
 20
0.0
 30
0.0
  0
VERTEX
  5
552
330
551
100
AcDbEntity
  8
Capa 1
 62
   178
370
     9
100
AcDbVertex
100
AcDb2dVertex
 10
11.45379424759152
 20
-50.59083487396604
 30
0.0
  0
VERTEX
  5
553
330
551
100
AcDbEntity
  8
Capa 1
 62
   178
370
     9
100
AcDbVertex
100
AcDb2dVertex
 10
11.46536951866939
 20
-50.59013591217337
 30
0.0
  0
SEQEND
  5
554
330
551
100
AcDbEntity
  8
Capa 1
 62
   178
370
     9
  0
POLYLINE
  5
555
330
1F
100
AcDbEntity
  8
Capa 1
 62
   178
370
     9
100
AcDb2dPolyline
 66
     1
 10
0.0
 20
0.0
 30
0.0
  0
VERTEX
  5
556
330
555
100
AcDbEntity
  8
Capa 1
 62
   178
370
     9
100
AcDbVertex
100
AcDb2dVertex
 10
11.83351311557111
 20
-46.6733833090952
 30
0.0
  0
VERTEX
  5
557
330
555
100
AcDbEntity
  8
Capa 1
 62
   178
370
     9
100
AcDbVertex
100
AcDb2dVertex
 10
11.30964589959788
 20
-47.87656838750438
 30
0.0
  0
SEQEND
  5
558
330
555
100
AcDbEntity
  8
Capa 1
 62
   178
370
     9
  0
POLYLINE
  5
559
330
1F
100
AcDbEntity
  8
Capa 1
 62
   178
370
     9
100
AcDb2dPolyline
 66
     1
 10
0.0
 20
0.0
 30
0.0
  0
VERTEX
  5
55A
330
559
100
AcDbEntity
  8
Capa 1
 62
   178
370
     9
100
AcDbVertex
100
AcDb2dVertex
 10
11.30964589959788
 20
-47.87656838750438
 30
0.0
  0
VERTEX
  5
55B
330
559
100
AcDbEntity
  8
Capa 1
 62
   178
370
     9
100
AcDbVertex
100
AcDb2dVertex
 10
11.32122117067572
 20
-47.87586942571165
 30
0.0
  0
SEQEND
  5
55C
330
559
100
AcDbEntity
  8
Capa 1
 62
   178
370
     9
  0
POLYLINE
  5
55D
330
1F
100
AcDbEntity
  8
Capa 1
 62
   178
370
     9
100
AcDb2dPolyline
 66
     1
 10
0.0
 20
0.0
 30
0.0
  0
VERTEX
  5
55E
330
55D
100
AcDbEntity
  8
Capa 1
 62
   178
370
     9
100
AcDbVertex
100
AcDb2dVertex
 10
11.18284486572269
 20
-49.18181794242709
 30
0.0
  0
VERTEX
  5
55F
330
55D
100
AcDbEntity
  8
Capa 1
 62
   178
370
     9
100
AcDbVertex
100
AcDb2dVertex
 10
11.1944201368005
 20
-49.18111898063442
 30
0.0
  0
SEQEND
  5
560
330
55D
100
AcDbEntity
  8
Capa 1
 62
   178
370
     9
  0
POLYLINE
  5
561
330
1F
100
AcDbEntity
  8
Capa 1
 62
   178
370
     9
100
AcDb2dPolyline
 66
     1
 10
0.0
 20
0.0
 30
0.0
  0
VERTEX
  5
562
330
561
100
AcDbEntity
  8
Capa 1
 62
   178
370
     9
100
AcDbVertex
100
AcDb2dVertex
 10
11.30964589959788
 20
-47.87656838750438
 30
0.0
  0
VERTEX
  5
563
330
561
100
AcDbEntity
  8
Capa 1
 62
   178
370
     9
100
AcDbVertex
100
AcDb2dVertex
 10
10.78570872345781
 20
-49.07859487912263
 30
0.0
  0
SEQEND
  5
564
330
561
100
AcDbEntity
  8
Capa 1
 62
   178
370
     9
  0
POLYLINE
  5
565
330
1F
100
AcDbEntity
  8
Capa 1
 62
   178
370
     9
100
AcDb2dPolyline
 66
     1
 10
0.0
 20
0.0
 30
0.0
  0
VERTEX
  5
566
330
565
100
AcDbEntity
  8
Capa 1
 62
   178
370
     9
100
AcDbVertex
100
AcDb2dVertex
 10
10.78570872345781
 20
-49.07859487912263
 30
0.0
  0
VERTEX
  5
567
330
565
100
AcDbEntity
  8
Capa 1
 62
   178
370
     9
100
AcDbVertex
100
AcDb2dVertex
 10
10.79728233504373
 20
-49.07789779011503
 30
0.0
  0
SEQEND
  5
568
330
565
100
AcDbEntity
  8
Capa 1
 62
   178
370
     9
  0
POLYLINE
  5
569
330
1F
100
AcDbEntity
  8
Capa 1
 62
   178
370
     9
100
AcDb2dPolyline
 66
     1
 10
0.0
 20
0.0
 30
0.0
  0
VERTEX
  5
56A
330
569
100
AcDbEntity
  8
Capa 1
 62
   178
370
     9
100
AcDbVertex
100
AcDb2dVertex
 10
10.78570872345781
 20
-49.07859487912263
 30
0.0
  0
VERTEX
  5
56B
330
569
100
AcDbEntity
  8
Capa 1
 62
   178
370
     9
100
AcDbVertex
100
AcDb2dVertex
 10
9.479914855223038
 20
-48.95240811872628
 30
0.0
  0
SEQEND
  5
56C
330
569
100
AcDbEntity
  8
Capa 1
 62
   178
370
     9
  0
POLYLINE
  5
56D
330
1F
100
AcDbEntity
  8
Capa 1
 62
   178
370
     9
100
AcDb2dPolyline
 66
     1
 10
0.0
 20
0.0
 30
0.0
  0
VERTEX
  5
56E
330
56D
100
AcDbEntity
  8
Capa 1
 62
   178
370
     9
100
AcDbVertex
100
AcDb2dVertex
 10
9.479914855223038
 20
-48.95240811872628
 30
0.0
  0
VERTEX
  5
56F
330
56D
100
AcDbEntity
  8
Capa 1
 62
   178
370
     9
100
AcDbVertex
100
AcDb2dVertex
 10
9.491488466809246
 20
-48.95171102971869
 30
0.0
  0
SEQEND
  5
570
330
56D
100
AcDbEntity
  8
Capa 1
 62
   178
370
     9
  0
POLYLINE
  5
571
330
1F
100
AcDbEntity
  8
Capa 1
 62
   178
370
     9
100
AcDb2dPolyline
 66
     1
 10
0.0
 20
0.0
 30
0.0
  0
VERTEX
  5
572
330
571
100
AcDbEntity
  8
Capa 1
 62
   178
370
     9
100
AcDbVertex
100
AcDb2dVertex
 10
10.78570872345781
 20
-49.07859487912263
 30
0.0
  0
VERTEX
  5
573
330
571
100
AcDbEntity
  8
Capa 1
 62
   178
370
     9
100
AcDbVertex
100
AcDb2dVertex
 10
10.26184150748458
 20
-50.28177995753148
 30
0.0
  0
SEQEND
  5
574
330
571
100
AcDbEntity
  8
Capa 1
 62
   178
370
     9
  0
POLYLINE
  5
575
330
1F
100
AcDbEntity
  8
Capa 1
 62
   178
370
     9
100
AcDb2dPolyline
 66
     1
 10
0.0
 20
0.0
 30
0.0
  0
VERTEX
  5
576
330
575
100
AcDbEntity
  8
Capa 1
 62
   178
370
     9
100
AcDbVertex
100
AcDb2dVertex
 10
10.26184150748458
 20
-50.28177995753148
 30
0.0
  0
VERTEX
  5
577
330
575
100
AcDbEntity
  8
Capa 1
 62
   178
370
     9
100
AcDbVertex
100
AcDb2dVertex
 10
10.27341324628572
 20
-50.28108120903229
 30
0.0
  0
SEQEND
  5
578
330
575
100
AcDbEntity
  8
Capa 1
 62
   178
370
     9
  0
POLYLINE
  5
579
330
1F
100
AcDbEntity
  8
Capa 1
 62
   178
370
     9
100
AcDb2dPolyline
 66
     1
 10
0.0
 20
0.0
 30
0.0
  0
VERTEX
  5
57A
330
579
100
AcDbEntity
  8
Capa 1
 62
   178
370
     9
100
AcDbVertex
100
AcDb2dVertex
 10
10.26184150748458
 20
-50.28177995753148
 30
0.0
  0
VERTEX
  5
57B
330
579
100
AcDbEntity
  8
Capa 1
 62
   178
370
     9
100
AcDbVertex
100
AcDb2dVertex
 10
9.391789868401887
 20
-51.26365865804097
 30
0.0
  0
SEQEND
  5
57C
330
579
100
AcDbEntity
  8
Capa 1
 62
   178
370
     9
  0
POLYLINE
  5
57D
330
1F
100
AcDbEntity
  8
Capa 1
 62
   178
370
     9
100
AcDb2dPolyline
 66
     1
 10
0.0
 20
0.0
 30
0.0
  0
VERTEX
  5
57E
330
57D
100
AcDbEntity
  8
Capa 1
 62
   178
370
     9
100
AcDbVertex
100
AcDb2dVertex
 10
9.391789868401887
 20
-51.26365865804097
 30
0.0
  0
VERTEX
  5
57F
330
57D
100
AcDbEntity
  8
Capa 1
 62
   178
370
     9
100
AcDbVertex
100
AcDb2dVertex
 10
9.403361607203019
 20
-51.26295990954178
 30
0.0
  0
SEQEND
  5
580
330
57D
100
AcDbEntity
  8
Capa 1
 62
   178
370
     9
  0
POLYLINE
  5
581
330
1F
100
AcDbEntity
  8
Capa 1
 62
   178
370
     9
100
AcDb2dPolyline
 66
     1
 10
0.0
 20
0.0
 30
0.0
  0
VERTEX
  5
582
330
581
100
AcDbEntity
  8
Capa 1
 62
   178
370
     9
100
AcDbVertex
100
AcDb2dVertex
 10
10.26184150748458
 20
-50.28177995753148
 30
0.0
  0
VERTEX
  5
583
330
581
100
AcDbEntity
  8
Capa 1
 62
   178
370
     9
100
AcDbVertex
100
AcDb2dVertex
 10
10.92606653313868
 20
-51.41264180436128
 30
0.0
  0
SEQEND
  5
584
330
581
100
AcDbEntity
  8
Capa 1
 62
   178
370
     9
  0
POLYLINE
  5
585
330
1F
100
AcDbEntity
  8
Capa 1
 62
   178
370
     9
100
AcDb2dPolyline
 66
     1
 10
0.0
 20
0.0
 30
0.0
  0
VERTEX
  5
586
330
585
100
AcDbEntity
  8
Capa 1
 62
   178
370
     9
100
AcDbVertex
100
AcDb2dVertex
 10
10.92606653313868
 20
-51.41264180436128
 30
0.0
  0
VERTEX
  5
587
330
585
100
AcDbEntity
  8
Capa 1
 62
   178
370
     9
100
AcDbVertex
100
AcDb2dVertex
 10
10.93764180421655
 20
-51.41194284256851
 30
0.0
  0
SEQEND
  5
588
330
585
100
AcDbEntity
  8
Capa 1
 62
   178
370
     9
  0
POLYLINE
  5
589
330
1F
100
AcDbEntity
  8
Capa 1
 62
   178
370
     9
100
AcDb2dPolyline
 66
     1
 10
0.0
 20
0.0
 30
0.0
  0
VERTEX
  5
58A
330
589
100
AcDbEntity
  8
Capa 1
 62
   178
370
     9
100
AcDbVertex
100
AcDb2dVertex
 10
10.92606653313868
 20
-51.41264180436128
 30
0.0
  0
VERTEX
  5
58B
330
589
100
AcDbEntity
  8
Capa 1
 62
   178
370
     9
100
AcDbVertex
100
AcDb2dVertex
 10
11.90794523364817
 20
-52.28269344344398
 30
0.0
  0
SEQEND
  5
58C
330
589
100
AcDbEntity
  8
Capa 1
 62
   178
370
     9
  0
POLYLINE
  5
58D
330
1F
100
AcDbEntity
  8
Capa 1
 62
   178
370
     9
100
AcDb2dPolyline
 66
     1
 10
0.0
 20
0.0
 30
0.0
  0
VERTEX
  5
58E
330
58D
100
AcDbEntity
  8
Capa 1
 62
   178
370
     9
100
AcDbVertex
100
AcDb2dVertex
 10
11.90794523364817
 20
-52.28269344344398
 30
0.0
  0
VERTEX
  5
58F
330
58D
100
AcDbEntity
  8
Capa 1
 62
   178
370
     9
100
AcDbVertex
100
AcDb2dVertex
 10
11.9195205047262
 20
-52.28199448165141
 30
0.0
  0
SEQEND
  5
590
330
58D
100
AcDbEntity
  8
Capa 1
 62
   178
370
     9
  0
POLYLINE
  5
591
330
1F
100
AcDbEntity
  8
Capa 1
 62
   178
370
     9
100
AcDb2dPolyline
 66
     1
 10
0.0
 20
0.0
 30
0.0
  0
VERTEX
  5
592
330
591
100
AcDbEntity
  8
Capa 1
 62
   178
370
     9
100
AcDbVertex
100
AcDb2dVertex
 10
10.92606653313868
 20
-51.41264180436128
 30
0.0
  0
VERTEX
  5
593
330
591
100
AcDbEntity
  8
Capa 1
 62
   178
370
     9
100
AcDbVertex
100
AcDb2dVertex
 10
11.59145014558378
 20
-52.54343369102343
 30
0.0
  0
SEQEND
  5
594
330
591
100
AcDbEntity
  8
Capa 1
 62
   178
370
     9
  0
POLYLINE
  5
595
330
1F
100
AcDbEntity
  8
Capa 1
 62
   178
370
     9
100
AcDb2dPolyline
 66
     1
 10
0.0
 20
0.0
 30
0.0
  0
VERTEX
  5
596
330
595
100
AcDbEntity
  8
Capa 1
 62
   178
370
     9
100
AcDbVertex
100
AcDb2dVertex
 10
11.59145014558378
 20
-52.54343369102343
 30
0.0
  0
VERTEX
  5
597
330
595
100
AcDbEntity
  8
Capa 1
 62
   178
370
     9
100
AcDbVertex
100
AcDb2dVertex
 10
11.60302541666132
 20
-52.54273472923092
 30
0.0
  0
SEQEND
  5
598
330
595
100
AcDbEntity
  8
Capa 1
 62
   178
370
     9
  0
POLYLINE
  5
599
330
1F
100
AcDbEntity
  8
Capa 1
 62
   178
370
     9
100
AcDb2dPolyline
 66
     1
 10
0.0
 20
0.0
 30
0.0
  0
VERTEX
  5
59A
330
599
100
AcDbEntity
  8
Capa 1
 62
   178
370
     9
100
AcDbVertex
100
AcDb2dVertex
 10
11.59145014558378
 20
-52.54343369102343
 30
0.0
  0
VERTEX
  5
59B
330
599
100
AcDbEntity
  8
Capa 1
 62
   178
370
     9
100
AcDbVertex
100
AcDb2dVertex
 10
12.89669970050629
 20
-52.67023472489852
 30
0.0
  0
SEQEND
  5
59C
330
599
100
AcDbEntity
  8
Capa 1
 62
   178
370
     9
  0
POLYLINE
  5
59D
330
1F
100
AcDbEntity
  8
Capa 1
 62
   178
370
     9
100
AcDb2dPolyline
 66
     1
 10
0.0
 20
0.0
 30
0.0
  0
VERTEX
  5
59E
330
59D
100
AcDbEntity
  8
Capa 1
 62
   178
370
     9
100
AcDbVertex
100
AcDb2dVertex
 10
12.89669970050629
 20
-52.67023472489852
 30
0.0
  0
VERTEX
  5
59F
330
59D
100
AcDbEntity
  8
Capa 1
 62
   178
370
     9
100
AcDbVertex
100
AcDb2dVertex
 10
12.90827497158416
 20
-52.66953576310611
 30
0.0
  0
SEQEND
  5
5A0
330
59D
100
AcDbEntity
  8
Capa 1
 62
   178
370
     9
  0
POLYLINE
  5
5A1
330
1F
100
AcDbEntity
  8
Capa 1
 62
   178
370
     9
100
AcDb2dPolyline
 66
     1
 10
0.0
 20
0.0
 30
0.0
  0
VERTEX
  5
5A2
330
5A1
100
AcDbEntity
  8
Capa 1
 62
   178
370
     9
100
AcDbVertex
100
AcDb2dVertex
 10
11.59145014558378
 20
-52.54343369102343
 30
0.0
  0
VERTEX
  5
5A3
330
5A1
100
AcDbEntity
  8
Capa 1
 62
   178
370
     9
100
AcDbVertex
100
AcDb2dVertex
 10
10.72139850650098
 20
-53.52531239153295
 30
0.0
  0
SEQEND
  5
5A4
330
5A1
100
AcDbEntity
  8
Capa 1
 62
   178
370
     9
  0
POLYLINE
  5
5A5
330
1F
100
AcDbEntity
  8
Capa 1
 62
   178
370
     9
100
AcDb2dPolyline
 66
     1
 10
0.0
 20
0.0
 30
0.0
  0
VERTEX
  5
5A6
330
5A5
100
AcDbEntity
  8
Capa 1
 62
   178
370
     9
100
AcDbVertex
100
AcDb2dVertex
 10
10.72139850650098
 20
-53.52531239153295
 30
0.0
  0
VERTEX
  5
5A7
330
5A5
100
AcDbEntity
  8
Capa 1
 62
   178
370
     9
100
AcDbVertex
100
AcDb2dVertex
 10
10.73297377757863
 20
-53.52461342974041
 30
0.0
  0
SEQEND
  5
5A8
330
5A5
100
AcDbEntity
  8
Capa 1
 62
   178
370
     9
  0
POLYLINE
  5
5A9
330
1F
100
AcDbEntity
  8
Capa 1
 62
   178
370
     9
100
AcDb2dPolyline
 66
     1
 10
0.0
 20
0.0
 30
0.0
  0
VERTEX
  5
5AA
330
5A9
100
AcDbEntity
  8
Capa 1
 62
   178
370
     9
100
AcDbVertex
100
AcDb2dVertex
 10
11.59145014558378
 20
-52.54343369102343
 30
0.0
  0
VERTEX
  5
5AB
330
5A9
100
AcDbEntity
  8
Capa 1
 62
   178
370
     9
100
AcDbVertex
100
AcDb2dVertex
 10
12.25683375802852
 20
-53.67422557768584
 30
0.0
  0
SEQEND
  5
5AC
330
5A9
100
AcDbEntity
  8
Capa 1
 62
   178
370
     9
  0
POLYLINE
  5
5AD
330
1F
100
AcDbEntity
  8
Capa 1
 62
   178
370
     9
100
AcDb2dPolyline
 66
     1
 10
0.0
 20
0.0
 30
0.0
  0
VERTEX
  5
5AE
330
5AD
100
AcDbEntity
  8
Capa 1
 62
   178
370
     9
100
AcDbVertex
100
AcDb2dVertex
 10
12.25683375802852
 20
-53.67422557768584
 30
0.0
  0
VERTEX
  5
5AF
330
5AD
100
AcDbEntity
  8
Capa 1
 62
   178
370
     9
100
AcDbVertex
100
AcDb2dVertex
 10
12.26840902910642
 20
-53.6735266158931
 30
0.0
  0
SEQEND
  5
5B0
330
5AD
100
AcDbEntity
  8
Capa 1
 62
   178
370
     9
  0
POLYLINE
  5
5B1
330
1F
100
AcDbEntity
  8
Capa 1
 62
   178
370
     9
100
AcDb2dPolyline
 66
     1
 10
0.0
 20
0.0
 30
0.0
  0
VERTEX
  5
5B2
330
5B1
100
AcDbEntity
  8
Capa 1
 62
   178
370
     9
100
AcDbVertex
100
AcDb2dVertex
 10
12.25683375802852
 20
-53.67422557768584
 30
0.0
  0
VERTEX
  5
5B3
330
5B1
100
AcDbEntity
  8
Capa 1
 62
   178
370
     9
100
AcDbVertex
100
AcDb2dVertex
 10
12.53922898751406
 20
-54.95534760902476
 30
0.0
  0
SEQEND
  5
5B4
330
5B1
100
AcDbEntity
  8
Capa 1
 62
   178
370
     9
  0
POLYLINE
  5
5B5
330
1F
100
AcDbEntity
  8
Capa 1
 62
   178
370
     9
100
AcDb2dPolyline
 66
     1
 10
0.0
 20
0.0
 30
0.0
  0
VERTEX
  5
5B6
330
5B5
100
AcDbEntity
  8
Capa 1
 62
   178
370
     9
100
AcDbVertex
100
AcDb2dVertex
 10
12.53922898751406
 20
-54.95534760902476
 30
0.0
  0
VERTEX
  5
5B7
330
5B5
100
AcDbEntity
  8
Capa 1
 62
   178
370
     9
100
AcDbVertex
100
AcDb2dVertex
 10
12.55080238580675
 20
-54.9546469877404
 30
0.0
  0
SEQEND
  5
5B8
330
5B5
100
AcDbEntity
  8
Capa 1
 62
   178
370
     9
  0
POLYLINE
  5
5B9
330
1F
100
AcDbEntity
  8
Capa 1
 62
   178
370
     9
100
AcDb2dPolyline
 66
     1
 10
0.0
 20
0.0
 30
0.0
  0
VERTEX
  5
5BA
330
5B9
100
AcDbEntity
  8
Capa 1
 62
   178
370
     9
100
AcDbVertex
100
AcDb2dVertex
 10
10.26184150748458
 20
-50.28177995753148
 30
0.0
  0
VERTEX
  5
5BB
330
5B9
100
AcDbEntity
  8
Capa 1
 62
   178
370
     9
100
AcDbVertex
100
AcDb2dVertex
 10
8.955433365771098
 20
-50.15504888382365
 30
0.0
  0
SEQEND
  5
5BC
330
5B9
100
AcDbEntity
  8
Capa 1
 62
   178
370
     9
  0
POLYLINE
  5
5BD
330
1F
100
AcDbEntity
  8
Capa 1
 62
   178
370
     9
100
AcDb2dPolyline
 66
     1
 10
0.0
 20
0.0
 30
0.0
  0
VERTEX
  5
5BE
330
5BD
100
AcDbEntity
  8
Capa 1
 62
   178
370
     9
100
AcDbVertex
100
AcDb2dVertex
 10
8.955433365771098
 20
-50.15504888382365
 30
0.0
  0
VERTEX
  5
5BF
330
5BD
100
AcDbEntity
  8
Capa 1
 62
   178
370
     9
100
AcDbVertex
100
AcDb2dVertex
 10
8.96700863684871
 20
-50.15434992203115
 30
0.0
  0
SEQEND
  5
5C0
330
5BD
100
AcDbEntity
  8
Capa 1
 62
   178
370
     9
  0
POLYLINE
  5
5C1
330
1F
100
AcDbEntity
  8
Capa 1
 62
   178
370
     9
100
AcDb2dPolyline
 66
     1
 10
0.0
 20
0.0
 30
0.0
  0
VERTEX
  5
5C2
330
5C1
100
AcDbEntity
  8
Capa 1
 62
   178
370
     9
100
AcDbVertex
100
AcDb2dVertex
 10
8.955433365771098
 20
-50.15504888382365
 30
0.0
  0
VERTEX
  5
5C3
330
5C1
100
AcDbEntity
  8
Capa 1
 62
   178
370
     9
100
AcDbVertex
100
AcDb2dVertex
 10
7.674925607911243
 20
-50.43798842662065
 30
0.0
  0
SEQEND
  5
5C4
330
5C1
100
AcDbEntity
  8
Capa 1
 62
   178
370
     9
  0
POLYLINE
  5
5C5
330
1F
100
AcDbEntity
  8
Capa 1
 62
   178
370
     9
100
AcDb2dPolyline
 66
     1
 10
0.0
 20
0.0
 30
0.0
  0
VERTEX
  5
5C6
330
5C5
100
AcDbEntity
  8
Capa 1
 62
   178
370
     9
100
AcDbVertex
100
AcDb2dVertex
 10
7.674925607911243
 20
-50.43798842662065
 30
0.0
  0
VERTEX
  5
5C7
330
5C5
100
AcDbEntity
  8
Capa 1
 62
   178
370
     9
100
AcDbVertex
100
AcDb2dVertex
 10
7.686500878988919
 20
-50.43728946482808
 30
0.0
  0
SEQEND
  5
5C8
330
5C5
100
AcDbEntity
  8
Capa 1
 62
   178
370
     9
  0
POLYLINE
  5
5C9
330
1F
100
AcDbEntity
  8
Capa 1
 62
   178
370
     9
100
AcDb2dPolyline
 66
     1
 10
0.0
 20
0.0
 30
0.0
  0
VERTEX
  5
5CA
330
5C9
100
AcDbEntity
  8
Capa 1
 62
   178
370
     9
100
AcDbVertex
100
AcDb2dVertex
 10
8.955433365771098
 20
-50.15504888382365
 30
0.0
  0
VERTEX
  5
5CB
330
5C9
100
AcDbEntity
  8
Capa 1
 62
   178
370
     9
100
AcDbVertex
100
AcDb2dVertex
 10
7.650183810848709
 20
-50.02824784994837
 30
0.0
  0
SEQEND
  5
5CC
330
5C9
100
AcDbEntity
  8
Capa 1
 62
   178
370
     9
  0
POLYLINE
  5
5CD
330
1F
100
AcDbEntity
  8
Capa 1
 62
   178
370
     9
100
AcDb2dPolyline
 66
     1
 10
0.0
 20
0.0
 30
0.0
  0
VERTEX
  5
5CE
330
5CD
100
AcDbEntity
  8
Capa 1
 62
   178
370
     9
100
AcDbVertex
100
AcDb2dVertex
 10
7.650183810848709
 20
-50.02824784994837
 30
0.0
  0
VERTEX
  5
5CF
330
5CD
100
AcDbEntity
  8
Capa 1
 62
   178
370
     9
100
AcDbVertex
100
AcDb2dVertex
 10
7.661757422434371
 20
-50.027550760941
 30
0.0
  0
SEQEND
  5
5D0
330
5CD
100
AcDbEntity
  8
Capa 1
 62
   178
370
     9
  0
POLYLINE
  5
5D1
330
1F
100
AcDbEntity
  8
Capa 1
 62
   178
370
     9
100
AcDb2dPolyline
 66
     1
 10
0.0
 20
0.0
 30
0.0
  0
VERTEX
  5
5D2
330
5D1
100
AcDbEntity
  8
Capa 1
 62
   178
370
     9
100
AcDbVertex
100
AcDb2dVertex
 10
7.650183810848709
 20
-50.02824784994837
 30
0.0
  0
VERTEX
  5
5D3
330
5D1
100
AcDbEntity
  8
Capa 1
 62
   178
370
     9
100
AcDbVertex
100
AcDb2dVertex
 10
6.780132171765594
 20
-51.01012655045832
 30
0.0
  0
SEQEND
  5
5D4
330
5D1
100
AcDbEntity
  8
Capa 1
 62
   178
370
     9
  0
POLYLINE
  5
5D5
330
1F
100
AcDbEntity
  8
Capa 1
 62
   178
370
     9
100
AcDb2dPolyline
 66
     1
 10
0.0
 20
0.0
 30
0.0
  0
VERTEX
  5
5D6
330
5D5
100
AcDbEntity
  8
Capa 1
 62
   178
370
     9
100
AcDbVertex
100
AcDb2dVertex
 10
6.780132171765594
 20
-51.01012655045832
 30
0.0
  0
VERTEX
  5
5D7
330
5D5
100
AcDbEntity
  8
Capa 1
 62
   178
370
     9
100
AcDbVertex
100
AcDb2dVertex
 10
6.791705783351673
 20
-51.00942946145047
 30
0.0
  0
SEQEND
  5
5D8
330
5D5
100
AcDbEntity
  8
Capa 1
 62
   178
370
     9
  0
POLYLINE
  5
5D9
330
1F
100
AcDbEntity
  8
Capa 1
 62
   178
370
     9
100
AcDb2dPolyline
 66
     1
 10
0.0
 20
0.0
 30
0.0
  0
VERTEX
  5
5DA
330
5D9
100
AcDbEntity
  8
Capa 1
 62
   178
370
     9
100
AcDbVertex
100
AcDb2dVertex
 10
7.650183810848709
 20
-50.02824784994837
 30
0.0
  0
VERTEX
  5
5DB
330
5D9
100
AcDbEntity
  8
Capa 1
 62
   178
370
     9
100
AcDbVertex
100
AcDb2dVertex
 10
7.366629994572237
 20
-48.74719577877671
 30
0.0
  0
SEQEND
  5
5DC
330
5D9
100
AcDbEntity
  8
Capa 1
 62
   178
370
     9
  0
POLYLINE
  5
5DD
330
1F
100
AcDbEntity
  8
Capa 1
 62
   178
370
     9
100
AcDb2dPolyline
 66
     1
 10
0.0
 20
0.0
 30
0.0
  0
VERTEX
  5
5DE
330
5DD
100
AcDbEntity
  8
Capa 1
 62
   178
370
     9
100
AcDbVertex
100
AcDb2dVertex
 10
7.366629994572237
 20
-48.74719577877671
 30
0.0
  0
VERTEX
  5
5DF
330
5DD
100
AcDbEntity
  8
Capa 1
 62
   178
370
     9
100
AcDbVertex
100
AcDb2dVertex
 10
7.378205265650041
 20
-48.74649681698436
 30
0.0
  0
SEQEND
  5
5E0
330
5DD
100
AcDbEntity
  8
Capa 1
 62
   178
370
     9
  0
POLYLINE
  5
5E1
330
1F
100
AcDbEntity
  8
Capa 1
 62
   178
370
     9
100
AcDb2dPolyline
 66
     1
 10
0.0
 20
0.0
 30
0.0
  0
VERTEX
  5
5E2
330
5E1
100
AcDbEntity
  8
Capa 1
 62
   178
370
     9
100
AcDbVertex
100
AcDb2dVertex
 10
7.650183810848709
 20
-50.02824784994837
 30
0.0
  0
VERTEX
  5
5E3
330
5E1
100
AcDbEntity
  8
Capa 1
 62
   178
370
     9
100
AcDbVertex
100
AcDb2dVertex
 10
6.343775669134966
 20
-49.90151677624038
 30
0.0
  0
SEQEND
  5
5E4
330
5E1
100
AcDbEntity
  8
Capa 1
 62
   178
370
     9
  0
POLYLINE
  5
5E5
330
1F
100
AcDbEntity
  8
Capa 1
 62
   178
370
     9
100
AcDb2dPolyline
 66
     1
 10
0.0
 20
0.0
 30
0.0
  0
VERTEX
  5
5E6
330
5E5
100
AcDbEntity
  8
Capa 1
 62
   178
370
     9
100
AcDbVertex
100
AcDb2dVertex
 10
6.343775669134966
 20
-49.90151677624038
 30
0.0
  0
VERTEX
  5
5E7
330
5E5
100
AcDbEntity
  8
Capa 1
 62
   178
370
     9
100
AcDbVertex
100
AcDb2dVertex
 10
6.355349280720852
 20
-49.90081968723315
 30
0.0
  0
SEQEND
  5
5E8
330
5E5
100
AcDbEntity
  8
Capa 1
 62
   178
370
     9
  0
POLYLINE
  5
5E9
330
1F
100
AcDbEntity
  8
Capa 1
 62
   178
370
     9
100
AcDb2dPolyline
 66
     1
 10
0.0
 20
0.0
 30
0.0
  0
VERTEX
  5
5EA
330
5E9
100
AcDbEntity
  8
Capa 1
 62
   178
370
     9
100
AcDbVertex
100
AcDb2dVertex
 10
6.343775669134966
 20
-49.90151677624038
 30
0.0
  0
VERTEX
  5
5EB
330
5E9
100
AcDbEntity
  8
Capa 1
 62
   178
370
     9
100
AcDbVertex
100
AcDb2dVertex
 10
5.14174917751672
 20
-49.37757960010032
 30
0.0
  0
SEQEND
  5
5EC
330
5E9
100
AcDbEntity
  8
Capa 1
 62
   178
370
     9
  0
POLYLINE
  5
5ED
330
1F
100
AcDbEntity
  8
Capa 1
 62
   178
370
     9
100
AcDb2dPolyline
 66
     1
 10
0.0
 20
0.0
 30
0.0
  0
VERTEX
  5
5EE
330
5ED
100
AcDbEntity
  8
Capa 1
 62
   178
370
     9
100
AcDbVertex
100
AcDb2dVertex
 10
5.14174917751672
 20
-49.37757960010032
 30
0.0
  0
VERTEX
  5
5EF
330
5ED
100
AcDbEntity
  8
Capa 1
 62
   178
370
     9
100
AcDbVertex
100
AcDb2dVertex
 10
5.153324448594493
 20
-49.37688063830755
 30
0.0
  0
SEQEND
  5
5F0
330
5ED
100
AcDbEntity
  8
Capa 1
 62
   178
370
     9
  0
POLYLINE
  5
5F1
330
1F
100
AcDbEntity
  8
Capa 1
 62
   178
370
     9
100
AcDb2dPolyline
 66
     1
 10
0.0
 20
0.0
 30
0.0
  0
VERTEX
  5
5F2
330
5F1
100
AcDbEntity
  8
Capa 1
 62
   178
370
     9
100
AcDbVertex
100
AcDb2dVertex
 10
10.26184150748458
 20
-50.28177995753148
 30
0.0
  0
VERTEX
  5
5F3
330
5F1
100
AcDbEntity
  8
Capa 1
 62
   178
370
     9
100
AcDbVertex
100
AcDb2dVertex
 10
9.737358145247379
 20
-51.48441906313708
 30
0.0
  0
SEQEND
  5
5F4
330
5F1
100
AcDbEntity
  8
Capa 1
 62
   178
370
     9
  0
POLYLINE
  5
5F5
330
1F
100
AcDbEntity
  8
Capa 1
 62
   178
370
     9
100
AcDb2dPolyline
 66
     1
 10
0.0
 20
0.0
 30
0.0
  0
VERTEX
  5
5F6
330
5F5
100
AcDbEntity
  8
Capa 1
 62
   178
370
     9
100
AcDbVertex
100
AcDb2dVertex
 10
9.737358145247379
 20
-51.48441906313708
 30
0.0
  0
VERTEX
  5
5F7
330
5F5
100
AcDbEntity
  8
Capa 1
 62
   178
370
     9
100
AcDbVertex
100
AcDb2dVertex
 10
9.748931756833585
 20
-51.48372197412948
 30
0.0
  0
SEQEND
  5
5F8
330
5F5
100
AcDbEntity
  8
Capa 1
 62
   178
370
     9
  0
POLYLINE
  5
5F9
330
1F
100
AcDbEntity
  8
Capa 1
 62
   178
370
     9
100
AcDb2dPolyline
 66
     1
 10
0.0
 20
0.0
 30
0.0
  0
VERTEX
  5
5FA
330
5F9
100
AcDbEntity
  8
Capa 1
 62
   178
370
     9
100
AcDbVertex
100
AcDb2dVertex
 10
9.737358145247379
 20
-51.48441906313708
 30
0.0
  0
VERTEX
  5
5FB
330
5F9
100
AcDbEntity
  8
Capa 1
 62
   178
370
     9
100
AcDbVertex
100
AcDb2dVertex
 10
9.610558984157429
 20
-52.78967027755161
 30
0.0
  0
SEQEND
  5
5FC
330
5F9
100
AcDbEntity
  8
Capa 1
 62
   178
370
     9
  0
POLYLINE
  5
5FD
330
1F
100
AcDbEntity
  8
Capa 1
 62
   178
370
     9
100
AcDb2dPolyline
 66
     1
 10
0.0
 20
0.0
 30
0.0
  0
VERTEX
  5
5FE
330
5FD
100
AcDbEntity
  8
Capa 1
 62
   178
370
     9
100
AcDbVertex
100
AcDb2dVertex
 10
9.610558984157429
 20
-52.78967027755161
 30
0.0
  0
VERTEX
  5
5FF
330
5FD
100
AcDbEntity
  8
Capa 1
 62
   178
370
     9
100
AcDbVertex
100
AcDb2dVertex
 10
9.622132382450094
 20
-52.78896965626728
 30
0.0
  0
SEQEND
  5
600
330
5FD
100
AcDbEntity
  8
Capa 1
 62
   178
370
     9
  0
POLYLINE
  5
601
330
1F
100
AcDbEntity
  8
Capa 1
 62
   178
370
     9
100
AcDb2dPolyline
 66
     1
 10
0.0
 20
0.0
 30
0.0
  0
VERTEX
  5
602
330
601
100
AcDbEntity
  8
Capa 1
 62
   178
370
     9
100
AcDbVertex
100
AcDb2dVertex
 10
9.737358145247379
 20
-51.48441906313708
 30
0.0
  0
VERTEX
  5
603
330
601
100
AcDbEntity
  8
Capa 1
 62
   178
370
     9
100
AcDbVertex
100
AcDb2dVertex
 10
9.212876655795567
 20
-52.68705982823425
 30
0.0
  0
SEQEND
  5
604
330
601
100
AcDbEntity
  8
Capa 1
 62
   178
370
     9
  0
POLYLINE
  5
605
330
1F
100
AcDbEntity
  8
Capa 1
 62
   178
370
     9
100
AcDb2dPolyline
 66
     1
 10
0.0
 20
0.0
 30
0.0
  0
VERTEX
  5
606
330
605
100
AcDbEntity
  8
Capa 1
 62
   178
370
     9
100
AcDbVertex
100
AcDb2dVertex
 10
9.212876655795567
 20
-52.68705982823425
 30
0.0
  0
VERTEX
  5
607
330
605
100
AcDbEntity
  8
Capa 1
 62
   178
370
     9
100
AcDbVertex
100
AcDb2dVertex
 10
9.224450267381455
 20
-52.68636273922663
 30
0.0
  0
SEQEND
  5
608
330
605
100
AcDbEntity
  8
Capa 1
 62
   178
370
     9
  0
POLYLINE
  5
609
330
1F
100
AcDbEntity
  8
Capa 1
 62
   178
370
     9
100
AcDb2dPolyline
 66
     1
 10
0.0
 20
0.0
 30
0.0
  0
VERTEX
  5
60A
330
609
100
AcDbEntity
  8
Capa 1
 62
   178
370
     9
100
AcDbVertex
100
AcDb2dVertex
 10
9.212876655795567
 20
-52.68705982823425
 30
0.0
  0
VERTEX
  5
60B
330
609
100
AcDbEntity
  8
Capa 1
 62
   178
370
     9
100
AcDbVertex
100
AcDb2dVertex
 10
9.878260268240407
 20
-53.81785171489656
 30
0.0
  0
SEQEND
  5
60C
330
609
100
AcDbEntity
  8
Capa 1
 62
   178
370
     9
  0
POLYLINE
  5
60D
330
1F
100
AcDbEntity
  8
Capa 1
 62
   178
370
     9
100
AcDb2dPolyline
 66
     1
 10
0.0
 20
0.0
 30
0.0
  0
VERTEX
  5
60E
330
60D
100
AcDbEntity
  8
Capa 1
 62
   178
370
     9
100
AcDbVertex
100
AcDb2dVertex
 10
9.878260268240407
 20
-53.81785171489656
 30
0.0
  0
VERTEX
  5
60F
330
60D
100
AcDbEntity
  8
Capa 1
 62
   178
370
     9
100
AcDbVertex
100
AcDb2dVertex
 10
9.889835539318437
 20
-53.81715275310399
 30
0.0
  0
SEQEND
  5
610
330
60D
100
AcDbEntity
  8
Capa 1
 62
   178
370
     9
  0
POLYLINE
  5
611
330
1F
100
AcDbEntity
  8
Capa 1
 62
   178
370
     9
100
AcDb2dPolyline
 66
     1
 10
0.0
 20
0.0
 30
0.0
  0
VERTEX
  5
612
330
611
100
AcDbEntity
  8
Capa 1
 62
   178
370
     9
100
AcDbVertex
100
AcDb2dVertex
 10
9.212876655795567
 20
-52.68705982823425
 30
0.0
  0
VERTEX
  5
613
330
611
100
AcDbEntity
  8
Capa 1
 62
   178
370
     9
100
AcDbVertex
100
AcDb2dVertex
 10
7.907625441381099
 20
-52.56026066714431
 30
0.0
  0
SEQEND
  5
614
330
611
100
AcDbEntity
  8
Capa 1
 62
   178
370
     9
  0
POLYLINE
  5
615
330
1F
100
AcDbEntity
  8
Capa 1
 62
   178
370
     9
100
AcDb2dPolyline
 66
     1
 10
0.0
 20
0.0
 30
0.0
  0
VERTEX
  5
616
330
615
100
AcDbEntity
  8
Capa 1
 62
   178
370
     9
100
AcDbVertex
100
AcDb2dVertex
 10
9.212876655795567
 20
-52.68705982823425
 30
0.0
  0
VERTEX
  5
617
330
615
100
AcDbEntity
  8
Capa 1
 62
   178
370
     9
100
AcDbVertex
100
AcDb2dVertex
 10
8.689552093642325
 20
-53.88963250594951
 30
0.0
  0
SEQEND
  5
618
330
615
100
AcDbEntity
  8
Capa 1
 62
   178
370
     9
  0
POLYLINE
  5
619
330
1F
100
AcDbEntity
  8
Capa 1
 62
   178
370
     9
100
AcDb2dPolyline
 66
     1
 10
0.0
 20
0.0
 30
0.0
  0
VERTEX
  5
61A
330
619
100
AcDbEntity
  8
Capa 1
 62
   178
370
     9
100
AcDbVertex
100
AcDb2dVertex
 10
8.689552093642325
 20
-53.88963250594951
 30
0.0
  0
VERTEX
  5
61B
330
619
100
AcDbEntity
  8
Capa 1
 62
   178
370
     9
100
AcDbVertex
100
AcDb2dVertex
 10
8.701127364720483
 20
-53.88893354415681
 30
0.0
  0
SEQEND
  5
61C
330
619
100
AcDbEntity
  8
Capa 1
 62
   178
370
     9
  0
POLYLINE
  5
61D
330
1F
100
AcDbEntity
  8
Capa 1
 62
   178
370
     9
100
AcDb2dPolyline
 66
     1
 10
0.0
 20
0.0
 30
0.0
  0
VERTEX
  5
61E
330
61D
100
AcDbEntity
  8
Capa 1
 62
   178
370
     9
100
AcDbVertex
100
AcDb2dVertex
 10
8.689552093642325
 20
-53.88963250594951
 30
0.0
  0
VERTEX
  5
61F
330
61D
100
AcDbEntity
  8
Capa 1
 62
   178
370
     9
100
AcDbVertex
100
AcDb2dVertex
 10
7.819500454559595
 20
-54.87151120645903
 30
0.0
  0
SEQEND
  5
620
330
61D
100
AcDbEntity
  8
Capa 1
 62
   178
370
     9
  0
POLYLINE
  5
621
330
1F
100
AcDbEntity
  8
Capa 1
 62
   178
370
     9
100
AcDb2dPolyline
 66
     1
 10
0.0
 20
0.0
 30
0.0
  0
VERTEX
  5
622
330
621
100
AcDbEntity
  8
Capa 1
 62
   178
370
     9
100
AcDbVertex
100
AcDb2dVertex
 10
7.819500454559595
 20
-54.87151120645903
 30
0.0
  0
VERTEX
  5
623
330
621
100
AcDbEntity
  8
Capa 1
 62
   178
370
     9
100
AcDbVertex
100
AcDb2dVertex
 10
7.831075725637624
 20
-54.87081224466646
 30
0.0
  0
SEQEND
  5
624
330
621
100
AcDbEntity
  8
Capa 1
 62
   178
370
     9
  0
POLYLINE
  5
625
330
1F
100
AcDbEntity
  8
Capa 1
 62
   178
370
     9
100
AcDb2dPolyline
 66
     1
 10
0.0
 20
0.0
 30
0.0
  0
VERTEX
  5
626
330
625
100
AcDbEntity
  8
Capa 1
 62
   178
370
     9
100
AcDbVertex
100
AcDb2dVertex
 10
8.689552093642325
 20
-53.88963250594951
 30
0.0
  0
VERTEX
  5
627
330
625
100
AcDbEntity
  8
Capa 1
 62
   178
370
     9
100
AcDbVertex
100
AcDb2dVertex
 10
7.819500454559595
 20
-54.87151120645903
 30
0.0
  0
SEQEND
  5
628
330
625
100
AcDbEntity
  8
Capa 1
 62
   178
370
     9
  0
POLYLINE
  5
629
330
1F
100
AcDbEntity
  8
Capa 1
 62
   178
370
     9
100
AcDb2dPolyline
 66
     1
 10
0.0
 20
0.0
 30
0.0
  0
VERTEX
  5
62A
330
629
100
AcDbEntity
  8
Capa 1
 62
   178
370
     9
100
AcDbVertex
100
AcDb2dVertex
 10
7.819500454559595
 20
-54.87151120645903
 30
0.0
  0
VERTEX
  5
62B
330
629
100
AcDbEntity
  8
Capa 1
 62
   178
370
     9
100
AcDbVertex
100
AcDb2dVertex
 10
7.831075725637624
 20
-54.87081224466646
 30
0.0
  0
SEQEND
  5
62C
330
629
100
AcDbEntity
  8
Capa 1
 62
   178
370
     9
  0
POLYLINE
  5
62D
330
1F
100
AcDbEntity
  8
Capa 1
 62
   178
370
     9
100
AcDb2dPolyline
 66
     1
 10
0.0
 20
0.0
 30
0.0
  0
VERTEX
  5
62E
330
62D
100
AcDbEntity
  8
Capa 1
 62
   178
370
     9
100
AcDbVertex
100
AcDb2dVertex
 10
7.819500454559595
 20
-54.87151120645903
 30
0.0
  0
VERTEX
  5
62F
330
62D
100
AcDbEntity
  8
Capa 1
 62
   178
370
     9
100
AcDbVertex
100
AcDb2dVertex
 10
7.295018965107624
 20
-56.07415197155602
 30
0.0
  0
SEQEND
  5
630
330
62D
100
AcDbEntity
  8
Capa 1
 62
   178
370
     9
  0
POLYLINE
  5
631
330
1F
100
AcDbEntity
  8
Capa 1
 62
   178
370
     9
100
AcDb2dPolyline
 66
     1
 10
0.0
 20
0.0
 30
0.0
  0
VERTEX
  5
632
330
631
100
AcDbEntity
  8
Capa 1
 62
   178
370
     9
100
AcDbVertex
100
AcDb2dVertex
 10
7.295018965107624
 20
-56.07415197155602
 30
0.0
  0
VERTEX
  5
633
330
631
100
AcDbEntity
  8
Capa 1
 62
   178
370
     9
100
AcDbVertex
100
AcDb2dVertex
 10
7.30659423618546
 20
-56.07345300976364
 30
0.0
  0
SEQEND
  5
634
330
631
100
AcDbEntity
  8
Capa 1
 62
   178
370
     9
  0
POLYLINE
  5
635
330
1F
100
AcDbEntity
  8
Capa 1
 62
   178
370
     9
100
AcDb2dPolyline
 66
     1
 10
0.0
 20
0.0
 30
0.0
  0
VERTEX
  5
636
330
635
100
AcDbEntity
  8
Capa 1
 62
   178
370
     9
100
AcDbVertex
100
AcDb2dVertex
 10
7.819500454559595
 20
-54.87151120645903
 30
0.0
  0
VERTEX
  5
637
330
635
100
AcDbEntity
  8
Capa 1
 62
   178
370
     9
100
AcDbVertex
100
AcDb2dVertex
 10
6.949448815476705
 20
-55.85338990696868
 30
0.0
  0
SEQEND
  5
638
330
635
100
AcDbEntity
  8
Capa 1
 62
   178
370
     9
  0
POLYLINE
  5
639
330
1F
100
AcDbEntity
  8
Capa 1
 62
   178
370
     9
100
AcDb2dPolyline
 66
     1
 10
0.0
 20
0.0
 30
0.0
  0
VERTEX
  5
63A
330
639
100
AcDbEntity
  8
Capa 1
 62
   178
370
     9
100
AcDbVertex
100
AcDb2dVertex
 10
6.949448815476705
 20
-55.85338990696868
 30
0.0
  0
VERTEX
  5
63B
330
639
100
AcDbEntity
  8
Capa 1
 62
   178
370
     9
100
AcDbVertex
100
AcDb2dVertex
 10
6.961024086554862
 20
-55.85269094517598
 30
0.0
  0
SEQEND
  5
63C
330
639
100
AcDbEntity
  8
Capa 1
 62
   178
370
     9
  0
POLYLINE
  5
63D
330
1F
100
AcDbEntity
  8
Capa 1
 62
   178
370
     9
100
AcDb2dPolyline
 66
     1
 10
0.0
 20
0.0
 30
0.0
  0
VERTEX
  5
63E
330
63D
100
AcDbEntity
  8
Capa 1
 62
   178
370
     9
100
AcDbVertex
100
AcDb2dVertex
 10
6.949448815476705
 20
-55.85338990696868
 30
0.0
  0
VERTEX
  5
63F
330
63D
100
AcDbEntity
  8
Capa 1
 62
   178
370
     9
100
AcDbVertex
100
AcDb2dVertex
 10
7.231845704454127
 20
-57.13451006552243
 30
0.0
  0
SEQEND
  5
640
330
63D
100
AcDbEntity
  8
Capa 1
 62
   178
370
     9
  0
POLYLINE
  5
641
330
1F
100
AcDbEntity
  8
Capa 1
 62
   178
370
     9
100
AcDb2dPolyline
 66
     1
 10
0.0
 20
0.0
 30
0.0
  0
VERTEX
  5
642
330
641
100
AcDbEntity
  8
Capa 1
 62
   178
370
     9
100
AcDbVertex
100
AcDb2dVertex
 10
7.231845704454127
 20
-57.13451006552243
 30
0.0
  0
VERTEX
  5
643
330
641
100
AcDbEntity
  8
Capa 1
 62
   178
370
     9
100
AcDbVertex
100
AcDb2dVertex
 10
7.243419316039981
 20
-57.13381297651484
 30
0.0
  0
SEQEND
  5
644
330
641
100
AcDbEntity
  8
Capa 1
 62
   178
370
     9
  0
POLYLINE
  5
645
330
1F
100
AcDbEntity
  8
Capa 1
 62
   178
370
     9
100
AcDb2dPolyline
 66
     1
 10
0.0
 20
0.0
 30
0.0
  0
VERTEX
  5
646
330
645
100
AcDbEntity
  8
Capa 1
 62
   178
370
     9
100
AcDbVertex
100
AcDb2dVertex
 10
6.949448815476705
 20
-55.85338990696868
 30
0.0
  0
VERTEX
  5
647
330
645
100
AcDbEntity
  8
Capa 1
 62
   178
370
     9
100
AcDbVertex
100
AcDb2dVertex
 10
5.746265396559762
 20
-55.32952081821038
 30
0.0
  0
SEQEND
  5
648
330
645
100
AcDbEntity
  8
Capa 1
 62
   178
370
     9
  0
POLYLINE
  5
649
330
1F
100
AcDbEntity
  8
Capa 1
 62
   178
370
     9
100
AcDb2dPolyline
 66
     1
 10
0.0
 20
0.0
 30
0.0
  0
VERTEX
  5
64A
330
649
100
AcDbEntity
  8
Capa 1
 62
   178
370
     9
100
AcDbVertex
100
AcDb2dVertex
 10
5.746265396559762
 20
-55.32952081821038
 30
0.0
  0
VERTEX
  5
64B
330
649
100
AcDbEntity
  8
Capa 1
 62
   178
370
     9
100
AcDbVertex
100
AcDb2dVertex
 10
5.757840667637406
 20
-55.32882185641771
 30
0.0
  0
SEQEND
  5
64C
330
649
100
AcDbEntity
  8
Capa 1
 62
   178
370
     9
  0
POLYLINE
  5
64D
330
1F
100
AcDbEntity
  8
Capa 1
 62
   178
370
     9
100
AcDb2dPolyline
 66
     1
 10
0.0
 20
0.0
 30
0.0
  0
VERTEX
  5
64E
330
64D
100
AcDbEntity
  8
Capa 1
 62
   178
370
     9
100
AcDbVertex
100
AcDb2dVertex
 10
6.949448815476705
 20
-55.85338990696868
 30
0.0
  0
VERTEX
  5
64F
330
64D
100
AcDbEntity
  8
Capa 1
 62
   178
370
     9
100
AcDbVertex
100
AcDb2dVertex
 10
6.079397176394135
 20
-56.83526860747798
 30
0.0
  0
SEQEND
  5
650
330
64D
100
AcDbEntity
  8
Capa 1
 62
   178
370
     9
  0
POLYLINE
  5
651
330
1F
100
AcDbEntity
  8
Capa 1
 62
   178
370
     9
100
AcDb2dPolyline
 66
     1
 10
0.0
 20
0.0
 30
0.0
  0
VERTEX
  5
652
330
651
100
AcDbEntity
  8
Capa 1
 62
   178
370
     9
100
AcDbVertex
100
AcDb2dVertex
 10
6.079397176394135
 20
-56.83526860747798
 30
0.0
  0
VERTEX
  5
653
330
651
100
AcDbEntity
  8
Capa 1
 62
   178
370
     9
100
AcDbVertex
100
AcDb2dVertex
 10
6.090972447471939
 20
-56.8345696456857
 30
0.0
  0
SEQEND
  5
654
330
651
100
AcDbEntity
  8
Capa 1
 62
   178
370
     9
  0
POLYLINE
  5
655
330
1F
100
AcDbEntity
  8
Capa 1
 62
   178
370
     9
100
AcDb2dPolyline
 66
     1
 10
0.0
 20
0.0
 30
0.0
  0
VERTEX
  5
656
330
655
100
AcDbEntity
  8
Capa 1
 62
   178
370
     9
100
AcDbVertex
100
AcDb2dVertex
 10
6.079397176394135
 20
-56.83526860747798
 30
0.0
  0
VERTEX
  5
657
330
655
100
AcDbEntity
  8
Capa 1
 62
   178
370
     9
100
AcDbVertex
100
AcDb2dVertex
 10
4.947991016252856
 20
-57.50010790661114
 30
0.0
  0
SEQEND
  5
658
330
655
100
AcDbEntity
  8
Capa 1
 62
   178
370
     9
  0
POLYLINE
  5
659
330
1F
100
AcDbEntity
  8
Capa 1
 62
   178
370
     9
100
AcDb2dPolyline
 66
     1
 10
0.0
 20
0.0
 30
0.0
  0
VERTEX
  5
65A
330
659
100
AcDbEntity
  8
Capa 1
 62
   178
370
     9
100
AcDbVertex
100
AcDb2dVertex
 10
4.947991016252856
 20
-57.50010790661114
 30
0.0
  0
VERTEX
  5
65B
330
659
100
AcDbEntity
  8
Capa 1
 62
   178
370
     9
100
AcDbVertex
100
AcDb2dVertex
 10
4.959566287330404
 20
-57.4994089448187
 30
0.0
  0
SEQEND
  5
65C
330
659
100
AcDbEntity
  8
Capa 1
 62
   178
370
     9
  0
POLYLINE
  5
65D
330
1F
100
AcDbEntity
  8
Capa 1
 62
   178
370
     9
100
AcDb2dPolyline
 66
     1
 10
0.0
 20
0.0
 30
0.0
  0
VERTEX
  5
65E
330
65D
100
AcDbEntity
  8
Capa 1
 62
   178
370
     9
100
AcDbVertex
100
AcDb2dVertex
 10
13.40580086992129
 20
-43.06553263346241
 30
0.0
  0
VERTEX
  5
65F
330
65D
100
AcDbEntity
  8
Capa 1
 62
   178
370
     9
100
AcDbVertex
100
AcDb2dVertex
 10
14.38767957043081
 20
-43.93558427254517
 30
0.0
  0
SEQEND
  5
660
330
65D
100
AcDbEntity
  8
Capa 1
 62
   178
370
     9
  0
POLYLINE
  5
661
330
1F
100
AcDbEntity
  8
Capa 1
 62
   178
370
     9
100
AcDb2dPolyline
 66
     1
 10
0.0
 20
0.0
 30
0.0
  0
VERTEX
  5
662
330
661
100
AcDbEntity
  8
Capa 1
 62
   178
370
     9
100
AcDbVertex
100
AcDb2dVertex
 10
14.38767957043081
 20
-43.93558427254517
 30
0.0
  0
VERTEX
  5
663
330
661
100
AcDbEntity
  8
Capa 1
 62
   178
370
     9
100
AcDbVertex
100
AcDb2dVertex
 10
14.39925484150845
 20
-43.9348853107526
 30
0.0
  0
SEQEND
  5
664
330
661
100
AcDbEntity
  8
Capa 1
 62
   178
370
     9
  0
POLYLINE
  5
665
330
1F
100
AcDbEntity
  8
Capa 1
 62
   178
370
     9
100
AcDb2dPolyline
 66
     1
 10
0.0
 20
0.0
 30
0.0
  0
VERTEX
  5
666
330
665
100
AcDbEntity
  8
Capa 1
 62
   178
370
     9
100
AcDbVertex
100
AcDb2dVertex
 10
14.38767957043081
 20
-43.93558427254517
 30
0.0
  0
VERTEX
  5
667
330
665
100
AcDbEntity
  8
Capa 1
 62
   178
370
     9
100
AcDbVertex
100
AcDb2dVertex
 10
15.59032033552793
 20
-44.46006576199731
 30
0.0
  0
SEQEND
  5
668
330
665
100
AcDbEntity
  8
Capa 1
 62
   178
370
     9
  0
POLYLINE
  5
669
330
1F
100
AcDbEntity
  8
Capa 1
 62
   178
370
     9
100
AcDb2dPolyline
 66
     1
 10
0.0
 20
0.0
 30
0.0
  0
VERTEX
  5
66A
330
669
100
AcDbEntity
  8
Capa 1
 62
   178
370
     9
100
AcDbVertex
100
AcDb2dVertex
 10
15.59032033552793
 20
-44.46006576199731
 30
0.0
  0
VERTEX
  5
66B
330
669
100
AcDbEntity
  8
Capa 1
 62
   178
370
     9
100
AcDbVertex
100
AcDb2dVertex
 10
15.60189560660596
 20
-44.4593668002047
 30
0.0
  0
SEQEND
  5
66C
330
669
100
AcDbEntity
  8
Capa 1
 62
   178
370
     9
  0
POLYLINE
  5
66D
330
1F
100
AcDbEntity
  8
Capa 1
 62
   178
370
     9
100
AcDb2dPolyline
 66
     1
 10
0.0
 20
0.0
 30
0.0
  0
VERTEX
  5
66E
330
66D
100
AcDbEntity
  8
Capa 1
 62
   178
370
     9
100
AcDbVertex
100
AcDb2dVertex
 10
14.38767957043081
 20
-43.93558427254517
 30
0.0
  0
VERTEX
  5
66F
330
66D
100
AcDbEntity
  8
Capa 1
 62
   178
370
     9
100
AcDbVertex
100
AcDb2dVertex
 10
15.3695582709403
 20
-44.8056359116279
 30
0.0
  0
SEQEND
  5
670
330
66D
100
AcDbEntity
  8
Capa 1
 62
   178
370
     9
  0
POLYLINE
  5
671
330
1F
100
AcDbEntity
  8
Capa 1
 62
   178
370
     9
100
AcDb2dPolyline
 66
     1
 10
0.0
 20
0.0
 30
0.0
  0
VERTEX
  5
672
330
671
100
AcDbEntity
  8
Capa 1
 62
   178
370
     9
100
AcDbVertex
100
AcDb2dVertex
 10
15.3695582709403
 20
-44.8056359116279
 30
0.0
  0
VERTEX
  5
673
330
671
100
AcDbEntity
  8
Capa 1
 62
   178
370
     9
100
AcDbVertex
100
AcDb2dVertex
 10
15.38113354201817
 20
-44.80493694983546
 30
0.0
  0
SEQEND
  5
674
330
671
100
AcDbEntity
  8
Capa 1
 62
   178
370
     9
  0
POLYLINE
  5
675
330
1F
100
AcDbEntity
  8
Capa 1
 62
   178
370
     9
100
AcDb2dPolyline
 66
     1
 10
0.0
 20
0.0
 30
0.0
  0
VERTEX
  5
676
330
675
100
AcDbEntity
  8
Capa 1
 62
   178
370
     9
100
AcDbVertex
100
AcDb2dVertex
 10
15.3695582709403
 20
-44.8056359116279
 30
0.0
  0
VERTEX
  5
677
330
675
100
AcDbEntity
  8
Capa 1
 62
   178
370
     9
100
AcDbVertex
100
AcDb2dVertex
 10
16.65006602880035
 20
-44.52269636883069
 30
0.0
  0
SEQEND
  5
678
330
675
100
AcDbEntity
  8
Capa 1
 62
   178
370
     9
  0
POLYLINE
  5
679
330
1F
100
AcDbEntity
  8
Capa 1
 62
   178
370
     9
100
AcDb2dPolyline
 66
     1
 10
0.0
 20
0.0
 30
0.0
  0
VERTEX
  5
67A
330
679
100
AcDbEntity
  8
Capa 1
 62
   178
370
     9
100
AcDbVertex
100
AcDb2dVertex
 10
16.65006602880035
 20
-44.52269636883069
 30
0.0
  0
VERTEX
  5
67B
330
679
100
AcDbEntity
  8
Capa 1
 62
   178
370
     9
100
AcDbVertex
100
AcDb2dVertex
 10
16.66163964038617
 20
-44.52199927982313
 30
0.0
  0
SEQEND
  5
67C
330
679
100
AcDbEntity
  8
Capa 1
 62
   178
370
     9
  0
POLYLINE
  5
67D
330
1F
100
AcDbEntity
  8
Capa 1
 62
   178
370
     9
100
AcDb2dPolyline
 66
     1
 10
0.0
 20
0.0
 30
0.0
  0
VERTEX
  5
67E
330
67D
100
AcDbEntity
  8
Capa 1
 62
   178
370
     9
100
AcDbVertex
100
AcDb2dVertex
 10
14.84507678148833
 20
-46.00827667672525
 30
0.0
  0
VERTEX
  5
67F
330
67D
100
AcDbEntity
  8
Capa 1
 62
   178
370
     9
100
AcDbVertex
100
AcDb2dVertex
 10
14.856652052566
 20
-46.00757771493267
 30
0.0
  0
SEQEND
  5
680
330
67D
100
AcDbEntity
  8
Capa 1
 62
   178
370
     9
  0
POLYLINE
  5
681
330
1F
100
AcDbEntity
  8
Capa 1
 62
   178
370
     9
100
AcDb2dPolyline
 66
     1
 10
0.0
 20
0.0
 30
0.0
  0
VERTEX
  5
682
330
681
100
AcDbEntity
  8
Capa 1
 62
   178
370
     9
100
AcDbVertex
100
AcDb2dVertex
 10
15.3695582709403
 20
-44.8056359116279
 30
0.0
  0
VERTEX
  5
683
330
681
100
AcDbEntity
  8
Capa 1
 62
   178
370
     9
100
AcDbVertex
100
AcDb2dVertex
 10
16.35143697144982
 20
-45.67568755071063
 30
0.0
  0
SEQEND
  5
684
330
681
100
AcDbEntity
  8
Capa 1
 62
   178
370
     9
  0
POLYLINE
  5
685
330
1F
100
AcDbEntity
  8
Capa 1
 62
   178
370
     9
100
AcDb2dPolyline
 66
     1
 10
0.0
 20
0.0
 30
0.0
  0
VERTEX
  5
686
330
685
100
AcDbEntity
  8
Capa 1
 62
   178
370
     9
100
AcDbVertex
100
AcDb2dVertex
 10
16.35143697144982
 20
-45.67568755071063
 30
0.0
  0
VERTEX
  5
687
330
685
100
AcDbEntity
  8
Capa 1
 62
   178
370
     9
100
AcDbVertex
100
AcDb2dVertex
 10
16.36301224252769
 20
-45.67498858891825
 30
0.0
  0
SEQEND
  5
688
330
685
100
AcDbEntity
  8
Capa 1
 62
   178
370
     9
  0
POLYLINE
  5
689
330
1F
100
AcDbEntity
  8
Capa 1
 62
   178
370
     9
100
AcDb2dPolyline
 66
     1
 10
0.0
 20
0.0
 30
0.0
  0
VERTEX
  5
68A
330
689
100
AcDbEntity
  8
Capa 1
 62
   178
370
     9
100
AcDbVertex
100
AcDb2dVertex
 10
16.35143697144982
 20
-45.67568755071063
 30
0.0
  0
VERTEX
  5
68B
330
689
100
AcDbEntity
  8
Capa 1
 62
   178
370
     9
100
AcDbVertex
100
AcDb2dVertex
 10
17.01682058389486
 20
-46.80647943737313
 30
0.0
  0
SEQEND
  5
68C
330
689
100
AcDbEntity
  8
Capa 1
 62
   178
370
     9
  0
POLYLINE
  5
68D
330
1F
100
AcDbEntity
  8
Capa 1
 62
   178
370
     9
100
AcDb2dPolyline
 66
     1
 10
0.0
 20
0.0
 30
0.0
  0
VERTEX
  5
68E
330
68D
100
AcDbEntity
  8
Capa 1
 62
   178
370
     9
100
AcDbVertex
100
AcDb2dVertex
 10
17.01682058389486
 20
-46.80647943737313
 30
0.0
  0
VERTEX
  5
68F
330
68D
100
AcDbEntity
  8
Capa 1
 62
   178
370
     9
100
AcDbVertex
100
AcDb2dVertex
 10
17.02839585497266
 20
-46.80578047558043
 30
0.0
  0
SEQEND
  5
690
330
68D
100
AcDbEntity
  8
Capa 1
 62
   178
370
     9
  0
POLYLINE
  5
691
330
1F
100
AcDbEntity
  8
Capa 1
 62
   178
370
     9
100
AcDb2dPolyline
 66
     1
 10
0.0
 20
0.0
 30
0.0
  0
VERTEX
  5
692
330
691
100
AcDbEntity
  8
Capa 1
 62
   178
370
     9
100
AcDbVertex
100
AcDb2dVertex
 10
16.35143697144982
 20
-45.67568755071063
 30
0.0
  0
VERTEX
  5
693
330
691
100
AcDbEntity
  8
Capa 1
 62
   178
370
     9
100
AcDbVertex
100
AcDb2dVertex
 10
17.55407773654713
 20
-46.20016904016293
 30
0.0
  0
SEQEND
  5
694
330
691
100
AcDbEntity
  8
Capa 1
 62
   178
370
     9
  0
POLYLINE
  5
695
330
1F
100
AcDbEntity
  8
Capa 1
 62
   178
370
     9
100
AcDb2dPolyline
 66
     1
 10
0.0
 20
0.0
 30
0.0
  0
VERTEX
  5
696
330
695
100
AcDbEntity
  8
Capa 1
 62
   178
370
     9
100
AcDbVertex
100
AcDb2dVertex
 10
17.55407773654713
 20
-46.20016904016293
 30
0.0
  0
VERTEX
  5
697
330
695
100
AcDbEntity
  8
Capa 1
 62
   178
370
     9
100
AcDbVertex
100
AcDb2dVertex
 10
17.56565300762497
 20
-46.19947007837019
 30
0.0
  0
SEQEND
  5
698
330
695
100
AcDbEntity
  8
Capa 1
 62
   178
370
     9
  0
POLYLINE
  5
699
330
1F
100
AcDbEntity
  8
Capa 1
 62
   178
370
     9
100
AcDb2dPolyline
 66
     1
 10
0.0
 20
0.0
 30
0.0
  0
VERTEX
  5
69A
330
699
100
AcDbEntity
  8
Capa 1
 62
   178
370
     9
100
AcDbVertex
100
AcDb2dVertex
 10
17.55407773654713
 20
-46.20016904016293
 30
0.0
  0
VERTEX
  5
69B
330
699
100
AcDbEntity
  8
Capa 1
 62
   178
370
     9
100
AcDbVertex
100
AcDb2dVertex
 10
18.85986994529005
 20
-46.32635767334408
 30
0.0
  0
SEQEND
  5
69C
330
699
100
AcDbEntity
  8
Capa 1
 62
   178
370
     9
  0
POLYLINE
  5
69D
330
1F
100
AcDbEntity
  8
Capa 1
 62
   178
370
     9
100
AcDb2dPolyline
 66
     1
 10
0.0
 20
0.0
 30
0.0
  0
VERTEX
  5
69E
330
69D
100
AcDbEntity
  8
Capa 1
 62
   178
370
     9
100
AcDbVertex
100
AcDb2dVertex
 10
18.85986994529005
 20
-46.32635767334408
 30
0.0
  0
VERTEX
  5
69F
330
69D
100
AcDbEntity
  8
Capa 1
 62
   178
370
     9
100
AcDbVertex
100
AcDb2dVertex
 10
18.87144687585965
 20
-46.32565683876631
 30
0.0
  0
SEQEND
  5
6A0
330
69D
100
AcDbEntity
  8
Capa 1
 62
   178
370
     9
  0
POLYLINE
  5
6A1
330
1F
100
AcDbEntity
  8
Capa 1
 62
   178
370
     9
100
AcDb2dPolyline
 66
     1
 10
0.0
 20
0.0
 30
0.0
  0
VERTEX
  5
6A2
330
6A1
100
AcDbEntity
  8
Capa 1
 62
   178
370
     9
100
AcDbVertex
100
AcDb2dVertex
 10
17.55407773654713
 20
-46.20016904016293
 30
0.0
  0
VERTEX
  5
6A3
330
6A1
100
AcDbEntity
  8
Capa 1
 62
   178
370
     9
100
AcDbVertex
100
AcDb2dVertex
 10
18.75664854147725
 20
-46.72349194282393
 30
0.0
  0
SEQEND
  5
6A4
330
6A1
100
AcDbEntity
  8
Capa 1
 62
   178
370
     9
  0
POLYLINE
  5
6A5
330
1F
100
AcDbEntity
  8
Capa 1
 62
   178
370
     9
100
AcDb2dPolyline
 66
     1
 10
0.0
 20
0.0
 30
0.0
  0
VERTEX
  5
6A6
330
6A5
100
AcDbEntity
  8
Capa 1
 62
   178
370
     9
100
AcDbVertex
100
AcDb2dVertex
 10
18.75664854147725
 20
-46.72349194282393
 30
0.0
  0
VERTEX
  5
6A7
330
6A5
100
AcDbEntity
  8
Capa 1
 62
   178
370
     9
100
AcDbVertex
100
AcDb2dVertex
 10
18.7682221530633
 20
-46.72279485381652
 30
0.0
  0
SEQEND
  5
6A8
330
6A5
100
AcDbEntity
  8
Capa 1
 62
   178
370
     9
  0
POLYLINE
  5
6A9
330
1F
100
AcDbEntity
  8
Capa 1
 62
   178
370
     9
100
AcDb2dPolyline
 66
     1
 10
0.0
 20
0.0
 30
0.0
  0
VERTEX
  5
6AA
330
6A9
100
AcDbEntity
  8
Capa 1
 62
   178
370
     9
100
AcDbVertex
100
AcDb2dVertex
 10
18.75664854147725
 20
-46.72349194282393
 30
0.0
  0
VERTEX
  5
6AB
330
6A9
100
AcDbEntity
  8
Capa 1
 62
   178
370
     9
100
AcDbVertex
100
AcDb2dVertex
 10
19.88805304212683
 20
-46.0586545164761
 30
0.0
  0
SEQEND
  5
6AC
330
6A9
100
AcDbEntity
  8
Capa 1
 62
   178
370
     9
  0
POLYLINE
  5
6AD
330
1F
100
AcDbEntity
  8
Capa 1
 62
   178
370
     9
100
AcDb2dPolyline
 66
     1
 10
0.0
 20
0.0
 30
0.0
  0
VERTEX
  5
6AE
330
6AD
100
AcDbEntity
  8
Capa 1
 62
   178
370
     9
100
AcDbVertex
100
AcDb2dVertex
 10
19.88805304212683
 20
-46.0586545164761
 30
0.0
  0
VERTEX
  5
6AF
330
6AD
100
AcDbEntity
  8
Capa 1
 62
   178
370
     9
100
AcDbVertex
100
AcDb2dVertex
 10
19.89962997269656
 20
-46.05795368189819
 30
0.0
  0
SEQEND
  5
6B0
330
6AD
100
AcDbEntity
  8
Capa 1
 62
   178
370
     9
  0
POLYLINE
  5
6B1
330
1F
100
AcDbEntity
  8
Capa 1
 62
   178
370
     9
100
AcDb2dPolyline
 66
     1
 10
0.0
 20
0.0
 30
0.0
  0
VERTEX
  5
6B2
330
6B1
100
AcDbEntity
  8
Capa 1
 62
   178
370
     9
100
AcDbVertex
100
AcDb2dVertex
 10
18.75664854147725
 20
-46.72349194282393
 30
0.0
  0
VERTEX
  5
6B3
330
6B1
100
AcDbEntity
  8
Capa 1
 62
   178
370
     9
100
AcDbVertex
100
AcDb2dVertex
 10
19.9592893065745
 20
-47.247973432276
 30
0.0
  0
SEQEND
  5
6B4
330
6B1
100
AcDbEntity
  8
Capa 1
 62
   178
370
     9
  0
POLYLINE
  5
6B5
330
1F
100
AcDbEntity
  8
Capa 1
 62
   178
370
     9
100
AcDb2dPolyline
 66
     1
 10
0.0
 20
0.0
 30
0.0
  0
VERTEX
  5
6B6
330
6B5
100
AcDbEntity
  8
Capa 1
 62
   178
370
     9
100
AcDbVertex
100
AcDb2dVertex
 10
19.9592893065745
 20
-47.247973432276
 30
0.0
  0
VERTEX
  5
6B7
330
6B5
100
AcDbEntity
  8
Capa 1
 62
   178
370
     9
100
AcDbVertex
100
AcDb2dVertex
 10
19.9708629181607
 20
-47.24727634326843
 30
0.0
  0
SEQEND
  5
6B8
330
6B5
100
AcDbEntity
  8
Capa 1
 62
   178
370
     9
  0
POLYLINE
  5
6B9
330
1F
100
AcDbEntity
  8
Capa 1
 62
   178
370
     9
100
AcDb2dPolyline
 66
     1
 10
0.0
 20
0.0
 30
0.0
  0
VERTEX
  5
6BA
330
6B9
100
AcDbEntity
  8
Capa 1
 62
   178
370
     9
100
AcDbVertex
100
AcDb2dVertex
 10
16.35143697144982
 20
-45.67568755071063
 30
0.0
  0
VERTEX
  5
6BB
330
6B9
100
AcDbEntity
  8
Capa 1
 62
   178
370
     9
100
AcDbVertex
100
AcDb2dVertex
 10
17.33331567195947
 20
-46.54573918979352
 30
0.0
  0
SEQEND
  5
6BC
330
6B9
100
AcDbEntity
  8
Capa 1
 62
   178
370
     9
  0
POLYLINE
  5
6BD
330
1F
100
AcDbEntity
  8
Capa 1
 62
   178
370
     9
100
AcDb2dPolyline
 66
     1
 10
0.0
 20
0.0
 30
0.0
  0
VERTEX
  5
6BE
330
6BD
100
AcDbEntity
  8
Capa 1
 62
   178
370
     9
100
AcDbVertex
100
AcDb2dVertex
 10
17.33331567195947
 20
-46.54573918979352
 30
0.0
  0
VERTEX
  5
6BF
330
6BD
100
AcDbEntity
  8
Capa 1
 62
   178
370
     9
100
AcDbVertex
100
AcDb2dVertex
 10
17.34489094303715
 20
-46.54504022800099
 30
0.0
  0
SEQEND
  5
6C0
330
6BD
100
AcDbEntity
  8
Capa 1
 62
   178
370
     9
  0
POLYLINE
  5
6C1
330
1F
100
AcDbEntity
  8
Capa 1
 62
   178
370
     9
100
AcDb2dPolyline
 66
     1
 10
0.0
 20
0.0
 30
0.0
  0
VERTEX
  5
6C2
330
6C1
100
AcDbEntity
  8
Capa 1
 62
   178
370
     9
100
AcDbVertex
100
AcDb2dVertex
 10
17.33331567195947
 20
-46.54573918979352
 30
0.0
  0
VERTEX
  5
6C3
330
6C1
100
AcDbEntity
  8
Capa 1
 62
   178
370
     9
100
AcDbVertex
100
AcDb2dVertex
 10
18.53595643705665
 20
-47.07022067924569
 30
0.0
  0
SEQEND
  5
6C4
330
6C1
100
AcDbEntity
  8
Capa 1
 62
   178
370
     9
  0
POLYLINE
  5
6C5
330
1F
100
AcDbEntity
  8
Capa 1
 62
   178
370
     9
100
AcDb2dPolyline
 66
     1
 10
0.0
 20
0.0
 30
0.0
  0
VERTEX
  5
6C6
330
6C5
100
AcDbEntity
  8
Capa 1
 62
   178
370
     9
100
AcDbVertex
100
AcDb2dVertex
 10
18.53595643705665
 20
-47.07022067924569
 30
0.0
  0
VERTEX
  5
6C7
330
6C5
100
AcDbEntity
  8
Capa 1
 62
   178
370
     9
100
AcDbVertex
100
AcDb2dVertex
 10
18.54753170813465
 20
-47.06952171745311
 30
0.0
  0
SEQEND
  5
6C8
330
6C5
100
AcDbEntity
  8
Capa 1
 62
   178
370
     9
  0
POLYLINE
  5
6C9
330
1F
100
AcDbEntity
  8
Capa 1
 62
   178
370
     9
100
AcDb2dPolyline
 66
     1
 10
0.0
 20
0.0
 30
0.0
  0
VERTEX
  5
6CA
330
6C9
100
AcDbEntity
  8
Capa 1
 62
   178
370
     9
100
AcDbVertex
100
AcDb2dVertex
 10
17.33331567195947
 20
-46.54573918979352
 30
0.0
  0
VERTEX
  5
6CB
330
6C9
100
AcDbEntity
  8
Capa 1
 62
   178
370
     9
100
AcDbVertex
100
AcDb2dVertex
 10
18.31519437246896
 20
-47.41579082887625
 30
0.0
  0
SEQEND
  5
6CC
330
6C9
100
AcDbEntity
  8
Capa 1
 62
   178
370
     9
  0
POLYLINE
  5
6CD
330
1F
100
AcDbEntity
  8
Capa 1
 62
   178
370
     9
100
AcDb2dPolyline
 66
     1
 10
0.0
 20
0.0
 30
0.0
  0
VERTEX
  5
6CE
330
6CD
100
AcDbEntity
  8
Capa 1
 62
   178
370
     9
100
AcDbVertex
100
AcDb2dVertex
 10
18.31519437246896
 20
-47.41579082887625
 30
0.0
  0
VERTEX
  5
6CF
330
6CD
100
AcDbEntity
  8
Capa 1
 62
   178
370
     9
100
AcDbVertex
100
AcDb2dVertex
 10
18.32676964354686
 20
-47.41509186708387
 30
0.0
  0
SEQEND
  5
6D0
330
6CD
100
AcDbEntity
  8
Capa 1
 62
   178
370
     9
  0
POLYLINE
  5
6D1
330
1F
100
AcDbEntity
  8
Capa 1
 62
   178
370
     9
100
AcDb2dPolyline
 66
     1
 10
0.0
 20
0.0
 30
0.0
  0
VERTEX
  5
6D2
330
6D1
100
AcDbEntity
  8
Capa 1
 62
   178
370
     9
100
AcDbVertex
100
AcDb2dVertex
 10
18.31519437246896
 20
-47.41579082887625
 30
0.0
  0
VERTEX
  5
6D3
330
6D1
100
AcDbEntity
  8
Capa 1
 62
   178
370
     9
100
AcDbVertex
100
AcDb2dVertex
 10
19.59570213032901
 20
-47.13285128607904
 30
0.0
  0
SEQEND
  5
6D4
330
6D1
100
AcDbEntity
  8
Capa 1
 62
   178
370
     9
  0
POLYLINE
  5
6D5
330
1F
100
AcDbEntity
  8
Capa 1
 62
   178
370
     9
100
AcDb2dPolyline
 66
     1
 10
0.0
 20
0.0
 30
0.0
  0
VERTEX
  5
6D6
330
6D5
100
AcDbEntity
  8
Capa 1
 62
   178
370
     9
100
AcDbVertex
100
AcDb2dVertex
 10
19.59570213032901
 20
-47.13285128607904
 30
0.0
  0
VERTEX
  5
6D7
330
6D5
100
AcDbEntity
  8
Capa 1
 62
   178
370
     9
100
AcDbVertex
100
AcDb2dVertex
 10
19.60727574191506
 20
-47.13215419707167
 30
0.0
  0
SEQEND
  5
6D8
330
6D5
100
AcDbEntity
  8
Capa 1
 62
   178
370
     9
  0
POLYLINE
  5
6D9
330
1F
100
AcDbEntity
  8
Capa 1
 62
   178
370
     9
100
AcDb2dPolyline
 66
     1
 10
0.0
 20
0.0
 30
0.0
  0
VERTEX
  5
6DA
330
6D9
100
AcDbEntity
  8
Capa 1
 62
   178
370
     9
100
AcDbVertex
100
AcDb2dVertex
 10
18.31519437246896
 20
-47.41579082887625
 30
0.0
  0
VERTEX
  5
6DB
330
6D9
100
AcDbEntity
  8
Capa 1
 62
   178
370
     9
100
AcDbVertex
100
AcDb2dVertex
 10
17.79071288301702
 20
-48.61843159397366
 30
0.0
  0
SEQEND
  5
6DC
330
6D9
100
AcDbEntity
  8
Capa 1
 62
   178
370
     9
  0
POLYLINE
  5
6DD
330
1F
100
AcDbEntity
  8
Capa 1
 62
   178
370
     9
100
AcDb2dPolyline
 66
     1
 10
0.0
 20
0.0
 30
0.0
  0
VERTEX
  5
6DE
330
6DD
100
AcDbEntity
  8
Capa 1
 62
   178
370
     9
100
AcDbVertex
100
AcDb2dVertex
 10
17.79071288301702
 20
-48.61843159397366
 30
0.0
  0
VERTEX
  5
6DF
330
6DD
100
AcDbEntity
  8
Capa 1
 62
   178
370
     9
100
AcDbVertex
100
AcDb2dVertex
 10
17.8022881540947
 20
-48.61773263218102
 30
0.0
  0
SEQEND
  5
6E0
330
6DD
100
AcDbEntity
  8
Capa 1
 62
   178
370
     9
  0
POLYLINE
  5
6E1
330
1F
100
AcDbEntity
  8
Capa 1
 62
   178
370
     9
100
AcDb2dPolyline
 66
     1
 10
0.0
 20
0.0
 30
0.0
  0
VERTEX
  5
6E2
330
6E1
100
AcDbEntity
  8
Capa 1
 62
   178
370
     9
100
AcDbVertex
100
AcDb2dVertex
 10
18.31519437246896
 20
-47.41579082887625
 30
0.0
  0
VERTEX
  5
6E3
330
6E1
100
AcDbEntity
  8
Capa 1
 62
   178
370
     9
100
AcDbVertex
100
AcDb2dVertex
 10
19.29707307297868
 20
-48.28584246795921
 30
0.0
  0
SEQEND
  5
6E4
330
6E1
100
AcDbEntity
  8
Capa 1
 62
   178
370
     9
  0
POLYLINE
  5
6E5
330
1F
100
AcDbEntity
  8
Capa 1
 62
   178
370
     9
100
AcDb2dPolyline
 66
     1
 10
0.0
 20
0.0
 30
0.0
  0
VERTEX
  5
6E6
330
6E5
100
AcDbEntity
  8
Capa 1
 62
   178
370
     9
100
AcDbVertex
100
AcDb2dVertex
 10
19.29707307297868
 20
-48.28584246795921
 30
0.0
  0
VERTEX
  5
6E7
330
6E5
100
AcDbEntity
  8
Capa 1
 62
   178
370
     9
100
AcDbVertex
100
AcDb2dVertex
 10
19.30864834405635
 20
-48.28514350616661
 30
0.0
  0
SEQEND
  5
6E8
330
6E5
100
AcDbEntity
  8
Capa 1
 62
   178
370
     9
  0
POLYLINE
  5
6E9
330
1F
100
AcDbEntity
  8
Capa 1
 62
   178
370
     9
100
AcDb2dPolyline
 66
     1
 10
0.0
 20
0.0
 30
0.0
  0
VERTEX
  5
6EA
330
6E9
100
AcDbEntity
  8
Capa 1
 62
   178
370
     9
100
AcDbVertex
100
AcDb2dVertex
 10
19.29707307297868
 20
-48.28584246795921
 30
0.0
  0
VERTEX
  5
6EB
330
6E9
100
AcDbEntity
  8
Capa 1
 62
   178
370
     9
100
AcDbVertex
100
AcDb2dVertex
 10
19.96245668542355
 20
-49.41663435462152
 30
0.0
  0
SEQEND
  5
6EC
330
6E9
100
AcDbEntity
  8
Capa 1
 62
   178
370
     9
  0
POLYLINE
  5
6ED
330
1F
100
AcDbEntity
  8
Capa 1
 62
   178
370
     9
100
AcDb2dPolyline
 66
     1
 10
0.0
 20
0.0
 30
0.0
  0
VERTEX
  5
6EE
330
6ED
100
AcDbEntity
  8
Capa 1
 62
   178
370
     9
100
AcDbVertex
100
AcDb2dVertex
 10
19.96245668542355
 20
-49.41663435462152
 30
0.0
  0
VERTEX
  5
6EF
330
6ED
100
AcDbEntity
  8
Capa 1
 62
   178
370
     9
100
AcDbVertex
100
AcDb2dVertex
 10
19.97403195650138
 20
-49.41593539282879
 30
0.0
  0
SEQEND
  5
6F0
330
6ED
100
AcDbEntity
  8
Capa 1
 62
   178
370
     9
  0
POLYLINE
  5
6F1
330
1F
100
AcDbEntity
  8
Capa 1
 62
   178
370
     9
100
AcDb2dPolyline
 66
     1
 10
0.0
 20
0.0
 30
0.0
  0
VERTEX
  5
6F2
330
6F1
100
AcDbEntity
  8
Capa 1
 62
   178
370
     9
100
AcDbVertex
100
AcDb2dVertex
 10
19.29707307297868
 20
-48.28584246795921
 30
0.0
  0
VERTEX
  5
6F3
330
6F1
100
AcDbEntity
  8
Capa 1
 62
   178
370
     9
100
AcDbVertex
100
AcDb2dVertex
 10
20.57758083083863
 20
-48.00290292516193
 30
0.0
  0
SEQEND
  5
6F4
330
6F1
100
AcDbEntity
  8
Capa 1
 62
   178
370
     9
  0
POLYLINE
  5
6F5
330
1F
100
AcDbEntity
  8
Capa 1
 62
   178
370
     9
100
AcDb2dPolyline
 66
     1
 10
0.0
 20
0.0
 30
0.0
  0
VERTEX
  5
6F6
330
6F5
100
AcDbEntity
  8
Capa 1
 62
   178
370
     9
100
AcDbVertex
100
AcDb2dVertex
 10
20.57758083083863
 20
-48.00290292516193
 30
0.0
  0
VERTEX
  5
6F7
330
6F5
100
AcDbEntity
  8
Capa 1
 62
   178
370
     9
100
AcDbVertex
100
AcDb2dVertex
 10
20.58915444242458
 20
-48.0022058361544
 30
0.0
  0
SEQEND
  5
6F8
330
6F5
100
AcDbEntity
  8
Capa 1
 62
   178
370
     9
  0
POLYLINE
  5
6F9
330
1F
100
AcDbEntity
  8
Capa 1
 62
   178
370
     9
100
AcDb2dPolyline
 66
     1
 10
0.0
 20
0.0
 30
0.0
  0
VERTEX
  5
6FA
330
6F9
100
AcDbEntity
  8
Capa 1
 62
   178
370
     9
100
AcDbVertex
100
AcDb2dVertex
 10
20.57758083083863
 20
-48.00290292516193
 30
0.0
  0
VERTEX
  5
6FB
330
6F9
100
AcDbEntity
  8
Capa 1
 62
   178
370
     9
100
AcDbVertex
100
AcDb2dVertex
 10
21.70898533148812
 20
-47.338065498814
 30
0.0
  0
SEQEND
  5
6FC
330
6F9
100
AcDbEntity
  8
Capa 1
 62
   178
370
     9
  0
POLYLINE
  5
6FD
330
1F
100
AcDbEntity
  8
Capa 1
 62
   178
370
     9
100
AcDb2dPolyline
 66
     1
 10
0.0
 20
0.0
 30
0.0
  0
VERTEX
  5
6FE
330
6FD
100
AcDbEntity
  8
Capa 1
 62
   178
370
     9
100
AcDbVertex
100
AcDb2dVertex
 10
21.70898533148812
 20
-47.338065498814
 30
0.0
  0
VERTEX
  5
6FF
330
6FD
100
AcDbEntity
  8
Capa 1
 62
   178
370
     9
100
AcDbVertex
100
AcDb2dVertex
 10
21.72056226205781
 20
-47.3373646642361
 30
0.0
  0
SEQEND
  5
700
330
6FD
100
AcDbEntity
  8
Capa 1
 62
   178
370
     9
  0
POLYLINE
  5
701
330
1F
100
AcDbEntity
  8
Capa 1
 62
   178
370
     9
100
AcDb2dPolyline
 66
     1
 10
0.0
 20
0.0
 30
0.0
  0
VERTEX
  5
702
330
701
100
AcDbEntity
  8
Capa 1
 62
   178
370
     9
100
AcDbVertex
100
AcDb2dVertex
 10
20.57758083083863
 20
-48.00290292516193
 30
0.0
  0
VERTEX
  5
703
330
701
100
AcDbEntity
  8
Capa 1
 62
   178
370
     9
100
AcDbVertex
100
AcDb2dVertex
 10
21.85924717548945
 20
-47.71989342219774
 30
0.0
  0
SEQEND
  5
704
330
701
100
AcDbEntity
  8
Capa 1
 62
   178
370
     9
  0
POLYLINE
  5
705
330
1F
100
AcDbEntity
  8
Capa 1
 62
   178
370
     9
100
AcDb2dPolyline
 66
     1
 10
0.0
 20
0.0
 30
0.0
  0
VERTEX
  5
706
330
705
100
AcDbEntity
  8
Capa 1
 62
   178
370
     9
100
AcDbVertex
100
AcDb2dVertex
 10
21.85924717548945
 20
-47.71989342219774
 30
0.0
  0
VERTEX
  5
707
330
705
100
AcDbEntity
  8
Capa 1
 62
   178
370
     9
100
AcDbVertex
100
AcDb2dVertex
 10
21.87082078707502
 20
-47.71919633319025
 30
0.0
  0
SEQEND
  5
708
330
705
100
AcDbEntity
  8
Capa 1
 62
   178
370
     9
  0
POLYLINE
  5
709
330
1F
100
AcDbEntity
  8
Capa 1
 62
   178
370
     9
100
AcDb2dPolyline
 66
     1
 10
0.0
 20
0.0
 30
0.0
  0
VERTEX
  5
70A
330
709
100
AcDbEntity
  8
Capa 1
 62
   178
370
     9
100
AcDbVertex
100
AcDb2dVertex
 10
21.85924717548945
 20
-47.71989342219774
 30
0.0
  0
VERTEX
  5
70B
330
709
100
AcDbEntity
  8
Capa 1
 62
   178
370
     9
100
AcDbVertex
100
AcDb2dVertex
 10
22.38311273197034
 20
-46.5167102165737
 30
0.0
  0
SEQEND
  5
70C
330
709
100
AcDbEntity
  8
Capa 1
 62
   178
370
     9
  0
POLYLINE
  5
70D
330
1F
100
AcDbEntity
  8
Capa 1
 62
   178
370
     9
100
AcDb2dPolyline
 66
     1
 10
0.0
 20
0.0
 30
0.0
  0
VERTEX
  5
70E
330
70D
100
AcDbEntity
  8
Capa 1
 62
   178
370
     9
100
AcDbVertex
100
AcDb2dVertex
 10
22.38311273197034
 20
-46.5167102165737
 30
0.0
  0
VERTEX
  5
70F
330
70D
100
AcDbEntity
  8
Capa 1
 62
   178
370
     9
100
AcDbVertex
100
AcDb2dVertex
 10
22.39468966254013
 20
-46.51600938199618
 30
0.0
  0
SEQEND
  5
710
330
70D
100
AcDbEntity
  8
Capa 1
 62
   178
370
     9
  0
POLYLINE
  5
711
330
1F
100
AcDbEntity
  8
Capa 1
 62
   178
370
     9
100
AcDb2dPolyline
 66
     1
 10
0.0
 20
0.0
 30
0.0
  0
VERTEX
  5
712
330
711
100
AcDbEntity
  8
Capa 1
 62
   178
370
     9
100
AcDbVertex
100
AcDb2dVertex
 10
21.85924717548945
 20
-47.71989342219774
 30
0.0
  0
VERTEX
  5
713
330
711
100
AcDbEntity
  8
Capa 1
 62
   178
370
     9
100
AcDbVertex
100
AcDb2dVertex
 10
22.5240883474074
 20
-48.85130124183107
 30
0.0
  0
SEQEND
  5
714
330
711
100
AcDbEntity
  8
Capa 1
 62
   178
370
     9
  0
POLYLINE
  5
715
330
1F
100
AcDbEntity
  8
Capa 1
 62
   178
370
     9
100
AcDb2dPolyline
 66
     1
 10
0.0
 20
0.0
 30
0.0
  0
VERTEX
  5
716
330
715
100
AcDbEntity
  8
Capa 1
 62
   178
370
     9
100
AcDbVertex
100
AcDb2dVertex
 10
22.5240883474074
 20
-48.85130124183107
 30
0.0
  0
VERTEX
  5
717
330
715
100
AcDbEntity
  8
Capa 1
 62
   178
370
     9
100
AcDbVertex
100
AcDb2dVertex
 10
22.53566008620853
 20
-48.85060249333146
 30
0.0
  0
SEQEND
  5
718
330
715
100
AcDbEntity
  8
Capa 1
 62
   178
370
     9
  0
POLYLINE
  5
719
330
1F
100
AcDbEntity
  8
Capa 1
 62
   178
370
     9
100
AcDb2dPolyline
 66
     1
 10
0.0
 20
0.0
 30
0.0
  0
VERTEX
  5
71A
330
719
100
AcDbEntity
  8
Capa 1
 62
   178
370
     9
100
AcDbVertex
100
AcDb2dVertex
 10
21.85924717548945
 20
-47.71989342219774
 30
0.0
  0
VERTEX
  5
71B
330
719
100
AcDbEntity
  8
Capa 1
 62
   178
370
     9
100
AcDbVertex
100
AcDb2dVertex
 10
23.13975680613425
 20
-47.43695553889222
 30
0.0
  0
SEQEND
  5
71C
330
719
100
AcDbEntity
  8
Capa 1
 62
   178
370
     9
  0
POLYLINE
  5
71D
330
1F
100
AcDbEntity
  8
Capa 1
 62
   178
370
     9
100
AcDb2dPolyline
 66
     1
 10
0.0
 20
0.0
 30
0.0
  0
VERTEX
  5
71E
330
71D
100
AcDbEntity
  8
Capa 1
 62
   178
370
     9
100
AcDbVertex
100
AcDb2dVertex
 10
23.13975680613425
 20
-47.43695553889222
 30
0.0
  0
VERTEX
  5
71F
330
71D
100
AcDbEntity
  8
Capa 1
 62
   178
370
     9
100
AcDbVertex
100
AcDb2dVertex
 10
23.15132854493513
 20
-47.43625679039278
 30
0.0
  0
SEQEND
  5
720
330
71D
100
AcDbEntity
  8
Capa 1
 62
   178
370
     9
  0
POLYLINE
  5
721
330
1F
100
AcDbEntity
  8
Capa 1
 62
   178
370
     9
100
AcDb2dPolyline
 66
     1
 10
0.0
 20
0.0
 30
0.0
  0
VERTEX
  5
722
330
721
100
AcDbEntity
  8
Capa 1
 62
   178
370
     9
100
AcDbVertex
100
AcDb2dVertex
 10
23.13975680613425
 20
-47.43695553889222
 30
0.0
  0
VERTEX
  5
723
330
721
100
AcDbEntity
  8
Capa 1
 62
   178
370
     9
100
AcDbVertex
100
AcDb2dVertex
 10
24.44615954278625
 20
-47.56368516640168
 30
0.0
  0
SEQEND
  5
724
330
721
100
AcDbEntity
  8
Capa 1
 62
   178
370
     9
  0
POLYLINE
  5
725
330
1F
100
AcDbEntity
  8
Capa 1
 62
   178
370
     9
100
AcDb2dPolyline
 66
     1
 10
0.0
 20
0.0
 30
0.0
  0
VERTEX
  5
726
330
725
100
AcDbEntity
  8
Capa 1
 62
   178
370
     9
100
AcDbVertex
100
AcDb2dVertex
 10
24.44615954278625
 20
-47.56368516640168
 30
0.0
  0
VERTEX
  5
727
330
725
100
AcDbEntity
  8
Capa 1
 62
   178
370
     9
100
AcDbVertex
100
AcDb2dVertex
 10
24.45773834614047
 20
-47.56298599131614
 30
0.0
  0
SEQEND
  5
728
330
725
100
AcDbEntity
  8
Capa 1
 62
   178
370
     9
  0
POLYLINE
  5
729
330
1F
100
AcDbEntity
  8
Capa 1
 62
   178
370
     9
100
AcDb2dPolyline
 66
     1
 10
0.0
 20
0.0
 30
0.0
  0
VERTEX
  5
72A
330
729
100
AcDbEntity
  8
Capa 1
 62
   178
370
     9
100
AcDbVertex
100
AcDb2dVertex
 10
19.29707307297868
 20
-48.28584246795921
 30
0.0
  0
VERTEX
  5
72B
330
729
100
AcDbEntity
  8
Capa 1
 62
   178
370
     9
100
AcDbVertex
100
AcDb2dVertex
 10
18.77259158352654
 20
-49.48848323305639
 30
0.0
  0
SEQEND
  5
72C
330
729
100
AcDbEntity
  8
Capa 1
 62
   178
370
     9
  0
POLYLINE
  5
72D
330
1F
100
AcDbEntity
  8
Capa 1
 62
   178
370
     9
100
AcDb2dPolyline
 66
     1
 10
0.0
 20
0.0
 30
0.0
  0
VERTEX
  5
72E
330
72D
100
AcDbEntity
  8
Capa 1
 62
   178
370
     9
100
AcDbVertex
100
AcDb2dVertex
 10
18.77259158352654
 20
-49.48848323305639
 30
0.0
  0
VERTEX
  5
72F
330
72D
100
AcDbEntity
  8
Capa 1
 62
   178
370
     9
100
AcDbVertex
100
AcDb2dVertex
 10
18.78416685460444
 20
-49.48778427126398
 30
0.0
  0
SEQEND
  5
730
330
72D
100
AcDbEntity
  8
Capa 1
 62
   178
370
     9
  0
POLYLINE
  5
731
330
1F
100
AcDbEntity
  8
Capa 1
 62
   178
370
     9
100
AcDb2dPolyline
 66
     1
 10
0.0
 20
0.0
 30
0.0
  0
VERTEX
  5
732
330
731
100
AcDbEntity
  8
Capa 1
 62
   178
370
     9
100
AcDbVertex
100
AcDb2dVertex
 10
18.77259158352654
 20
-49.48848323305639
 30
0.0
  0
VERTEX
  5
733
330
731
100
AcDbEntity
  8
Capa 1
 62
   178
370
     9
100
AcDbVertex
100
AcDb2dVertex
 10
18.64640482313062
 20
-50.79427710129085
 30
0.0
  0
SEQEND
  5
734
330
731
100
AcDbEntity
  8
Capa 1
 62
   178
370
     9
  0
POLYLINE
  5
735
330
1F
100
AcDbEntity
  8
Capa 1
 62
   178
370
     9
100
AcDb2dPolyline
 66
     1
 10
0.0
 20
0.0
 30
0.0
  0
VERTEX
  5
736
330
735
100
AcDbEntity
  8
Capa 1
 62
   178
370
     9
100
AcDbVertex
100
AcDb2dVertex
 10
18.64640482313062
 20
-50.79427710129085
 30
0.0
  0
VERTEX
  5
737
330
735
100
AcDbEntity
  8
Capa 1
 62
   178
370
     9
100
AcDbVertex
100
AcDb2dVertex
 10
18.65798009420804
 20
-50.79357813949846
 30
0.0
  0
SEQEND
  5
738
330
735
100
AcDbEntity
  8
Capa 1
 62
   178
370
     9
  0
POLYLINE
  5
739
330
1F
100
AcDbEntity
  8
Capa 1
 62
   178
370
     9
100
AcDb2dPolyline
 66
     1
 10
0.0
 20
0.0
 30
0.0
  0
VERTEX
  5
73A
330
739
100
AcDbEntity
  8
Capa 1
 62
   178
370
     9
100
AcDbVertex
100
AcDb2dVertex
 10
18.77259158352654
 20
-49.48848323305639
 30
0.0
  0
VERTEX
  5
73B
330
739
100
AcDbEntity
  8
Capa 1
 62
   178
370
     9
100
AcDbVertex
100
AcDb2dVertex
 10
18.24926868086519
 20
-50.69105403798644
 30
0.0
  0
SEQEND
  5
73C
330
739
100
AcDbEntity
  8
Capa 1
 62
   178
370
     9
  0
POLYLINE
  5
73D
330
1F
100
AcDbEntity
  8
Capa 1
 62
   178
370
     9
100
AcDb2dPolyline
 66
     1
 10
0.0
 20
0.0
 30
0.0
  0
VERTEX
  5
73E
330
73D
100
AcDbEntity
  8
Capa 1
 62
   178
370
     9
100
AcDbVertex
100
AcDb2dVertex
 10
18.24926868086519
 20
-50.69105403798644
 30
0.0
  0
VERTEX
  5
73F
330
73D
100
AcDbEntity
  8
Capa 1
 62
   178
370
     9
100
AcDbVertex
100
AcDb2dVertex
 10
18.26084207915811
 20
-50.69035341670202
 30
0.0
  0
SEQEND
  5
740
330
73D
100
AcDbEntity
  8
Capa 1
 62
   178
370
     9
  0
POLYLINE
  5
741
330
1F
100
AcDbEntity
  8
Capa 1
 62
   178
370
     9
100
AcDb2dPolyline
 66
     1
 10
0.0
 20
0.0
 30
0.0
  0
VERTEX
  5
742
330
741
100
AcDbEntity
  8
Capa 1
 62
   178
370
     9
100
AcDbVertex
100
AcDb2dVertex
 10
18.24926868086519
 20
-50.69105403798644
 30
0.0
  0
VERTEX
  5
743
330
741
100
AcDbEntity
  8
Capa 1
 62
   178
370
     9
100
AcDbVertex
100
AcDb2dVertex
 10
18.91410610721353
 20
-51.82245853863584
 30
0.0
  0
SEQEND
  5
744
330
741
100
AcDbEntity
  8
Capa 1
 62
   178
370
     9
  0
POLYLINE
  5
745
330
1F
100
AcDbEntity
  8
Capa 1
 62
   178
370
     9
100
AcDb2dPolyline
 66
     1
 10
0.0
 20
0.0
 30
0.0
  0
VERTEX
  5
746
330
745
100
AcDbEntity
  8
Capa 1
 62
   178
370
     9
100
AcDbVertex
100
AcDb2dVertex
 10
18.91410610721353
 20
-51.82245853863584
 30
0.0
  0
VERTEX
  5
747
330
745
100
AcDbEntity
  8
Capa 1
 62
   178
370
     9
100
AcDbVertex
100
AcDb2dVertex
 10
18.92568137829143
 20
-51.82175957684339
 30
0.0
  0
SEQEND
  5
748
330
745
100
AcDbEntity
  8
Capa 1
 62
   178
370
     9
  0
POLYLINE
  5
749
330
1F
100
AcDbEntity
  8
Capa 1
 62
   178
370
     9
100
AcDb2dPolyline
 66
     1
 10
0.0
 20
0.0
 30
0.0
  0
VERTEX
  5
74A
330
749
100
AcDbEntity
  8
Capa 1
 62
   178
370
     9
100
AcDbVertex
100
AcDb2dVertex
 10
18.24926868086519
 20
-50.69105403798644
 30
0.0
  0
VERTEX
  5
74B
330
749
100
AcDbEntity
  8
Capa 1
 62
   178
370
     9
100
AcDbVertex
100
AcDb2dVertex
 10
16.9428605391518
 20
-50.56432296427842
 30
0.0
  0
SEQEND
  5
74C
330
749
100
AcDbEntity
  8
Capa 1
 62
   178
370
     9
  0
POLYLINE
  5
74D
330
1F
100
AcDbEntity
  8
Capa 1
 62
   178
370
     9
100
AcDb2dPolyline
 66
     1
 10
0.0
 20
0.0
 30
0.0
  0
VERTEX
  5
74E
330
74D
100
AcDbEntity
  8
Capa 1
 62
   178
370
     9
100
AcDbVertex
100
AcDb2dVertex
 10
16.9428605391518
 20
-50.56432296427842
 30
0.0
  0
VERTEX
  5
74F
330
74D
100
AcDbEntity
  8
Capa 1
 62
   178
370
     9
100
AcDbVertex
100
AcDb2dVertex
 10
16.95443581022963
 20
-50.56362400248572
 30
0.0
  0
SEQEND
  5
750
330
74D
100
AcDbEntity
  8
Capa 1
 62
   178
370
     9
  0
POLYLINE
  5
751
330
1F
100
AcDbEntity
  8
Capa 1
 62
   178
370
     9
100
AcDb2dPolyline
 66
     1
 10
0.0
 20
0.0
 30
0.0
  0
VERTEX
  5
752
330
751
100
AcDbEntity
  8
Capa 1
 62
   178
370
     9
100
AcDbVertex
100
AcDb2dVertex
 10
18.24926868086519
 20
-50.69105403798644
 30
0.0
  0
VERTEX
  5
753
330
751
100
AcDbEntity
  8
Capa 1
 62
   178
370
     9
100
AcDbVertex
100
AcDb2dVertex
 10
17.72478531862843
 20
-51.89369314359187
 30
0.0
  0
SEQEND
  5
754
330
751
100
AcDbEntity
  8
Capa 1
 62
   178
370
     9
  0
POLYLINE
  5
755
330
1F
100
AcDbEntity
  8
Capa 1
 62
   178
370
     9
100
AcDb2dPolyline
 66
     1
 10
0.0
 20
0.0
 30
0.0
  0
VERTEX
  5
756
330
755
100
AcDbEntity
  8
Capa 1
 62
   178
370
     9
100
AcDbVertex
100
AcDb2dVertex
 10
17.72478531862843
 20
-51.89369314359187
 30
0.0
  0
VERTEX
  5
757
330
755
100
AcDbEntity
  8
Capa 1
 62
   178
370
     9
100
AcDbVertex
100
AcDb2dVertex
 10
17.73636058970595
 20
-51.89299418179917
 30
0.0
  0
SEQEND
  5
758
330
755
100
AcDbEntity
  8
Capa 1
 62
   178
370
     9
  0
POLYLINE
  5
759
330
1F
100
AcDbEntity
  8
Capa 1
 62
   178
370
     9
100
AcDb2dPolyline
 66
     1
 10
0.0
 20
0.0
 30
0.0
  0
VERTEX
  5
75A
330
759
100
AcDbEntity
  8
Capa 1
 62
   178
370
     9
100
AcDbVertex
100
AcDb2dVertex
 10
17.72478531862843
 20
-51.89369314359187
 30
0.0
  0
VERTEX
  5
75B
330
759
100
AcDbEntity
  8
Capa 1
 62
   178
370
     9
100
AcDbVertex
100
AcDb2dVertex
 10
16.85473367954554
 20
-52.87557184410151
 30
0.0
  0
SEQEND
  5
75C
330
759
100
AcDbEntity
  8
Capa 1
 62
   178
370
     9
  0
POLYLINE
  5
75D
330
1F
100
AcDbEntity
  8
Capa 1
 62
   178
370
     9
100
AcDb2dPolyline
 66
     1
 10
0.0
 20
0.0
 30
0.0
  0
VERTEX
  5
75E
330
75D
100
AcDbEntity
  8
Capa 1
 62
   178
370
     9
100
AcDbVertex
100
AcDb2dVertex
 10
16.85473367954554
 20
-52.87557184410151
 30
0.0
  0
VERTEX
  5
75F
330
75D
100
AcDbEntity
  8
Capa 1
 62
   178
370
     9
100
AcDbVertex
100
AcDb2dVertex
 10
16.86630895062322
 20
-52.87487288230866
 30
0.0
  0
SEQEND
  5
760
330
75D
100
AcDbEntity
  8
Capa 1
 62
   178
370
     9
  0
POLYLINE
  5
761
330
1F
100
AcDbEntity
  8
Capa 1
 62
   178
370
     9
100
AcDb2dPolyline
 66
     1
 10
0.0
 20
0.0
 30
0.0
  0
VERTEX
  5
762
330
761
100
AcDbEntity
  8
Capa 1
 62
   178
370
     9
100
AcDbVertex
100
AcDb2dVertex
 10
19.29707307297868
 20
-48.28584246795921
 30
0.0
  0
VERTEX
  5
763
330
761
100
AcDbEntity
  8
Capa 1
 62
   178
370
     9
100
AcDbVertex
100
AcDb2dVertex
 10
20.27895177348813
 20
-49.1558941070419
 30
0.0
  0
SEQEND
  5
764
330
761
100
AcDbEntity
  8
Capa 1
 62
   178
370
     9
  0
POLYLINE
  5
765
330
1F
100
AcDbEntity
  8
Capa 1
 62
   178
370
     9
100
AcDb2dPolyline
 66
     1
 10
0.0
 20
0.0
 30
0.0
  0
VERTEX
  5
766
330
765
100
AcDbEntity
  8
Capa 1
 62
   178
370
     9
100
AcDbVertex
100
AcDb2dVertex
 10
20.27895177348813
 20
-49.1558941070419
 30
0.0
  0
VERTEX
  5
767
330
765
100
AcDbEntity
  8
Capa 1
 62
   178
370
     9
100
AcDbVertex
100
AcDb2dVertex
 10
20.29052704456584
 20
-49.15519514524937
 30
0.0
  0
SEQEND
  5
768
330
765
100
AcDbEntity
  8
Capa 1
 62
   178
370
     9
  0
POLYLINE
  5
769
330
1F
100
AcDbEntity
  8
Capa 1
 62
   178
370
     9
100
AcDb2dPolyline
 66
     1
 10
0.0
 20
0.0
 30
0.0
  0
VERTEX
  5
76A
330
769
100
AcDbEntity
  8
Capa 1
 62
   178
370
     9
100
AcDbVertex
100
AcDb2dVertex
 10
20.27895177348813
 20
-49.1558941070419
 30
0.0
  0
VERTEX
  5
76B
330
769
100
AcDbEntity
  8
Capa 1
 62
   178
370
     9
100
AcDbVertex
100
AcDb2dVertex
 10
21.4815906658004
 20
-49.68037393700232
 30
0.0
  0
SEQEND
  5
76C
330
769
100
AcDbEntity
  8
Capa 1
 62
   178
370
     9
  0
POLYLINE
  5
76D
330
1F
100
AcDbEntity
  8
Capa 1
 62
   178
370
     9
100
AcDb2dPolyline
 66
     1
 10
0.0
 20
0.0
 30
0.0
  0
VERTEX
  5
76E
330
76D
100
AcDbEntity
  8
Capa 1
 62
   178
370
     9
100
AcDbVertex
100
AcDb2dVertex
 10
21.4815906658004
 20
-49.68037393700232
 30
0.0
  0
VERTEX
  5
76F
330
76D
100
AcDbEntity
  8
Capa 1
 62
   178
370
     9
100
AcDbVertex
100
AcDb2dVertex
 10
21.49316780966334
 20
-49.67967663470149
 30
0.0
  0
SEQEND
  5
770
330
76D
100
AcDbEntity
  8
Capa 1
 62
   178
370
     9
  0
POLYLINE
  5
771
330
1F
100
AcDbEntity
  8
Capa 1
 62
   178
370
     9
100
AcDb2dPolyline
 66
     1
 10
0.0
 20
0.0
 30
0.0
  0
VERTEX
  5
772
330
771
100
AcDbEntity
  8
Capa 1
 62
   178
370
     9
100
AcDbVertex
100
AcDb2dVertex
 10
20.27895177348813
 20
-49.1558941070419
 30
0.0
  0
VERTEX
  5
773
330
771
100
AcDbEntity
  8
Capa 1
 62
   178
370
     9
100
AcDbVertex
100
AcDb2dVertex
 10
21.26083047399769
 20
-50.02594574612467
 30
0.0
  0
SEQEND
  5
774
330
771
100
AcDbEntity
  8
Capa 1
 62
   178
370
     9
  0
POLYLINE
  5
775
330
1F
100
AcDbEntity
  8
Capa 1
 62
   178
370
     9
100
AcDb2dPolyline
 66
     1
 10
0.0
 20
0.0
 30
0.0
  0
VERTEX
  5
776
330
775
100
AcDbEntity
  8
Capa 1
 62
   178
370
     9
100
AcDbVertex
100
AcDb2dVertex
 10
21.26083047399769
 20
-50.02594574612467
 30
0.0
  0
VERTEX
  5
777
330
775
100
AcDbEntity
  8
Capa 1
 62
   178
370
     9
100
AcDbVertex
100
AcDb2dVertex
 10
21.27240387229039
 20
-50.0252451248403
 30
0.0
  0
SEQEND
  5
778
330
775
100
AcDbEntity
  8
Capa 1
 62
   178
370
     9
  0
POLYLINE
  5
779
330
1F
100
AcDbEntity
  8
Capa 1
 62
   178
370
     9
100
AcDb2dPolyline
 66
     1
 10
0.0
 20
0.0
 30
0.0
  0
VERTEX
  5
77A
330
779
100
AcDbEntity
  8
Capa 1
 62
   178
370
     9
100
AcDbVertex
100
AcDb2dVertex
 10
21.26083047399769
 20
-50.02594574612467
 30
0.0
  0
VERTEX
  5
77B
330
779
100
AcDbEntity
  8
Capa 1
 62
   178
370
     9
100
AcDbVertex
100
AcDb2dVertex
 10
22.54134010464262
 20
-49.74300786281918
 30
0.0
  0
SEQEND
  5
77C
330
779
100
AcDbEntity
  8
Capa 1
 62
   178
370
     9
  0
POLYLINE
  5
77D
330
1F
100
AcDbEntity
  8
Capa 1
 62
   178
370
     9
100
AcDb2dPolyline
 66
     1
 10
0.0
 20
0.0
 30
0.0
  0
VERTEX
  5
77E
330
77D
100
AcDbEntity
  8
Capa 1
 62
   178
370
     9
100
AcDbVertex
100
AcDb2dVertex
 10
22.54134010464262
 20
-49.74300786281918
 30
0.0
  0
VERTEX
  5
77F
330
77D
100
AcDbEntity
  8
Capa 1
 62
   178
370
     9
100
AcDbVertex
100
AcDb2dVertex
 10
22.55291184344368
 20
-49.74230911431999
 30
0.0
  0
SEQEND
  5
780
330
77D
100
AcDbEntity
  8
Capa 1
 62
   178
370
     9
  0
POLYLINE
  5
781
330
1F
100
AcDbEntity
  8
Capa 1
 62
   178
370
     9
100
AcDb2dPolyline
 66
     1
 10
0.0
 20
0.0
 30
0.0
  0
VERTEX
  5
782
330
781
100
AcDbEntity
  8
Capa 1
 62
   178
370
     9
100
AcDbVertex
100
AcDb2dVertex
 10
21.26083047399769
 20
-50.02594574612467
 30
0.0
  0
VERTEX
  5
783
330
781
100
AcDbEntity
  8
Capa 1
 62
   178
370
     9
100
AcDbVertex
100
AcDb2dVertex
 10
20.73634898454575
 20
-51.22858651122208
 30
0.0
  0
SEQEND
  5
784
330
781
100
AcDbEntity
  8
Capa 1
 62
   178
370
     9
  0
POLYLINE
  5
785
330
1F
100
AcDbEntity
  8
Capa 1
 62
   178
370
     9
100
AcDb2dPolyline
 66
     1
 10
0.0
 20
0.0
 30
0.0
  0
VERTEX
  5
786
330
785
100
AcDbEntity
  8
Capa 1
 62
   178
370
     9
100
AcDbVertex
100
AcDb2dVertex
 10
20.73634898454575
 20
-51.22858651122208
 30
0.0
  0
VERTEX
  5
787
330
785
100
AcDbEntity
  8
Capa 1
 62
   178
370
     9
100
AcDbVertex
100
AcDb2dVertex
 10
20.74792238283848
 20
-51.22788588993765
 30
0.0
  0
SEQEND
  5
788
330
785
100
AcDbEntity
  8
Capa 1
 62
   178
370
     9
  0
POLYLINE
  5
789
330
1F
100
AcDbEntity
  8
Capa 1
 62
   178
370
     9
100
AcDb2dPolyline
 66
     1
 10
0.0
 20
0.0
 30
0.0
  0
VERTEX
  5
78A
330
789
100
AcDbEntity
  8
Capa 1
 62
   178
370
     9
100
AcDbVertex
100
AcDb2dVertex
 10
21.26083047399769
 20
-50.02594574612467
 30
0.0
  0
VERTEX
  5
78B
330
789
100
AcDbEntity
  8
Capa 1
 62
   178
370
     9
100
AcDbVertex
100
AcDb2dVertex
 10
22.24270917450737
 20
-50.89599738520756
 30
0.0
  0
SEQEND
  5
78C
330
789
100
AcDbEntity
  8
Capa 1
 62
   178
370
     9
  0
POLYLINE
  5
78D
330
1F
100
AcDbEntity
  8
Capa 1
 62
   178
370
     9
100
AcDb2dPolyline
 66
     1
 10
0.0
 20
0.0
 30
0.0
  0
VERTEX
  5
78E
330
78D
100
AcDbEntity
  8
Capa 1
 62
   178
370
     9
100
AcDbVertex
100
AcDb2dVertex
 10
22.24270917450737
 20
-50.89599738520756
 30
0.0
  0
VERTEX
  5
78F
330
78D
100
AcDbEntity
  8
Capa 1
 62
   178
370
     9
100
AcDbVertex
100
AcDb2dVertex
 10
22.25428257280007
 20
-50.89529676392323
 30
0.0
  0
SEQEND
  5
790
330
78D
100
AcDbEntity
  8
Capa 1
 62
   178
370
     9
  0
POLYLINE
  5
791
330
1F
100
AcDbEntity
  8
Capa 1
 62
   178
370
     9
100
AcDb2dPolyline
 66
     1
 10
0.0
 20
0.0
 30
0.0
  0
VERTEX
  5
792
330
791
100
AcDbEntity
  8
Capa 1
 62
   178
370
     9
100
AcDbVertex
100
AcDb2dVertex
 10
22.24270917450737
 20
-50.89599738520756
 30
0.0
  0
VERTEX
  5
793
330
791
100
AcDbEntity
  8
Capa 1
 62
   178
370
     9
100
AcDbVertex
100
AcDb2dVertex
 10
22.90809091416723
 20
-52.02678761237811
 30
0.0
  0
SEQEND
  5
794
330
791
100
AcDbEntity
  8
Capa 1
 62
   178
370
     9
  0
POLYLINE
  5
795
330
1F
100
AcDbEntity
  8
Capa 1
 62
   178
370
     9
100
AcDb2dPolyline
 66
     1
 10
0.0
 20
0.0
 30
0.0
  0
VERTEX
  5
796
330
795
100
AcDbEntity
  8
Capa 1
 62
   178
370
     9
100
AcDbVertex
100
AcDb2dVertex
 10
22.90809091416723
 20
-52.02678761237811
 30
0.0
  0
VERTEX
  5
797
330
795
100
AcDbEntity
  8
Capa 1
 62
   178
370
     9
100
AcDbVertex
100
AcDb2dVertex
 10
22.91966805803008
 20
-52.02609031007717
 30
0.0
  0
SEQEND
  5
798
330
795
100
AcDbEntity
  8
Capa 1
 62
   178
370
     9
  0
POLYLINE
  5
799
330
1F
100
AcDbEntity
  8
Capa 1
 62
   178
370
     9
100
AcDb2dPolyline
 66
     1
 10
0.0
 20
0.0
 30
0.0
  0
VERTEX
  5
79A
330
799
100
AcDbEntity
  8
Capa 1
 62
   178
370
     9
100
AcDbVertex
100
AcDb2dVertex
 10
22.90809091416723
 20
-52.02678761237811
 30
0.0
  0
VERTEX
  5
79B
330
799
100
AcDbEntity
  8
Capa 1
 62
   178
370
     9
100
AcDbVertex
100
AcDb2dVertex
 10
22.91966805803008
 20
-52.02609031007717
 30
0.0
  0
SEQEND
  5
79C
330
799
100
AcDbEntity
  8
Capa 1
 62
   178
370
     9
  0
POLYLINE
  5
79D
330
1F
100
AcDbEntity
  8
Capa 1
 62
   178
370
     9
100
AcDb2dPolyline
 66
     1
 10
0.0
 20
0.0
 30
0.0
  0
VERTEX
  5
79E
330
79D
100
AcDbEntity
  8
Capa 1
 62
   178
370
     9
100
AcDbVertex
100
AcDb2dVertex
 10
22.90809091416723
 20
-52.02678761237811
 30
0.0
  0
VERTEX
  5
79F
330
79D
100
AcDbEntity
  8
Capa 1
 62
   178
370
     9
100
AcDbVertex
100
AcDb2dVertex
 10
23.88996961467675
 20
-52.89683925146084
 30
0.0
  0
SEQEND
  5
7A0
330
79D
100
AcDbEntity
  8
Capa 1
 62
   178
370
     9
  0
POLYLINE
  5
7A1
330
1F
100
AcDbEntity
  8
Capa 1
 62
   178
370
     9
100
AcDb2dPolyline
 66
     1
 10
0.0
 20
0.0
 30
0.0
  0
VERTEX
  5
7A2
330
7A1
100
AcDbEntity
  8
Capa 1
 62
   178
370
     9
100
AcDbVertex
100
AcDb2dVertex
 10
23.88996961467675
 20
-52.89683925146084
 30
0.0
  0
VERTEX
  5
7A3
330
7A1
100
AcDbEntity
  8
Capa 1
 62
   178
370
     9
100
AcDbVertex
100
AcDb2dVertex
 10
23.90154675853963
 20
-52.89614194915993
 30
0.0
  0
SEQEND
  5
7A4
330
7A1
100
AcDbEntity
  8
Capa 1
 62
   178
370
     9
  0
POLYLINE
  5
7A5
330
1F
100
AcDbEntity
  8
Capa 1
 62
   178
370
     9
100
AcDb2dPolyline
 66
     1
 10
0.0
 20
0.0
 30
0.0
  0
VERTEX
  5
7A6
330
7A5
100
AcDbEntity
  8
Capa 1
 62
   178
370
     9
100
AcDbVertex
100
AcDb2dVertex
 10
22.90809091416723
 20
-52.02678761237811
 30
0.0
  0
VERTEX
  5
7A7
330
7A5
100
AcDbEntity
  8
Capa 1
 62
   178
370
     9
100
AcDbVertex
100
AcDb2dVertex
 10
23.5723178126063
 20
-53.15765111869938
 30
0.0
  0
SEQEND
  5
7A8
330
7A5
100
AcDbEntity
  8
Capa 1
 62
   178
370
     9
  0
POLYLINE
  5
7A9
330
1F
100
AcDbEntity
  8
Capa 1
 62
   178
370
     9
100
AcDb2dPolyline
 66
     1
 10
0.0
 20
0.0
 30
0.0
  0
VERTEX
  5
7AA
330
7A9
100
AcDbEntity
  8
Capa 1
 62
   178
370
     9
100
AcDbVertex
100
AcDb2dVertex
 10
23.5723178126063
 20
-53.15765111869938
 30
0.0
  0
VERTEX
  5
7AB
330
7A9
100
AcDbEntity
  8
Capa 1
 62
   178
370
     9
100
AcDbVertex
100
AcDb2dVertex
 10
23.58389495646925
 20
-53.15695381639853
 30
0.0
  0
SEQEND
  5
7AC
330
7A9
100
AcDbEntity
  8
Capa 1
 62
   178
370
     9
  0
POLYLINE
  5
7AD
330
1F
100
AcDbEntity
  8
Capa 1
 62
   178
370
     9
100
AcDb2dPolyline
 66
     1
 10
0.0
 20
0.0
 30
0.0
  0
VERTEX
  5
7AE
330
7AD
100
AcDbEntity
  8
Capa 1
 62
   178
370
     9
100
AcDbVertex
100
AcDb2dVertex
 10
23.5723178126063
 20
-53.15765111869938
 30
0.0
  0
VERTEX
  5
7AF
330
7AD
100
AcDbEntity
  8
Capa 1
 62
   178
370
     9
100
AcDbVertex
100
AcDb2dVertex
 10
24.87872595431969
 20
-53.28438219240736
 30
0.0
  0
SEQEND
  5
7B0
330
7AD
100
AcDbEntity
  8
Capa 1
 62
   178
370
     9
  0
POLYLINE
  5
7B1
330
1F
100
AcDbEntity
  8
Capa 1
 62
   178
370
     9
100
AcDb2dPolyline
 66
     1
 10
0.0
 20
0.0
 30
0.0
  0
VERTEX
  5
7B2
330
7B1
100
AcDbEntity
  8
Capa 1
 62
   178
370
     9
100
AcDbVertex
100
AcDb2dVertex
 10
24.87872595431969
 20
-53.28438219240736
 30
0.0
  0
VERTEX
  5
7B3
330
7B1
100
AcDbEntity
  8
Capa 1
 62
   178
370
     9
100
AcDbVertex
100
AcDb2dVertex
 10
24.89029935261284
 20
-53.28368157112284
 30
0.0
  0
SEQEND
  5
7B4
330
7B1
100
AcDbEntity
  8
Capa 1
 62
   178
370
     9
  0
POLYLINE
  5
7B5
330
1F
100
AcDbEntity
  8
Capa 1
 62
   178
370
     9
100
AcDb2dPolyline
 66
     1
 10
0.0
 20
0.0
 30
0.0
  0
VERTEX
  5
7B6
330
7B5
100
AcDbEntity
  8
Capa 1
 62
   178
370
     9
100
AcDbVertex
100
AcDb2dVertex
 10
23.5723178126063
 20
-53.15765111869938
 30
0.0
  0
VERTEX
  5
7B7
330
7B5
100
AcDbEntity
  8
Capa 1
 62
   178
370
     9
100
AcDbVertex
100
AcDb2dVertex
 10
22.70226617352354
 20
-54.13952981920893
 30
0.0
  0
SEQEND
  5
7B8
330
7B5
100
AcDbEntity
  8
Capa 1
 62
   178
370
     9
  0
POLYLINE
  5
7B9
330
1F
100
AcDbEntity
  8
Capa 1
 62
   178
370
     9
100
AcDb2dPolyline
 66
     1
 10
0.0
 20
0.0
 30
0.0
  0
VERTEX
  5
7BA
330
7B9
100
AcDbEntity
  8
Capa 1
 62
   178
370
     9
100
AcDbVertex
100
AcDb2dVertex
 10
22.70226617352354
 20
-54.13952981920893
 30
0.0
  0
VERTEX
  5
7BB
330
7B9
100
AcDbEntity
  8
Capa 1
 62
   178
370
     9
100
AcDbVertex
100
AcDb2dVertex
 10
22.71384331738648
 20
-54.13883251690811
 30
0.0
  0
SEQEND
  5
7BC
330
7B9
100
AcDbEntity
  8
Capa 1
 62
   178
370
     9
  0
POLYLINE
  5
7BD
330
1F
100
AcDbEntity
  8
Capa 1
 62
   178
370
     9
100
AcDb2dPolyline
 66
     1
 10
0.0
 20
0.0
 30
0.0
  0
VERTEX
  5
7BE
330
7BD
100
AcDbEntity
  8
Capa 1
 62
   178
370
     9
100
AcDbVertex
100
AcDb2dVertex
 10
23.5723178126063
 20
-53.15765111869938
 30
0.0
  0
VERTEX
  5
7BF
330
7BD
100
AcDbEntity
  8
Capa 1
 62
   178
370
     9
100
AcDbVertex
100
AcDb2dVertex
 10
24.23770495732839
 20
-54.2884427920683
 30
0.0
  0
SEQEND
  5
7C0
330
7BD
100
AcDbEntity
  8
Capa 1
 62
   178
370
     9
  0
POLYLINE
  5
7C1
330
1F
100
AcDbEntity
  8
Capa 1
 62
   178
370
     9
100
AcDb2dPolyline
 66
     1
 10
0.0
 20
0.0
 30
0.0
  0
VERTEX
  5
7C2
330
7C1
100
AcDbEntity
  8
Capa 1
 62
   178
370
     9
100
AcDbVertex
100
AcDb2dVertex
 10
24.23770495732839
 20
-54.2884427920683
 30
0.0
  0
VERTEX
  5
7C3
330
7C1
100
AcDbEntity
  8
Capa 1
 62
   178
370
     9
100
AcDbVertex
100
AcDb2dVertex
 10
24.24927669612927
 20
-54.28774404356892
 30
0.0
  0
SEQEND
  5
7C4
330
7C1
100
AcDbEntity
  8
Capa 1
 62
   178
370
     9
  0
POLYLINE
  5
7C5
330
1F
100
AcDbEntity
  8
Capa 1
 62
   178
370
     9
100
AcDb2dPolyline
 66
     1
 10
0.0
 20
0.0
 30
0.0
  0
VERTEX
  5
7C6
330
7C5
100
AcDbEntity
  8
Capa 1
 62
   178
370
     9
100
AcDbVertex
100
AcDb2dVertex
 10
24.23770495732839
 20
-54.2884427920683
 30
0.0
  0
VERTEX
  5
7C7
330
7C5
100
AcDbEntity
  8
Capa 1
 62
   178
370
     9
100
AcDbVertex
100
AcDb2dVertex
 10
24.5207107147223
 20
-55.57010581773554
 30
0.0
  0
SEQEND
  5
7C8
330
7C5
100
AcDbEntity
  8
Capa 1
 62
   178
370
     9
  0
POLYLINE
  5
7C9
330
1F
100
AcDbEntity
  8
Capa 1
 62
   178
370
     9
100
AcDb2dPolyline
 66
     1
 10
0.0
 20
0.0
 30
0.0
  0
VERTEX
  5
7CA
330
7C9
100
AcDbEntity
  8
Capa 1
 62
   178
370
     9
100
AcDbVertex
100
AcDb2dVertex
 10
24.5207107147223
 20
-55.57010581773554
 30
0.0
  0
VERTEX
  5
7CB
330
7C9
100
AcDbEntity
  8
Capa 1
 62
   178
370
     9
100
AcDbVertex
100
AcDb2dVertex
 10
24.53228619909329
 20
-55.5694103882199
 30
0.0
  0
SEQEND
  5
7CC
330
7C9
100
AcDbEntity
  8
Capa 1
 62
   178
370
     9
  0
POLYLINE
  5
7CD
330
1F
100
AcDbEntity
  8
Capa 1
 62
   178
370
     9
100
AcDb2dPolyline
 66
     1
 10
0.0
 20
0.0
 30
0.0
  0
VERTEX
  5
7CE
330
7CD
100
AcDbEntity
  8
Capa 1
 62
   178
370
     9
100
AcDbVertex
100
AcDb2dVertex
 10
23.88996961467675
 20
-52.89683925146084
 30
0.0
  0
VERTEX
  5
7CF
330
7CD
100
AcDbEntity
  8
Capa 1
 62
   178
370
     9
100
AcDbVertex
100
AcDb2dVertex
 10
23.90154675853963
 20
-52.89614194915993
 30
0.0
  0
SEQEND
  5
7D0
330
7CD
100
AcDbEntity
  8
Capa 1
 62
   178
370
     9
  0
POLYLINE
  5
7D1
330
1F
100
AcDbEntity
  8
Capa 1
 62
   178
370
     9
100
AcDb2dPolyline
 66
     1
 10
0.0
 20
0.0
 30
0.0
  0
VERTEX
  5
7D2
330
7D1
100
AcDbEntity
  8
Capa 1
 62
   178
370
     9
100
AcDbVertex
100
AcDb2dVertex
 10
24.87872595431969
 20
-53.28438219240736
 30
0.0
  0
VERTEX
  5
7D3
330
7D1
100
AcDbEntity
  8
Capa 1
 62
   178
370
     9
100
AcDbVertex
100
AcDb2dVertex
 10
24.89029935261284
 20
-53.28368157112284
 30
0.0
  0
SEQEND
  5
7D4
330
7D1
100
AcDbEntity
  8
Capa 1
 62
   178
370
     9
  0
POLYLINE
  5
7D5
330
1F
100
AcDbEntity
  8
Capa 1
 62
   178
370
     9
100
AcDb2dPolyline
 66
     1
 10
0.0
 20
0.0
 30
0.0
  0
VERTEX
  5
7D6
330
7D5
100
AcDbEntity
  8
Capa 1
 62
   178
370
     9
100
AcDbVertex
100
AcDb2dVertex
 10
22.70226617352354
 20
-54.13952981920893
 30
0.0
  0
VERTEX
  5
7D7
330
7D5
100
AcDbEntity
  8
Capa 1
 62
   178
370
     9
100
AcDbVertex
100
AcDb2dVertex
 10
22.71384331738648
 20
-54.13883251690811
 30
0.0
  0
SEQEND
  5
7D8
330
7D5
100
AcDbEntity
  8
Capa 1
 62
   178
370
     9
  0
POLYLINE
  5
7D9
330
1F
100
AcDbEntity
  8
Capa 1
 62
   178
370
     9
100
AcDb2dPolyline
 66
     1
 10
0.0
 20
0.0
 30
0.0
  0
VERTEX
  5
7DA
330
7D9
100
AcDbEntity
  8
Capa 1
 62
   178
370
     9
100
AcDbVertex
100
AcDb2dVertex
 10
24.23770495732839
 20
-54.2884427920683
 30
0.0
  0
VERTEX
  5
7DB
330
7D9
100
AcDbEntity
  8
Capa 1
 62
   178
370
     9
100
AcDbVertex
100
AcDb2dVertex
 10
24.24927669612927
 20
-54.28774404356892
 30
0.0
  0
SEQEND
  5
7DC
330
7D9
100
AcDbEntity
  8
Capa 1
 62
   178
370
     9
  0
POLYLINE
  5
7DD
330
1F
100
AcDbEntity
  8
Capa 1
 62
   178
370
     9
100
AcDb2dPolyline
 66
     1
 10
0.0
 20
0.0
 30
0.0
  0
VERTEX
  5
7DE
330
7DD
100
AcDbEntity
  8
Capa 1
 62
   178
370
     9
100
AcDbVertex
100
AcDb2dVertex
 10
24.5207107147223
 20
-55.57010581773554
 30
0.0
  0
VERTEX
  5
7DF
330
7DD
100
AcDbEntity
  8
Capa 1
 62
   178
370
     9
100
AcDbVertex
100
AcDb2dVertex
 10
24.53228619909329
 20
-55.5694103882199
 30
0.0
  0
SEQEND
  5
7E0
330
7DD
100
AcDbEntity
  8
Capa 1
 62
   178
370
     9
  0
POLYLINE
  5
7E1
330
1F
100
AcDbEntity
  8
Capa 1
 62
   178
370
     9
100
AcDb2dPolyline
 66
     1
 10
0.0
 20
0.0
 30
0.0
  0
VERTEX
  5
7E2
330
7E1
100
AcDbEntity
  8
Capa 1
 62
   178
370
     9
100
AcDbVertex
100
AcDb2dVertex
 10
24.23770495732839
 20
-54.2884427920683
 30
0.0
  0
VERTEX
  5
7E3
330
7E1
100
AcDbEntity
  8
Capa 1
 62
   178
370
     9
100
AcDbVertex
100
AcDb2dVertex
 10
25.21958365783766
 20
-55.15849443115084
 30
0.0
  0
SEQEND
  5
7E4
330
7E1
100
AcDbEntity
  8
Capa 1
 62
   178
370
     9
  0
POLYLINE
  5
7E5
330
1F
100
AcDbEntity
  8
Capa 1
 62
   178
370
     9
100
AcDb2dPolyline
 66
     1
 10
0.0
 20
0.0
 30
0.0
  0
VERTEX
  5
7E6
330
7E5
100
AcDbEntity
  8
Capa 1
 62
   178
370
     9
100
AcDbVertex
100
AcDb2dVertex
 10
25.21958365783766
 20
-55.15849443115084
 30
0.0
  0
VERTEX
  5
7E7
330
7E5
100
AcDbEntity
  8
Capa 1
 62
   178
370
     9
100
AcDbVertex
100
AcDb2dVertex
 10
26.42222089065817
 20
-55.68297613389658
 30
0.0
  0
SEQEND
  5
7E8
330
7E5
100
AcDbEntity
  8
Capa 1
 62
   178
370
     9
  0
POLYLINE
  5
7E9
330
1F
100
AcDbEntity
  8
Capa 1
 62
   178
370
     9
100
AcDb2dPolyline
 66
     1
 10
0.0
 20
0.0
 30
0.0
  0
VERTEX
  5
7EA
330
7E9
100
AcDbEntity
  8
Capa 1
 62
   178
370
     9
100
AcDbVertex
100
AcDb2dVertex
 10
26.42222089065817
 20
-55.68297613389658
 30
0.0
  0
VERTEX
  5
7EB
330
7E9
100
AcDbEntity
  8
Capa 1
 62
   178
370
     9
100
AcDbVertex
100
AcDb2dVertex
 10
26.43379428895106
 20
-55.68227551261209
 30
0.0
  0
SEQEND
  5
7EC
330
7E9
100
AcDbEntity
  8
Capa 1
 62
   178
370
     9
  0
POLYLINE
  5
7ED
330
1F
100
AcDbEntity
  8
Capa 1
 62
   178
370
     9
100
AcDb2dPolyline
 66
     1
 10
0.0
 20
0.0
 30
0.0
  0
VERTEX
  5
7EE
330
7ED
100
AcDbEntity
  8
Capa 1
 62
   178
370
     9
100
AcDbVertex
100
AcDb2dVertex
 10
25.21958365783766
 20
-55.15849443115084
 30
0.0
  0
VERTEX
  5
7EF
330
7ED
100
AcDbEntity
  8
Capa 1
 62
   178
370
     9
100
AcDbVertex
100
AcDb2dVertex
 10
26.20146235834734
 20
-56.02854607023377
 30
0.0
  0
SEQEND
  5
7F0
330
7ED
100
AcDbEntity
  8
Capa 1
 62
   178
370
     9
  0
POLYLINE
  5
7F1
330
1F
100
AcDbEntity
  8
Capa 1
 62
   178
370
     9
100
AcDb2dPolyline
 66
     1
 10
0.0
 20
0.0
 30
0.0
  0
VERTEX
  5
7F2
330
7F1
100
AcDbEntity
  8
Capa 1
 62
   178
370
     9
100
AcDbVertex
100
AcDb2dVertex
 10
26.20146235834734
 20
-56.02854607023377
 30
0.0
  0
VERTEX
  5
7F3
330
7F1
100
AcDbEntity
  8
Capa 1
 62
   178
370
     9
100
AcDbVertex
100
AcDb2dVertex
 10
26.2130340971485
 20
-56.0278473217346
 30
0.0
  0
SEQEND
  5
7F4
330
7F1
100
AcDbEntity
  8
Capa 1
 62
   178
370
     9
  0
POLYLINE
  5
7F5
330
1F
100
AcDbEntity
  8
Capa 1
 62
   178
370
     9
100
AcDb2dPolyline
 66
     1
 10
0.0
 20
0.0
 30
0.0
  0
VERTEX
  5
7F6
330
7F5
100
AcDbEntity
  8
Capa 1
 62
   178
370
     9
100
AcDbVertex
100
AcDb2dVertex
 10
26.20146235834734
 20
-56.02854607023377
 30
0.0
  0
VERTEX
  5
7F7
330
7F5
100
AcDbEntity
  8
Capa 1
 62
   178
370
     9
100
AcDbVertex
100
AcDb2dVertex
 10
27.48258085740924
 20
-55.7461510540419
 30
0.0
  0
SEQEND
  5
7F8
330
7F5
100
AcDbEntity
  8
Capa 1
 62
   178
370
     9
  0
POLYLINE
  5
7F9
330
1F
100
AcDbEntity
  8
Capa 1
 62
   178
370
     9
100
AcDb2dPolyline
 66
     1
 10
0.0
 20
0.0
 30
0.0
  0
VERTEX
  5
7FA
330
7F9
100
AcDbEntity
  8
Capa 1
 62
   178
370
     9
100
AcDbVertex
100
AcDb2dVertex
 10
27.48258085740924
 20
-55.7461510540419
 30
0.0
  0
VERTEX
  5
7FB
330
7F9
100
AcDbEntity
  8
Capa 1
 62
   178
370
     9
100
AcDbVertex
100
AcDb2dVertex
 10
27.49415425570203
 20
-55.74545043275731
 30
0.0
  0
SEQEND
  5
7FC
330
7F9
100
AcDbEntity
  8
Capa 1
 62
   178
370
     9
  0
POLYLINE
  5
7FD
330
1F
100
AcDbEntity
  8
Capa 1
 62
   178
370
     9
100
AcDb2dPolyline
 66
     1
 10
0.0
 20
0.0
 30
0.0
  0
VERTEX
  5
7FE
330
7FD
100
AcDbEntity
  8
Capa 1
 62
   178
370
     9
100
AcDbVertex
100
AcDb2dVertex
 10
26.20146235834734
 20
-56.02854607023377
 30
0.0
  0
VERTEX
  5
7FF
330
7FD
100
AcDbEntity
  8
Capa 1
 62
   178
370
     9
100
AcDbVertex
100
AcDb2dVertex
 10
25.67759139680413
 20
-57.23172782965969
 30
0.0
  0
SEQEND
  5
800
330
7FD
100
AcDbEntity
  8
Capa 1
 62
   178
370
     9
  0
POLYLINE
  5
801
330
1F
100
AcDbEntity
  8
Capa 1
 62
   178
370
     9
100
AcDb2dPolyline
 66
     1
 10
0.0
 20
0.0
 30
0.0
  0
VERTEX
  5
802
330
801
100
AcDbEntity
  8
Capa 1
 62
   178
370
     9
100
AcDbVertex
100
AcDb2dVertex
 10
25.67759139680413
 20
-57.23172782965969
 30
0.0
  0
VERTEX
  5
803
330
801
100
AcDbEntity
  8
Capa 1
 62
   178
370
     9
100
AcDbVertex
100
AcDb2dVertex
 10
25.68916688117531
 20
-57.23103240014388
 30
0.0
  0
SEQEND
  5
804
330
801
100
AcDbEntity
  8
Capa 1
 62
   178
370
     9
  0
POLYLINE
  5
805
330
1F
100
AcDbEntity
  8
Capa 1
 62
   178
370
     9
100
AcDb2dPolyline
 66
     1
 10
0.0
 20
0.0
 30
0.0
  0
VERTEX
  5
806
330
805
100
AcDbEntity
  8
Capa 1
 62
   178
370
     9
100
AcDbVertex
100
AcDb2dVertex
 10
26.20146235834734
 20
-56.02854607023377
 30
0.0
  0
VERTEX
  5
807
330
805
100
AcDbEntity
  8
Capa 1
 62
   178
370
     9
100
AcDbVertex
100
AcDb2dVertex
 10
27.18334105885696
 20
-56.89859770931655
 30
0.0
  0
SEQEND
  5
808
330
805
100
AcDbEntity
  8
Capa 1
 62
   178
370
     9
  0
POLYLINE
  5
809
330
1F
100
AcDbEntity
  8
Capa 1
 62
   178
370
     9
100
AcDb2dPolyline
 66
     1
 10
0.0
 20
0.0
 30
0.0
  0
VERTEX
  5
80A
330
809
100
AcDbEntity
  8
Capa 1
 62
   178
370
     9
100
AcDbVertex
100
AcDb2dVertex
 10
27.18334105885696
 20
-56.89859770931655
 30
0.0
  0
VERTEX
  5
80B
330
809
100
AcDbEntity
  8
Capa 1
 62
   178
370
     9
100
AcDbVertex
100
AcDb2dVertex
 10
27.194912797658
 20
-56.89789896081734
 30
0.0
  0
SEQEND
  5
80C
330
809
100
AcDbEntity
  8
Capa 1
 62
   178
370
     9
  0
POLYLINE
  5
80D
330
1F
100
AcDbEntity
  8
Capa 1
 62
   178
370
     9
100
AcDb2dPolyline
 66
     1
 10
0.0
 20
0.0
 30
0.0
  0
VERTEX
  5
80E
330
80D
100
AcDbEntity
  8
Capa 1
 62
   178
370
     9
100
AcDbVertex
100
AcDb2dVertex
 10
27.84817848520495
 20
-58.03000220996659
 30
0.0
  0
VERTEX
  5
80F
330
80D
100
AcDbEntity
  8
Capa 1
 62
   178
370
     9
100
AcDbVertex
100
AcDb2dVertex
 10
27.859751883498
 20
-58.02930158868197
 30
0.0
  0
SEQEND
  5
810
330
80D
100
AcDbEntity
  8
Capa 1
 62
   178
370
     9
  0
POLYLINE
  5
811
330
1F
100
AcDbEntity
  8
Capa 1
 62
   178
370
     9
100
AcDb2dPolyline
 66
     1
 10
0.0
 20
0.0
 30
0.0
  0
VERTEX
  5
812
330
811
100
AcDbEntity
  8
Capa 1
 62
   178
370
     9
100
AcDbVertex
100
AcDb2dVertex
 10
24.23770495732839
 20
-54.2884427920683
 30
0.0
  0
VERTEX
  5
813
330
811
100
AcDbEntity
  8
Capa 1
 62
   178
370
     9
100
AcDbVertex
100
AcDb2dVertex
 10
24.90254238367635
 20
-55.41984729271831
 30
0.0
  0
SEQEND
  5
814
330
811
100
AcDbEntity
  8
Capa 1
 62
   178
370
     9
  0
POLYLINE
  5
815
330
1F
100
AcDbEntity
  8
Capa 1
 62
   178
370
     9
100
AcDb2dPolyline
 66
     1
 10
0.0
 20
0.0
 30
0.0
  0
VERTEX
  5
816
330
815
100
AcDbEntity
  8
Capa 1
 62
   178
370
     9
100
AcDbVertex
100
AcDb2dVertex
 10
24.90254238367635
 20
-55.41984729271831
 30
0.0
  0
VERTEX
  5
817
330
815
100
AcDbEntity
  8
Capa 1
 62
   178
370
     9
100
AcDbVertex
100
AcDb2dVertex
 10
25.88442108418578
 20
-56.28989893180097
 30
0.0
  0
SEQEND
  5
818
330
815
100
AcDbEntity
  8
Capa 1
 62
   178
370
     9
  0
POLYLINE
  5
819
330
1F
100
AcDbEntity
  8
Capa 1
 62
   178
370
     9
100
AcDb2dPolyline
 66
     1
 10
0.0
 20
0.0
 30
0.0
  0
VERTEX
  5
81A
330
819
100
AcDbEntity
  8
Capa 1
 62
   178
370
     9
100
AcDbVertex
100
AcDb2dVertex
 10
25.88442108418578
 20
-56.28989893180097
 30
0.0
  0
VERTEX
  5
81B
330
819
100
AcDbEntity
  8
Capa 1
 62
   178
370
     9
100
AcDbVertex
100
AcDb2dVertex
 10
25.89599448247879
 20
-56.28919831051635
 30
0.0
  0
SEQEND
  5
81C
330
819
100
AcDbEntity
  8
Capa 1
 62
   178
370
     9
  0
POLYLINE
  5
81D
330
1F
100
AcDbEntity
  8
Capa 1
 62
   178
370
     9
100
AcDb2dPolyline
 66
     1
 10
0.0
 20
0.0
 30
0.0
  0
VERTEX
  5
81E
330
81D
100
AcDbEntity
  8
Capa 1
 62
   178
370
     9
100
AcDbVertex
100
AcDb2dVertex
 10
24.90254238367635
 20
-55.41984729271831
 30
0.0
  0
VERTEX
  5
81F
330
81D
100
AcDbEntity
  8
Capa 1
 62
   178
370
     9
100
AcDbVertex
100
AcDb2dVertex
 10
25.56731359542727
 20
-56.55009652556012
 30
0.0
  0
SEQEND
  5
820
330
81D
100
AcDbEntity
  8
Capa 1
 62
   178
370
     9
  0
POLYLINE
  5
821
330
1F
100
AcDbEntity
  8
Capa 1
 62
   178
370
     9
100
AcDb2dPolyline
 66
     1
 10
0.0
 20
0.0
 30
0.0
  0
VERTEX
  5
822
330
821
100
AcDbEntity
  8
Capa 1
 62
   178
370
     9
100
AcDbVertex
100
AcDb2dVertex
 10
25.56731359542727
 20
-56.55009652556012
 30
0.0
  0
VERTEX
  5
823
330
821
100
AcDbEntity
  8
Capa 1
 62
   178
370
     9
100
AcDbVertex
100
AcDb2dVertex
 10
25.57888699372022
 20
-56.54939590427598
 30
0.0
  0
SEQEND
  5
824
330
821
100
AcDbEntity
  8
Capa 1
 62
   178
370
     9
  0
POLYLINE
  5
825
330
1F
100
AcDbEntity
  8
Capa 1
 62
   178
370
     9
100
AcDb2dPolyline
 66
     1
 10
0.0
 20
0.0
 30
0.0
  0
VERTEX
  5
826
330
825
100
AcDbEntity
  8
Capa 1
 62
   178
370
     9
100
AcDbVertex
100
AcDb2dVertex
 10
25.56731359542727
 20
-56.55009652556012
 30
0.0
  0
VERTEX
  5
827
330
825
100
AcDbEntity
  8
Capa 1
 62
   178
370
     9
100
AcDbVertex
100
AcDb2dVertex
 10
24.69726195634437
 20
-57.5319752260698
 30
0.0
  0
SEQEND
  5
828
330
825
100
AcDbEntity
  8
Capa 1
 62
   178
370
     9
  0
POLYLINE
  5
829
330
1F
100
AcDbEntity
  8
Capa 1
 62
   178
370
     9
100
AcDb2dPolyline
 66
     1
 10
0.0
 20
0.0
 30
0.0
  0
VERTEX
  5
82A
330
829
100
AcDbEntity
  8
Capa 1
 62
   178
370
     9
100
AcDbVertex
100
AcDb2dVertex
 10
24.69726195634437
 20
-57.5319752260698
 30
0.0
  0
VERTEX
  5
82B
330
829
100
AcDbEntity
  8
Capa 1
 62
   178
370
     9
100
AcDbVertex
100
AcDb2dVertex
 10
24.7088353546373
 20
-57.53127460478569
 30
0.0
  0
SEQEND
  5
82C
330
829
100
AcDbEntity
  8
Capa 1
 62
   178
370
     9
  0
POLYLINE
  5
82D
330
1F
100
AcDbEntity
  8
Capa 1
 62
   178
370
     9
100
AcDb2dPolyline
 66
     1
 10
0.0
 20
0.0
 30
0.0
  0
VERTEX
  5
82E
330
82D
100
AcDbEntity
  8
Capa 1
 62
   178
370
     9
100
AcDbVertex
100
AcDb2dVertex
 10
25.56731359542727
 20
-56.55009652556012
 30
0.0
  0
VERTEX
  5
82F
330
82D
100
AcDbEntity
  8
Capa 1
 62
   178
370
     9
100
AcDbVertex
100
AcDb2dVertex
 10
26.23215102177529
 20
-57.68150102620977
 30
0.0
  0
SEQEND
  5
830
330
82D
100
AcDbEntity
  8
Capa 1
 62
   178
370
     9
  0
POLYLINE
  5
831
330
1F
100
AcDbEntity
  8
Capa 1
 62
   178
370
     9
100
AcDb2dPolyline
 66
     1
 10
0.0
 20
0.0
 30
0.0
  0
VERTEX
  5
832
330
831
100
AcDbEntity
  8
Capa 1
 62
   178
370
     9
100
AcDbVertex
100
AcDb2dVertex
 10
26.23215102177529
 20
-57.68150102620977
 30
0.0
  0
VERTEX
  5
833
330
831
100
AcDbEntity
  8
Capa 1
 62
   178
370
     9
100
AcDbVertex
100
AcDb2dVertex
 10
26.24372816563814
 20
-57.68080372390886
 30
0.0
  0
SEQEND
  5
834
330
831
100
AcDbEntity
  8
Capa 1
 62
   178
370
     9
  0
POLYLINE
  5
835
330
1F
100
AcDbEntity
  8
Capa 1
 62
   178
370
     9
100
AcDb2dPolyline
 66
     1
 10
0.0
 20
0.0
 30
0.0
  0
VERTEX
  5
836
330
835
100
AcDbEntity
  8
Capa 1
 62
   178
370
     9
100
AcDbVertex
100
AcDb2dVertex
 10
26.23215102177529
 20
-57.68150102620977
 30
0.0
  0
VERTEX
  5
837
330
835
100
AcDbEntity
  8
Capa 1
 62
   178
370
     9
100
AcDbVertex
100
AcDb2dVertex
 10
26.51570483805151
 20
-58.96255309738159
 30
0.0
  0
SEQEND
  5
838
330
835
100
AcDbEntity
  8
Capa 1
 62
   178
370
     9
  0
POLYLINE
  5
839
330
1F
100
AcDbEntity
  8
Capa 1
 62
   178
370
     9
100
AcDb2dPolyline
 66
     1
 10
0.0
 20
0.0
 30
0.0
  0
VERTEX
  5
83A
330
839
100
AcDbEntity
  8
Capa 1
 62
   178
370
     9
100
AcDbVertex
100
AcDb2dVertex
 10
26.51570483805151
 20
-58.96255309738159
 30
0.0
  0
VERTEX
  5
83B
330
839
100
AcDbEntity
  8
Capa 1
 62
   178
370
     9
100
AcDbVertex
100
AcDb2dVertex
 10
26.52727823634439
 20
-58.9618524760971
 30
0.0
  0
SEQEND
  5
83C
330
839
100
AcDbEntity
  8
Capa 1
 62
   178
370
     9
  0
POLYLINE
  5
83D
330
1F
100
AcDbEntity
  8
Capa 1
 62
   178
370
     9
100
AcDb2dPolyline
 66
     1
 10
0.0
 20
0.0
 30
0.0
  0
VERTEX
  5
83E
330
83D
100
AcDbEntity
  8
Capa 1
 62
   178
370
     9
100
AcDbVertex
100
AcDb2dVertex
 10
26.23215102177529
 20
-57.68150102620977
 30
0.0
  0
VERTEX
  5
83F
330
83D
100
AcDbEntity
  8
Capa 1
 62
   178
370
     9
100
AcDbVertex
100
AcDb2dVertex
 10
27.53855916348893
 20
-57.80823209991776
 30
0.0
  0
SEQEND
  5
840
330
83D
100
AcDbEntity
  8
Capa 1
 62
   178
370
     9
  0
POLYLINE
  5
841
330
1F
100
AcDbEntity
  8
Capa 1
 62
   178
370
     9
100
AcDb2dPolyline
 66
     1
 10
0.0
 20
0.0
 30
0.0
  0
VERTEX
  5
842
330
841
100
AcDbEntity
  8
Capa 1
 62
   178
370
     9
100
AcDbVertex
100
AcDb2dVertex
 10
27.53855916348893
 20
-57.80823209991776
 30
0.0
  0
VERTEX
  5
843
330
841
100
AcDbEntity
  8
Capa 1
 62
   178
370
     9
100
AcDbVertex
100
AcDb2dVertex
 10
27.55013256178169
 20
-57.80753147863346
 30
0.0
  0
SEQEND
  5
844
330
841
100
AcDbEntity
  8
Capa 1
 62
   178
370
     9
  0
POLYLINE
  5
845
330
1F
100
AcDbEntity
  8
Capa 1
 62
   178
370
     9
100
AcDb2dPolyline
 66
     1
 10
0.0
 20
0.0
 30
0.0
  0
VERTEX
  5
846
330
845
100
AcDbEntity
  8
Capa 1
 62
   178
370
     9
100
AcDbVertex
100
AcDb2dVertex
 10
27.53855916348893
 20
-57.80823209991776
 30
0.0
  0
VERTEX
  5
847
330
845
100
AcDbEntity
  8
Capa 1
 62
   178
370
     9
100
AcDbVertex
100
AcDb2dVertex
 10
28.81906879413406
 20
-57.52529421661249
 30
0.0
  0
SEQEND
  5
848
330
845
100
AcDbEntity
  8
Capa 1
 62
   178
370
     9
  0
POLYLINE
  5
849
330
1F
100
AcDbEntity
  8
Capa 1
 62
   178
370
     9
100
AcDb2dPolyline
 66
     1
 10
0.0
 20
0.0
 30
0.0
  0
VERTEX
  5
84A
330
849
100
AcDbEntity
  8
Capa 1
 62
   178
370
     9
100
AcDbVertex
100
AcDb2dVertex
 10
28.81906879413406
 20
-57.52529421661249
 30
0.0
  0
VERTEX
  5
84B
330
849
100
AcDbEntity
  8
Capa 1
 62
   178
370
     9
100
AcDbVertex
100
AcDb2dVertex
 10
28.83064219242659
 20
-57.52459359532801
 30
0.0
  0
SEQEND
  5
84C
330
849
100
AcDbEntity
  8
Capa 1
 62
   178
370
     9
  0
POLYLINE
  5
84D
330
1F
100
AcDbEntity
  8
Capa 1
 62
   178
370
     9
100
AcDb2dPolyline
 66
     1
 10
0.0
 20
0.0
 30
0.0
  0
VERTEX
  5
84E
330
84D
100
AcDbEntity
  8
Capa 1
 62
   178
370
     9
100
AcDbVertex
100
AcDb2dVertex
 10
27.53855916348893
 20
-57.80823209991776
 30
0.0
  0
VERTEX
  5
84F
330
84D
100
AcDbEntity
  8
Capa 1
 62
   178
370
     9
100
AcDbVertex
100
AcDb2dVertex
 10
28.84381037790321
 20
-57.93503126100777
 30
0.0
  0
SEQEND
  5
850
330
84D
100
AcDbEntity
  8
Capa 1
 62
   178
370
     9
  0
POLYLINE
  5
851
330
1F
100
AcDbEntity
  8
Capa 1
 62
   178
370
     9
100
AcDb2dPolyline
 66
     1
 10
0.0
 20
0.0
 30
0.0
  0
VERTEX
  5
852
330
851
100
AcDbEntity
  8
Capa 1
 62
   178
370
     9
100
AcDbVertex
100
AcDb2dVertex
 10
28.84381037790321
 20
-57.93503126100777
 30
0.0
  0
VERTEX
  5
853
330
851
100
AcDbEntity
  8
Capa 1
 62
   178
370
     9
100
AcDbVertex
100
AcDb2dVertex
 10
28.85538211670431
 20
-57.93433251250865
 30
0.0
  0
SEQEND
  5
854
330
851
100
AcDbEntity
  8
Capa 1
 62
   178
370
     9
  0
POLYLINE
  5
855
330
1F
100
AcDbEntity
  8
Capa 1
 62
   178
370
     9
100
AcDb2dPolyline
 66
     1
 10
0.0
 20
0.0
 30
0.0
  0
VERTEX
  5
856
330
855
100
AcDbEntity
  8
Capa 1
 62
   178
370
     9
100
AcDbVertex
100
AcDb2dVertex
 10
28.84381037790321
 20
-57.93503126100777
 30
0.0
  0
VERTEX
  5
857
330
855
100
AcDbEntity
  8
Capa 1
 62
   178
370
     9
100
AcDbVertex
100
AcDb2dVertex
 10
29.7138620169861
 20
-56.95315256049813
 30
0.0
  0
SEQEND
  5
858
330
855
100
AcDbEntity
  8
Capa 1
 62
   178
370
     9
  0
POLYLINE
  5
859
330
1F
100
AcDbEntity
  8
Capa 1
 62
   178
370
     9
100
AcDb2dPolyline
 66
     1
 10
0.0
 20
0.0
 30
0.0
  0
VERTEX
  5
85A
330
859
100
AcDbEntity
  8
Capa 1
 62
   178
370
     9
100
AcDbVertex
100
AcDb2dVertex
 10
29.7138620169861
 20
-56.95315256049813
 30
0.0
  0
VERTEX
  5
85B
330
859
100
AcDbEntity
  8
Capa 1
 62
   178
370
     9
100
AcDbVertex
100
AcDb2dVertex
 10
29.72543375578707
 20
-56.95245381199913
 30
0.0
  0
SEQEND
  5
85C
330
859
100
AcDbEntity
  8
Capa 1
 62
   178
370
     9
  0
POLYLINE
  5
85D
330
1F
100
AcDbEntity
  8
Capa 1
 62
   178
370
     9
100
AcDb2dPolyline
 66
     1
 10
0.0
 20
0.0
 30
0.0
  0
VERTEX
  5
85E
330
85D
100
AcDbEntity
  8
Capa 1
 62
   178
370
     9
100
AcDbVertex
100
AcDb2dVertex
 10
28.84381037790321
 20
-57.93503126100777
 30
0.0
  0
VERTEX
  5
85F
330
85D
100
AcDbEntity
  8
Capa 1
 62
   178
370
     9
100
AcDbVertex
100
AcDb2dVertex
 10
29.12674826120873
 20
-59.21554089165284
 30
0.0
  0
SEQEND
  5
860
330
85D
100
AcDbEntity
  8
Capa 1
 62
   178
370
     9
  0
POLYLINE
  5
861
330
1F
100
AcDbEntity
  8
Capa 1
 62
   178
370
     9
100
AcDb2dPolyline
 66
     1
 10
0.0
 20
0.0
 30
0.0
  0
VERTEX
  5
862
330
861
100
AcDbEntity
  8
Capa 1
 62
   178
370
     9
100
AcDbVertex
100
AcDb2dVertex
 10
29.12674826120873
 20
-59.21554089165284
 30
0.0
  0
VERTEX
  5
863
330
861
100
AcDbEntity
  8
Capa 1
 62
   178
370
     9
100
AcDbVertex
100
AcDb2dVertex
 10
29.13832165950156
 20
-59.2148402703686
 30
0.0
  0
SEQEND
  5
864
330
861
100
AcDbEntity
  8
Capa 1
 62
   178
370
     9
  0
POLYLINE
  5
865
330
1F
100
AcDbEntity
  8
Capa 1
 62
   178
370
     9
100
AcDb2dPolyline
 66
     1
 10
0.0
 20
0.0
 30
0.0
  0
VERTEX
  5
866
330
865
100
AcDbEntity
  8
Capa 1
 62
   178
370
     9
100
AcDbVertex
100
AcDb2dVertex
 10
31.35224147895849
 20
-58.58569972414938
 30
0.0
  0
VERTEX
  5
867
330
865
100
AcDbEntity
  8
Capa 1
 62
   178
370
     9
100
AcDbVertex
100
AcDb2dVertex
 10
31.36381862282118
 20
-58.58500242184863
 30
0.0
  0
SEQEND
  5
868
330
865
100
AcDbEntity
  8
Capa 1
 62
   178
370
     9
  0
POLYLINE
  5
869
330
1F
100
AcDbEntity
  8
Capa 1
 62
   178
370
     9
100
AcDb2dPolyline
 66
     1
 10
0.0
 20
0.0
 30
0.0
  0
VERTEX
  5
86A
330
869
100
AcDbEntity
  8
Capa 1
 62
   178
370
     9
100
AcDbVertex
100
AcDb2dVertex
 10
26.23215102177529
 20
-57.68150102620977
 30
0.0
  0
VERTEX
  5
86B
330
869
100
AcDbEntity
  8
Capa 1
 62
   178
370
     9
100
AcDbVertex
100
AcDb2dVertex
 10
25.36209938269256
 20
-58.66337972671926
 30
0.0
  0
SEQEND
  5
86C
330
869
100
AcDbEntity
  8
Capa 1
 62
   178
370
     9
  0
POLYLINE
  5
86D
330
1F
100
AcDbEntity
  8
Capa 1
 62
   178
370
     9
100
AcDb2dPolyline
 66
     1
 10
0.0
 20
0.0
 30
0.0
  0
VERTEX
  5
86E
330
86D
100
AcDbEntity
  8
Capa 1
 62
   178
370
     9
100
AcDbVertex
100
AcDb2dVertex
 10
25.36209938269256
 20
-58.66337972671926
 30
0.0
  0
VERTEX
  5
86F
330
86D
100
AcDbEntity
  8
Capa 1
 62
   178
370
     9
100
AcDbVertex
100
AcDb2dVertex
 10
25.37367652655521
 20
-58.66268242441857
 30
0.0
  0
SEQEND
  5
870
330
86D
100
AcDbEntity
  8
Capa 1
 62
   178
370
     9
  0
POLYLINE
  5
871
330
1F
100
AcDbEntity
  8
Capa 1
 62
   178
370
     9
100
AcDb2dPolyline
 66
     1
 10
0.0
 20
0.0
 30
0.0
  0
VERTEX
  5
872
330
871
100
AcDbEntity
  8
Capa 1
 62
   178
370
     9
100
AcDbVertex
100
AcDb2dVertex
 10
25.36209938269256
 20
-58.66337972671926
 30
0.0
  0
VERTEX
  5
873
330
871
100
AcDbEntity
  8
Capa 1
 62
   178
370
     9
100
AcDbVertex
100
AcDb2dVertex
 10
24.8387764800313
 20
-59.8659505316495
 30
0.0
  0
SEQEND
  5
874
330
871
100
AcDbEntity
  8
Capa 1
 62
   178
370
     9
  0
POLYLINE
  5
875
330
1F
100
AcDbEntity
  8
Capa 1
 62
   178
370
     9
100
AcDb2dPolyline
 66
     1
 10
0.0
 20
0.0
 30
0.0
  0
VERTEX
  5
876
330
875
100
AcDbEntity
  8
Capa 1
 62
   178
370
     9
100
AcDbVertex
100
AcDb2dVertex
 10
24.8387764800313
 20
-59.8659505316495
 30
0.0
  0
VERTEX
  5
877
330
875
100
AcDbEntity
  8
Capa 1
 62
   178
370
     9
100
AcDbVertex
100
AcDb2dVertex
 10
24.85034987832435
 20
-59.86524991036517
 30
0.0
  0
SEQEND
  5
878
330
875
100
AcDbEntity
  8
Capa 1
 62
   178
370
     9
  0
POLYLINE
  5
879
330
1F
100
AcDbEntity
  8
Capa 1
 62
   178
370
     9
100
AcDb2dPolyline
 66
     1
 10
0.0
 20
0.0
 30
0.0
  0
VERTEX
  5
87A
330
879
100
AcDbEntity
  8
Capa 1
 62
   178
370
     9
100
AcDbVertex
100
AcDb2dVertex
 10
25.36209938269256
 20
-58.66337972671926
 30
0.0
  0
VERTEX
  5
87B
330
879
100
AcDbEntity
  8
Capa 1
 62
   178
370
     9
100
AcDbVertex
100
AcDb2dVertex
 10
24.49204774360983
 20
-59.64525842722875
 30
0.0
  0
SEQEND
  5
87C
330
879
100
AcDbEntity
  8
Capa 1
 62
   178
370
     9
  0
POLYLINE
  5
87D
330
1F
100
AcDbEntity
  8
Capa 1
 62
   178
370
     9
100
AcDb2dPolyline
 66
     1
 10
0.0
 20
0.0
 30
0.0
  0
VERTEX
  5
87E
330
87D
100
AcDbEntity
  8
Capa 1
 62
   178
370
     9
100
AcDbVertex
100
AcDb2dVertex
 10
24.49204774360983
 20
-59.64525842722875
 30
0.0
  0
VERTEX
  5
87F
330
87D
100
AcDbEntity
  8
Capa 1
 62
   178
370
     9
100
AcDbVertex
100
AcDb2dVertex
 10
24.50362488747248
 20
-59.64456112492803
 30
0.0
  0
SEQEND
  5
880
330
87D
100
AcDbEntity
  8
Capa 1
 62
   178
370
     9
  0
POLYLINE
  5
881
330
1F
100
AcDbEntity
  8
Capa 1
 62
   178
370
     9
100
AcDb2dPolyline
 66
     1
 10
0.0
 20
0.0
 30
0.0
  0
VERTEX
  5
882
330
881
100
AcDbEntity
  8
Capa 1
 62
   178
370
     9
100
AcDbVertex
100
AcDb2dVertex
 10
24.77560155988617
 20
-60.92631049840044
 30
0.0
  0
VERTEX
  5
883
330
881
100
AcDbEntity
  8
Capa 1
 62
   178
370
     9
100
AcDbVertex
100
AcDb2dVertex
 10
24.78717495817871
 20
-60.92560987711631
 30
0.0
  0
SEQEND
  5
884
330
881
100
AcDbEntity
  8
Capa 1
 62
   178
370
     9
  0
POLYLINE
  5
885
330
1F
100
AcDbEntity
  8
Capa 1
 62
   178
370
     9
100
AcDb2dPolyline
 66
     1
 10
0.0
 20
0.0
 30
0.0
  0
VERTEX
  5
886
330
885
100
AcDbEntity
  8
Capa 1
 62
   178
370
     9
100
AcDbVertex
100
AcDb2dVertex
 10
24.49204774360983
 20
-59.64525842722875
 30
0.0
  0
VERTEX
  5
887
330
885
100
AcDbEntity
  8
Capa 1
 62
   178
370
     9
100
AcDbVertex
100
AcDb2dVertex
 10
23.28941051078922
 20
-59.12077672448368
 30
0.0
  0
SEQEND
  5
888
330
885
100
AcDbEntity
  8
Capa 1
 62
   178
370
     9
  0
POLYLINE
  5
889
330
1F
100
AcDbEntity
  8
Capa 1
 62
   178
370
     9
100
AcDb2dPolyline
 66
     1
 10
0.0
 20
0.0
 30
0.0
  0
VERTEX
  5
88A
330
889
100
AcDbEntity
  8
Capa 1
 62
   178
370
     9
100
AcDbVertex
100
AcDb2dVertex
 10
23.28941051078922
 20
-59.12077672448368
 30
0.0
  0
VERTEX
  5
88B
330
889
100
AcDbEntity
  8
Capa 1
 62
   178
370
     9
100
AcDbVertex
100
AcDb2dVertex
 10
23.30098224959051
 20
-59.12007797598437
 30
0.0
  0
SEQEND
  5
88C
330
889
100
AcDbEntity
  8
Capa 1
 62
   178
370
     9
  0
POLYLINE
  5
88D
330
1F
100
AcDbEntity
  8
Capa 1
 62
   178
370
     9
100
AcDb2dPolyline
 66
     1
 10
0.0
 20
0.0
 30
0.0
  0
VERTEX
  5
88E
330
88D
100
AcDbEntity
  8
Capa 1
 62
   178
370
     9
100
AcDbVertex
100
AcDb2dVertex
 10
24.49204774360983
 20
-59.64525842722875
 30
0.0
  0
VERTEX
  5
88F
330
88D
100
AcDbEntity
  8
Capa 1
 62
   178
370
     9
100
AcDbVertex
100
AcDb2dVertex
 10
23.6219961045271
 20
-60.62713712773824
 30
0.0
  0
SEQEND
  5
890
330
88D
100
AcDbEntity
  8
Capa 1
 62
   178
370
     9
  0
POLYLINE
  5
891
330
1F
100
AcDbEntity
  8
Capa 1
 62
   178
370
     9
100
AcDb2dPolyline
 66
     1
 10
0.0
 20
0.0
 30
0.0
  0
VERTEX
  5
892
330
891
100
AcDbEntity
  8
Capa 1
 62
   178
370
     9
100
AcDbVertex
100
AcDb2dVertex
 10
23.6219961045271
 20
-60.62713712773824
 30
0.0
  0
VERTEX
  5
893
330
891
100
AcDbEntity
  8
Capa 1
 62
   178
370
     9
100
AcDbVertex
100
AcDb2dVertex
 10
23.63357324838959
 20
-60.62643982543771
 30
0.0
  0
SEQEND
  5
894
330
891
100
AcDbEntity
  8
Capa 1
 62
   178
370
     9
  0
POLYLINE
  5
895
330
1F
100
AcDbEntity
  8
Capa 1
 62
   178
370
     9
100
AcDb2dPolyline
 66
     1
 10
0.0
 20
0.0
 30
0.0
  0
VERTEX
  5
896
330
895
100
AcDbEntity
  8
Capa 1
 62
   178
370
     9
100
AcDbVertex
100
AcDb2dVertex
 10
22.4917485311765
 20
-61.29190646670437
 30
0.0
  0
VERTEX
  5
897
330
895
100
AcDbEntity
  8
Capa 1
 62
   178
370
     9
100
AcDbVertex
100
AcDb2dVertex
 10
22.5033256750396
 20
-61.29120916440375
 30
0.0
  0
SEQEND
  5
898
330
895
100
AcDbEntity
  8
Capa 1
 62
   178
370
     9
  0
POLYLINE
  5
899
330
1F
100
AcDbEntity
  8
Capa 1
 62
   178
370
     9
100
AcDb2dPolyline
 66
     1
 10
0.0
 20
0.0
 30
0.0
  0
VERTEX
  5
89A
330
899
100
AcDbEntity
  8
Capa 1
 62
   178
370
     9
100
AcDbVertex
100
AcDb2dVertex
 10
26.23215102177529
 20
-57.68150102620977
 30
0.0
  0
VERTEX
  5
89B
330
899
100
AcDbEntity
  8
Capa 1
 62
   178
370
     9
100
AcDbVertex
100
AcDb2dVertex
 10
26.89753816649709
 20
-58.81229269957889
 30
0.0
  0
SEQEND
  5
89C
330
899
100
AcDbEntity
  8
Capa 1
 62
   178
370
     9
  0
POLYLINE
  5
89D
330
1F
100
AcDbEntity
  8
Capa 1
 62
   178
370
     9
100
AcDb2dPolyline
 66
     1
 10
0.0
 20
0.0
 30
0.0
  0
VERTEX
  5
89E
330
89D
100
AcDbEntity
  8
Capa 1
 62
   178
370
     9
100
AcDbVertex
100
AcDb2dVertex
 10
26.89753816649709
 20
-58.81229269957889
 30
0.0
  0
VERTEX
  5
89F
330
89D
100
AcDbEntity
  8
Capa 1
 62
   178
370
     9
100
AcDbVertex
100
AcDb2dVertex
 10
26.90910990529822
 20
-58.81159395107935
 30
0.0
  0
SEQEND
  5
8A0
330
89D
100
AcDbEntity
  8
Capa 1
 62
   178
370
     9
  0
POLYLINE
  5
8A1
330
1F
100
AcDbEntity
  8
Capa 1
 62
   178
370
     9
100
AcDb2dPolyline
 66
     1
 10
0.0
 20
0.0
 30
0.0
  0
VERTEX
  5
8A2
330
8A1
100
AcDbEntity
  8
Capa 1
 62
   178
370
     9
100
AcDbVertex
100
AcDb2dVertex
 10
26.89753816649709
 20
-58.81229269957889
 30
0.0
  0
VERTEX
  5
8A3
330
8A1
100
AcDbEntity
  8
Capa 1
 62
   178
370
     9
100
AcDbVertex
100
AcDb2dVertex
 10
27.8794168670068
 20
-59.68234433866178
 30
0.0
  0
SEQEND
  5
8A4
330
8A1
100
AcDbEntity
  8
Capa 1
 62
   178
370
     9
  0
POLYLINE
  5
8A5
330
1F
100
AcDbEntity
  8
Capa 1
 62
   178
370
     9
100
AcDb2dPolyline
 66
     1
 10
0.0
 20
0.0
 30
0.0
  0
VERTEX
  5
8A6
330
8A5
100
AcDbEntity
  8
Capa 1
 62
   178
370
     9
100
AcDbVertex
100
AcDb2dVertex
 10
27.8794168670068
 20
-59.68234433866178
 30
0.0
  0
VERTEX
  5
8A7
330
8A5
100
AcDbEntity
  8
Capa 1
 62
   178
370
     9
100
AcDbVertex
100
AcDb2dVertex
 10
27.89098860580793
 20
-59.68164559016227
 30
0.0
  0
SEQEND
  5
8A8
330
8A5
100
AcDbEntity
  8
Capa 1
 62
   178
370
     9
  0
POLYLINE
  5
8A9
330
1F
100
AcDbEntity
  8
Capa 1
 62
   178
370
     9
100
AcDb2dPolyline
 66
     1
 10
0.0
 20
0.0
 30
0.0
  0
VERTEX
  5
8AA
330
8A9
100
AcDbEntity
  8
Capa 1
 62
   178
370
     9
100
AcDbVertex
100
AcDb2dVertex
 10
26.89753816649709
 20
-58.81229269957889
 30
0.0
  0
VERTEX
  5
8AB
330
8A9
100
AcDbEntity
  8
Capa 1
 62
   178
370
     9
100
AcDbVertex
100
AcDb2dVertex
 10
27.56291990615714
 20
-59.94308292674922
 30
0.0
  0
SEQEND
  5
8AC
330
8A9
100
AcDbEntity
  8
Capa 1
 62
   178
370
     9
  0
POLYLINE
  5
8AD
330
1F
100
AcDbEntity
  8
Capa 1
 62
   178
370
     9
100
AcDb2dPolyline
 66
     1
 10
0.0
 20
0.0
 30
0.0
  0
VERTEX
  5
8AE
330
8AD
100
AcDbEntity
  8
Capa 1
 62
   178
370
     9
100
AcDbVertex
100
AcDb2dVertex
 10
27.56291990615714
 20
-59.94308292674922
 30
0.0
  0
VERTEX
  5
8AF
330
8AD
100
AcDbEntity
  8
Capa 1
 62
   178
370
     9
100
AcDbVertex
100
AcDb2dVertex
 10
27.5744953905282
 20
-59.9423874972337
 30
0.0
  0
SEQEND
  5
8B0
330
8AD
100
AcDbEntity
  8
Capa 1
 62
   178
370
     9
  0
POLYLINE
  5
8B1
330
1F
100
AcDbEntity
  8
Capa 1
 62
   178
370
     9
100
AcDb2dPolyline
 66
     1
 10
0.0
 20
0.0
 30
0.0
  0
VERTEX
  5
8B2
330
8B1
100
AcDbEntity
  8
Capa 1
 62
   178
370
     9
100
AcDbVertex
100
AcDb2dVertex
 10
27.56291990615714
 20
-59.94308292674922
 30
0.0
  0
VERTEX
  5
8B3
330
8B1
100
AcDbEntity
  8
Capa 1
 62
   178
370
     9
100
AcDbVertex
100
AcDb2dVertex
 10
28.86816946107985
 20
-60.06988396062437
 30
0.0
  0
SEQEND
  5
8B4
330
8B1
100
AcDbEntity
  8
Capa 1
 62
   178
370
     9
  0
POLYLINE
  5
8B5
330
1F
100
AcDbEntity
  8
Capa 1
 62
   178
370
     9
100
AcDb2dPolyline
 66
     1
 10
0.0
 20
0.0
 30
0.0
  0
VERTEX
  5
8B6
330
8B5
100
AcDbEntity
  8
Capa 1
 62
   178
370
     9
100
AcDbVertex
100
AcDb2dVertex
 10
28.86816946107985
 20
-60.06988396062437
 30
0.0
  0
VERTEX
  5
8B7
330
8B5
100
AcDbEntity
  8
Capa 1
 62
   178
370
     9
100
AcDbVertex
100
AcDb2dVertex
 10
28.87974660494264
 20
-60.0691866583241
 30
0.0
  0
SEQEND
  5
8B8
330
8B5
100
AcDbEntity
  8
Capa 1
 62
   178
370
     9
  0
POLYLINE
  5
8B9
330
1F
100
AcDbEntity
  8
Capa 1
 62
   178
370
     9
100
AcDb2dPolyline
 66
     1
 10
0.0
 20
0.0
 30
0.0
  0
VERTEX
  5
8BA
330
8B9
100
AcDbEntity
  8
Capa 1
 62
   178
370
     9
100
AcDbVertex
100
AcDb2dVertex
 10
26.69286826707441
 20
-60.92496162725877
 30
0.0
  0
VERTEX
  5
8BB
330
8B9
100
AcDbEntity
  8
Capa 1
 62
   178
370
     9
100
AcDbVertex
100
AcDb2dVertex
 10
26.7044437514455
 20
-60.92426619774316
 30
0.0
  0
SEQEND
  5
8BC
330
8B9
100
AcDbEntity
  8
Capa 1
 62
   178
370
     9
  0
POLYLINE
  5
8BE
330
1F
100
AcDbEntity
  8
Capa 2
 62
   195
370
    35
100
AcDb2dPolyline
 66
     1
 10
0.0
 20
0.0
 30
0.0
  0
VERTEX
  5
8BF
330
8BE
100
AcDbEntity
  8
Capa 2
 62
   195
370
    35
100
AcDbVertex
100
AcDb2dVertex
 10
14.99999999624999
 20
-30.70555554787911
 30
0.0
  0
VERTEX
  5
8C0
330
8BE
100
AcDbEntity
  8
Capa 2
 62
   195
370
    35
100
AcDbVertex
100
AcDb2dVertex
 10
14.99999999624999
 20
-60.70555554037906
 30
0.0
  0
SEQEND
  5
8C1
330
8BE
100
AcDbEntity
  8
Capa 2
 62
   195
370
    35
  0
POLYLINE
  5
8C2
330
1F
100
AcDbEntity
  8
Capa 2
 62
   195
370
    35
100
AcDb2dPolyline
 66
     1
 10
0.0
 20
0.0
 30
0.0
  0
VERTEX
  5
8C3
330
8C2
100
AcDbEntity
  8
Capa 2
 62
   195
370
    35
100
AcDbVertex
100
AcDb2dVertex
 10
0.0
 20
-45.70555554412907
 30
0.0
  0
VERTEX
  5
8C4
330
8C2
100
AcDbEntity
  8
Capa 2
 62
   195
370
    35
100
AcDbVertex
100
AcDb2dVertex
 10
29.99999999249995
 20
-45.70555554412907
 30
0.0
  0
SEQEND
  5
8C5
330
8C2
100
AcDbEntity
  8
Capa 2
 62
   195
370
    35
  0
ENDSEC
  0
SECTION
  2
OBJECTS
  0
DICTIONARY
  5
C
330
0
100
AcDbDictionary
281
     1
  3
ACAD_GROUP
350
D
  3
ACAD_LAYOUT
350
1A
  3
ACAD_MATERIAL
350
3B
  3
ACAD_MLEADERSTYLE
350
8C8
  3
ACAD_MLINESTYLE
350
17
  3
ACAD_PLOTSETTINGS
350
19
  3
ACAD_PLOTSTYLENAME
350
E
  3
ACAD_VISUALSTYLE
350
2A
  3
AcDbVariableDictionary
350
8C6
  0
DICTIONARY
  5
D
102
{ACAD_REACTORS
330
C
102
}
330
C
100
AcDbDictionary
281
     1
  0
DICTIONARY
  5
1A
102
{ACAD_REACTORS
330
C
102
}
330
C
100
AcDbDictionary
281
     1
  3
Layout1
350
1E
  3
Layout2
350
26
  3
Model
350
22
  0
DICTIONARY
  5
3B
102
{ACAD_REACTORS
330
C
102
}
330
C
100
AcDbDictionary
281
     1
  3
ByBlock
350
3D
  3
ByLayer
350
3C
  3
Global
350
3E
  0
DICTIONARY
  5
8C8
102
{ACAD_REACTORS
330
C
102
}
330
C
100
AcDbDictionary
281
     1
  0
DICTIONARY
  5
17
102
{ACAD_REACTORS
330
C
102
}
330
C
100
AcDbDictionary
281
     1
  3
Standard
350
18
  0
DICTIONARY
  5
19
102
{ACAD_REACTORS
330
C
102
}
330
C
100
AcDbDictionary
281
     1
  0
ACDBDICTIONARYWDFLT
  5
E
102
{ACAD_REACTORS
330
C
102
}
330
C
100
AcDbDictionary
281
     1
  3
Normal
350
F
100
AcDbDictionaryWithDefault
340
F
  0
DICTIONARY
  5
2A
102
{ACAD_REACTORS
330
C
102
}
330
C
100
AcDbDictionary
281
     1
  3
2dWireframe
350
2F
  3
3D Hidden
350
31
  3
3dWireframe
350
30
  3
Basic
350
32
  3
Brighten
350
36
  3
ColorChange
350
3A
  3
Conceptual
350
34
  3
Dim
350
35
  3
Facepattern
350
39
  3
Flat
350
2B
  3
FlatWithEdges
350
2C
  3
Gouraud
350
2D
  3
GouraudWithEdges
350
2E
  3
Linepattern
350
38
  3
Realistic
350
33
  3
Thicken
350
37
  0
DICTIONARY
  5
8C6
102
{ACAD_REACTORS
330
C
102
}
330
C
100
AcDbDictionary
281
     1
  3
DIMASSOC
350
8C9
  3
HIDETEXT
350
8CA
  0
LAYOUT
  5
1E
102
{ACAD_REACTORS
330
1A
102
}
330
1A
100
AcDbPlotSettings
  1

  2
none_device
  4

  6

 40
0.0
 41
0.0
 42
0.0
 43
0.0
 44
0.0
 45
0.0
 46
0.0
 47
0.0
 48
0.0
 49
0.0
140
0.0
141
0.0
142
1.0
143
1.0
 70
   688
 72
     0
 73
     0
 74
     5
  7

 75
    16
147
1.0
148
0.0
149
0.0
100
AcDbLayout
  1
Layout1
 70
     1
 71
     1
 10
0.0
 20
0.0
 11
12.0
 21
9.0
 12
0.0
 22
0.0
 32
0.0
 14
1.000000000000000E+20
 24
1.000000000000000E+20
 34
1.000000000000000E+20
 15
-1.000000000000000E+20
 25
-1.000000000000000E+20
 35
-1.000000000000000E+20
146
0.0
 13
0.0
 23
0.0
 33
0.0
 16
1.0
 26
0.0
 36
0.0
 17
0.0
 27
1.0
 37
0.0
 76
     0
330
1B
  0
LAYOUT
  5
26
102
{ACAD_REACTORS
330
1A
102
}
330
1A
100
AcDbPlotSettings
  1

  2
none_device
  4

  6

 40
0.0
 41
0.0
 42
0.0
 43
0.0
 44
0.0
 45
0.0
 46
0.0
 47
0.0
 48
0.0
 49
0.0
140
0.0
141
0.0
142
1.0
143
1.0
 70
   688
 72
     0
 73
     0
 74
     5
  7

 75
    16
147
1.0
148
0.0
149
0.0
100
AcDbLayout
  1
Layout2
 70
     1
 71
     2
 10
0.0
 20
0.0
 11
0.0
 21
0.0
 12
0.0
 22
0.0
 32
0.0
 14
0.0
 24
0.0
 34
0.0
 15
0.0
 25
0.0
 35
0.0
146
0.0
 13
0.0
 23
0.0
 33
0.0
 16
1.0
 26
0.0
 36
0.0
 17
0.0
 27
1.0
 37
0.0
 76
     0
330
23
  0
LAYOUT
  5
22
102
{ACAD_REACTORS
330
1A
102
}
330
1A
100
AcDbPlotSettings
  1

  2
none_device
  4

  6

 40
0.0
 41
0.0
 42
0.0
 43
0.0
 44
0.0
 45
0.0
 46
0.0
 47
0.0
 48
0.0
 49
0.0
140
0.0
141
0.0
142
1.0
143
1.0
 70
  1712
 72
     0
 73
     0
 74
     0
  7

 75
     0
147
1.0
148
0.0
149
0.0
100
AcDbLayout
  1
Model
 70
     1
 71
     0
 10
0.0
 20
0.0
 11
12.0
 21
9.0
 12
0.0
 22
0.0
 32
0.0
 14
1.000000000000000E+20
 24
1.000000000000000E+20
 34
1.000000000000000E+20
 15
-1.000000000000000E+20
 25
-1.000000000000000E+20
 35
-1.000000000000000E+20
146
0.0
 13
0.0
 23
0.0
 33
0.0
 16
1.0
 26
0.0
 36
0.0
 17
0.0
 27
1.0
 37
0.0
 76
     0
330
1F
331
29
  0
MATERIAL
  5
3D
102
{ACAD_REACTORS
330
3B
102
}
102
{ACAD_XDICTIONARY
360
8ED
102
}
330
3B
100
AcDbMaterial
  1
ByBlock
  0
MATERIAL
  5
3C
102
{ACAD_REACTORS
330
3B
102
}
102
{ACAD_XDICTIONARY
360
8EB
102
}
330
3B
100
AcDbMaterial
  1
ByLayer
  0
MATERIAL
  5
3E
102
{ACAD_REACTORS
330
3B
102
}
102
{ACAD_XDICTIONARY
360
8EF
102
}
330
3B
100
AcDbMaterial
  1
Global
  0
MLINESTYLE
  5
18
102
{ACAD_REACTORS
330
17
102
}
330
17
100
AcDbMlineStyle
  2
Standard
 70
     0
  3

 62
   256
 51
90.0
 52
90.0
 71
     2
 49
0.5
 62
   256
  6
BYLAYER
 49
-0.5
 62
   256
  6
BYLAYER
  0
ACDBPLACEHOLDER
  5
F
102
{ACAD_REACTORS
330
E
102
}
330
E
  0
VISUALSTYLE
  5
2F
102
{ACAD_REACTORS
330
2A
102
}
102
{ACAD_XDICTIONARY
360
8D3
102
}
330
2A
100
AcDbVisualStyle
  2
2dWireframe
 70
     4
 71
     0
 72
     2
 73
     0
 90
        0
 40
-0.6
 41
-30.0
 62
     5
 63
     7
 74
     1
 91
        4
 64
     7
 65
   257
 75
     1
175
     1
 42
1.0
 92
        0
 66
   257
 43
1.0
 76
     1
 77
     6
 78
     2
 67
     7
 79
     5
170
     0
171
     0
290
     0
174
     0
 93
        1
 44
0.0
173
     0
291
     0
 45
0.0
1001
ACAD
1000
AcDbSavedByObjectVersion
1070
     0
  0
VISUALSTYLE
  5
31
102
{ACAD_REACTORS
330
2A
102
}
102
{ACAD_XDICTIONARY
360
8D7
102
}
330
2A
100
AcDbVisualStyle
  2
3D Hidden
 70
     6
 71
     1
 72
     2
 73
     2
 90
        0
 40
-0.6
 41
-30.0
 62
     5
 63
     7
 74
     2
 91
        2
 64
     7
 65
   257
 75
     2
175
     1
 42
40.0
 92
        0
 66
   257
 43
1.0
 76
     1
 77
     6
 78
     2
 67
     7
 79
     3
170
     0
171
     0
290
     0
174
     0
 93
        1
 44
0.0
173
     0
291
     0
 45
0.0
1001
ACAD
1000
AcDbSavedByObjectVersion
1070
     0
  0
VISUALSTYLE
  5
30
102
{ACAD_REACTORS
330
2A
102
}
102
{ACAD_XDICTIONARY
360
8D5
102
}
330
2A
100
AcDbVisualStyle
  2
3dWireframe
 70
     5
 71
     0
 72
     2
 73
     0
 90
        0
 40
-0.6
 41
-30.0
 62
     5
 63
     7
 74
     1
 91
        4
 64
     7
 65
   257
 75
     1
175
     1
 42
1.0
 92
        0
 66
   257
 43
1.0
 76
     1
 77
     6
 78
     2
 67
     7
 79
     5
170
     0
171
     0
290
     0
174
     0
 93
        1
 44
0.0
173
     0
291
     0
 45
0.0
1001
ACAD
1000
AcDbSavedByObjectVersion
1070
     0
  0
VISUALSTYLE
  5
32
102
{ACAD_REACTORS
330
2A
102
}
102
{ACAD_XDICTIONARY
360
8D9
102
}
330
2A
100
AcDbVisualStyle
  2
Basic
 70
     7
 71
     1
 72
     0
 73
     1
 90
        0
 40
-0.6
 41
-30.0
 62
     5
 63
     7
 74
     0
 91
        4
 64
     7
 65
   257
 75
     1
175
     1
 42
1.0
 92
        8
 66
     7
 43
1.0
 76
     1
 77
     6
 78
     2
 67
     7
 79
     5
170
     0
171
     0
290
     0
174
     0
 93
        1
 44
0.0
173
     0
291
     1
 45
0.0
1001
ACAD
1000
AcDbSavedByObjectVersion
1070
     0
  0
VISUALSTYLE
  5
36
102
{ACAD_REACTORS
330
2A
102
}
102
{ACAD_XDICTIONARY
360
8E1
102
}
330
2A
100
AcDbVisualStyle
  2
Brighten
 70
    12
 71
     2
 72
     2
 73
     0
 90
        0
 40
-0.6
 41
-30.0
 62
     5
 63
     7
 74
     1
 91
        4
 64
     7
 65
   257
 75
     1
175
     1
 42
1.0
 92
        8
 66
     7
 43
1.0
 76
     1
 77
     6
 78
     2
 67
     7
 79
     5
170
     0
171
     0
290
     0
174
     0
 93
        1
 44
50.0
173
     0
291
     1
 45
0.0
1001
ACAD
1000
AcDbSavedByObjectVersion
1070
     0
  0
VISUALSTYLE
  5
3A
102
{ACAD_REACTORS
330
2A
102
}
102
{ACAD_XDICTIONARY
360
8E9
102
}
330
2A
100
AcDbVisualStyle
  2
ColorChange
 70
    16
 71
     2
 72
     2
 73
     3
 90
        0
 40
-0.6
 41
-30.0
 62
     5
 63
     8
 74
     1
 91
        4
 64
     7
 65
   257
 75
     1
175
     1
 42
1.0
 92
        8
 66
     8
 43
1.0
 76
     1
 77
     6
 78
     2
 67
     7
 79
     5
170
     0
171
     0
290
     0
174
     0
 93
        1
 44
0.0
173
     0
291
     1
 45
0.0
1001
ACAD
1000
AcDbSavedByObjectVersion
1070
     0
  0
VISUALSTYLE
  5
34
102
{ACAD_REACTORS
330
2A
102
}
102
{ACAD_XDICTIONARY
360
8DD
102
}
330
2A
100
AcDbVisualStyle
  2
Conceptual
 70
     9
 71
     3
 72
     2
 73
     0
 90
        0
 40
-0.6
 41
-30.0
 62
     5
 63
     7
 74
     2
 91
        2
 64
     7
 65
   257
 75
     1
175
     1
 42
40.0
 92
        8
 66
     7
 43
1.0
 76
     1
 77
     6
 78
     2
 67
     7
 79
     3
170
     0
171
     0
290
     0
174
     0
 93
        1
 44
0.0
173
     0
291
     0
 45
0.0
1001
ACAD
1000
AcDbSavedByObjectVersion
1070
     0
  0
VISUALSTYLE
  5
35
102
{ACAD_REACTORS
330
2A
102
}
102
{ACAD_XDICTIONARY
360
8DF
102
}
330
2A
100
AcDbVisualStyle
  2
Dim
 70
    11
 71
     2
 72
     2
 73
     0
 90
        0
 40
-0.6
 41
-30.0
 62
     5
 63
     7
 74
     1
 91
        4
 64
     7
 65
   257
 75
     1
175
     1
 42
1.0
 92
        8
 66
     7
 43
1.0
 76
     1
 77
     6
 78
     2
 67
     7
 79
     5
170
     0
171
     0
290
     0
174
     0
 93
        1
 44
-50.0
173
     0
291
     1
 45
0.0
1001
ACAD
1000
AcDbSavedByObjectVersion
1070
     0
  0
VISUALSTYLE
  5
39
102
{ACAD_REACTORS
330
2A
102
}
102
{ACAD_XDICTIONARY
360
8E7
102
}
330
2A
100
AcDbVisualStyle
  2
Facepattern
 70
    15
 71
     2
 72
     2
 73
     0
 90
        0
 40
-0.6
 41
-30.0
 62
     5
 63
     7
 74
     1
 91
        4
 64
     7
 65
   257
 75
     1
175
     1
 42
1.0
 92
        8
 66
     7
 43
1.0
 76
     1
 77
     6
 78
     2
 67
     7
 79
     5
170
     0
171
     0
290
     0
174
     0
 93
        1
 44
0.0
173
     0
291
     1
 45
0.0
1001
ACAD
1000
AcDbSavedByObjectVersion
1070
     0
  0
VISUALSTYLE
  5
2B
102
{ACAD_REACTORS
330
2A
102
}
102
{ACAD_XDICTIONARY
360
8CB
102
}
330
2A
100
AcDbVisualStyle
  2
Flat
 70
     0
 71
     2
 72
     1
 73
     1
 90
        2
 40
-0.6
 41
30.0
 62
     5
 63
     7
 74
     0
 91
        4
 64
     7
 65
   257
 75
     1
175
     1
 42
1.0
 92
        8
 66
     7
 43
1.0
 76
     1
 77
     6
 78
     2
 67
     7
 79
     5
170
     0
171
     0
290
     0
174
     0
 93
       13
 44
0.0
173
     0
291
     1
 45
0.0
1001
ACAD
1000
AcDbSavedByObjectVersion
1070
     0
  0
VISUALSTYLE
  5
2C
102
{ACAD_REACTORS
330
2A
102
}
102
{ACAD_XDICTIONARY
360
8CD
102
}
330
2A
100
AcDbVisualStyle
  2
FlatWithEdges
 70
     1
 71
     2
 72
     1
 73
     1
 90
        2
 40
-0.6
 41
30.0
 62
     5
 63
     7
 74
     1
 91
        4
 64
     7
 65
   257
 75
     1
175
     1
 42
1.0
 92
        0
 66
   257
 43
1.0
 76
     1
 77
     6
 78
     2
 67
     7
 79
     5
170
     0
171
     0
290
     0
174
     0
 93
       13
 44
0.0
173
     0
291
     1
 45
0.0
1001
ACAD
1000
AcDbSavedByObjectVersion
1070
     0
  0
VISUALSTYLE
  5
2D
102
{ACAD_REACTORS
330
2A
102
}
102
{ACAD_XDICTIONARY
360
8CF
102
}
330
2A
100
AcDbVisualStyle
  2
Gouraud
 70
     2
 71
     2
 72
     2
 73
     1
 90
        2
 40
-0.6
 41
30.0
 62
     5
 63
     7
 74
     0
 91
        4
 64
     7
 65
   257
 75
     1
175
     1
 42
1.0
 92
        0
 66
     7
 43
1.0
 76
     1
 77
     6
 78
     2
 67
     7
 79
     5
170
     0
171
     0
290
     0
174
     0
 93
       13
 44
0.0
173
     0
291
     1
 45
0.0
1001
ACAD
1000
AcDbSavedByObjectVersion
1070
     0
  0
VISUALSTYLE
  5
2E
102
{ACAD_REACTORS
330
2A
102
}
102
{ACAD_XDICTIONARY
360
8D1
102
}
330
2A
100
AcDbVisualStyle
  2
GouraudWithEdges
 70
     3
 71
     2
 72
     2
 73
     1
 90
        2
 40
-0.6
 41
30.0
 62
     5
 63
     7
 74
     1
 91
        4
 64
     7
 65
   257
 75
     1
175
     1
 42
1.0
 92
        0
 66
   257
 43
1.0
 76
     1
 77
     6
 78
     2
 67
     7
 79
     5
170
     0
171
     0
290
     0
174
     0
 93
       13
 44
0.0
173
     0
291
     1
 45
0.0
1001
ACAD
1000
AcDbSavedByObjectVersion
1070
     0
  0
VISUALSTYLE
  5
38
102
{ACAD_REACTORS
330
2A
102
}
102
{ACAD_XDICTIONARY
360
8E5
102
}
330
2A
100
AcDbVisualStyle
  2
Linepattern
 70
    14
 71
     2
 72
     2
 73
     0
 90
        0
 40
-0.6
 41
-30.0
 62
     5
 63
     7
 74
     1
 91
        4
 64
     7
 65
   257
 75
     7
175
     7
 42
1.0
 92
        8
 66
     7
 43
1.0
 76
     1
 77
     6
 78
     2
 67
     7
 79
     5
170
     0
171
     0
290
     0
174
     0
 93
        1
 44
0.0
173
     0
291
     1
 45
0.0
1001
ACAD
1000
AcDbSavedByObjectVersion
1070
     0
  0
VISUALSTYLE
  5
33
102
{ACAD_REACTORS
330
2A
102
}
102
{ACAD_XDICTIONARY
360
8DB
102
}
330
2A
100
AcDbVisualStyle
  2
Realistic
 70
     8
 71
     2
 72
     2
 73
     0
 90
        0
 40
-0.6
 41
-30.0
 62
     5
 63
     7
 74
     1
 91
        0
 64
     7
 65
   257
 75
     1
175
     1
 42
1.0
 92
        8
 66
     8
 43
1.0
 76
     1
 77
     6
 78
     2
 67
     7
 79
     5
170
     0
171
     0
290
     0
174
     0
 93
       13
 44
0.0
173
     0
291
     0
 45
0.0
1001
ACAD
1000
AcDbSavedByObjectVersion
1070
     0
  0
VISUALSTYLE
  5
37
102
{ACAD_REACTORS
330
2A
102
}
102
{ACAD_XDICTIONARY
360
8E3
102
}
330
2A
100
AcDbVisualStyle
  2
Thicken
 70
    13
 71
     2
 72
     2
 73
     0
 90
        0
 40
-0.6
 41
-30.0
 62
     5
 63
     7
 74
     1
 91
        4
 64
     7
 65
   257
 75
     1
175
     1
 42
1.0
 92
       12
 66
     7
 43
1.0
 76
     1
 77
     6
 78
     2
 67
     7
 79
     5
170
     0
171
     0
290
     0
174
     0
 93
        1
 44
0.0
173
     0
291
     1
 45
0.0
1001
ACAD
1000
AcDbSavedByObjectVersion
1070
     0
  0
DICTIONARYVAR
  5
8C9
102
{ACAD_REACTORS
330
8C6
102
}
330
8C6
100
DictionaryVariables
280
     0
  1
2
  0
DICTIONARYVAR
  5
8CA
102
{ACAD_REACTORS
330
8C6
102
}
330
8C6
100
DictionaryVariables
280
     0
  1
1
  0
DICTIONARY
  5
8ED
330
3D
100
AcDbDictionary
280
     1
281
     1
  3
ACAD_XREC_ROUNDTRIP
360
8EE
  0
DICTIONARY
  5
8EB
330
3C
100
AcDbDictionary
280
     1
281
     1
  3
ACAD_XREC_ROUNDTRIP
360
8EC
  0
DICTIONARY
  5
8EF
330
3E
100
AcDbDictionary
280
     1
281
     1
  3
ACAD_XREC_ROUNDTRIP
360
8F0
  0
DICTIONARY
  5
8D3
330
2F
100
AcDbDictionary
280
     1
281
     1
  3
ACAD_XREC_ROUNDTRIP
360
8D4
  0
DICTIONARY
  5
8D7
330
31
100
AcDbDictionary
280
     1
281
     1
  3
ACAD_XREC_ROUNDTRIP
360
8D8
  0
DICTIONARY
  5
8D5
330
30
100
AcDbDictionary
280
     1
281
     1
  3
ACAD_XREC_ROUNDTRIP
360
8D6
  0
DICTIONARY
  5
8D9
330
32
100
AcDbDictionary
280
     1
281
     1
  3
ACAD_XREC_ROUNDTRIP
360
8DA
  0
DICTIONARY
  5
8E1
330
36
100
AcDbDictionary
280
     1
281
     1
  3
ACAD_XREC_ROUNDTRIP
360
8E2
  0
DICTIONARY
  5
8E9
330
3A
100
AcDbDictionary
280
     1
281
     1
  3
ACAD_XREC_ROUNDTRIP
360
8EA
  0
DICTIONARY
  5
8DD
330
34
100
AcDbDictionary
280
     1
281
     1
  3
ACAD_XREC_ROUNDTRIP
360
8DE
  0
DICTIONARY
  5
8DF
330
35
100
AcDbDictionary
280
     1
281
     1
  3
ACAD_XREC_ROUNDTRIP
360
8E0
  0
DICTIONARY
  5
8E7
330
39
100
AcDbDictionary
280
     1
281
     1
  3
ACAD_XREC_ROUNDTRIP
360
8E8
  0
DICTIONARY
  5
8CB
330
2B
100
AcDbDictionary
280
     1
281
     1
  3
ACAD_XREC_ROUNDTRIP
360
8CC
  0
DICTIONARY
  5
8CD
330
2C
100
AcDbDictionary
280
     1
281
     1
  3
ACAD_XREC_ROUNDTRIP
360
8CE
  0
DICTIONARY
  5
8CF
330
2D
100
AcDbDictionary
280
     1
281
     1
  3
ACAD_XREC_ROUNDTRIP
360
8D0
  0
DICTIONARY
  5
8D1
330
2E
100
AcDbDictionary
280
     1
281
     1
  3
ACAD_XREC_ROUNDTRIP
360
8D2
  0
DICTIONARY
  5
8E5
330
38
100
AcDbDictionary
280
     1
281
     1
  3
ACAD_XREC_ROUNDTRIP
360
8E6
  0
DICTIONARY
  5
8DB
330
33
100
AcDbDictionary
280
     1
281
     1
  3
ACAD_XREC_ROUNDTRIP
360
8DC
  0
DICTIONARY
  5
8E3
330
37
100
AcDbDictionary
280
     1
281
     1
  3
ACAD_XREC_ROUNDTRIP
360
8E4
  0
XRECORD
  5
8EE
102
{ACAD_REACTORS
330
8ED
102
}
330
8ED
100
AcDbXrecord
280
     1
102
MATERIAL
148
0.0
149
0.0
149
0.0
 93
        0
 94
      127
282
     0
 72
     1
 77
     1
171
     1
175
     1
179
     1
273
     0
  0
XRECORD
  5
8EC
102
{ACAD_REACTORS
330
8EB
102
}
330
8EB
100
AcDbXrecord
280
     1
102
MATERIAL
148
0.0
149
0.0
149
0.0
 93
        0
 94
      127
282
     0
 72
     1
 77
     1
171
     1
175
     1
179
     1
273
     0
  0
XRECORD
  5
8F0
102
{ACAD_REACTORS
330
8EF
102
}
330
8EF
100
AcDbXrecord
280
     1
102
MATERIAL
148
0.0
149
0.0
149
0.0
 93
        0
 94
      127
282
     0
 72
     1
 77
     1
171
     1
175
     1
179
     1
273
     0
  0
XRECORD
  5
8D4
102
{ACAD_REACTORS
330
8D3
102
}
330
8D3
100
AcDbXrecord
280
     1
102
RTVSPropertyOp0
 70
     1
102
RTVSPropertyOp1
 70
     1
102
RTVSPropertyOp2
 70
     1
102
RTVSPropertyOp3
 70
     1
102
RTVSPropertyOp4
 70
     1
102
RTVSPropertyOp5
 70
     1
102
RTVSPropertyOp6
 70
     1
102
RTVSPropertyOp7
 70
     1
102
RTVSPropertyOp8
 70
     1
102
RTVSPropertyOp9
 70
     1
102
RTVSPropertyOp10
 70
     1
102
RTVSPropertyOp11
 70
     1
102
RTVSPropertyOp12
 70
     1
102
RTVSPropertyOp13
 70
     1
102
RTVSPropertyOp14
 70
     1
102
RTVSPropertyOp15
 70
     1
102
RTVSPropertyOp16
 70
     1
102
RTVSPropertyOp17
 70
     1
102
RTVSPropertyOp18
 70
     1
102
RTVSPropertyOp19
 70
     1
102
RTVSPropertyOp20
 70
     1
102
RTVSPropertyOp21
 70
     1
102
RTVSPropertyOp22
 70
     1
102
RTVSPropertyOp23
 70
     1
102
RTVSPropertyOp24
 70
     1
102
RTVSPropertyOp25
 70
     1
102
RTVSPropertyOp26
 70
     1
102
RTVSPropertyOp27
 70
     1
102
RTVSPropertyOp28
 70
     1
102
RTVSPropertyOp29
 70
     1
102
RTVSPropertyOp30
 70
     1
102
RTVSPropertyOp31
 70
     1
102
RTVSPropertyOp32
 70
     1
  0
XRECORD
  5
8D8
102
{ACAD_REACTORS
330
8D7
102
}
330
8D7
100
AcDbXrecord
280
     1
102
RTVSPropertyOp0
 70
     1
102
RTVSPropertyOp1
 70
     1
102
RTVSPropertyOp2
 70
     1
102
RTVSPropertyOp3
 70
     1
102
RTVSPropertyOp4
 70
     1
102
RTVSPropertyOp5
 70
     1
102
RTVSPropertyOp6
 70
     1
102
RTVSPropertyOp7
 70
     1
102
RTVSPropertyOp8
 70
     1
102
RTVSPropertyOp9
 70
     1
102
RTVSPropertyOp10
 70
     1
102
RTVSPropertyOp11
 70
     1
102
RTVSPropertyOp12
 70
     1
102
RTVSPropertyOp13
 70
     1
102
RTVSPropertyOp14
 70
     1
102
RTVSPropertyOp15
 70
     1
102
RTVSPropertyOp16
 70
     1
102
RTVSPropertyOp17
 70
     1
102
RTVSPropertyOp18
 70
     1
102
RTVSPropertyOp19
 70
     1
102
RTVSPropertyOp20
 70
     1
102
RTVSPropertyOp21
 70
     1
102
RTVSPropertyOp22
 70
     1
102
RTVSPropertyOp23
 70
     1
102
RTVSPropertyOp24
 70
     1
102
RTVSPropertyOp25
 70
     1
102
RTVSPropertyOp26
 70
     1
102
RTVSPropertyOp27
 70
     1
102
RTVSPropertyOp28
 70
     1
102
RTVSPropertyOp29
 70
     1
102
RTVSPropertyOp30
 70
     1
102
RTVSPropertyOp31
 70
     1
102
RTVSPropertyOp32
 70
     1
  0
XRECORD
  5
8D6
102
{ACAD_REACTORS
330
8D5
102
}
330
8D5
100
AcDbXrecord
280
     1
102
RTVSPropertyOp0
 70
     1
102
RTVSPropertyOp1
 70
     1
102
RTVSPropertyOp2
 70
     1
102
RTVSPropertyOp3
 70
     1
102
RTVSPropertyOp4
 70
     1
102
RTVSPropertyOp5
 70
     1
102
RTVSPropertyOp6
 70
     1
102
RTVSPropertyOp7
 70
     1
102
RTVSPropertyOp8
 70
     1
102
RTVSPropertyOp9
 70
     1
102
RTVSPropertyOp10
 70
     1
102
RTVSPropertyOp11
 70
     1
102
RTVSPropertyOp12
 70
     1
102
RTVSPropertyOp13
 70
     1
102
RTVSPropertyOp14
 70
     1
102
RTVSPropertyOp15
 70
     1
102
RTVSPropertyOp16
 70
     1
102
RTVSPropertyOp17
 70
     1
102
RTVSPropertyOp18
 70
     1
102
RTVSPropertyOp19
 70
     1
102
RTVSPropertyOp20
 70
     1
102
RTVSPropertyOp21
 70
     1
102
RTVSPropertyOp22
 70
     1
102
RTVSPropertyOp23
 70
     1
102
RTVSPropertyOp24
 70
     1
102
RTVSPropertyOp25
 70
     1
102
RTVSPropertyOp26
 70
     1
102
RTVSPropertyOp27
 70
     1
102
RTVSPropertyOp28
 70
     1
102
RTVSPropertyOp29
 70
     1
102
RTVSPropertyOp30
 70
     1
102
RTVSPropertyOp31
 70
     1
102
RTVSPropertyOp32
 70
     1
  0
XRECORD
  5
8DA
102
{ACAD_REACTORS
330
8D9
102
}
330
8D9
100
AcDbXrecord
280
     1
102
RTVSPropertyOp0
 70
     1
102
RTVSPropertyOp1
 70
     1
102
RTVSPropertyOp2
 70
     1
102
RTVSPropertyOp3
 70
     1
102
RTVSPropertyOp4
 70
     1
102
RTVSPropertyOp5
 70
     1
102
RTVSPropertyOp6
 70
     1
102
RTVSPropertyOp7
 70
     1
102
RTVSPropertyOp8
 70
     1
102
RTVSPropertyOp9
 70
     1
102
RTVSPropertyOp10
 70
     1
102
RTVSPropertyOp11
 70
     1
102
RTVSPropertyOp12
 70
     1
102
RTVSPropertyOp13
 70
     1
102
RTVSPropertyOp14
 70
     1
102
RTVSPropertyOp15
 70
     1
102
RTVSPropertyOp16
 70
     1
102
RTVSPropertyOp17
 70
     1
102
RTVSPropertyOp18
 70
     1
102
RTVSPropertyOp19
 70
     1
102
RTVSPropertyOp20
 70
     1
102
RTVSPropertyOp21
 70
     1
102
RTVSPropertyOp22
 70
     1
102
RTVSPropertyOp23
 70
     1
102
RTVSPropertyOp24
 70
     1
102
RTVSPropertyOp25
 70
     1
102
RTVSPropertyOp26
 70
     1
102
RTVSPropertyOp27
 70
     1
102
RTVSPropertyOp28
 70
     1
102
RTVSPropertyOp29
 70
     1
102
RTVSPropertyOp30
 70
     1
102
RTVSPropertyOp31
 70
     1
102
RTVSPropertyOp32
 70
     1
  0
XRECORD
  5
8E2
102
{ACAD_REACTORS
330
8E1
102
}
330
8E1
100
AcDbXrecord
280
     1
102
RTVSPropertyOp0
 70
     1
102
RTVSPropertyOp1
 70
     1
102
RTVSPropertyOp2
 70
     1
102
RTVSPropertyOp3
 70
     1
102
RTVSPropertyOp4
 70
     1
102
RTVSPropertyOp5
 70
     1
102
RTVSPropertyOp6
 70
     1
102
RTVSPropertyOp7
 70
     1
102
RTVSPropertyOp8
 70
     1
102
RTVSPropertyOp9
 70
     1
102
RTVSPropertyOp10
 70
     1
102
RTVSPropertyOp11
 70
     1
102
RTVSPropertyOp12
 70
     1
102
RTVSPropertyOp13
 70
     1
102
RTVSPropertyOp14
 70
     1
102
RTVSPropertyOp15
 70
     1
102
RTVSPropertyOp16
 70
     1
102
RTVSPropertyOp17
 70
     1
102
RTVSPropertyOp18
 70
     1
102
RTVSPropertyOp19
 70
     1
102
RTVSPropertyOp20
 70
     1
102
RTVSPropertyOp21
 70
     1
102
RTVSPropertyOp22
 70
     1
102
RTVSPropertyOp23
 70
     1
102
RTVSPropertyOp24
 70
     1
102
RTVSPropertyOp25
 70
     1
102
RTVSPropertyOp26
 70
     1
102
RTVSPropertyOp27
 70
     1
102
RTVSPropertyOp28
 70
     1
102
RTVSPropertyOp29
 70
     1
102
RTVSPropertyOp30
 70
     1
102
RTVSPropertyOp31
 70
     1
102
RTVSPropertyOp32
 70
     1
  0
XRECORD
  5
8EA
102
{ACAD_REACTORS
330
8E9
102
}
330
8E9
100
AcDbXrecord
280
     1
102
RTVSPropertyOp0
 70
     1
102
RTVSPropertyOp1
 70
     1
102
RTVSPropertyOp2
 70
     1
102
RTVSPropertyOp3
 70
     1
102
RTVSPropertyOp4
 70
     1
102
RTVSPropertyOp5
 70
     1
102
RTVSPropertyOp6
 70
     1
102
RTVSPropertyOp7
 70
     1
102
RTVSPropertyOp8
 70
     1
102
RTVSPropertyOp9
 70
     1
102
RTVSPropertyOp10
 70
     1
102
RTVSPropertyOp11
 70
     1
102
RTVSPropertyOp12
 70
     1
102
RTVSPropertyOp13
 70
     1
102
RTVSPropertyOp14
 70
     1
102
RTVSPropertyOp15
 70
     1
102
RTVSPropertyOp16
 70
     1
102
RTVSPropertyOp17
 70
     1
102
RTVSPropertyOp18
 70
     1
102
RTVSPropertyOp19
 70
     1
102
RTVSPropertyOp20
 70
     1
102
RTVSPropertyOp21
 70
     1
102
RTVSPropertyOp22
 70
     1
102
RTVSPropertyOp23
 70
     1
102
RTVSPropertyOp24
 70
     1
102
RTVSPropertyOp25
 70
     1
102
RTVSPropertyOp26
 70
     1
102
RTVSPropertyOp27
 70
     1
102
RTVSPropertyOp28
 70
     1
102
RTVSPropertyOp29
 70
     1
102
RTVSPropertyOp30
 70
     1
102
RTVSPropertyOp31
 70
     1
102
RTVSPropertyOp32
 70
     1
  0
XRECORD
  5
8DE
102
{ACAD_REACTORS
330
8DD
102
}
330
8DD
100
AcDbXrecord
280
     1
102
RTVSPropertyOp0
 70
     1
102
RTVSPropertyOp1
 70
     1
102
RTVSPropertyOp2
 70
     1
102
RTVSPropertyOp3
 70
     1
102
RTVSPropertyOp4
 70
     1
102
RTVSPropertyOp5
 70
     1
102
RTVSPropertyOp6
 70
     1
102
RTVSPropertyOp7
 70
     1
102
RTVSPropertyOp8
 70
     1
102
RTVSPropertyOp9
 70
     1
102
RTVSPropertyOp10
 70
     1
102
RTVSPropertyOp11
 70
     1
102
RTVSPropertyOp12
 70
     1
102
RTVSPropertyOp13
 70
     1
102
RTVSPropertyOp14
 70
     1
102
RTVSPropertyOp15
 70
     1
102
RTVSPropertyOp16
 70
     1
102
RTVSPropertyOp17
 70
     1
102
RTVSPropertyOp18
 70
     1
102
RTVSPropertyOp19
 70
     1
102
RTVSPropertyOp20
 70
     1
102
RTVSPropertyOp21
 70
     1
102
RTVSPropertyOp22
 70
     1
102
RTVSPropertyOp23
 70
     1
102
RTVSPropertyOp24
 70
     1
102
RTVSPropertyOp25
 70
     1
102
RTVSPropertyOp26
 70
     1
102
RTVSPropertyOp27
 70
     1
102
RTVSPropertyOp28
 70
     1
102
RTVSPropertyOp29
 70
     1
102
RTVSPropertyOp30
 70
     1
102
RTVSPropertyOp31
 70
     1
102
RTVSPropertyOp32
 70
     1
  0
XRECORD
  5
8E0
102
{ACAD_REACTORS
330
8DF
102
}
330
8DF
100
AcDbXrecord
280
     1
102
RTVSPropertyOp0
 70
     1
102
RTVSPropertyOp1
 70
     1
102
RTVSPropertyOp2
 70
     1
102
RTVSPropertyOp3
 70
     1
102
RTVSPropertyOp4
 70
     1
102
RTVSPropertyOp5
 70
     1
102
RTVSPropertyOp6
 70
     1
102
RTVSPropertyOp7
 70
     1
102
RTVSPropertyOp8
 70
     1
102
RTVSPropertyOp9
 70
     1
102
RTVSPropertyOp10
 70
     1
102
RTVSPropertyOp11
 70
     1
102
RTVSPropertyOp12
 70
     1
102
RTVSPropertyOp13
 70
     1
102
RTVSPropertyOp14
 70
     1
102
RTVSPropertyOp15
 70
     1
102
RTVSPropertyOp16
 70
     1
102
RTVSPropertyOp17
 70
     1
102
RTVSPropertyOp18
 70
     1
102
RTVSPropertyOp19
 70
     1
102
RTVSPropertyOp20
 70
     1
102
RTVSPropertyOp21
 70
     1
102
RTVSPropertyOp22
 70
     1
102
RTVSPropertyOp23
 70
     1
102
RTVSPropertyOp24
 70
     1
102
RTVSPropertyOp25
 70
     1
102
RTVSPropertyOp26
 70
     1
102
RTVSPropertyOp27
 70
     1
102
RTVSPropertyOp28
 70
     1
102
RTVSPropertyOp29
 70
     1
102
RTVSPropertyOp30
 70
     1
102
RTVSPropertyOp31
 70
     1
102
RTVSPropertyOp32
 70
     1
  0
XRECORD
  5
8E8
102
{ACAD_REACTORS
330
8E7
102
}
330
8E7
100
AcDbXrecord
280
     1
102
RTVSPropertyOp0
 70
     1
102
RTVSPropertyOp1
 70
     1
102
RTVSPropertyOp2
 70
     1
102
RTVSPropertyOp3
 70
     1
102
RTVSPropertyOp4
 70
     1
102
RTVSPropertyOp5
 70
     1
102
RTVSPropertyOp6
 70
     1
102
RTVSPropertyOp7
 70
     1
102
RTVSPropertyOp8
 70
     1
102
RTVSPropertyOp9
 70
     1
102
RTVSPropertyOp10
 70
     1
102
RTVSPropertyOp11
 70
     1
102
RTVSPropertyOp12
 70
     1
102
RTVSPropertyOp13
 70
     1
102
RTVSPropertyOp14
 70
     1
102
RTVSPropertyOp15
 70
     1
102
RTVSPropertyOp16
 70
     1
102
RTVSPropertyOp17
 70
     1
102
RTVSPropertyOp18
 70
     1
102
RTVSPropertyOp19
 70
     1
102
RTVSPropertyOp20
 70
     1
102
RTVSPropertyOp21
 70
     1
102
RTVSPropertyOp22
 70
     1
102
RTVSPropertyOp23
 70
     1
102
RTVSPropertyOp24
 70
     1
102
RTVSPropertyOp25
 70
     1
102
RTVSPropertyOp26
 70
     1
102
RTVSPropertyOp27
 70
     1
102
RTVSPropertyOp28
 70
     1
102
RTVSPropertyOp29
 70
     1
102
RTVSPropertyOp30
 70
     1
102
RTVSPropertyOp31
 70
     1
102
RTVSPropertyOp32
 70
     1
  0
XRECORD
  5
8CC
102
{ACAD_REACTORS
330
8CB
102
}
330
8CB
100
AcDbXrecord
280
     1
102
RTVSPropertyOp0
 70
     1
102
RTVSPropertyOp1
 70
     1
102
RTVSPropertyOp2
 70
     1
102
RTVSPropertyOp3
 70
     1
102
RTVSPropertyOp4
 70
     1
102
RTVSPropertyOp5
 70
     1
102
RTVSPropertyOp6
 70
     1
102
RTVSPropertyOp7
 70
     1
102
RTVSPropertyOp8
 70
     1
102
RTVSPropertyOp9
 70
     1
102
RTVSPropertyOp10
 70
     1
102
RTVSPropertyOp11
 70
     1
102
RTVSPropertyOp12
 70
     1
102
RTVSPropertyOp13
 70
     1
102
RTVSPropertyOp14
 70
     1
102
RTVSPropertyOp15
 70
     1
102
RTVSPropertyOp16
 70
     1
102
RTVSPropertyOp17
 70
     1
102
RTVSPropertyOp18
 70
     1
102
RTVSPropertyOp19
 70
     1
102
RTVSPropertyOp20
 70
     1
102
RTVSPropertyOp21
 70
     1
102
RTVSPropertyOp22
 70
     1
102
RTVSPropertyOp23
 70
     1
102
RTVSPropertyOp24
 70
     1
102
RTVSPropertyOp25
 70
     1
102
RTVSPropertyOp26
 70
     1
102
RTVSPropertyOp27
 70
     1
102
RTVSPropertyOp28
 70
     1
102
RTVSPropertyOp29
 70
     1
102
RTVSPropertyOp30
 70
     1
102
RTVSPropertyOp31
 70
     1
102
RTVSPropertyOp32
 70
     1
  0
XRECORD
  5
8CE
102
{ACAD_REACTORS
330
8CD
102
}
330
8CD
100
AcDbXrecord
280
     1
102
RTVSPropertyOp0
 70
     1
102
RTVSPropertyOp1
 70
     1
102
RTVSPropertyOp2
 70
     1
102
RTVSPropertyOp3
 70
     1
102
RTVSPropertyOp4
 70
     1
102
RTVSPropertyOp5
 70
     1
102
RTVSPropertyOp6
 70
     1
102
RTVSPropertyOp7
 70
     1
102
RTVSPropertyOp8
 70
     1
102
RTVSPropertyOp9
 70
     1
102
RTVSPropertyOp10
 70
     1
102
RTVSPropertyOp11
 70
     1
102
RTVSPropertyOp12
 70
     1
102
RTVSPropertyOp13
 70
     1
102
RTVSPropertyOp14
 70
     1
102
RTVSPropertyOp15
 70
     1
102
RTVSPropertyOp16
 70
     1
102
RTVSPropertyOp17
 70
     1
102
RTVSPropertyOp18
 70
     1
102
RTVSPropertyOp19
 70
     1
102
RTVSPropertyOp20
 70
     1
102
RTVSPropertyOp21
 70
     1
102
RTVSPropertyOp22
 70
     1
102
RTVSPropertyOp23
 70
     1
102
RTVSPropertyOp24
 70
     1
102
RTVSPropertyOp25
 70
     1
102
RTVSPropertyOp26
 70
     1
102
RTVSPropertyOp27
 70
     1
102
RTVSPropertyOp28
 70
     1
102
RTVSPropertyOp29
 70
     1
102
RTVSPropertyOp30
 70
     1
102
RTVSPropertyOp31
 70
     1
102
RTVSPropertyOp32
 70
     1
  0
XRECORD
  5
8D0
102
{ACAD_REACTORS
330
8CF
102
}
330
8CF
100
AcDbXrecord
280
     1
102
RTVSPropertyOp0
 70
     1
102
RTVSPropertyOp1
 70
     1
102
RTVSPropertyOp2
 70
     1
102
RTVSPropertyOp3
 70
     1
102
RTVSPropertyOp4
 70
     1
102
RTVSPropertyOp5
 70
     1
102
RTVSPropertyOp6
 70
     1
102
RTVSPropertyOp7
 70
     1
102
RTVSPropertyOp8
 70
     1
102
RTVSPropertyOp9
 70
     1
102
RTVSPropertyOp10
 70
     1
102
RTVSPropertyOp11
 70
     1
102
RTVSPropertyOp12
 70
     1
102
RTVSPropertyOp13
 70
     1
102
RTVSPropertyOp14
 70
     1
102
RTVSPropertyOp15
 70
     1
102
RTVSPropertyOp16
 70
     1
102
RTVSPropertyOp17
 70
     1
102
RTVSPropertyOp18
 70
     1
102
RTVSPropertyOp19
 70
     1
102
RTVSPropertyOp20
 70
     1
102
RTVSPropertyOp21
 70
     1
102
RTVSPropertyOp22
 70
     1
102
RTVSPropertyOp23
 70
     1
102
RTVSPropertyOp24
 70
     1
102
RTVSPropertyOp25
 70
     1
102
RTVSPropertyOp26
 70
     1
102
RTVSPropertyOp27
 70
     1
102
RTVSPropertyOp28
 70
     1
102
RTVSPropertyOp29
 70
     1
102
RTVSPropertyOp30
 70
     1
102
RTVSPropertyOp31
 70
     1
102
RTVSPropertyOp32
 70
     1
  0
XRECORD
  5
8D2
102
{ACAD_REACTORS
330
8D1
102
}
330
8D1
100
AcDbXrecord
280
     1
102
RTVSPropertyOp0
 70
     1
102
RTVSPropertyOp1
 70
     1
102
RTVSPropertyOp2
 70
     1
102
RTVSPropertyOp3
 70
     1
102
RTVSPropertyOp4
 70
     1
102
RTVSPropertyOp5
 70
     1
102
RTVSPropertyOp6
 70
     1
102
RTVSPropertyOp7
 70
     1
102
RTVSPropertyOp8
 70
     1
102
RTVSPropertyOp9
 70
     1
102
RTVSPropertyOp10
 70
     1
102
RTVSPropertyOp11
 70
     1
102
RTVSPropertyOp12
 70
     1
102
RTVSPropertyOp13
 70
     1
102
RTVSPropertyOp14
 70
     1
102
RTVSPropertyOp15
 70
     1
102
RTVSPropertyOp16
 70
     1
102
RTVSPropertyOp17
 70
     1
102
RTVSPropertyOp18
 70
     1
102
RTVSPropertyOp19
 70
     1
102
RTVSPropertyOp20
 70
     1
102
RTVSPropertyOp21
 70
     1
102
RTVSPropertyOp22
 70
     1
102
RTVSPropertyOp23
 70
     1
102
RTVSPropertyOp24
 70
     1
102
RTVSPropertyOp25
 70
     1
102
RTVSPropertyOp26
 70
     1
102
RTVSPropertyOp27
 70
     1
102
RTVSPropertyOp28
 70
     1
102
RTVSPropertyOp29
 70
     1
102
RTVSPropertyOp30
 70
     1
102
RTVSPropertyOp31
 70
     1
102
RTVSPropertyOp32
 70
     1
  0
XRECORD
  5
8E6
102
{ACAD_REACTORS
330
8E5
102
}
330
8E5
100
AcDbXrecord
280
     1
102
RTVSPropertyOp0
 70
     1
102
RTVSPropertyOp1
 70
     1
102
RTVSPropertyOp2
 70
     1
102
RTVSPropertyOp3
 70
     1
102
RTVSPropertyOp4
 70
     1
102
RTVSPropertyOp5
 70
     1
102
RTVSPropertyOp6
 70
     1
102
RTVSPropertyOp7
 70
     1
102
RTVSPropertyOp8
 70
     1
102
RTVSPropertyOp9
 70
     1
102
RTVSPropertyOp10
 70
     1
102
RTVSPropertyOp11
 70
     1
102
RTVSPropertyOp12
 70
     1
102
RTVSPropertyOp13
 70
     1
102
RTVSPropertyOp14
 70
     1
102
RTVSPropertyOp15
 70
     1
102
RTVSPropertyOp16
 70
     1
102
RTVSPropertyOp17
 70
     1
102
RTVSPropertyOp18
 70
     1
102
RTVSPropertyOp19
 70
     1
102
RTVSPropertyOp20
 70
     1
102
RTVSPropertyOp21
 70
     1
102
RTVSPropertyOp22
 70
     1
102
RTVSPropertyOp23
 70
     1
102
RTVSPropertyOp24
 70
     1
102
RTVSPropertyOp25
 70
     1
102
RTVSPropertyOp26
 70
     1
102
RTVSPropertyOp27
 70
     1
102
RTVSPropertyOp28
 70
     1
102
RTVSPropertyOp29
 70
     1
102
RTVSPropertyOp30
 70
     1
102
RTVSPropertyOp31
 70
     1
102
RTVSPropertyOp32
 70
     1
  0
XRECORD
  5
8DC
102
{ACAD_REACTORS
330
8DB
102
}
330
8DB
100
AcDbXrecord
280
     1
102
RTVSPropertyOp0
 70
     1
102
RTVSPropertyOp1
 70
     1
102
RTVSPropertyOp2
 70
     1
102
RTVSPropertyOp3
 70
     1
102
RTVSPropertyOp4
 70
     1
102
RTVSPropertyOp5
 70
     1
102
RTVSPropertyOp6
 70
     1
102
RTVSPropertyOp7
 70
     1
102
RTVSPropertyOp8
 70
     1
102
RTVSPropertyOp9
 70
     1
102
RTVSPropertyOp10
 70
     1
102
RTVSPropertyOp11
 70
     1
102
RTVSPropertyOp12
 70
     1
102
RTVSPropertyOp13
 70
     1
102
RTVSPropertyOp14
 70
     1
102
RTVSPropertyOp15
 70
     1
102
RTVSPropertyOp16
 70
     1
102
RTVSPropertyOp17
 70
     1
102
RTVSPropertyOp18
 70
     1
102
RTVSPropertyOp19
 70
     1
102
RTVSPropertyOp20
 70
     1
102
RTVSPropertyOp21
 70
     1
102
RTVSPropertyOp22
 70
     1
102
RTVSPropertyOp23
 70
     1
102
RTVSPropertyOp24
 70
     1
102
RTVSPropertyOp25
 70
     1
102
RTVSPropertyOp26
 70
     1
102
RTVSPropertyOp27
 70
     1
102
RTVSPropertyOp28
 70
     1
102
RTVSPropertyOp29
 70
     1
102
RTVSPropertyOp30
 70
     1
102
RTVSPropertyOp31
 70
     1
102
RTVSPropertyOp32
 70
     1
  0
XRECORD
  5
8E4
102
{ACAD_REACTORS
330
8E3
102
}
330
8E3
100
AcDbXrecord
280
     1
102
RTVSPropertyOp0
 70
     1
102
RTVSPropertyOp1
 70
     1
102
RTVSPropertyOp2
 70
     1
102
RTVSPropertyOp3
 70
     1
102
RTVSPropertyOp4
 70
     1
102
RTVSPropertyOp5
 70
     1
102
RTVSPropertyOp6
 70
     1
102
RTVSPropertyOp7
 70
     1
102
RTVSPropertyOp8
 70
     1
102
RTVSPropertyOp9
 70
     1
102
RTVSPropertyOp10
 70
     1
102
RTVSPropertyOp11
 70
     1
102
RTVSPropertyOp12
 70
     1
102
RTVSPropertyOp13
 70
     1
102
RTVSPropertyOp14
 70
     1
102
RTVSPropertyOp15
 70
     1
102
RTVSPropertyOp16
 70
     1
102
RTVSPropertyOp17
 70
     1
102
RTVSPropertyOp18
 70
     1
102
RTVSPropertyOp19
 70
     1
102
RTVSPropertyOp20
 70
     1
102
RTVSPropertyOp21
 70
     1
102
RTVSPropertyOp22
 70
     1
102
RTVSPropertyOp23
 70
     1
102
RTVSPropertyOp24
 70
     1
102
RTVSPropertyOp25
 70
     1
102
RTVSPropertyOp26
 70
     1
102
RTVSPropertyOp27
 70
     1
102
RTVSPropertyOp28
 70
     1
102
RTVSPropertyOp29
 70
     1
102
RTVSPropertyOp30
 70
     1
102
RTVSPropertyOp31
 70
     1
102
RTVSPropertyOp32
 70
     1
  0
ENDSEC
  0
EOF
