999
dxfrw 0.6.3
  0
SECTION
  2
HEADER
  9
$ACADVER
  1
AC1021
  9
$DWGCODEPAGE
  3
ANSI_1252
  9
$INSBASE
 10
0
 20
0
 30
0
  9
$EXTMIN
 10
47.48898701150894
 20
15.19262000000001
 30
0
  9
$EXTMAX
 10
240.2099226666667
 20
189.2851420000002
 30
0
  9
$LIMMIN
 10
0
 20
0
  9
$LIMMAX
 10
297
 20
210
  9
$ORTHOMODE
 70
    0
  9
$REGENMODE
 70
    1
  9
$FILLMODE
 70
    1
  9
$QTEXTMODE
 70
    0
  9
$MIRRTEXT
 70
    0
  9
$LTSCALE
 40
0.75
  9
$ATTMODE
 70
    1
  9
$TEXTSIZE
 40
3.5
  9
$TRACEWID
 40
1
  9
$TEXTSTYLE
  7
Standard
  9
$CLAYER
  8
0
  9
$CELTYPE
  6
ByLayer
  9
$CECOLOR
 62
  256
  9
$CELTSCALE
 40
1
  9
$DISPSILH
 70
    0
  9
$DIMSCALE
 40
1
  9
$DIMASZ
 40
3.5
  9
$DIMEXO
 40
2
  9
$DIMDLI
 40
9.899495
  9
$DIMRND
 40
0
  9
$DIMDLE
 40
0
  9
$DIMEXE
 40
2
  9
$DIMTP
 40
0.1
  9
$DIMTM
 40
0.1
  9
$DIMTXT
 40
3.5
  9
$DIMCEN
 40
0
  9
$DIMTSZ
 40
0
  9
$DIMTOL
 70
    0
  9
$DIMLIM
 70
    0
  9
$DIMTIH
 70
    0
  9
$DIMTOH
 70
    0
  9
$DIMSE1
 70
    0
  9
$DIMSE2
 70
    0
  9
$DIMTAD
 70
    1
  9
$DIMZIN
 70
    8
  9
$DIMBLK
  1

  9
$DIMASO
 70
    1
  9
$DIMSHO
 70
    1
  9
$DIMPOST
  1

  9
$DIMAPOST
  1
in
  9
$DIMALT
 70
    0
  9
$DIMALTD
 70
    4
  9
$DIMALTF
 40
0.03937
  9
$DIMLFAC
 40
1
  9
$DIMTOFL
 70
    1
  9
$DIMTVP
 40
0
  9
$DIMTIX
 70
    0
  9
$DIMSOXD
 70
    0
  9
$DIMSAH
 70
    0
  9
$DIMBLK1
  1

  9
$DIMBLK2
  1

  9
$DIMSTYLE
  2
ISO-25
  9
$DIMCLRD
 70
  256
  9
$DIMCLRE
 70
  256
  9
$DIMCLRT
 70
  256
  9
$DIMTFAC
 40
0.714
  9
$DIMGAP
 40
1.5
  9
$DIMJUST
 70
    0
  9
$DIMSD1
 70
    0
  9
$DIMSD2
 70
    0
  9
$DIMTOLJ
 70
    0
  9
$DIMTZIN
 70
    8
  9
$DIMALTZ
 70
    8
  9
$DIMALTTZ
 70
    8
  9
$DIMUPT
 70
    0
  9
$DIMDEC
 70
    2
  9
$DIMTDEC
 70
    2
  9
$DIMALTU
 70
    2
  9
$DIMALTTD
 70
    4
  9
$DIMTXSTY
  7
Standard
  9
$DIMAUNIT
 70
    0
  9
$DIMADEC
 70
    2
  9
$DIMALTRND
 40
0
  9
$DIMAZIN
 70
    2
  9
$DIMDSEP
 70
   46
  9
$DIMATFIT
 70
    3
  9
$DIMFRAC
 70
    0
  9
$DIMLDRBLK
  1

  9
$DIMLUNIT
 70
    2
  9
$DIMLWD
 70
   -2
  9
$DIMLWE
 70
   -2
  9
$DIMTMOVE
 70
    0
  9
$DIMFXL
 40
1
  9
$DIMFXLON
 70
    0
  9
$DIMJOGANG
 40
0.785398
  9
$DIMTFILL
 70
    0
  9
$DIMTFILLCLR
 70
    0
  9
$DIMARCSYM
 70
    0
  9
$DIMLTYPE
  6

  9
$DIMLTEX1
  6

  9
$DIMLTEX2
  6

  9
$LUNITS
 70
    2
  9
$LUPREC
 70
    4
  9
$SKETCHINC
 40
1
  9
$FILLETRAD
 40
0
  9
$AUNITS
 70
    0
  9
$AUPREC
 70
    0
  9
$MENU
  1
.
  9
$ELEVATION
 40
0
  9
$PELEVATION
 40
0
  9
$THICKNESS
 40
0
  9
$LIMCHECK
 70
    0
  9
$CHAMFERA
 40
0
  9
$CHAMFERB
 40
0
  9
$CHAMFERC
 40
0
  9
$CHAMFERD
 40
0
  9
$SKPOLY
 70
    0
  9
$USRTIMER
 70
    1
  9
$ANGBASE
 50
0
  9
$ANGDIR
 70
    0
  9
$PDMODE
 70
    0
  9
$PDSIZE
 40
0
  9
$PLINEWID
 40
0
  9
$SPLFRAME
 70
    0
  9
$SPLINETYPE
 70
    6
  9
$SPLINESEGS
 70
    8
  9
$HANDSEED
  5
20000
  9
$SURFTAB1
 70
    6
  9
$SURFTAB2
 70
    6
  9
$SURFTYPE
 70
    6
  9
$SURFU
 70
    6
  9
$SURFV
 70
    6
  9
$UCSBASE
  2

  9
$UCSNAME
  2

  9
$UCSORG
 10
0
 20
0
 30
0
  9
$UCSXDIR
 10
1
 20
0
 30
0
  9
$UCSYDIR
 10
0
 20
1
 30
0
  9
$UCSORTHOREF
  2

  9
$UCSORTHOVIEW
 70
    0
  9
$UCSORGTOP
 10
0
 20
0
 30
0
  9
$UCSORGBOTTOM
 10
0
 20
0
 30
0
  9
$UCSORGLEFT
 10
0
 20
0
 30
0
  9
$UCSORGRIGHT
 10
0
 20
0
 30
0
  9
$UCSORGFRONT
 10
0
 20
0
 30
0
  9
$UCSORGBACK
 10
0
 20
0
 30
0
  9
$PUCSBASE
  2

  9
$PUCSNAME
  2

  9
$PUCSORG
 10
0
 20
0
 30
0
  9
$PUCSXDIR
 10
1
 20
0
 30
0
  9
$PUCSYDIR
 10
0
 20
1
 30
0
  9
$PUCSORTHOREF
  2

  9
$PUCSORTHOVIEW
 70
    0
  9
$PUCSORGTOP
 10
0
 20
0
 30
0
  9
$PUCSORGBOTTOM
 10
0
 20
0
 30
0
  9
$PUCSORGLEFT
 10
0
 20
0
 30
0
  9
$PUCSORGRIGHT
 10
0
 20
0
 30
0
  9
$PUCSORGFRONT
 10
0
 20
0
 30
0
  9
$PUCSORGBACK
 10
0
 20
0
 30
0
  9
$USERI1
 70
    0
  9
$USERI2
 70
    0
  9
$USERI3
 70
    0
  9
$USERI4
 70
    0
  9
$USERI5
 70
    0
  9
$USERR1
 40
0
  9
$USERR2
 40
0
  9
$USERR3
 40
0
  9
$USERR4
 40
0
  9
$USERR5
 40
0
  9
$WORLDVIEW
 70
    1
  9
$SHADEDGE
 70
    3
  9
$SHADEDIF
 70
   70
  9
$TILEMODE
 70
    1
  9
$MAXACTVP
 70
   64
  9
$PINSBASE
 10
0
 20
0
 30
0
  9
$PLIMCHECK
 70
    0
  9
$PEXTMIN
 10
1e+020
 20
1e+020
 30
1e+020
  9
$PEXTMAX
 10
-1e+020
 20
-1e+020
 30
-1e+020
  9
$GRIDMODE
 70
    0
  9
$SNAPSTYLE
 70
    0
  9
$PLIMMIN
 10
0
 20
0
  9
$PLIMMAX
 10
12
 20
9
  9
$UNITMODE
 70
    0
  9
$VISRETAIN
 70
    1
  9
$PLINEGEN
 70
    0
  9
$PSLTSCALE
 70
    1
  9
$TREEDEPTH
 70
 3020
  9
$CMLSTYLE
  2
Standard
  9
$CMLJUST
 70
    0
  9
$CMLSCALE
 40
20
  9
$PROXYGRAPHICS
 70
    1
  9
$MEASUREMENT
 70
    1
  9
$CELWEIGHT
370
   -1
  9
$ENDCAPS
280
    0
  9
$JOINSTYLE
280
    0
  9
$LWDISPLAY
290
    0
  9
$INSUNITS
 70
    4
  9
$HYPERLINKBASE
  1

  9
$STYLESHEET
  1

  9
$XEDIT
290
    1
  9
$CEPSNTYPE
380
    0
  9
$PSTYLEMODE
290
    1
  9
$EXTNAMES
290
    1
  9
$PSVPSCALE
 40
0
  9
$OLESTARTUP
290
    0
  9
$SORTENTS
280
  127
  9
$INDEXCTL
280
    0
  9
$HIDETEXT
280
    1
  9
$XCLIPFRAME
290
    2
  9
$HALOGAP
280
    0
  9
$OBSCOLOR
 70
  257
  9
$OBSLTYPE
280
    0
  9
$INTERSECTIONDISPLAY
280
    0
  9
$INTERSECTIONCOLOR
 70
  257
  9
$DIMASSOC
280
    2
  9
$PROJECTNAME
  1

  9
$CAMERADISPLAY
290
    0
  9
$LENSLENGTH
 40
50
  9
$CAMERAHEIGHT
 40
0
  9
$STEPSPERSEC
 40
2
  9
$STEPSIZE
 40
6
  9
$3DDWFPREC
 40
2
  9
$PSOLWIDTH
 40
5
  9
$PSOLHEIGHT
 40
80
  9
$LOFTANG1
 40
1.570796
  9
$LOFTANG2
 40
1.570796
  9
$LOFTMAG1
 40
0
  9
$LOFTMAG2
 40
0
  9
$LOFTPARAM
 70
    7
  9
$LOFTNORMALS
280
    1
  9
$LATITUDE
 40
37.795
  9
$LONGITUDE
 40
-122.394
  9
$NORTHDIRECTION
 40
0
  9
$TIMEZONE
 70
-8000
  9
$LIGHTGLYPHDISPLAY
280
    1
  9
$TILEMODELIGHTSYNCH
280
    1
  9
$SOLIDHIST
280
    0
  9
$SHOWHIST
280
    1
  9
$DWFFRAME
280
    2
  9
$DGNFRAME
280
    0
  9
$REALWORLDSCALE
290
    1
  9
$INTERFERECOLOR
 62
    1
  9
$CSHADOW
280
    0
  9
$SHADOWPLANELOCATION
 40
0
  0
ENDSEC
  0
SECTION
  2
CLASSES
  0
ENDSEC
  0
SECTION
  2
TABLES
  0
TABLE
  2
VPORT
  5
8
330
0
100
AcDbSymbolTable
 70
    1
  0
VPORT
  5
31
330
2
100
AcDbSymbolTableRecord
100
AcDbViewportTableRecord
  2
*ACTIVE
 70
    0
 10
0
 20
0
 11
1
 21
1
 12
171.3632752749364
 22
111.219903529412
 13
0
 23
0
 14
10
 24
10
 15
10
 25
10
 16
0
 26
0
 36
1
 17
0
 27
0
 37
0
 40
229.3910510294123
 41
2.060606060606061
 42
50
 43
0
 44
0
 50
0
 51
0
 71
    0
 72
  100
 73
    1
 74
    3
 75
    0
 76
    0
 77
    0
 78
    0
281
    0
 65
    1
110
0
120
0
130
0
111
1
121
0
131
0
112
0
122
1
132
0
 79
    0
146
0
348
10020
 60
    7
 61
    5
292
1
282
    1
141
0
142
0
 63
  250
421
3358443
  0
ENDTAB
  0
TABLE
  2
LTYPE
  5
5
330
0
100
AcDbSymbolTable
 70
    4
  0
LTYPE
  5
14
330
5
100
AcDbSymbolTableRecord
100
AcDbLinetypeTableRecord
  2
ByBlock
 70
    0
  3

 72
   65
 73
    0
 40
0
  0
LTYPE
  5
15
330
5
100
AcDbSymbolTableRecord
100
AcDbLinetypeTableRecord
  2
ByLayer
 70
    0
  3

 72
   65
 73
    0
 40
0
  0
LTYPE
  5
16
330
5
100
AcDbSymbolTableRecord
100
AcDbLinetypeTableRecord
  2
Continuous
 70
    0
  3
Solid line
 72
   65
 73
    0
 40
0
  0
LTYPE
  5
32
330
5
100
AcDbSymbolTableRecord
100
AcDbLinetypeTableRecord
  2
DOT
 70
    0
  3
Dot . . . . . . . . . . . . . . . . . . . . . .
 72
   65
 73
    2
 40
6.35
 49
0
 74
    0
 49
-6.35
 74
    0
  0
LTYPE
  5
33
330
5
100
AcDbSymbolTableRecord
100
AcDbLinetypeTableRecord
  2
DOTTINY
 70
    0
  3
Dot (.15x) .....................................
 72
   65
 73
    2
 40
0.9525
 49
0
 74
    0
 49
-0.9525
 74
    0
  0
LTYPE
  5
34
330
5
100
AcDbSymbolTableRecord
100
AcDbLinetypeTableRecord
  2
DOT2
 70
    0
  3
Dot (.5x) .....................................
 72
   65
 73
    2
 40
3.175
 49
0
 74
    0
 49
-3.175
 74
    0
  0
LTYPE
  5
35
330
5
100
AcDbSymbolTableRecord
100
AcDbLinetypeTableRecord
  2
DOTX2
 70
    0
  3
Dot (2x) .  .  .  .  .  .  .  .  .  .  .  .  .
 72
   65
 73
    2
 40
12.7
 49
0
 74
    0
 49
-12.7
 74
    0
  0
LTYPE
  5
36
330
5
100
AcDbSymbolTableRecord
100
AcDbLinetypeTableRecord
  2
DASHED
 70
    0
  3
Dashed _ _ _ _ _ _ _ _ _ _ _ _ _ _ _ _ _
 72
   65
 73
    2
 40
19.05
 49
12.7
 74
    0
 49
-6.35
 74
    0
  0
LTYPE
  5
37
330
5
100
AcDbSymbolTableRecord
100
AcDbLinetypeTableRecord
  2
DASHEDTINY
 70
    0
  3
Dashed (.15x) _ _ _ _ _ _ _ _ _ _ _ _ _ _ _ _ _
 72
   65
 73
    2
 40
2.8575
 49
1.905
 74
    0
 49
-0.9525
 74
    0
  0
LTYPE
  5
38
330
5
100
AcDbSymbolTableRecord
100
AcDbLinetypeTableRecord
  2
DASHED2
 70
    0
  3
Dashed (.5x) _ _ _ _ _ _ _ _ _ _ _ _ _ _ _ _ _
 72
   65
 73
    2
 40
9.524999999999999
 49
6.35
 74
    0
 49
-3.175
 74
    0
  0
LTYPE
  5
39
330
5
100
AcDbSymbolTableRecord
100
AcDbLinetypeTableRecord
  2
DASHEDX2
 70
    0
  3
Dashed (2x) ____  ____  ____  ____  ____  ___
 72
   65
 73
    2
 40
38.09999999999999
 49
25.4
 74
    0
 49
-12.7
 74
    0
  0
LTYPE
  5
3A
330
5
100
AcDbSymbolTableRecord
100
AcDbLinetypeTableRecord
  2
DASHDOT
 70
    0
  3
Dash dot __ . __ . __ . __ . __ . __ . __ . __
 72
   65
 73
    4
 40
25.4
 49
12.7
 74
    0
 49
-6.35
 74
    0
 49
0
 74
    0
 49
-6.35
 74
    0
  0
LTYPE
  5
3B
330
5
100
AcDbSymbolTableRecord
100
AcDbLinetypeTableRecord
  2
DASHDOTTINY
 70
    0
  3
Dash dot (.15x) _._._._._._._._._._._._._._._.
 72
   65
 73
    4
 40
3.81
 49
1.905
 74
    0
 49
-0.9525
 74
    0
 49
0
 74
    0
 49
-0.9525
 74
    0
  0
LTYPE
  5
3C
330
5
100
AcDbSymbolTableRecord
100
AcDbLinetypeTableRecord
  2
DASHDOT2
 70
    0
  3
Dash dot (.5x) _._._._._._._._._._._._._._._.
 72
   65
 73
    4
 40
12.7
 49
6.35
 74
    0
 49
-3.175
 74
    0
 49
0
 74
    0
 49
-3.175
 74
    0
  0
LTYPE
  5
3D
330
5
100
AcDbSymbolTableRecord
100
AcDbLinetypeTableRecord
  2
DASHDOTX2
 70
    0
  3
Dash dot (2x) ____  .  ____  .  ____  .  ___
 72
   65
 73
    4
 40
50.8
 49
25.4
 74
    0
 49
-12.7
 74
    0
 49
0
 74
    0
 49
-12.7
 74
    0
  0
LTYPE
  5
3E
330
5
100
AcDbSymbolTableRecord
100
AcDbLinetypeTableRecord
  2
DIVIDE
 70
    0
  3
Divide ____ . . ____ . . ____ . . ____ . . ____
 72
   65
 73
    6
 40
31.75
 49
12.7
 74
    0
 49
-6.35
 74
    0
 49
0
 74
    0
 49
-6.35
 74
    0
 49
0
 74
    0
 49
-6.35
 74
    0
  0
LTYPE
  5
3F
330
5
100
AcDbSymbolTableRecord
100
AcDbLinetypeTableRecord
  2
DIVIDETINY
 70
    0
  3
Divide (.15x) __..__..__..__..__..__..__..__.._
 72
   65
 73
    6
 40
4.7625
 49
1.905
 74
    0
 49
-0.9525
 74
    0
 49
0
 74
    0
 49
-0.9525
 74
    0
 49
0
 74
    0
 49
-0.9525
 74
    0
  0
LTYPE
  5
40
330
5
100
AcDbSymbolTableRecord
100
AcDbLinetypeTableRecord
  2
DIVIDE2
 70
    0
  3
Divide (.5x) __..__..__..__..__..__..__..__.._
 72
   65
 73
    6
 40
15.875
 49
6.35
 74
    0
 49
-3.175
 74
    0
 49
0
 74
    0
 49
-3.175
 74
    0
 49
0
 74
    0
 49
-3.175
 74
    0
  0
LTYPE
  5
41
330
5
100
AcDbSymbolTableRecord
100
AcDbLinetypeTableRecord
  2
DIVIDEX2
 70
    0
  3
Divide (2x) ________  .  .  ________  .  .  _
 72
   65
 73
    6
 40
63.5
 49
25.4
 74
    0
 49
-12.7
 74
    0
 49
0
 74
    0
 49
-12.7
 74
    0
 49
0
 74
    0
 49
-12.7
 74
    0
  0
LTYPE
  5
42
330
5
100
AcDbSymbolTableRecord
100
AcDbLinetypeTableRecord
  2
BORDER
 70
    0
  3
Border __ __ . __ __ . __ __ . __ __ . __ __ .
 72
   65
 73
    6
 40
44.45
 49
12.7
 74
    0
 49
-6.35
 74
    0
 49
12.7
 74
    0
 49
-6.35
 74
    0
 49
0
 74
    0
 49
-6.35
 74
    0
  0
LTYPE
  5
43
330
5
100
AcDbSymbolTableRecord
100
AcDbLinetypeTableRecord
  2
BORDERTINY
 70
    0
  3
Border (.15x) __.__.__.__.__.__.__.__.__.__.__.
 72
   65
 73
    6
 40
6.6675
 49
1.905
 74
    0
 49
-0.9525
 74
    0
 49
1.905
 74
    0
 49
-0.9525
 74
    0
 49
0
 74
    0
 49
-0.9525
 74
    0
  0
LTYPE
  5
44
330
5
100
AcDbSymbolTableRecord
100
AcDbLinetypeTableRecord
  2
BORDER2
 70
    0
  3
Border (.5x) __.__.__.__.__.__.__.__.__.__.__.
 72
   65
 73
    6
 40
22.225
 49
6.35
 74
    0
 49
-3.175
 74
    0
 49
6.35
 74
    0
 49
-3.175
 74
    0
 49
0
 74
    0
 49
-3.175
 74
    0
  0
LTYPE
  5
45
330
5
100
AcDbSymbolTableRecord
100
AcDbLinetypeTableRecord
  2
BORDERX2
 70
    0
  3
Border (2x) ____  ____  .  ____  ____  .  ___
 72
   65
 73
    6
 40
88.89999999999999
 49
25.4
 74
    0
 49
-12.7
 74
    0
 49
25.4
 74
    0
 49
-12.7
 74
    0
 49
0
 74
    0
 49
-12.7
 74
    0
  0
LTYPE
  5
46
330
5
100
AcDbSymbolTableRecord
100
AcDbLinetypeTableRecord
  2
CENTER
 70
    0
  3
Center ____ _ ____ _ ____ _ ____ _ ____ _ ____
 72
   65
 73
    4
 40
50.8
 49
31.75
 74
    0
 49
-6.35
 74
    0
 49
6.35
 74
    0
 49
-6.35
 74
    0
  0
LTYPE
  5
47
330
5
100
AcDbSymbolTableRecord
100
AcDbLinetypeTableRecord
  2
CENTERTINY
 70
    0
  3
Center (.15x) ___ _ ___ _ ___ _ ___ _ ___ _ ___
 72
   65
 73
    4
 40
7.62
 49
4.7625
 74
    0
 49
-0.9525
 74
    0
 49
0.9525
 74
    0
 49
-0.9525
 74
    0
  0
LTYPE
  5
48
330
5
100
AcDbSymbolTableRecord
100
AcDbLinetypeTableRecord
  2
CENTER2
 70
    0
  3
Center (.5x) ___ _ ___ _ ___ _ ___ _ ___ _ ___
 72
   65
 73
    4
 40
28.575
 49
19.05
 74
    0
 49
-3.175
 74
    0
 49
3.175
 74
    0
 49
-3.175
 74
    0
  0
LTYPE
  5
49
330
5
100
AcDbSymbolTableRecord
100
AcDbLinetypeTableRecord
  2
CENTERX2
 70
    0
  3
Center (2x) ________  __  ________  __  _____
 72
   65
 73
    4
 40
101.6
 49
63.5
 74
    0
 49
-12.7
 74
    0
 49
12.7
 74
    0
 49
-12.7
 74
    0
  0
ENDTAB
  0
TABLE
  2
LAYER
  5
2
330
0
100
AcDbSymbolTable
 70
    1
  0
LAYER
  5
10
330
2
100
AcDbSymbolTableRecord
100
AcDbLayerTableRecord
  2
0
 70
    0
 62
    7
  6
CONTINUOUS
370
   -3
390
F
  0
LAYER
  5
4A
330
2
100
AcDbSymbolTableRecord
100
AcDbLayerTableRecord
  2
Annotations
 70
    0
 62
    7
  6
CONTINUOUS
370
   25
390
F
  0
LAYER
  5
4B
330
2
100
AcDbSymbolTableRecord
100
AcDbLayerTableRecord
  2
Border
 70
    0
 62
    7
  6
CONTINUOUS
370
   25
390
F
  0
LAYER
  5
4C
330
2
100
AcDbSymbolTableRecord
100
AcDbLayerTableRecord
  2
Defpoints
 70
    0
 62
    7
  6
CONTINUOUS
290
0
370
   -3
390
F
1001
LibreCad
1070
    1
  0
LAYER
  5
4D
330
2
100
AcDbSymbolTableRecord
100
AcDbLayerTableRecord
  2
Dimensions
 70
    0
 62
    7
  6
CONTINUOUS
370
   25
390
F
  0
LAYER
  5
4E
330
2
100
AcDbSymbolTableRecord
100
AcDbLayerTableRecord
  2
Hidden
 70
    0
 62
    7
  6
DASHEDTINY
370
   25
390
F
  0
LAYER
  5
4F
330
2
100
AcDbSymbolTableRecord
100
AcDbLayerTableRecord
  2
Visible
 70
    0
 62
    7
  6
CONTINUOUS
370
   50
390
F
  0
ENDTAB
  0
TABLE
  2
STYLE
  5
3
330
0
100
AcDbSymbolTable
 70
    3
  0
STYLE
  5
50
330
2
100
AcDbSymbolTableRecord
100
AcDbTextStyleTableRecord
  2
standard
 70
    0
 40
0
 41
1
 50
0
 71
    0
 42
1
  3
standard
  4

  0
ENDTAB
  0
TABLE
  2
VIEW
  5
6
330
0
100
AcDbSymbolTable
 70
    0
  0
ENDTAB
  0
TABLE
  2
UCS
  5
7
330
0
100
AcDbSymbolTable
 70
    0
  0
ENDTAB
  0
TABLE
  2
APPID
  5
9
330
0
100
AcDbSymbolTable
 70
    1
  0
APPID
  5
12
330
9
100
AcDbSymbolTableRecord
100
AcDbRegAppTableRecord
  2
ACAD
 70
    0
  0
APPID
  5
51
330
9
100
AcDbSymbolTableRecord
100
AcDbRegAppTableRecord
  2
LibreCad
 70
    0
  0
ENDTAB
  0
TABLE
  2
DIMSTYLE
  5
A
330
0
100
AcDbSymbolTable
 70
    1
100
AcDbDimStyleTable
 71
    1
  0
DIMSTYLE
105
52
330
A
100
AcDbSymbolTableRecord
100
AcDbDimStyleTableRecord
  2
Standard
 70
    0
 40
1
 41
3.5
 42
2
 43
0.38
 44
2
 45
0
 46
0
 47
0
 48
0
 49
1
140
3.5
141
0.09
142
0
143
25.4
144
1
145
0
146
1
147
1.5
148
0
 71
    0
 72
    0
 73
    0
 74
    1
 75
    0
 76
    0
 77
    0
 78
    8
 79
    2
170
    0
171
    2
172
    0
173
    0
174
    0
175
    0
176
  256
177
  256
178
  256
179
    2
271
    2
272
    4
273
    2
274
    2
275
    0
276
    0
277
    2
278
   46
279
    0
280
    0
281
    0
282
    0
283
    1
284
    0
285
    0
286
    0
288
    0
289
    3
340
Standard
341

371
   -2
372
   -2
  0
ENDTAB
  0
TABLE
  2
BLOCK_RECORD
  5
1
330
0
100
AcDbSymbolTable
 70
    2
  0
BLOCK_RECORD
  5
1F
330
1
100
AcDbSymbolTableRecord
100
AcDbBlockTableRecord
  2
*Model_Space
 70
    0
280
    1
281
    0
  0
BLOCK_RECORD
  5
1E
330
1
100
AcDbSymbolTableRecord
100
AcDbBlockTableRecord
  2
*Paper_Space
 70
    0
280
    1
281
    0
  0
BLOCK_RECORD
  5
53
330
1
100
AcDbSymbolTableRecord
100
AcDbBlockTableRecord
  2
ISO_A4(L)_SHEET
 70
    0
280
    1
281
    0
  0
ENDTAB
  0
ENDSEC
  0
SECTION
  2
BLOCKS
  0
BLOCK
  5
20
330
1F
100
AcDbEntity
  8
0
100
AcDbBlockBegin
  2
*Model_Space
 70
    0
 10
0
 20
0
 30
0
  3
*Model_Space
  1

  0
ENDBLK
  5
21
330
1F
100
AcDbEntity
  8
0
100
AcDbBlockEnd
  0
BLOCK
  5
1C
330
1B
100
AcDbEntity
  8
0
100
AcDbBlockBegin
  2
*Paper_Space
 70
    0
 10
0
 20
0
 30
0
  3
*Paper_Space
  1

  0
ENDBLK
  5
1D
330
1F
100
AcDbEntity
  8
0
100
AcDbBlockEnd
  0
BLOCK
  5
54
330
53
100
AcDbEntity
  8
0
100
AcDbBlockBegin
  2
ISO_A4(L)_SHEET
 70
    0
 10
0
 20
0
  3
ISO_A4(L)_SHEET
  1

  0
LINE
  5
56
100
AcDbEntity
  8
Border
  6
ByLayer
 62
  256
370
   -1
100
AcDbLine
 10
0
 20
210
 11
0
 21
195
  0
LINE
  5
57
100
AcDbEntity
  8
Border
  6
ByLayer
 62
  256
370
   -1
100
AcDbLine
 10
0
 20
15
 11
0
 21
0
  0
LINE
  5
58
100
AcDbEntity
  8
Border
  6
ByLayer
 62
  256
370
   -1
100
AcDbLine
 10
0
 20
0
 11
15
 21
0
  0
LINE
  5
59
100
AcDbEntity
  8
Border
  6
ByLayer
 62
  256
370
   -1
100
AcDbLine
 10
282
 20
0
 11
297
 21
0
  0
LINE
  5
5A
100
AcDbEntity
  8
Border
  6
ByLayer
 62
  256
370
   -1
100
AcDbLine
 10
297
 20
0
 11
297
 21
15
  0
LINE
  5
5B
100
AcDbEntity
  8
Border
  6
ByLayer
 62
  256
370
   -1
100
AcDbLine
 10
297
 20
195
 11
297
 21
210
  0
LINE
  5
5C
100
AcDbEntity
  8
Border
  6
ByLayer
 62
  256
370
   -1
100
AcDbLine
 10
287
 20
10
 11
287
 21
200
  0
LINE
  5
5D
100
AcDbEntity
  8
Border
  6
ByLayer
 62
  256
370
   -1
100
AcDbLine
 10
297
 20
210
 11
282
 21
210
  0
LINE
  5
5E
100
AcDbEntity
  8
Border
  6
ByLayer
 62
  256
370
   -1
100
AcDbLine
 10
15
 20
210
 11
0
 21
210
  0
LINE
  5
5F
100
AcDbEntity
  8
Border
  6
ByLayer
 62
  256
370
   -1
100
AcDbLine
 10
287
 20
10
 11
20
 21
10
  0
LINE
  5
60
100
AcDbEntity
  8
Border
  6
ByLayer
 62
  256
370
   -1
100
AcDbLine
 10
15
 20
100
 11
25
 21
100
  0
LINE
  5
61
100
AcDbEntity
  8
Border
  6
ByLayer
 62
  256
370
   -1
100
AcDbLine
 10
292
 20
100
 11
282
 21
100
  0
LINE
  5
62
100
AcDbEntity
  8
Border
  6
ByLayer
 62
  256
370
   -1
100
AcDbLine
 10
148.5
 20
205
 11
148.5
 21
195
  0
LINE
  5
63
100
AcDbEntity
  8
Border
  6
ByLayer
 62
  256
370
   -1
100
AcDbLine
 10
148.5
 20
5
 11
148.5
 21
15
  0
LINE
  5
64
100
AcDbEntity
  8
Border
  6
ByLayer
 62
  256
370
   -1
100
AcDbLine
 10
287
 20
200
 11
20
 21
200
  0
LINE
  5
65
100
AcDbEntity
  8
Border
  6
ByLayer
 62
  256
370
   -1
100
AcDbLine
 10
20
 20
200
 11
20
 21
10
  0
ENDBLK
  5
55
330
53
100
AcDbEntity
  8
0
100
AcDbBlockEnd
  0
ENDSEC
  0
SECTION
  2
ENTITIES
  0
INSERT
  5
66
100
AcDbEntity
  8
Border
  6
ByLayer
 62
  256
370
   -1
100
AcDbBlockReference
  2
ISO_A4(L)_SHEET
 10
0
 20
0
 30
0
 41
1
 42
1
 43
0
 50
0
 70
    1
 71
    1
 44
0
 45
0
  0
LINE
  5
67
100
AcDbEntity
  8
Visible
  6
ByLayer
 62
  256
370
   -1
100
AcDbLine
 10
169.070116
 20
152.963808
 11
169.070116
 21
76.963808
  0
LINE
  5
68
100
AcDbEntity
  8
Visible
  6
ByLayer
 62
  256
370
   -1
100
AcDbLine
 10
66.320116
 20
152.963808
 11
169.070116
 21
152.963808
  0
LINE
  5
69
100
AcDbEntity
  8
Visible
  6
ByLayer
 62
  256
370
   -1
100
AcDbLine
 10
169.070116
 20
76.963808
 11
66.320116
 21
76.963808
  0
LINE
  5
6A
100
AcDbEntity
  8
Visible
  6
ByLayer
 62
  256
370
   -1
100
AcDbLine
 10
163.820116
 20
82.463808
 11
163.820116
 21
147.463808
  0
LINE
  5
6B
100
AcDbEntity
  8
Visible
  6
ByLayer
 62
  256
370
   -1
100
AcDbLine
 10
73.820116
 20
82.463808
 11
163.820116
 21
82.463808
  0
LINE
  5
6C
100
AcDbEntity
  8
Visible
  6
ByLayer
 62
  256
370
   -1
100
AcDbLine
 10
73.820116
 20
147.463808
 11
73.820116
 21
82.463808
  0
LINE
  5
6D
100
AcDbEntity
  8
Visible
  6
ByLayer
 62
  256
370
   -1
100
AcDbLine
 10
163.820116
 20
147.463808
 11
73.820116
 21
147.463808
  0
LINE
  5
6E
100
AcDbEntity
  8
Visible
  6
ByLayer
 62
  256
370
   -1
100
AcDbLine
 10
66.320116
 20
76.963808
 11
66.320116
 21
152.963808
  0
LINE
  5
6F
100
AcDbEntity
  8
Visible
  6
ByLayer
 62
  256
370
   -1
100
AcDbLine
 10
66.320116
 20
154.963808
 11
66.320116
 21
152.963808
  0
LINE
  5
70
100
AcDbEntity
  8
Visible
  6
ByLayer
 62
  256
370
   -1
100
AcDbLine
 10
66.320116
 20
76.963808
 11
66.320116
 21
74.963808
  0
LINE
  5
71
100
AcDbEntity
  8
Visible
  6
ByLayer
 62
  256
370
   -1
100
AcDbLine
 10
66.320116
 20
74.963808
 11
171.320116
 21
74.963808
  0
LINE
  5
72
100
AcDbEntity
  8
Visible
  6
ByLayer
 62
  256
370
   -1
100
AcDbLine
 10
171.320116
 20
74.963808
 11
171.320116
 21
154.963808
  0
LINE
  5
73
100
AcDbEntity
  8
Visible
  6
ByLayer
 62
  256
370
   -1
100
AcDbLine
 10
171.320116
 20
154.963808
 11
66.320116
 21
154.963808
  0
LINE
  5
74
100
AcDbEntity
  8
Visible
  6
ByLayer
 62
  256
370
   -1
100
AcDbLine
 10
223.428589
 20
152.963808
 11
223.428589
 21
76.963808
  0
LINE
  5
75
100
AcDbEntity
  8
Visible
  6
ByLayer
 62
  256
370
   -1
100
AcDbLine
 10
222.928589
 20
152.963808
 11
223.428589
 21
152.963808
  0
LINE
  5
76
100
AcDbEntity
  8
Visible
  6
ByLayer
 62
  256
370
   -1
100
AcDbLine
 10
223.428589
 20
76.963808
 11
222.928589
 21
76.963808
  0
LINE
  5
77
100
AcDbEntity
  8
Visible
  6
ByLayer
 62
  256
370
   -1
100
AcDbLine
 10
222.928589
 20
76.963808
 11
222.928589
 21
152.963808
  0
LINE
  5
78
100
AcDbEntity
  8
Visible
  6
ByLayer
 62
  256
370
   -1
100
AcDbLine
 10
223.428589
 20
154.963808
 11
223.428589
 21
152.963808
  0
LINE
  5
79
100
AcDbEntity
  8
Visible
  6
ByLayer
 62
  256
370
   -1
100
AcDbLine
 10
223.428589
 20
154.963808
 11
220.428589
 21
154.963808
  0
LINE
  5
7A
100
AcDbEntity
  8
Visible
  6
ByLayer
 62
  256
370
   -1
100
AcDbLine
 10
220.428589
 20
74.963808
 11
220.428589
 21
154.963808
  0
LINE
  5
7B
100
AcDbEntity
  8
Visible
  6
ByLayer
 62
  256
370
   -1
100
AcDbLine
 10
223.428589
 20
74.963808
 11
220.428589
 21
74.963808
  0
LINE
  5
7C
100
AcDbEntity
  8
Visible
  6
ByLayer
 62
  256
370
   -1
100
AcDbLine
 10
223.428589
 20
76.963808
 11
223.428589
 21
74.963808
  0
LINE
  5
7D
100
AcDbEntity
  8
Hidden
  6
ByLayer
 62
  256
370
   -1
100
AcDbLine
 10
222.928589
 20
82.463808
 11
220.428589
 21
82.463808
  0
LINE
  5
7E
100
AcDbEntity
  8
Hidden
  6
ByLayer
 62
  256
370
   -1
100
AcDbLine
 10
222.928589
 20
147.463808
 11
220.428589
 21
147.463808
  0
LINE
  5
7F
100
AcDbEntity
  8
Visible
  6
ByLayer
 62
  256
370
   -1
100
AcDbLine
 10
223.428589
 20
152.963808
 11
223.428589
 21
76.963808
  0
LINE
  5
80
100
AcDbEntity
  8
Visible
  6
ByLayer
 62
  256
370
   -1
100
AcDbLine
 10
222.928589
 20
152.963808
 11
223.428589
 21
152.963808
  0
LINE
  5
81
100
AcDbEntity
  8
Visible
  6
ByLayer
 62
  256
370
   -1
100
AcDbLine
 10
223.428589
 20
76.963808
 11
222.928589
 21
76.963808
  0
LINE
  5
82
100
AcDbEntity
  8
Visible
  6
ByLayer
 62
  256
370
   -1
100
AcDbLine
 10
222.928589
 20
76.963808
 11
222.928589
 21
152.963808
  0
LINE
  5
83
100
AcDbEntity
  8
Visible
  6
ByLayer
 62
  256
370
   -1
100
AcDbLine
 10
223.428589
 20
154.963808
 11
223.428589
 21
152.963808
  0
LINE
  5
84
100
AcDbEntity
  8
Visible
  6
ByLayer
 62
  256
370
   -1
100
AcDbLine
 10
223.428589
 20
154.963808
 11
220.428589
 21
154.963808
  0
LINE
  5
85
100
AcDbEntity
  8
Visible
  6
ByLayer
 62
  256
370
   -1
100
AcDbLine
 10
220.428589
 20
74.963808
 11
220.428589
 21
154.963808
  0
LINE
  5
86
100
AcDbEntity
  8
Visible
  6
ByLayer
 62
  256
370
   -1
100
AcDbLine
 10
223.428589
 20
74.963808
 11
220.428589
 21
74.963808
  0
LINE
  5
87
100
AcDbEntity
  8
Visible
  6
ByLayer
 62
  256
370
   -1
100
AcDbLine
 10
223.428589
 20
76.963808
 11
223.428589
 21
74.963808
  0
LINE
  5
88
100
AcDbEntity
  8
Hidden
  6
ByLayer
 62
  256
370
   -1
100
AcDbLine
 10
222.928589
 20
82.463808
 11
220.428589
 21
82.463808
  0
LINE
  5
89
100
AcDbEntity
  8
Hidden
  6
ByLayer
 62
  256
370
   -1
100
AcDbLine
 10
222.928589
 20
147.463808
 11
220.428589
 21
147.463808
  0
ARC
  5
8A
100
AcDbEntity
  8
Visible
  6
ByLayer
 62
  256
370
   -1
100
AcDbCircle
 10
201.0008229999688
 20
29.95460000000002
 40
16.80586116514622
100
AcDbArc
 50
93.411289
 51
110.917192
  0
ARC
  5
8B
100
AcDbEntity
  8
Visible
  6
ByLayer
 62
  256
370
   -1
100
AcDbCircle
 10
201.0008230000298
 20
29.95459999999998
 40
16.80586116511413
100
AcDbArc
 50
90
 51
93.411289
  0
LINE
  5
8C
100
AcDbEntity
  8
Visible
  6
ByLayer
 62
  256
370
   -1
100
AcDbLine
 10
201.000823
 20
46.760461
 11
201.000823
 21
29.9546
  0
LINE
  5
8D
100
AcDbEntity
  8
Visible
  6
ByLayer
 62
  256
370
   -1
100
AcDbLine
 10
201.000823
 20
29.9546
 11
201.000823
 21
25.9546
  0
LINE
  5
8E
100
AcDbEntity
  8
Hidden
  6
ByLayer
 62
  256
370
   -1
100
AcDbLine
 10
200.000823
 20
40.9546
 11
195.000823
 21
40.9546
  0
LINE
  5
8F
100
AcDbEntity
  8
Visible
  6
ByLayer
 62
  256
370
   -1
100
AcDbLine
 10
201.000823
 20
29.9546
 11
200.000823
 21
29.9546
  0
LINE
  5
90
100
AcDbEntity
  8
Visible
  6
ByLayer
 62
  256
370
   -1
100
AcDbLine
 10
200.000823
 20
29.9546
 11
200.000823
 21
46.730683
  0
LINE
  5
91
100
AcDbEntity
  8
Visible
  6
ByLayer
 62
  256
370
   -1
100
AcDbLine
 10
195.000823
 20
25.9546
 11
195.000823
 21
45.652911
  0
LINE
  5
92
100
AcDbEntity
  8
Visible
  6
ByLayer
 62
  256
370
   -1
100
AcDbLine
 10
201.000823
 20
25.9546
 11
195.000823
 21
25.9546
  0
CIRCLE
  5
93
100
AcDbEntity
  8
Annotations
  6
CONTINUOUS
 62
  256
370
   25
100
AcDbCircle
 10
223.428589
 20
76.963808
 40
8.402930582572933
  0
LINE
  5
94
100
AcDbEntity
  8
Annotations
  6
CONTINUOUS
 62
  256
370
   25
100
AcDbLine
 10
231.702293
 20
75.49579300000001
 11
234.125399
 21
75.06585699999999
  0
LINE
  5
95
100
AcDbEntity
  8
Dimensions
  6
ByLayer
 62
  256
370
   -1
100
AcDbLine
 10
66.32011599999998
 20
173.637098
 11
171.320116
 21
173.637098
  0
SOLID
  5
96
100
AcDbEntity
  8
Dimensions
  6
ByLayer
 62
  256
370
   -1
100
AcDbTrace
 10
66.32011599999998
 20
173.637098
 30
0
 11
69.82011599999998
 21
174.219896520882
 31
0
 12
69.82011599999998
 22
173.054299479118
 32
0
 13
69.82011599999998
 23
173.054299479118
 33
0
  0
SOLID
  5
97
100
AcDbEntity
  8
Dimensions
  6
ByLayer
 62
  256
370
   -1
100
AcDbTrace
 10
171.320116
 20
173.637098
 30
0
 11
167.820116
 21
173.054299479118
 31
0
 12
167.820116
 22
174.219896520882
 32
0
 13
167.820116
 23
174.219896520882
 33
0
  0
MTEXT
  5
98
100
AcDbEntity
  8
Dimensions
  6
ByLayer
 62
  256
370
   -1
100
AcDbMText
 10
118.820116
 20
176.909598
 30
0
 40
3.5
 41
6.22222222222244
 71
    5
 72
    1
  1
105
  7
standard
210
0
220
0
230
1
 50
0
 73
    2
 44
1
  0
LINE
  5
99
100
AcDbEntity
  8
Dimensions
  6
ByLayer
 62
  256
370
   -1
100
AcDbLine
 10
66.320116
 20
154.963808
 11
66.32011599999998
 21
175.637098
  0
LINE
  5
9A
100
AcDbEntity
  8
Dimensions
  6
ByLayer
 62
  256
370
   -1
100
AcDbLine
 10
171.320116
 20
156.963808
 11
171.320116
 21
175.637098
  0
LINE
  5
9B
100
AcDbEntity
  8
Dimensions
  6
ByLayer
 62
  256
370
   -1
100
AcDbLine
 10
189.067355
 20
154.963808
 11
189.067355
 21
74.963808
  0
SOLID
  5
9C
100
AcDbEntity
  8
Dimensions
  6
ByLayer
 62
  256
370
   -1
100
AcDbTrace
 10
189.067355
 20
154.963808
 30
0
 11
189.650153520882
 21
151.463808
 31
0
 12
188.4845564791181
 22
151.463808
 32
0
 13
188.4845564791181
 23
151.463808
 33
0
  0
SOLID
  5
9D
100
AcDbEntity
  8
Dimensions
  6
ByLayer
 62
  256
370
   -1
100
AcDbTrace
 10
189.067355
 20
74.963808
 30
0
 11
188.484556479118
 21
78.463808
 31
0
 12
189.650153520882
 22
78.463808
 32
0
 13
189.650153520882
 23
78.463808
 33
0
  0
MTEXT
  5
9E
100
AcDbEntity
  8
Dimensions
  6
ByLayer
 62
  256
370
   -1
100
AcDbMText
 10
185.794855
 20
114.963808
 30
0
 40
3.5
 41
4.277777777777779
 71
    5
 72
    1
  1
80
  7
standard
210
0
220
0
230
1
 50
90
 73
    2
 44
1
  0
LINE
  5
9F
100
AcDbEntity
  8
Dimensions
  6
ByLayer
 62
  256
370
   -1
100
AcDbLine
 10
173.320116
 20
154.963808
 11
191.067355
 21
154.963808
  0
LINE
  5
A0
100
AcDbEntity
  8
Dimensions
  6
ByLayer
 62
  256
370
   -1
100
AcDbLine
 10
173.320116
 20
74.963808
 11
191.067355
 21
74.963808
  0
LINE
  5
A1
100
AcDbEntity
  8
Dimensions
  6
ByLayer
 62
  256
370
   -1
100
AcDbLine
 10
80.820116
 20
65.91760600000001
 11
59.320116
 21
65.91760600000001
  0
SOLID
  5
A2
100
AcDbEntity
  8
Dimensions
  6
ByLayer
 62
  256
370
   -1
100
AcDbTrace
 10
73.820116
 20
65.91760600000001
 30
0
 11
77.320116
 21
66.50040452088199
 31
0
 12
77.320116
 22
65.33480747911803
 32
0
 13
77.320116
 23
65.33480747911803
 33
0
  0
SOLID
  5
A3
100
AcDbEntity
  8
Dimensions
  6
ByLayer
 62
  256
370
   -1
100
AcDbTrace
 10
66.320116
 20
65.91760600000001
 30
0
 11
62.820116
 21
65.33480747911803
 31
0
 12
62.820116
 22
66.50040452088199
 32
0
 13
62.820116
 23
66.50040452088199
 33
0
  0
LINE
  5
A4
100
AcDbEntity
  8
Dimensions
  6
ByLayer
 62
  256
370
   -1
100
AcDbLine
 10
73.820116
 20
80.463808
 11
73.820116
 21
63.91760600000001
  0
LINE
  5
A5
100
AcDbEntity
  8
Dimensions
  6
ByLayer
 62
  256
370
   -1
100
AcDbLine
 10
66.320116
 20
74.963808
 11
66.320116
 21
63.91760600000001
  0
LINE
  5
A6
100
AcDbEntity
  8
Dimensions
  6
ByLayer
 62
  256
370
   -1
100
AcDbLine
 10
156.820116
 20
65.77100299999999
 11
178.320116
 21
65.77100299999999
  0
SOLID
  5
A7
100
AcDbEntity
  8
Dimensions
  6
ByLayer
 62
  256
370
   -1
100
AcDbTrace
 10
163.820116
 20
65.77100299999999
 30
0
 11
160.320116
 21
65.18820447911801
 31
0
 12
160.320116
 22
66.35380152088197
 32
0
 13
160.320116
 23
66.35380152088197
 33
0
  0
SOLID
  5
A8
100
AcDbEntity
  8
Dimensions
  6
ByLayer
 62
  256
370
   -1
100
AcDbTrace
 10
171.320116
 20
65.77100299999999
 30
0
 11
174.820116
 21
66.35380152088197
 31
0
 12
174.820116
 22
65.18820447911801
 32
0
 13
174.820116
 23
65.18820447911801
 33
0
  0
LINE
  5
A9
100
AcDbEntity
  8
Dimensions
  6
ByLayer
 62
  256
370
   -1
100
AcDbLine
 10
163.820116
 20
80.463808
 11
163.820116
 21
63.77100299999999
  0
LINE
  5
AA
100
AcDbEntity
  8
Dimensions
  6
ByLayer
 62
  256
370
   -1
100
AcDbLine
 10
171.320116
 20
72.963808
 11
171.320116
 21
63.77100299999999
  0
LINE
  5
AB
100
AcDbEntity
  8
Dimensions
  6
ByLayer
 62
  256
370
   -1
100
AcDbLine
 10
51.806903
 20
161.963808
 11
51.806903
 21
140.463808
  0
SOLID
  5
AC
100
AcDbEntity
  8
Dimensions
  6
ByLayer
 62
  256
370
   -1
100
AcDbTrace
 10
51.806903
 20
154.963808
 30
0
 11
51.22410447911803
 21
158.463808
 31
0
 12
52.38970152088198
 22
158.463808
 32
0
 13
52.38970152088198
 23
158.463808
 33
0
  0
SOLID
  5
AD
100
AcDbEntity
  8
Dimensions
  6
ByLayer
 62
  256
370
   -1
100
AcDbTrace
 10
51.806903
 20
147.463808
 30
0
 11
52.38970152088198
 21
143.963808
 31
0
 12
51.22410447911802
 22
143.963808
 32
0
 13
51.22410447911802
 23
143.963808
 33
0
  0
MTEXT
  5
AE
100
AcDbEntity
  8
Dimensions
  6
ByLayer
 62
  256
370
   -1
100
AcDbMText
 10
51.806903
 20
166.648665
 30
0
 40
3.5
 41
5.444444444444661
 71
    5
 72
    1
  1
7.5
  7
standard
210
0
220
0
230
1
 50
90
 73
    2
 44
1
  0
LINE
  5
AF
100
AcDbEntity
  8
Dimensions
  6
ByLayer
 62
  256
370
   -1
100
AcDbLine
 10
64.320116
 20
154.963808
 11
49.806903
 21
154.963808
  0
LINE
  5
B0
100
AcDbEntity
  8
Dimensions
  6
ByLayer
 62
  256
370
   -1
100
AcDbLine
 10
71.820116
 20
147.463808
 11
49.806903
 21
147.463808
  0
LINE
  5
B1
100
AcDbEntity
  8
Dimensions
  6
ByLayer
 62
  256
370
   -1
100
AcDbLine
 10
51.965568
 20
89.463808
 11
51.965568
 21
67.963808
  0
SOLID
  5
B2
100
AcDbEntity
  8
Dimensions
  6
ByLayer
 62
  256
370
   -1
100
AcDbTrace
 10
51.965568
 20
82.463808
 30
0
 11
51.38276947911802
 21
85.963808
 31
0
 12
52.54836652088198
 22
85.963808
 32
0
 13
52.54836652088198
 23
85.963808
 33
0
  0
SOLID
  5
B3
100
AcDbEntity
  8
Dimensions
  6
ByLayer
 62
  256
370
   -1
100
AcDbTrace
 10
51.965568
 20
74.963808
 30
0
 11
52.54836652088198
 21
71.463808
 31
0
 12
51.38276947911802
 22
71.463808
 32
0
 13
51.38276947911802
 23
71.463808
 33
0
  0
MTEXT
  5
B4
100
AcDbEntity
  8
Dimensions
  6
ByLayer
 62
  256
370
   -1
100
AcDbMText
 10
51.965568
 20
63.278951
 30
0
 40
3.5
 41
5.444444444444661
 71
    5
 72
    1
  1
7.5
  7
standard
210
0
220
0
230
1
 50
90
 73
    2
 44
1
  0
LINE
  5
B5
100
AcDbEntity
  8
Dimensions
  6
ByLayer
 62
  256
370
   -1
100
AcDbLine
 10
71.820116
 20
82.463808
 11
49.965568
 21
82.463808
  0
LINE
  5
B6
100
AcDbEntity
  8
Dimensions
  6
ByLayer
 62
  256
370
   -1
100
AcDbLine
 10
64.320116
 20
74.963808
 11
49.965568
 21
74.963808
  0
LINE
  5
B7
100
AcDbEntity
  8
Dimensions
  6
ByLayer
 62
  256
370
   -1
100
AcDbLine
 10
51.95903900000001
 20
147.463808
 11
51.959039
 21
82.463808
  0
SOLID
  5
B8
100
AcDbEntity
  8
Dimensions
  6
ByLayer
 62
  256
370
   -1
100
AcDbTrace
 10
51.95903900000001
 20
147.463808
 30
0
 11
52.54183752088198
 21
143.963808
 31
0
 12
51.37624047911803
 22
143.963808
 32
0
 13
51.37624047911803
 23
143.963808
 33
0
  0
SOLID
  5
B9
100
AcDbEntity
  8
Dimensions
  6
ByLayer
 62
  256
370
   -1
100
AcDbTrace
 10
51.959039
 20
82.463808
 30
0
 11
51.37624047911802
 21
85.963808
 31
0
 12
52.54183752088198
 22
85.963808
 32
0
 13
52.54183752088198
 23
85.963808
 33
0
  0
LINE
  5
BA
100
AcDbEntity
  8
Dimensions
  6
ByLayer
 62
  256
370
   -1
100
AcDbLine
 10
71.820116
 20
147.463808
 11
49.95903900000001
 21
147.463808
  0
LINE
  5
BB
100
AcDbEntity
  8
Dimensions
  6
ByLayer
 62
  256
370
   -1
100
AcDbLine
 10
71.820116
 20
82.463808
 11
49.959039
 21
82.463808
  0
LINE
  5
BC
100
AcDbEntity
  8
Dimensions
  6
ByLayer
 62
  256
370
   -1
100
AcDbLine
 10
73.82011600000001
 20
65.892472
 11
163.820116
 21
65.892472
  0
SOLID
  5
BD
100
AcDbEntity
  8
Dimensions
  6
ByLayer
 62
  256
370
   -1
100
AcDbTrace
 10
73.82011600000001
 20
65.892472
 30
0
 11
77.32011600000001
 21
66.47527052088198
 31
0
 12
77.32011600000001
 22
65.30967347911802
 32
0
 13
77.32011600000001
 23
65.30967347911802
 33
0
  0
SOLID
  5
BE
100
AcDbEntity
  8
Dimensions
  6
ByLayer
 62
  256
370
   -1
100
AcDbTrace
 10
163.820116
 20
65.892472
 30
0
 11
160.320116
 21
65.30967347911802
 31
0
 12
160.320116
 22
66.47527052088198
 32
0
 13
160.320116
 23
66.47527052088198
 33
0
  0
MTEXT
  5
BF
100
AcDbEntity
  8
Dimensions
  6
ByLayer
 62
  256
370
   -1
100
AcDbMText
 10
118.820116
 20
69.16497200000001
 30
0
 40
3.5
 41
4.277777777777995
 71
    5
 72
    1
  1
90
  7
standard
210
0
220
0
230
1
 50
0
 73
    2
 44
1
  0
LINE
  5
C0
100
AcDbEntity
  8
Dimensions
  6
ByLayer
 62
  256
370
   -1
100
AcDbLine
 10
73.820116
 20
80.463808
 11
73.82011600000001
 21
63.892472
  0
LINE
  5
C1
100
AcDbEntity
  8
Dimensions
  6
ByLayer
 62
  256
370
   -1
100
AcDbLine
 10
163.820116
 20
80.463808
 11
163.820116
 21
63.892472
  0
LINE
  5
C2
100
AcDbEntity
  8
Dimensions
  6
ByLayer
 62
  256
370
   -1
100
AcDbLine
 10
181.219611
 20
161.963808
 11
181.219611
 21
145.963808
  0
SOLID
  5
C3
100
AcDbEntity
  8
Dimensions
  6
ByLayer
 62
  256
370
   -1
100
AcDbTrace
 10
181.219611
 20
154.963808
 30
0
 11
180.636812479118
 21
158.463808
 31
0
 12
181.802409520882
 22
158.463808
 32
0
 13
181.802409520882
 23
158.463808
 33
0
  0
SOLID
  5
C4
100
AcDbEntity
  8
Dimensions
  6
ByLayer
 62
  256
370
   -1
100
AcDbTrace
 10
181.219611
 20
152.963808
 30
0
 11
181.802409520882
 21
149.463808
 31
0
 12
180.636812479118
 22
149.463808
 32
0
 13
180.636812479118
 23
149.463808
 33
0
  0
MTEXT
  5
C5
100
AcDbEntity
  8
Dimensions
  6
ByLayer
 62
  256
370
   -1
100
AcDbMText
 10
177.969611
 20
143.373808
 30
0
 40
3.5
 41
1.555555555555556
 71
    5
 72
    1
  1
2
  7
standard
210
0
220
0
230
1
 50
90
 73
    2
 44
1
  0
LINE
  5
C6
100
AcDbEntity
  8
Dimensions
  6
ByLayer
 62
  256
370
   -1
100
AcDbLine
 10
173.320116
 20
154.963808
 11
183.219611
 21
154.963808
  0
LINE
  5
C7
100
AcDbEntity
  8
Dimensions
  6
ByLayer
 62
  256
370
   -1
100
AcDbLine
 10
171.070116
 20
152.963808
 11
183.219611
 21
152.963808
  0
LINE
  5
C8
100
AcDbEntity
  8
Dimensions
  6
ByLayer
 62
  256
370
   -1
100
AcDbLine
 10
213.428589
 20
172.959438
 11
230.428589
 21
172.959438
  0
SOLID
  5
C9
100
AcDbEntity
  8
Dimensions
  6
ByLayer
 62
  256
370
   -1
100
AcDbTrace
 10
220.428589
 20
172.959438
 30
0
 11
216.928589
 21
172.376639479118
 31
0
 12
216.928589
 22
173.542236520882
 32
0
 13
216.928589
 23
173.542236520882
 33
0
  0
SOLID
  5
CA
100
AcDbEntity
  8
Dimensions
  6
ByLayer
 62
  256
370
   -1
100
AcDbTrace
 10
223.428589
 20
172.959438
 30
0
 11
226.928589
 21
173.542236520882
 31
0
 12
226.928589
 22
172.376639479118
 32
0
 13
226.928589
 23
172.376639479118
 33
0
  0
MTEXT
  5
CB
100
AcDbEntity
  8
Dimensions
  6
ByLayer
 62
  256
370
   -1
100
AcDbMText
 10
232.946089
 20
176.209438
 30
0
 40
3.5
 41
1.555555555555773
 71
    5
 72
    1
  1
3
  7
standard
210
0
220
0
230
1
 50
0
 73
    2
 44
1
  0
LINE
  5
CC
100
AcDbEntity
  8
Dimensions
  6
ByLayer
 62
  256
370
   -1
100
AcDbLine
 10
220.428589
 20
156.963808
 11
220.428589
 21
174.959438
  0
LINE
  5
CD
100
AcDbEntity
  8
Dimensions
  6
ByLayer
 62
  256
370
   -1
100
AcDbLine
 10
223.428589
 20
154.963808
 11
223.428589
 21
174.959438
  0
LINE
  5
CE
100
AcDbEntity
  8
Dimensions
  6
ByLayer
 62
  256
370
   -1
100
AcDbLine
 10
215.928589
 20
164.939136
 11
230.428589
 21
164.939136
  0
SOLID
  5
CF
100
AcDbEntity
  8
Dimensions
  6
ByLayer
 62
  256
370
   -1
100
AcDbTrace
 10
222.928589
 20
164.939136
 30
0
 11
219.428589
 21
164.356337479118
 31
0
 12
219.428589
 22
165.521934520882
 32
0
 13
219.428589
 23
165.521934520882
 33
0
  0
SOLID
  5
D0
100
AcDbEntity
  8
Dimensions
  6
ByLayer
 62
  256
370
   -1
100
AcDbTrace
 10
223.428589
 20
164.939136
 30
0
 11
226.928589
 21
165.521934520882
 31
0
 12
226.928589
 22
164.356337479118
 32
0
 13
226.928589
 23
164.356337479118
 33
0
  0
LINE
  5
D1
100
AcDbEntity
  8
Dimensions
  6
ByLayer
 62
  256
370
   -1
100
AcDbLine
 10
222.928589
 20
154.963808
 11
222.928589
 21
166.939136
  0
LINE
  5
D2
100
AcDbEntity
  8
Dimensions
  6
ByLayer
 62
  256
370
   -1
100
AcDbLine
 10
223.428589
 20
154.963808
 11
223.428589
 21
166.939136
  0
LINE
  5
D3
100
AcDbEntity
  8
Dimensions
  6
ByLayer
 62
  256
370
   -1
100
AcDbLine
 10
218.428589
 20
154.963808
 11
208.415432
 21
154.963808
  0
LINE
  5
D4
100
AcDbEntity
  8
Dimensions
  6
ByLayer
 62
  256
370
   -1
100
AcDbLine
 10
218.428589
 20
147.463808
 11
208.415432
 21
147.463808
  0
LINE
  5
D5
100
AcDbEntity
  8
Dimensions
  6
ByLayer
 62
  256
370
   -1
100
AcDbLine
 10
210.415432
 20
161.963808
 11
210.415432
 21
140.463808
  0
SOLID
  5
D6
100
AcDbEntity
  8
Dimensions
  6
ByLayer
 62
  256
370
   -1
100
AcDbTrace
 10
210.415432
 20
154.963808
 30
0
 11
209.832633479118
 21
158.463808
 31
0
 12
210.998230520882
 22
158.463808
 32
0
 13
210.998230520882
 23
158.463808
 33
0
  0
SOLID
  5
D7
100
AcDbEntity
  8
Dimensions
  6
ByLayer
 62
  256
370
   -1
100
AcDbTrace
 10
210.415432
 20
147.463808
 30
0
 11
210.998230520882
 21
143.963808
 31
0
 12
209.832633479118
 22
143.963808
 32
0
 13
209.832633479118
 23
143.963808
 33
0
  0
LINE
  5
D8
100
AcDbEntity
  8
Dimensions
  6
ByLayer
 62
  256
370
   -1
100
AcDbLine
 10
218.428589
 20
147.463808
 11
208.529094
 21
147.463808
  0
LINE
  5
D9
100
AcDbEntity
  8
Dimensions
  6
ByLayer
 62
  256
370
   -1
100
AcDbLine
 10
218.428589
 20
82.463808
 11
208.529094
 21
82.463808
  0
LINE
  5
DA
100
AcDbEntity
  8
Dimensions
  6
ByLayer
 62
  256
370
   -1
100
AcDbLine
 10
210.529094
 20
147.463808
 11
210.529094
 21
82.463808
  0
SOLID
  5
DB
100
AcDbEntity
  8
Dimensions
  6
ByLayer
 62
  256
370
   -1
100
AcDbTrace
 10
210.529094
 20
147.463808
 30
0
 11
211.111892520882
 21
143.963808
 31
0
 12
209.946295479118
 22
143.963808
 32
0
 13
209.946295479118
 23
143.963808
 33
0
  0
SOLID
  5
DC
100
AcDbEntity
  8
Dimensions
  6
ByLayer
 62
  256
370
   -1
100
AcDbTrace
 10
210.529094
 20
82.463808
 30
0
 11
209.946295479118
 21
85.963808
 31
0
 12
211.111892520882
 22
85.963808
 32
0
 13
211.111892520882
 23
85.963808
 33
0
  0
MTEXT
  5
DD
100
AcDbEntity
  8
Dimensions
  6
ByLayer
 62
  256
370
   -1
100
AcDbMText
 10
207.276594
 20
114.963808
 30
0
 40
3.5
 41
4.277777777778212
 71
    5
 72
    1
  1
65
  7
standard
210
0
220
0
230
1
 50
90
 73
    2
 44
1
  0
LINE
  5
DE
100
AcDbEntity
  8
Dimensions
  6
ByLayer
 62
  256
370
   -1
100
AcDbLine
 10
218.428589
 20
82.463808
 11
208.51581
 21
82.463808
  0
LINE
  5
DF
100
AcDbEntity
  8
Dimensions
  6
ByLayer
 62
  256
370
   -1
100
AcDbLine
 10
218.428589
 20
74.963808
 11
208.51581
 21
74.963808
  0
LINE
  5
E0
100
AcDbEntity
  8
Dimensions
  6
ByLayer
 62
  256
370
   -1
100
AcDbLine
 10
210.51581
 20
89.463808
 11
210.51581
 21
67.963808
  0
SOLID
  5
E1
100
AcDbEntity
  8
Dimensions
  6
ByLayer
 62
  256
370
   -1
100
AcDbTrace
 10
210.51581
 20
82.463808
 30
0
 11
209.933011479118
 21
85.963808
 31
0
 12
211.098608520882
 22
85.963808
 32
0
 13
211.098608520882
 23
85.963808
 33
0
  0
SOLID
  5
E2
100
AcDbEntity
  8
Dimensions
  6
ByLayer
 62
  256
370
   -1
100
AcDbTrace
 10
210.51581
 20
74.963808
 30
0
 11
211.098608520882
 21
71.463808
 31
0
 12
209.933011479118
 22
71.463808
 32
0
 13
209.933011479118
 23
71.463808
 33
0
  0
LINE
  5
E3
100
AcDbEntity
  8
Dimensions
  6
ByLayer
 62
  256
370
   -1
100
AcDbLine
 10
233.328084
 20
161.963808
 11
233.328084
 21
145.963808
  0
SOLID
  5
E4
100
AcDbEntity
  8
Dimensions
  6
ByLayer
 62
  256
370
   -1
100
AcDbTrace
 10
233.328084
 20
154.963808
 30
0
 11
232.745285479118
 21
158.463808
 31
0
 12
233.910882520882
 22
158.463808
 32
0
 13
233.910882520882
 23
158.463808
 33
0
  0
SOLID
  5
E5
100
AcDbEntity
  8
Dimensions
  6
ByLayer
 62
  256
370
   -1
100
AcDbTrace
 10
233.328084
 20
152.963808
 30
0
 11
233.910882520882
 21
149.463808
 31
0
 12
232.745285479118
 22
149.463808
 32
0
 13
232.745285479118
 23
149.463808
 33
0
  0
MTEXT
  5
E6
100
AcDbEntity
  8
Dimensions
  6
ByLayer
 62
  256
370
   -1
100
AcDbMText
 10
230.078084
 20
143.373808
 30
0
 40
3.5
 41
1.555555555555556
 71
    5
 72
    1
  1
2
  7
standard
210
0
220
0
230
1
 50
90
 73
    2
 44
1
  0
LINE
  5
E7
100
AcDbEntity
  8
Dimensions
  6
ByLayer
 62
  256
370
   -1
100
AcDbLine
 10
225.428589
 20
154.963808
 11
235.328084
 21
154.963808
  0
LINE
  5
E8
100
AcDbEntity
  8
Dimensions
  6
ByLayer
 62
  256
370
   -1
100
AcDbLine
 10
225.428589
 20
152.963808
 11
235.328084
 21
152.963808
  0
LINE
  5
E9
100
AcDbEntity
  8
Dimensions
  6
ByLayer
 62
  256
370
   -1
100
AcDbLine
 10
162.070116
 20
163.737603
 11
178.320116
 21
163.737603
  0
SOLID
  5
EA
100
AcDbEntity
  8
Dimensions
  6
ByLayer
 62
  256
370
   -1
100
AcDbTrace
 10
169.070116
 20
163.737603
 30
0
 11
165.570116
 21
163.154804479118
 31
0
 12
165.570116
 22
164.320401520882
 32
0
 13
165.570116
 23
164.320401520882
 33
0
  0
SOLID
  5
EB
100
AcDbEntity
  8
Dimensions
  6
ByLayer
 62
  256
370
   -1
100
AcDbTrace
 10
171.320116
 20
163.737603
 30
0
 11
174.820116
 21
164.320401520882
 31
0
 12
174.820116
 22
163.154804479118
 32
0
 13
174.820116
 23
163.154804479118
 33
0
  0
LINE
  5
EC
100
AcDbEntity
  8
Dimensions
  6
ByLayer
 62
  256
370
   -1
100
AcDbLine
 10
169.070116
 20
154.963808
 11
169.070116
 21
165.737603
  0
LINE
  5
ED
100
AcDbEntity
  8
Dimensions
  6
ByLayer
 62
  256
370
   -1
100
AcDbLine
 10
171.320116
 20
156.963808
 11
171.320116
 21
165.737603
  0
LINE
  5
EE
100
AcDbEntity
  8
Annotations
  6
ByLayer
 62
  256
370
   -1
100
AcDbLine
 10
108.0073516666667
 20
48.411251
 11
108.0073516666667
 21
52.411251
  0
LINE
  5
EF
100
AcDbEntity
  8
Annotations
  6
ByLayer
 62
  256
370
   -1
100
AcDbLine
 10
109.340685
 20
48.411251
 11
109.340685
 21
52.411251
  0
LINE
  5
F0
100
AcDbEntity
  8
Annotations
  6
ByLayer
 62
  256
370
   -1
100
AcDbLine
 10
107.340685
 20
51.07791766666666
 11
110.0073516666667
 21
51.07791766666666
  0
LINE
  5
F1
100
AcDbEntity
  8
Annotations
  6
ByLayer
 62
  256
370
   -1
100
AcDbLine
 10
107.340685
 20
49.74458433333334
 11
110.0073516666667
 21
49.74458433333334
  0
LINE
  5
F2
100
AcDbEntity
  8
Annotations
  6
ByLayer
 62
  256
370
   -1
100
AcDbLine
 10
111.340685
 20
51.96680655555556
 11
111.340685
 21
52.411251
  0
LINE
  5
F3
100
AcDbEntity
  8
Annotations
  6
ByLayer
 62
  256
370
   -1
100
AcDbLine
 10
111.340685
 20
52.411251
 11
113.1184627777778
 21
52.411251
  0
LINE
  5
F4
100
AcDbEntity
  8
Annotations
  6
ByLayer
 62
  256
370
   -1
100
AcDbLine
 10
113.1184627777778
 20
52.411251
 11
112.2295738888889
 21
48.411251
  0
LINE
  5
F5
100
AcDbEntity
  8
Annotations
  6
ByLayer
 62
  256
370
   -1
100
AcDbLine
 10
182.0819898603145
 20
16.74817555555556
 11
184.0079009714256
 21
16.74817555555556
  0
LINE
  5
F6
100
AcDbEntity
  8
Annotations
  6
ByLayer
 62
  256
370
   -1
100
AcDbLine
 10
181.7116343047589
 20
15.63706444444445
 11
183.0449676380923
 21
19.63706444444445
  0
LINE
  5
F7
100
AcDbEntity
  8
Annotations
  6
ByLayer
 62
  256
370
   -1
100
AcDbLine
 10
183.0449676380923
 20
19.63706444444445
 11
184.3783009714256
 21
15.63706444444445
  0
ARC
  5
F8
100
AcDbEntity
  8
Annotations
  6
ByLayer
 62
  256
370
   -1
100
AcDbCircle
 10
195.6560856936545
 20
17.63706444444445
 40
6.944450944451166
100
AcDbArc
 50
159.390327230583
 51
200.609672769417
  0
LINE
  5
F9
100
AcDbEntity
  8
Annotations
  6
ByLayer
 62
  256
370
   -1
100
AcDbLine
 10
192.2671898603145
 20
15.63706444444445
 11
190.4894120825367
 21
15.63706444444445
  0
LINE
  5
FA
100
AcDbEntity
  8
Annotations
  6
ByLayer
 62
  256
370
   -1
100
AcDbLine
 10
190.4894120825367
 20
15.63706444444445
 11
190.4894120825367
 21
19.63706444444445
  0
LINE
  5
FB
100
AcDbEntity
  8
Annotations
  6
ByLayer
 62
  256
370
   -1
100
AcDbLine
 10
190.4894120825367
 20
19.63706444444445
 11
192.2671898603145
 21
19.63706444444445
  0
LINE
  5
FC
100
AcDbEntity
  8
Annotations
  6
ByLayer
 62
  256
370
   -1
100
AcDbLine
 10
190.4894120825367
 20
17.85928666666667
 11
191.8227454158701
 21
17.85928666666667
  0
ARC
  5
FD
100
AcDbEntity
  8
Annotations
  6
ByLayer
 62
  256
370
   -1
100
AcDbCircle
 10
194.821850811465
 20
19.10436634243879
 40
3.467302013403533
100
AcDbArc
 50
249.375524082181
 51
270.014782980287
  0
ARC
  5
FE
100
AcDbEntity
  8
Annotations
  6
ByLayer
 62
  256
370
   -1
100
AcDbCircle
 10
194.8227500175005
 20
16.19261745549925
 40
0.5555530110738535
100
AcDbArc
 50
269.9995254206153
 51
64.23292191967488
  0
LINE
  5
FF
100
AcDbEntity
  8
Annotations
  6
ByLayer
 62
  256
370
   -1
100
AcDbLine
 10
195.0642565269812
 20
16.69293111111111
 11
193.9145676380923
 21
17.24786444444445
  0
ARC
  5
100
100
AcDbEntity
  8
Annotations
  6
ByLayer
 62
  256
370
   -1
100
AcDbCircle
 10
194.1541081936478
 20
17.74862777777778
 40
0.5551068309496607
100
AcDbArc
 50
89.79660716196487
 51
244.4358401783253
  0
ARC
  5
101
100
AcDbEntity
  8
Annotations
  6
ByLayer
 62
  256
370
   -1
100
AcDbCircle
 10
194.1500737568839
 20
15.91559753456222
 40
2.388141126351831
100
AcDbArc
 50
65.08645524598404
 51
89.85592933571293
  0
LINE
  5
102
100
AcDbEntity
  8
Annotations
  6
ByLayer
 62
  256
370
   -1
100
AcDbLine
 10
198.0449696952411
 20
18.30373111111112
 11
197.3783030285744
 21
18.30373111111112
  0
ARC
  5
103
100
AcDbEntity
  8
Annotations
  6
ByLayer
 62
  256
370
   -1
100
AcDbCircle
 10
197.3783025305243
 20
17.63706494249457
 40
0.6666661686167302
100
AcDbArc
 50
89.99995719571302
 51
180.0000428042869
  0
LINE
  5
104
100
AcDbEntity
  8
Annotations
  6
ByLayer
 62
  256
370
   -1
100
AcDbLine
 10
196.7116363619077
 20
17.63706444444445
 11
196.7116363619077
 21
16.30373111111112
  0
ARC
  5
105
100
AcDbEntity
  8
Annotations
  6
ByLayer
 62
  256
370
   -1
100
AcDbCircle
 10
197.3783025305243
 20
16.30373061306099
 40
0.6666661686167302
100
AcDbArc
 50
179.999957195713
 51
270.000042804287
  0
LINE
  5
106
100
AcDbEntity
  8
Annotations
  6
ByLayer
 62
  256
370
   -1
100
AcDbLine
 10
197.3783030285744
 20
15.63706444444445
 11
198.0449696952411
 21
15.63706444444445
  0
LINE
  5
107
100
AcDbEntity
  8
Annotations
  6
ByLayer
 62
  256
370
   -1
100
AcDbLine
 10
202.3783030285744
 20
18.97039777777778
 11
202.4973919174633
 21
19.19262000000001
  0
ARC
  5
108
100
AcDbEntity
  8
Annotations
  6
ByLayer
 62
  256
370
   -1
100
AcDbCircle
 10
203.2671919174633
 20
18.74817555555556
 40
0.8888885780555011
100
AcDbArc
 50
329.9999884324239
 51
149.9999884324239
  0
LINE
  5
109
100
AcDbEntity
  8
Annotations
  6
ByLayer
 62
  256
370
   -1
100
AcDbLine
 10
204.0369919174633
 20
18.30373111111112
 11
202.3783030285744
 21
15.63706444444445
  0
LINE
  5
10A
100
AcDbEntity
  8
Annotations
  6
ByLayer
 62
  256
370
   -1
100
AcDbLine
 10
202.3783030285744
 20
15.63706444444445
 11
204.1560808063522
 21
15.63706444444445
  0
LINE
  5
10B
100
AcDbEntity
  8
Annotations
  6
ByLayer
 62
  256
370
   -1
100
AcDbLine
 10
205.4894141396855
 20
15.85928666666667
 11
205.4894141396855
 21
16.08150888888889
  0
LINE
  5
10C
100
AcDbEntity
  8
Annotations
  6
ByLayer
 62
  256
370
   -1
100
AcDbLine
 10
205.4894141396855
 20
17.63706444444445
 11
205.4894141396855
 21
17.85928666666667
  0
LINE
  5
10D
100
AcDbEntity
  8
Annotations
  6
ByLayer
 62
  256
370
   -1
100
AcDbLine
 10
206.8227474730188
 20
18.74817555555556
 11
207.7116363619077
 21
19.63706444444445
  0
LINE
  5
10E
100
AcDbEntity
  8
Annotations
  6
ByLayer
 62
  256
370
   -1
100
AcDbLine
 10
207.7116363619077
 20
19.63706444444445
 11
207.7116363619077
 21
15.63706444444445
  0
ARC
  5
10F
100
AcDbEntity
  8
Annotations
  6
ByLayer
 62
  256
370
   -1
100
AcDbCircle
 10
202.5449627507899
 20
17.63706444444445
 40
6.944450944451166
100
AcDbArc
 50
339.390327230583
 51
20.60967276941702
  0
LINE
  5
110
100
AcDbEntity
  8
Dimensions
  6
ByLayer
 62
  256
370
   -1
100
AcDbLine
 10
193.000823
 20
56.078998
 11
208.000823
 21
56.078998
  0
SOLID
  5
111
100
AcDbEntity
  8
Dimensions
  6
ByLayer
 62
  256
370
   -1
100
AcDbTrace
 10
200.000823
 20
56.078998
 30
0
 11
196.500823
 21
55.49619947911802
 31
0
 12
196.500823
 22
56.66179652088198
 32
0
 13
196.500823
 23
56.66179652088198
 33
0
  0
SOLID
  5
112
100
AcDbEntity
  8
Dimensions
  6
ByLayer
 62
  256
370
   -1
100
AcDbTrace
 10
201.000823
 20
56.078998
 30
0
 11
204.500823
 21
56.66179652088198
 31
0
 12
204.500823
 22
55.49619947911802
 32
0
 13
204.500823
 23
55.49619947911802
 33
0
  0
MTEXT
  5
113
100
AcDbEntity
  8
Dimensions
  6
ByLayer
 62
  256
370
   -1
100
AcDbMText
 10
188.301641
 20
56.078998
 30
0
 40
3.5
 41
0.7777777777777778
 71
    5
 72
    1
  1
1
  7
standard
210
0
220
0
230
1
 50
0
 73
    2
 44
1
  0
LINE
  5
114
100
AcDbEntity
  8
Dimensions
  6
ByLayer
 62
  256
370
   -1
100
AcDbLine
 10
200.000823
 20
48.730683
 11
200.000823
 21
58.078998
  0
LINE
  5
115
100
AcDbEntity
  8
Dimensions
  6
ByLayer
 62
  256
370
   -1
100
AcDbLine
 10
201.000823
 20
48.760461
 11
201.000823
 21
58.078998
  0
LINE
  5
116
100
AcDbEntity
  8
Annotations
  6
ByLayer
 62
  256
370
   -1
100
AcDbLine
 10
179.9895847777778
 20
185.285142
 11
178.211807
 21
185.285142
  0
LINE
  5
117
100
AcDbEntity
  8
Annotations
  6
ByLayer
 62
  256
370
   -1
100
AcDbLine
 10
178.211807
 20
185.285142
 11
178.211807
 21
189.285142
  0
LINE
  5
118
100
AcDbEntity
  8
Annotations
  6
ByLayer
 62
  256
370
   -1
100
AcDbLine
 10
178.211807
 20
189.285142
 11
179.9895847777778
 21
189.285142
  0
LINE
  5
119
100
AcDbEntity
  8
Annotations
  6
ByLayer
 62
  256
370
   -1
100
AcDbLine
 10
178.211807
 20
187.5073642222222
 11
179.5451403333333
 21
187.5073642222222
  0
ARC
  5
11A
100
AcDbEntity
  8
Annotations
  6
ByLayer
 62
  256
370
   -1
100
AcDbCircle
 10
182.6562499728381
 20
187.5073598074032
 40
2.222217807403696
100
AcDbArc
 50
233.1300644115061
 51
270.0000379426498
  0
ARC
  5
11B
100
AcDbEntity
  8
Annotations
  6
ByLayer
 62
  256
370
   -1
100
AcDbCircle
 10
182.6562511041158
 20
186.1740303812088
 40
0.8888883812088965
100
AcDbArc
 50
270.0000219368293
 51
62.98101938430567
  0
LINE
  5
11C
100
AcDbEntity
  8
Annotations
  6
ByLayer
 62
  256
370
   -1
100
AcDbLine
 10
183.0600603333333
 20
186.965902
 11
181.8079981111111
 21
187.604382
  0
ARC
  5
11D
100
AcDbEntity
  8
Annotations
  6
ByLayer
 62
  256
370
   -1
100
AcDbCircle
 10
182.2118073403286
 20
188.3962536187912
 40
0.8888883812088966
100
AcDbArc
 50
90.00002193682934
 51
242.9810193843057
  0
ARC
  5
11E
100
AcDbEntity
  8
Annotations
  6
ByLayer
 62
  256
370
   -1
100
AcDbCircle
 10
182.2118069222265
 20
186.3962527222434
 40
2.888889277756598
100
AcDbArc
 50
67.38013659445404
 51
89.99999845750555
  0
LINE
  5
11F
100
AcDbEntity
  8
Annotations
  6
ByLayer
 62
  256
370
   -1
100
AcDbLine
 10
186.6562505964358
 20
185.285142
 11
185.7673617075469
 21
185.285142
  0
ARC
  5
120
100
AcDbEntity
  8
Annotations
  6
ByLayer
 62
  256
370
   -1
100
AcDbCircle
 10
185.7673610434801
 20
186.1740302248221
 40
0.8888882248223071
100
AcDbArc
 50
179.999957195713
 51
270.000042804287
  0
LINE
  5
121
100
AcDbEntity
  8
Annotations
  6
ByLayer
 62
  256
370
   -1
100
AcDbLine
 10
184.8784728186581
 20
186.1740308888889
 11
184.8784728186581
 21
188.3962531111111
  0
ARC
  5
122
100
AcDbEntity
  8
Annotations
  6
ByLayer
 62
  256
370
   -1
100
AcDbCircle
 10
185.7673610434801
 20
188.3962537751779
 40
0.8888882248223071
100
AcDbArc
 50
89.99995719571304
 51
180.000042804287
  0
LINE
  5
123
100
AcDbEntity
  8
Annotations
  6
ByLayer
 62
  256
370
   -1
100
AcDbLine
 10
185.7673617075469
 20
189.285142
 11
186.6562505964358
 21
189.285142
  0
LINE
  5
124
100
AcDbEntity
  8
Annotations
  6
ByLayer
 62
  256
370
   -1
100
AcDbLine
 10
187.9895839297692
 20
185.5073642222222
 11
187.9895839297692
 21
185.7295864444445
  0
LINE
  5
125
100
AcDbEntity
  8
Annotations
  6
ByLayer
 62
  256
370
   -1
100
AcDbLine
 10
187.9895839297692
 20
187.285142
 11
187.9895839297692
 21
187.5073642222222
  0
LINE
  5
126
100
AcDbEntity
  8
Annotations
  6
ByLayer
 62
  256
370
   -1
100
AcDbLine
 10
192.3229172631025
 20
188.3962531111111
 11
193.2118061519914
 21
189.285142
  0
LINE
  5
127
100
AcDbEntity
  8
Annotations
  6
ByLayer
 62
  256
370
   -1
100
AcDbLine
 10
193.2118061519914
 20
189.285142
 11
193.2118061519914
 21
185.285142
  0
LINE
  5
128
100
AcDbEntity
  8
Annotations
  6
ByLayer
 62
  256
370
   -1
100
AcDbLine
 10
194.5451394853247
 20
185.5073642222222
 11
194.5451394853247
 21
185.7295864444445
  0
LINE
  5
129
100
AcDbEntity
  8
Annotations
  6
ByLayer
 62
  256
370
   -1
100
AcDbLine
 10
194.5451394853247
 20
187.285142
 11
194.5451394853247
 21
187.5073642222222
  0
LINE
  5
12A
100
AcDbEntity
  8
Annotations
  6
ByLayer
 62
  256
370
   -1
100
AcDbLine
 10
195.8784728186581
 20
188.3962531111111
 11
196.7673617075469
 21
189.285142
  0
LINE
  5
12B
100
AcDbEntity
  8
Annotations
  6
ByLayer
 62
  256
370
   -1
100
AcDbLine
 10
196.7673617075469
 20
189.285142
 11
196.7673617075469
 21
185.285142
  0
LINE
  5
12C
100
AcDbEntity
  8
Annotations
  6
CONTINUOUS
 62
  256
370
   -1
100
AcDbLine
 10
237.3395337777778
 20
73.17087988888889
 11
239.7469226666667
 21
73.17087988888889
  0
LINE
  5
12D
100
AcDbEntity
  8
Annotations
  6
CONTINUOUS
 62
  256
370
   -1
100
AcDbLine
 10
236.8765893333334
 20
71.781991
 11
238.543256
 21
76.781991
  0
LINE
  5
12E
100
AcDbEntity
  8
Annotations
  6
CONTINUOUS
 62
  256
370
   -1
100
AcDbLine
 10
238.543256
 20
76.781991
 11
240.2099226666667
 21
71.781991
  0
MTEXT
  5
12F
100
AcDbEntity
  8
Dimensions
  6
ByLayer
 62
  256
370
   -1
100
AcDbMText
 10
180.7323432352941
 20
168.0387672890025
 30
0
 40
3.5
 41
8.166666666666885
 71
    5
 72
    1
  1
2.25
  7
standard
210
0
220
0
230
1
 50
0
 73
    2
 44
1
  0
MTEXT
  5
130
100
AcDbEntity
  8
Dimensions
  6
ByLayer
 62
  256
370
   -1
100
AcDbMText
 10
232.5992952503553
 20
168.211636
 30
0
 40
3.5
 41
5.444444444444662
 71
    5
 72
    1
  1
0.5
  7
standard
210
0
220
0
230
1
 50
0
 73
    2
 44
1
  0
MTEXT
  5
131
100
AcDbEntity
  8
Dimensions
  6
ByLayer
 62
  256
370
   -1
100
AcDbMText
 10
205.8820120191816
 20
151.213808
 30
0
 40
3.5
 41
5.444444444444661
 71
    5
 72
    1
  1
7.5
  7
standard
210
0
220
0
230
1
 50
90
 73
    2
 44
1
  0
MTEXT
  5
132
100
AcDbEntity
  8
Dimensions
  6
ByLayer
 62
  256
370
   -1
100
AcDbMText
 10
205.9823900191816
 20
78.713808
 30
0
 40
3.5
 41
5.444444444444661
 71
    5
 72
    1
  1
7.5
  7
standard
210
0
220
0
230
1
 50
90
 73
    2
 44
1
  0
MTEXT
  5
133
100
AcDbEntity
  8
Dimensions
  6
ByLayer
 62
  256
370
   -1
100
AcDbMText
 10
70.37234399872123
 20
69.54434198465474
 30
0
 40
3.5
 41
5.444444444444661
 71
    5
 72
    1
  1
7.5
  7
standard
210
0
220
0
230
1
 50
360
 73
    2
 44
1
  0
MTEXT
  5
134
100
AcDbEntity
  8
Dimensions
  6
ByLayer
 62
  256
370
   -1
100
AcDbMText
 10
167.8723439987212
 20
69.39773898465472
 30
0
 40
3.5
 41
5.444444444444661
 71
    5
 72
    1
  1
7.5
  7
standard
210
0
220
0
230
1
 50
0
 73
    2
 44
1
  0
MTEXT
  5
135
100
AcDbEntity
  8
Dimensions
  6
ByLayer
 62
  256
370
   -1
100
AcDbMText
 10
49.23898701150895
 20
115.2660359987212
 30
0
 40
3.5
 41
4.277777777778212
 71
    5
 72
    1
  1
65
  7
standard
210
0
220
0
230
1
 50
90
 73
    2
 44
1
  0
ENDSEC
  0
SECTION
  2
OBJECTS
  0
DICTIONARY
  5
C
330
0
100
AcDbDictionary
281
    1
  3
ACAD_GROUP
350
D
  0
DICTIONARY
  5
D
330
C
100
AcDbDictionary
281
    1
  0
ENDSEC
  0
EOF
