999
DXF created by Inkscape
  0
SECTION
  2
HEADER
  9
$ACADVER
  1
AC1014
  9
$HANDSEED
  5
FFFF
  9
$MEASUREMENT
 70
     1
  0
ENDSEC
  0
SECTION
  2
TABLES
  0
TABLE
  2
VPORT
  5
8
330
0
100
AcDbSymbolTable
 70
     4
  0
VPORT
  5
2E
330
8
100
AcDbSymbolTableRecord
100
AcDbViewportTableRecord
  2
*ACTIVE
 70
     0
 10
0.0
 20
0.0
 11
1.0
 21
1.0
 12
210.0
 22
148.5
 13
0.0
 23
0.0
 14
10.0
 24
10.0
 15
10.0
 25
10.0
 16
0.0
 26
0.0
 36
1.0
 17
0.0
 27
0.0
 37
0.0
 40
341.0
 41
1.24
 42
50.0
 43
0.0
 44
0.0
 50
0.0
 51
0.0
 71
     0
 72
   100
 73
     1
 74
     3
 75
     0
 76
     0
 77
     0
 78
     0
  0
ENDTAB
  0
TABLE
  2
LTYPE
  5
5
330
0
100
AcDbSymbolTable
 70
     1
  0
LTYPE
  5
14
330
5
100
AcDbSymbolTableRecord
100
AcDbLinetypeTableRecord
  2
BYBLOCK
 70
     0
  3

 72
    65
 73
     0
 40
0.0
  0
LTYPE
  5
15
330
5
100
AcDbSymbolTableRecord
100
AcDbLinetypeTableRecord
  2
BYLAYER
 70
     0
  3

 72
    65
 73
     0
 40
0.0
  0
LTYPE
  5
16
330
5
100
AcDbSymbolTableRecord
100
AcDbLinetypeTableRecord
  2
CONTINUOUS
 70
     0
  3
Solid line
 72
    65
 73
     0
 40
0.0
  0
ENDTAB
  0
TABLE
  2
LAYER
  5
2
100
AcDbSymbolTable
 70
2
  0
LAYER
  5
50
100
AcDbSymbolTableRecord
100
AcDbLayerTableRecord
  2
0
 70
0
  6
CONTINUOUS
  0
LAYER
  5
51
100
AcDbSymbolTableRecord
100
AcDbLayerTableRecord
  2
Layer_1
 70
0
  6
CONTINUOUS
  0
ENDTAB
  0
TABLE
  2
STYLE
  5
3
330
0
100
AcDbSymbolTable
 70
     1
  0
STYLE
  5
11
330
3
100
AcDbSymbolTableRecord
100
AcDbTextStyleTableRecord
  2
STANDARD
 70
     0
 40
0.0
 41
1.0
 50
0.0
 71
     0
 42
2.5
  3
txt
  4

  0
ENDTAB
  0
TABLE
  2
VIEW
  5
6
330
0
100
AcDbSymbolTable
 70
     0
  0
ENDTAB
  0
TABLE
  2
UCS
  5
7
330
0
100
AcDbSymbolTable
 70
     0
  0
ENDTAB
  0
TABLE
  2
APPID
  5
9
330
0
100
AcDbSymbolTable
 70
     2
  0
APPID
  5
12
330
9
100
AcDbSymbolTableRecord
100
AcDbRegAppTableRecord
  2
ACAD
 70
     0
  0
ENDTAB
  0
TABLE
  2
DIMSTYLE
  5
A
330
0
100
AcDbSymbolTable
 70
     1
  0
DIMSTYLE
105
27
330
A
100
AcDbSymbolTableRecord
100
AcDbDimStyleTableRecord
  2
ISO-25
 70
     0
  3

  4

  5

  6

  7

 40
1.0
 41
2.5
 42
0.625
 43
3.75
 44
1.25
 45
0.0
 46
0.0
 47
0.0
 48
0.0
140
2.5
141
2.5
142
0.0
143
0.03937007874016
144
1.0
145
0.0
146
1.0
147
0.625
 71
     0
 72
     0
 73
     0
 74
     0
 75
     0
 76
     0
 77
     1
 78
     8
170
     0
171
     3
172
     1
173
     0
174
     0
175
     0
176
     0
177
     0
178
     0
270
     2
271
     2
272
     2
273
     2
274
     3
340
11
275
     0
280
     0
281
     0
282
     0
283
     0
284
     8
285
     0
286
     0
287
     3
288
     0
  0
ENDTAB
  0
TABLE
  2
BLOCK_RECORD
  5
1
330
0
100
AcDbSymbolTable
 70
     1
  0
BLOCK_RECORD
  5
1F
330
1
100
AcDbSymbolTableRecord
100
AcDbBlockTableRecord
  2
*MODEL_SPACE
  0
BLOCK_RECORD
  5
1B
330
1
100
AcDbSymbolTableRecord
100
AcDbBlockTableRecord
  2
*PAPER_SPACE
  0
ENDTAB
  0
ENDSEC
  0
SECTION
  2
BLOCKS
  0
BLOCK
  5
20
330
1F
100
AcDbEntity
  8
0
100
AcDbBlockBegin
  2
*MODEL_SPACE
 70
     0
 10
0.0
 20
0.0
 30
0.0
  3
*MODEL_SPACE
  1

  0
ENDBLK
  5
21
330
1F
100
AcDbEntity
  8
0
100
AcDbBlockEnd
  0
BLOCK
  5
1C
330
1B
100
AcDbEntity
 67
     1
  8
0
100
AcDbBlockBegin
  2
*PAPER_SPACE
  1

  0
ENDBLK
  5
1D
330
1B
100
AcDbEntity
 67
     1
  8
0
100
AcDbBlockEnd
  0
ENDSEC
  0
SECTION
  2
ENTITIES
  0
LWPOLYLINE
  5
100
100
AcDbEntity
  8
Layer_1
 62
5
100
AcDbPolyline
 90
6
 70
0
 10
195.693329
 20
47.000005
 30
0.0
 10
195.693329
 20
45.000005
 30
0.0
 10
190.693331
 20
45.000005
 30
0.0
 10
190.693331
 20
55.000006
 30
0.0
 10
195.693329
 20
55.000006
 30
0.0
 10
195.693329
 20
53.000004
 30
0.0
  0
LWPOLYLINE
  5
101
100
AcDbEntity
  8
Layer_1
 62
5
100
AcDbPolyline
 90
8
 70
0
 10
195.693329
 20
47.000005
 30
0.0
 10
210.693330
 20
45.000005
 30
0.0
 10
210.693330
 20
46.000005
 30
0.0
 10
213.693330
 20
46.000005
 30
0.0
 10
213.693330
 20
54.000005
 30
0.0
 10
210.693330
 20
54.000005
 30
0.0
 10
210.693330
 20
55.000006
 30
0.0
 10
195.693329
 20
53.000004
 30
0.0
  0
LWPOLYLINE
  5
102
100
AcDbEntity
  8
Layer_1
 62
5
100
AcDbPolyline
 90
12
 70
0
 10
187.693331
 20
55.000006
 30
0.0
 10
187.693331
 20
65.000005
 30
0.0
 10
210.693330
 20
65.000005
 30
0.0
 10
210.693330
 20
64.000007
 30
0.0
 10
213.693330
 20
64.000007
 30
0.0
 10
213.693330
 20
56.000007
 30
0.0
 10
210.693330
 20
56.000007
 30
0.0
 10
210.693330
 20
55.000006
 30
0.0
 10
190.693331
 20
60.000007
 30
0.0
 10
194.693331
 20
58.000005
 30
0.0
 10
194.693331
 20
55.000006
 30
0.0
 10
187.693331
 20
55.000006
 30
0.0
  0
LWPOLYLINE
  5
103
100
AcDbEntity
  8
Layer_1
 62
5
100
AcDbPolyline
 90
9
 70
0
 10
181.693332
 20
75.000005
 30
0.0
 10
191.693332
 20
65.000005
 30
0.0
 10
210.693330
 20
65.000005
 30
0.0
 10
210.693330
 20
66.000006
 30
0.0
 10
213.693333
 20
66.000006
 30
0.0
 10
213.693333
 20
74.000004
 30
0.0
 10
210.693330
 20
74.000004
 30
0.0
 10
210.693330
 20
75.000005
 30
0.0
 10
181.693332
 20
75.000005
 30
0.0
  0
LWPOLYLINE
  5
104
100
AcDbEntity
  8
Layer_1
 62
5
100
AcDbPolyline
 90
11
 70
0
 10
210.693333
 20
75.000008
 30
0.0
 10
210.693333
 20
76.000006
 30
0.0
 10
213.693333
 20
76.000006
 30
0.0
 10
213.693333
 20
84.000007
 30
0.0
 10
210.693333
 20
84.000007
 30
0.0
 10
210.693333
 20
85.000008
 30
0.0
 10
181.693332
 20
83.000006
 30
0.0
 10
176.693330
 20
85.000008
 30
0.0
 10
176.693330
 20
75.000008
 30
0.0
 10
181.693332
 20
77.000007
 30
0.0
 10
210.693333
 20
75.000008
 30
0.0
  0
LWPOLYLINE
  5
105
100
AcDbEntity
  8
Layer_1
 62
5
100
AcDbPolyline
 90
11
 70
0
 10
210.693333
 20
85.000005
 30
0.0
 10
210.693333
 20
86.000006
 30
0.0
 10
213.693333
 20
86.000006
 30
0.0
 10
213.693333
 20
94.000007
 30
0.0
 10
210.693333
 20
94.000007
 30
0.0
 10
210.693333
 20
95.000005
 30
0.0
 10
183.693331
 20
93.000006
 30
0.0
 10
173.693331
 20
93.000006
 30
0.0
 10
173.693331
 20
87.000007
 30
0.0
 10
183.693331
 20
87.000007
 30
0.0
 10
210.693333
 20
85.000005
 30
0.0
  0
LWPOLYLINE
  5
106
100
AcDbEntity
  8
Layer_1
 62
5
100
AcDbPolyline
 90
6
 70
0
 10
195.693332
 20
117.000006
 30
0.0
 10
195.693332
 20
115.000006
 30
0.0
 10
190.693334
 20
115.000006
 30
0.0
 10
190.693334
 20
125.000007
 30
0.0
 10
195.693332
 20
125.000007
 30
0.0
 10
195.693332
 20
123.000005
 30
0.0
  0
LWPOLYLINE
  5
107
100
AcDbEntity
  8
Layer_1
 62
5
100
AcDbPolyline
 90
8
 70
0
 10
195.693332
 20
117.000006
 30
0.0
 10
210.693333
 20
115.000006
 30
0.0
 10
210.693333
 20
116.000006
 30
0.0
 10
213.693333
 20
116.000006
 30
0.0
 10
213.693333
 20
124.000006
 30
0.0
 10
210.693333
 20
124.000006
 30
0.0
 10
210.693333
 20
125.000007
 30
0.0
 10
195.693332
 20
123.000005
 30
0.0
  0
LWPOLYLINE
  5
108
100
AcDbEntity
  8
Layer_1
 62
5
100
AcDbPolyline
 90
12
 70
0
 10
187.693334
 20
105.000004
 30
0.0
 10
187.693334
 20
115.000004
 30
0.0
 10
210.693333
 20
115.000004
 30
0.0
 10
210.693333
 20
114.000006
 30
0.0
 10
213.693333
 20
114.000006
 30
0.0
 10
213.693333
 20
106.000005
 30
0.0
 10
210.693333
 20
106.000005
 30
0.0
 10
210.693333
 20
105.000004
 30
0.0
 10
190.693334
 20
110.000006
 30
0.0
 10
194.693334
 20
108.000004
 30
0.0
 10
194.693334
 20
105.000004
 30
0.0
 10
187.693334
 20
105.000004
 30
0.0
  0
LWPOLYLINE
  5
109
100
AcDbEntity
  8
Layer_1
 62
5
100
AcDbPolyline
 90
9
 70
0
 10
181.693335
 20
105.000002
 30
0.0
 10
191.693334
 20
95.000005
 30
0.0
 10
210.693333
 20
95.000005
 30
0.0
 10
210.693333
 20
96.000006
 30
0.0
 10
213.693335
 20
96.000006
 30
0.0
 10
213.693335
 20
104.000001
 30
0.0
 10
210.693333
 20
104.000001
 30
0.0
 10
210.693333
 20
105.000002
 30
0.0
 10
181.693335
 20
105.000002
 30
0.0
  0
LWPOLYLINE
  5
10a
100
AcDbEntity
  8
Layer_1
 62
5
100
AcDbPolyline
 90
6
 70
0
 10
181.048887
 20
130.306666
 30
0.0
 10
181.048887
 20
128.306666
 30
0.0
 10
176.048889
 20
128.306666
 30
0.0
 10
176.048889
 20
138.306667
 30
0.0
 10
181.048887
 20
138.306667
 30
0.0
 10
181.048887
 20
136.306665
 30
0.0
  0
LWPOLYLINE
  5
10b
100
AcDbEntity
  8
Layer_1
 62
5
100
AcDbPolyline
 90
8
 70
0
 10
181.048887
 20
130.306666
 30
0.0
 10
196.048889
 20
128.306666
 30
0.0
 10
196.048889
 20
129.306666
 30
0.0
 10
199.048888
 20
129.306666
 30
0.0
 10
199.048888
 20
137.306666
 30
0.0
 10
196.048889
 20
137.306666
 30
0.0
 10
196.048889
 20
138.306667
 30
0.0
 10
181.048887
 20
136.306665
 30
0.0
  0
LWPOLYLINE
  5
10c
100
AcDbEntity
  8
Layer_1
 62
5
100
AcDbPolyline
 90
12
 70
0
 10
176.048889
 20
138.306655
 30
0.0
 10
176.048889
 20
148.306655
 30
0.0
 10
199.048888
 20
148.306655
 30
0.0
 10
199.048888
 20
147.306657
 30
0.0
 10
202.048888
 20
147.306657
 30
0.0
 10
202.048888
 20
139.306656
 30
0.0
 10
199.048888
 20
139.306656
 30
0.0
 10
199.048888
 20
138.306655
 30
0.0
 10
179.048889
 20
143.306657
 30
0.0
 10
183.048889
 20
141.306655
 30
0.0
 10
183.048889
 20
138.306655
 30
0.0
 10
176.048889
 20
138.306655
 30
0.0
  0
LWPOLYLINE
  5
10d
100
AcDbEntity
  8
Layer_1
 62
5
100
AcDbPolyline
 90
9
 70
0
 10
176.048889
 20
158.306663
 30
0.0
 10
186.048889
 20
148.306664
 30
0.0
 10
205.048887
 20
148.306664
 30
0.0
 10
205.048887
 20
149.306664
 30
0.0
 10
208.048890
 20
149.306664
 30
0.0
 10
208.048890
 20
157.306662
 30
0.0
 10
205.048887
 20
157.306662
 30
0.0
 10
205.048887
 20
158.306663
 30
0.0
 10
176.048889
 20
158.306663
 30
0.0
  0
LWPOLYLINE
  5
10e
100
AcDbEntity
  8
Layer_1
 62
5
100
AcDbPolyline
 90
11
 70
0
 10
210.048889
 20
158.306666
 30
0.0
 10
210.048889
 20
159.306664
 30
0.0
 10
213.048888
 20
159.306664
 30
0.0
 10
213.048888
 20
167.306665
 30
0.0
 10
210.048889
 20
167.306665
 30
0.0
 10
210.048889
 20
168.306666
 30
0.0
 10
181.048887
 20
166.306664
 30
0.0
 10
176.048886
 20
168.306666
 30
0.0
 10
176.048886
 20
158.306666
 30
0.0
 10
181.048887
 20
160.306665
 30
0.0
 10
210.048889
 20
158.306666
 30
0.0
  0
LWPOLYLINE
  5
10f
100
AcDbEntity
  8
Layer_1
 62
7
100
AcDbPolyline
 90
11
 70
0
 10
213.048891
 20
168.306663
 30
0.0
 10
213.048891
 20
169.306664
 30
0.0
 10
216.048891
 20
169.306664
 30
0.0
 10
216.048891
 20
177.306665
 30
0.0
 10
213.048891
 20
177.306665
 30
0.0
 10
213.048891
 20
178.306663
 30
0.0
 10
186.048889
 20
176.306664
 30
0.0
 10
176.048889
 20
176.306664
 30
0.0
 10
176.048889
 20
170.306665
 30
0.0
 10
186.048889
 20
170.306665
 30
0.0
 10
213.048891
 20
168.306663
 30
0.0
  0
LWPOLYLINE
  5
110
100
AcDbEntity
  8
Layer_1
 62
5
100
AcDbPolyline
 90
6
 70
0
 10
181.048887
 20
200.306664
 30
0.0
 10
181.048887
 20
198.306664
 30
0.0
 10
176.048889
 20
198.306664
 30
0.0
 10
176.048889
 20
208.306665
 30
0.0
 10
181.048887
 20
208.306665
 30
0.0
 10
181.048887
 20
206.306663
 30
0.0
  0
LWPOLYLINE
  5
111
100
AcDbEntity
  8
Layer_1
 62
5
100
AcDbPolyline
 90
8
 70
0
 10
181.048887
 20
200.306664
 30
0.0
 10
196.048889
 20
198.306664
 30
0.0
 10
196.048889
 20
199.306664
 30
0.0
 10
199.048888
 20
199.306664
 30
0.0
 10
199.048888
 20
207.306664
 30
0.0
 10
196.048889
 20
207.306664
 30
0.0
 10
196.048889
 20
208.306665
 30
0.0
 10
181.048887
 20
206.306663
 30
0.0
  0
LWPOLYLINE
  5
112
100
AcDbEntity
  8
Layer_1
 62
5
100
AcDbPolyline
 90
20
 70
0
 10
176.048889
 20
188.306665
 30
0.0
 10
176.048889
 20
198.306665
 30
0.0
 10
199.048888
 20
198.306665
 30
0.0
 10
199.048888
 20
197.306667
 30
0.0
 10
202.048888
 20
197.306667
 30
0.0
 10
202.048888
 20
189.306666
 30
0.0
 10
199.048888
 20
189.306666
 30
0.0
 10
199.048888
 20
188.306665
 30
0.0
 10
179.048889
 20
193.306667
 30
0.0
 10
183.048889
 20
191.306665
 30
0.0
 10
183.048889
 20
188.306665
 30
0.0
 10
176.048889
 20
188.306665
 30
0.0
 10
186.048889
 20
178.306666
 30
0.0
 10
205.048887
 20
178.306666
 30
0.0
 10
205.048887
 20
179.306666
 30
0.0
 10
208.048890
 20
179.306666
 30
0.0
 10
208.048890
 20
187.306662
 30
0.0
 10
205.048887
 20
187.306662
 30
0.0
 10
205.048887
 20
188.306663
 30
0.0
 10
176.048889
 20
188.306663
 30
0.0
  0
LWPOLYLINE
  5
113
100
AcDbEntity
  8
Layer_1
 62
5
100
AcDbPolyline
 90
11
 70
0
 10
69.000014
 20
19.999991
 30
0.0
 10
70.000015
 20
19.999991
 30
0.0
 10
70.000015
 20
16.999997
 30
0.0
 10
78.000016
 20
16.999997
 30
0.0
 10
78.000016
 20
19.999991
 30
0.0
 10
79.000014
 20
19.999991
 30
0.0
 10
76.000015
 20
29.999999
 30
0.0
 10
76.000015
 20
34.000000
 30
0.0
 10
72.000014
 20
34.000000
 30
0.0
 10
72.000014
 20
29.999999
 30
0.0
 10
69.000014
 20
19.999991
 30
0.0
  0
LWPOLYLINE
  5
114
100
AcDbEntity
  8
Layer_1
 62
5
100
AcDbPolyline
 90
11
 70
0
 10
86.004727
 20
30.002031
 30
0.0
 10
85.004727
 20
30.001467
 30
0.0
 10
85.002751
 20
33.001464
 30
0.0
 10
77.002753
 20
32.996073
 30
0.0
 10
77.004728
 20
29.996074
 30
0.0
 10
76.004733
 20
29.995509
 30
0.0
 10
79.011472
 20
19.997536
 30
0.0
 10
79.014295
 20
15.997544
 30
0.0
 10
83.014292
 20
16.000366
 30
0.0
 10
83.011470
 20
20.000358
 30
0.0
 10
86.004727
 20
30.002031
 30
0.0
  0
LWPOLYLINE
  5
115
100
AcDbEntity
  8
Layer_1
 62
5
100
AcDbPolyline
 90
11
 70
0
 10
83.000012
 20
19.999991
 30
0.0
 10
84.000013
 20
19.999991
 30
0.0
 10
84.000013
 20
16.999997
 30
0.0
 10
92.000014
 20
16.999997
 30
0.0
 10
92.000014
 20
19.999991
 30
0.0
 10
93.000012
 20
19.999991
 30
0.0
 10
90.000012
 20
29.999999
 30
0.0
 10
90.000012
 20
34.000000
 30
0.0
 10
86.000011
 20
34.000000
 30
0.0
 10
86.000011
 20
29.999999
 30
0.0
 10
83.000012
 20
19.999991
 30
0.0
  0
LWPOLYLINE
  5
116
100
AcDbEntity
  8
Layer_1
 62
5
100
AcDbPolyline
 90
11
 70
0
 10
100.002018
 20
30.004712
 30
0.0
 10
99.002017
 20
30.004148
 30
0.0
 10
99.000042
 20
33.004145
 30
0.0
 10
91.000044
 20
32.998754
 30
0.0
 10
91.002019
 20
29.998755
 30
0.0
 10
90.002024
 20
29.998190
 30
0.0
 10
93.008763
 20
20.000217
 30
0.0
 10
93.011585
 20
16.000225
 30
0.0
 10
97.011583
 20
16.003047
 30
0.0
 10
97.008761
 20
20.003039
 30
0.0
 10
100.002018
 20
30.004712
 30
0.0
  0
LWPOLYLINE
  5
117
100
AcDbEntity
  8
Layer_1
 62
5
100
AcDbPolyline
 90
11
 70
0
 10
114.004728
 20
30.004712
 30
0.0
 10
113.004727
 20
30.004148
 30
0.0
 10
113.002751
 20
33.004145
 30
0.0
 10
105.002753
 20
32.998754
 30
0.0
 10
105.004729
 20
29.998755
 30
0.0
 10
104.004734
 20
29.998190
 30
0.0
 10
107.011473
 20
20.000217
 30
0.0
 10
107.014295
 20
16.000225
 30
0.0
 10
111.014293
 20
16.003047
 30
0.0
 10
111.011470
 20
20.003039
 30
0.0
 10
114.004728
 20
30.004712
 30
0.0
  0
LWPOLYLINE
  5
118
100
AcDbEntity
  8
Layer_1
 62
5
100
AcDbPolyline
 90
11
 70
0
 10
96.999998
 20
19.999991
 30
0.0
 10
97.999999
 20
19.999991
 30
0.0
 10
97.999999
 20
16.999997
 30
0.0
 10
106.000000
 20
16.999997
 30
0.0
 10
106.000000
 20
19.999991
 30
0.0
 10
106.999998
 20
19.999991
 30
0.0
 10
103.999998
 20
29.999999
 30
0.0
 10
103.999998
 20
34.000000
 30
0.0
 10
100.000000
 20
34.000000
 30
0.0
 10
100.000000
 20
29.999999
 30
0.0
 10
96.999998
 20
19.999991
 30
0.0
  0
LWPOLYLINE
  5
119
100
AcDbEntity
  8
Layer_1
 62
5
100
AcDbPolyline
 90
11
 70
0
 10
110.999998
 20
19.999991
 30
0.0
 10
111.999999
 20
19.999991
 30
0.0
 10
111.999999
 20
16.999997
 30
0.0
 10
120.000000
 20
16.999997
 30
0.0
 10
120.000000
 20
19.999991
 30
0.0
 10
120.999998
 20
19.999991
 30
0.0
 10
117.999998
 20
29.999999
 30
0.0
 10
117.999998
 20
34.000000
 30
0.0
 10
113.999998
 20
34.000000
 30
0.0
 10
113.999998
 20
29.999999
 30
0.0
 10
110.999998
 20
19.999991
 30
0.0
  0
LWPOLYLINE
  5
11a
100
AcDbEntity
  8
Layer_1
 62
5
100
AcDbPolyline
 90
11
 70
0
 10
128.004728
 20
30.002031
 30
0.0
 10
127.004727
 20
30.001467
 30
0.0
 10
127.002752
 20
33.001464
 30
0.0
 10
119.002754
 20
32.996073
 30
0.0
 10
119.004729
 20
29.996074
 30
0.0
 10
118.004734
 20
29.995509
 30
0.0
 10
121.011473
 20
19.997536
 30
0.0
 10
121.014295
 20
15.997544
 30
0.0
 10
125.014293
 20
16.000366
 30
0.0
 10
125.011471
 20
20.000358
 30
0.0
 10
128.004728
 20
30.002031
 30
0.0
  0
LWPOLYLINE
  5
11b
100
AcDbEntity
  8
Layer_1
 62
5
100
AcDbPolyline
 90
11
 70
0
 10
0.873822
 20
22.739183
 30
0.0
 10
1.873823
 20
22.739183
 30
0.0
 10
1.873823
 20
19.739184
 30
0.0
 10
9.873824
 20
19.739184
 30
0.0
 10
9.873824
 20
22.739183
 30
0.0
 10
10.873822
 20
22.739183
 30
0.0
 10
7.873822
 20
32.739183
 30
0.0
 10
7.873822
 20
36.739184
 30
0.0
 10
3.873822
 20
36.739184
 30
0.0
 10
3.873822
 20
32.739183
 30
0.0
 10
0.873822
 20
22.739183
 30
0.0
  0
LWPOLYLINE
  5
11c
100
AcDbEntity
  8
Layer_1
 62
5
100
AcDbPolyline
 90
11
 70
0
 10
17.867077
 20
32.741212
 30
0.0
 10
16.867076
 20
32.740648
 30
0.0
 10
16.865100
 20
35.740648
 30
0.0
 10
8.865102
 20
35.735257
 30
0.0
 10
8.867078
 20
32.735260
 30
0.0
 10
7.867083
 20
32.734696
 30
0.0
 10
10.873822
 20
22.736720
 30
0.0
 10
10.876644
 20
18.736719
 30
0.0
 10
14.876642
 20
18.739541
 30
0.0
 10
14.873819
 20
22.739539
 30
0.0
 10
17.867077
 20
32.741212
 30
0.0
  0
LWPOLYLINE
  5
11d
100
AcDbEntity
  8
Layer_1
 62
5
100
AcDbPolyline
 90
11
 70
0
 10
14.873819
 20
22.739183
 30
0.0
 10
15.873820
 20
22.739183
 30
0.0
 10
15.873820
 20
19.739184
 30
0.0
 10
23.873821
 20
19.739184
 30
0.0
 10
23.873821
 20
22.739183
 30
0.0
 10
24.873819
 20
22.739183
 30
0.0
 10
21.873820
 20
32.739183
 30
0.0
 10
21.873820
 20
36.739184
 30
0.0
 10
17.873819
 20
36.739184
 30
0.0
 10
17.873819
 20
32.739183
 30
0.0
 10
14.873819
 20
22.739183
 30
0.0
  0
LWPOLYLINE
  5
11e
100
AcDbEntity
  8
Layer_1
 62
5
100
AcDbPolyline
 90
11
 70
0
 10
31.864368
 20
32.743894
 30
0.0
 10
30.864367
 20
32.743329
 30
0.0
 10
30.862391
 20
35.743329
 30
0.0
 10
22.862393
 20
35.737938
 30
0.0
 10
22.864369
 20
32.737941
 30
0.0
 10
21.864374
 20
32.737377
 30
0.0
 10
24.871113
 20
22.739401
 30
0.0
 10
24.873935
 20
18.739400
 30
0.0
 10
28.873933
 20
18.742223
 30
0.0
 10
28.871110
 20
22.742220
 30
0.0
 10
31.864368
 20
32.743894
 30
0.0
  0
LWPOLYLINE
  5
11f
100
AcDbEntity
  8
Layer_1
 62
5
100
AcDbPolyline
 90
11
 70
0
 10
45.867077
 20
32.743894
 30
0.0
 10
44.867076
 20
32.743329
 30
0.0
 10
44.865101
 20
35.743329
 30
0.0
 10
36.865103
 20
35.737938
 30
0.0
 10
36.867078
 20
32.737941
 30
0.0
 10
35.867083
 20
32.737377
 30
0.0
 10
38.873822
 20
22.739401
 30
0.0
 10
38.876645
 20
18.739400
 30
0.0
 10
42.876642
 20
18.742223
 30
0.0
 10
42.873820
 20
22.742220
 30
0.0
 10
45.867077
 20
32.743894
 30
0.0
  0
LWPOLYLINE
  5
120
100
AcDbEntity
  8
Layer_1
 62
5
100
AcDbPolyline
 90
11
 70
0
 10
28.873806
 20
22.739183
 30
0.0
 10
29.873806
 20
22.739183
 30
0.0
 10
29.873806
 20
19.739184
 30
0.0
 10
37.873807
 20
19.739184
 30
0.0
 10
37.873807
 20
22.739183
 30
0.0
 10
38.873805
 20
22.739183
 30
0.0
 10
35.873809
 20
32.739183
 30
0.0
 10
35.873809
 20
36.739184
 30
0.0
 10
31.873808
 20
36.739184
 30
0.0
 10
31.873808
 20
32.739183
 30
0.0
 10
28.873806
 20
22.739183
 30
0.0
  0
LWPOLYLINE
  5
121
100
AcDbEntity
  8
Layer_1
 62
5
100
AcDbPolyline
 90
11
 70
0
 10
42.873806
 20
22.739183
 30
0.0
 10
43.873807
 20
22.739183
 30
0.0
 10
43.873807
 20
19.739184
 30
0.0
 10
51.873808
 20
19.739184
 30
0.0
 10
51.873808
 20
22.739183
 30
0.0
 10
52.873806
 20
22.739183
 30
0.0
 10
49.873806
 20
32.739183
 30
0.0
 10
49.873806
 20
36.739184
 30
0.0
 10
45.873805
 20
36.739184
 30
0.0
 10
45.873805
 20
32.739183
 30
0.0
 10
42.873806
 20
22.739183
 30
0.0
  0
LWPOLYLINE
  5
122
100
AcDbEntity
  8
Layer_1
 62
5
100
AcDbPolyline
 90
11
 70
0
 10
59.867078
 20
32.741212
 30
0.0
 10
58.867077
 20
32.740648
 30
0.0
 10
58.865101
 20
35.740648
 30
0.0
 10
50.865103
 20
35.735257
 30
0.0
 10
50.867079
 20
32.735260
 30
0.0
 10
49.867083
 20
32.734696
 30
0.0
 10
52.873823
 20
22.736720
 30
0.0
 10
52.876645
 20
18.736719
 30
0.0
 10
56.876642
 20
18.739541
 30
0.0
 10
56.873820
 20
22.739539
 30
0.0
 10
59.867078
 20
32.741212
 30
0.0
  0
LWPOLYLINE
  5
123
100
AcDbEntity
  8
Layer_1
 62
7
100
AcDbPolyline
 90
5
 70
0
 10
6.000000
 20
203.999996
 30
0.0
 10
26.000000
 20
203.999996
 30
0.0
 10
26.000000
 20
183.999996
 30
0.0
 10
6.000000
 20
183.999996
 30
0.0
 10
6.000000
 20
203.999996
 30
0.0
  0
LWPOLYLINE
  5
124
100
AcDbEntity
  8
Layer_1
 62
5
100
AcDbPolyline
 90
5
 70
0
 10
12.006639
 20
195.471508
 30
0.0
 10
19.971468
 20
195.471508
 30
0.0
 10
19.971468
 20
192.506639
 30
0.0
 10
12.006639
 20
192.506639
 30
0.0
 10
12.006639
 20
195.471508
 30
0.0
  0
LWPOLYLINE
  5
125
100
AcDbEntity
  8
Layer_1
 62
7
100
AcDbPolyline
 90
5
 70
0
 10
26.000000
 20
183.999997
 30
0.0
 10
46.000000
 20
183.999997
 30
0.0
 10
46.000000
 20
163.999997
 30
0.0
 10
26.000000
 20
163.999997
 30
0.0
 10
26.000000
 20
183.999997
 30
0.0
  0
LWPOLYLINE
  5
126
100
AcDbEntity
  8
Layer_1
 62
5
100
AcDbPolyline
 90
5
 70
0
 10
32.006639
 20
175.471507
 30
0.0
 10
39.971468
 20
175.471507
 30
0.0
 10
39.971468
 20
172.506638
 30
0.0
 10
32.006639
 20
172.506638
 30
0.0
 10
32.006639
 20
175.471507
 30
0.0
  0
LWPOLYLINE
  5
127
100
AcDbEntity
  8
Layer_1
 62
7
100
AcDbPolyline
 90
5
 70
0
 10
46.000001
 20
203.999996
 30
0.0
 10
66.000001
 20
203.999996
 30
0.0
 10
66.000001
 20
183.999996
 30
0.0
 10
46.000001
 20
183.999996
 30
0.0
 10
46.000001
 20
203.999996
 30
0.0
  0
LWPOLYLINE
  5
128
100
AcDbEntity
  8
Layer_1
 62
5
100
AcDbPolyline
 90
5
 70
0
 10
52.006641
 20
195.471508
 30
0.0
 10
59.971470
 20
195.471508
 30
0.0
 10
59.971470
 20
192.506639
 30
0.0
 10
52.006641
 20
192.506639
 30
0.0
 10
52.006641
 20
195.471508
 30
0.0
  0
LWPOLYLINE
  5
129
100
AcDbEntity
  8
Layer_1
 62
7
100
AcDbPolyline
 90
5
 70
0
 10
66.000002
 20
184.000001
 30
0.0
 10
86.000002
 20
184.000001
 30
0.0
 10
86.000002
 20
164.000001
 30
0.0
 10
66.000002
 20
164.000001
 30
0.0
 10
66.000002
 20
184.000001
 30
0.0
  0
LWPOLYLINE
  5
12a
100
AcDbEntity
  8
Layer_1
 62
5
100
AcDbPolyline
 90
5
 70
0
 10
72.006641
 20
175.471510
 30
0.0
 10
79.971470
 20
175.471510
 30
0.0
 10
79.971470
 20
172.506641
 30
0.0
 10
72.006641
 20
172.506641
 30
0.0
 10
72.006641
 20
175.471510
 30
0.0
  0
LWPOLYLINE
  5
12b
100
AcDbEntity
  8
Layer_1
 62
7
100
AcDbPolyline
 90
5
 70
0
 10
6.000000
 20
163.999997
 30
0.0
 10
26.000000
 20
163.999997
 30
0.0
 10
26.000000
 20
143.999996
 30
0.0
 10
6.000000
 20
143.999996
 30
0.0
 10
6.000000
 20
163.999997
 30
0.0
  0
LWPOLYLINE
  5
12c
100
AcDbEntity
  8
Layer_1
 62
5
100
AcDbPolyline
 90
5
 70
0
 10
12.006639
 20
155.471506
 30
0.0
 10
19.971468
 20
155.471506
 30
0.0
 10
19.971468
 20
152.506637
 30
0.0
 10
12.006639
 20
152.506637
 30
0.0
 10
12.006639
 20
155.471506
 30
0.0
  0
LWPOLYLINE
  5
12d
100
AcDbEntity
  8
Layer_1
 62
7
100
AcDbPolyline
 90
5
 70
0
 10
26.000000
 20
144.000000
 30
0.0
 10
46.000000
 20
144.000000
 30
0.0
 10
46.000000
 20
124.000000
 30
0.0
 10
26.000000
 20
124.000000
 30
0.0
 10
26.000000
 20
144.000000
 30
0.0
  0
LWPOLYLINE
  5
12e
100
AcDbEntity
  8
Layer_1
 62
5
100
AcDbPolyline
 90
5
 70
0
 10
32.006639
 20
135.471510
 30
0.0
 10
39.971468
 20
135.471510
 30
0.0
 10
39.971468
 20
132.506641
 30
0.0
 10
32.006639
 20
132.506641
 30
0.0
 10
32.006639
 20
135.471510
 30
0.0
  0
LWPOLYLINE
  5
12f
100
AcDbEntity
  8
Layer_1
 62
7
100
AcDbPolyline
 90
5
 70
0
 10
46.000000
 20
163.999997
 30
0.0
 10
66.000000
 20
163.999997
 30
0.0
 10
66.000000
 20
143.999996
 30
0.0
 10
46.000000
 20
143.999996
 30
0.0
 10
46.000000
 20
163.999997
 30
0.0
  0
LWPOLYLINE
  5
130
100
AcDbEntity
  8
Layer_1
 62
5
100
AcDbPolyline
 90
5
 70
0
 10
52.006639
 20
155.471506
 30
0.0
 10
59.971468
 20
155.471506
 30
0.0
 10
59.971468
 20
152.506637
 30
0.0
 10
52.006639
 20
152.506637
 30
0.0
 10
52.006639
 20
155.471506
 30
0.0
  0
LWPOLYLINE
  5
131
100
AcDbEntity
  8
Layer_1
 62
7
100
AcDbPolyline
 90
5
 70
0
 10
66.000002
 20
144.000000
 30
0.0
 10
86.000002
 20
144.000000
 30
0.0
 10
86.000002
 20
124.000000
 30
0.0
 10
66.000002
 20
124.000000
 30
0.0
 10
66.000002
 20
144.000000
 30
0.0
  0
LWPOLYLINE
  5
132
100
AcDbEntity
  8
Layer_1
 62
5
100
AcDbPolyline
 90
5
 70
0
 10
72.006641
 20
135.471510
 30
0.0
 10
79.971470
 20
135.471510
 30
0.0
 10
79.971470
 20
132.506641
 30
0.0
 10
72.006641
 20
132.506641
 30
0.0
 10
72.006641
 20
135.471510
 30
0.0
  0
LWPOLYLINE
  5
133
100
AcDbEntity
  8
Layer_1
 62
7
100
AcDbPolyline
 90
5
 70
0
 10
86.000006
 20
203.999996
 30
0.0
 10
106.000006
 20
203.999996
 30
0.0
 10
106.000006
 20
183.999996
 30
0.0
 10
86.000006
 20
183.999996
 30
0.0
 10
86.000006
 20
203.999996
 30
0.0
  0
LWPOLYLINE
  5
134
100
AcDbEntity
  8
Layer_1
 62
5
100
AcDbPolyline
 90
5
 70
0
 10
92.006640
 20
195.471508
 30
0.0
 10
99.971469
 20
195.471508
 30
0.0
 10
99.971469
 20
192.506639
 30
0.0
 10
92.006640
 20
192.506639
 30
0.0
 10
92.006640
 20
195.471508
 30
0.0
  0
LWPOLYLINE
  5
135
100
AcDbEntity
  8
Layer_1
 62
7
100
AcDbPolyline
 90
5
 70
0
 10
106.000001
 20
184.000001
 30
0.0
 10
126.000001
 20
184.000001
 30
0.0
 10
126.000001
 20
164.000001
 30
0.0
 10
106.000001
 20
164.000001
 30
0.0
 10
106.000001
 20
184.000001
 30
0.0
  0
LWPOLYLINE
  5
136
100
AcDbEntity
  8
Layer_1
 62
5
100
AcDbPolyline
 90
5
 70
0
 10
112.006640
 20
175.471511
 30
0.0
 10
119.971469
 20
175.471511
 30
0.0
 10
119.971469
 20
172.506642
 30
0.0
 10
112.006640
 20
172.506642
 30
0.0
 10
112.006640
 20
175.471511
 30
0.0
  0
LWPOLYLINE
  5
137
100
AcDbEntity
  8
Layer_1
 62
7
100
AcDbPolyline
 90
5
 70
0
 10
126.000002
 20
203.999996
 30
0.0
 10
146.000002
 20
203.999996
 30
0.0
 10
146.000002
 20
183.999996
 30
0.0
 10
126.000002
 20
183.999996
 30
0.0
 10
126.000002
 20
203.999996
 30
0.0
  0
LWPOLYLINE
  5
138
100
AcDbEntity
  8
Layer_1
 62
5
100
AcDbPolyline
 90
5
 70
0
 10
132.006636
 20
195.471508
 30
0.0
 10
139.971466
 20
195.471508
 30
0.0
 10
139.971466
 20
192.506639
 30
0.0
 10
132.006636
 20
192.506639
 30
0.0
 10
132.006636
 20
195.471508
 30
0.0
  0
LWPOLYLINE
  5
139
100
AcDbEntity
  8
Layer_1
 62
7
100
AcDbPolyline
 90
5
 70
0
 10
146.000000
 20
184.000004
 30
0.0
 10
166.000000
 20
184.000004
 30
0.0
 10
166.000000
 20
164.000004
 30
0.0
 10
146.000000
 20
164.000004
 30
0.0
 10
146.000000
 20
184.000004
 30
0.0
  0
LWPOLYLINE
  5
13a
100
AcDbEntity
  8
Layer_1
 62
5
100
AcDbPolyline
 90
5
 70
0
 10
152.006639
 20
175.471514
 30
0.0
 10
159.971468
 20
175.471514
 30
0.0
 10
159.971468
 20
172.506645
 30
0.0
 10
152.006639
 20
172.506645
 30
0.0
 10
152.006639
 20
175.471514
 30
0.0
  0
LWPOLYLINE
  5
13b
100
AcDbEntity
  8
Layer_1
 62
7
100
AcDbPolyline
 90
5
 70
0
 10
86.000002
 20
164.000002
 30
0.0
 10
106.000002
 20
164.000002
 30
0.0
 10
106.000002
 20
144.000002
 30
0.0
 10
86.000002
 20
144.000002
 30
0.0
 10
86.000002
 20
164.000002
 30
0.0
  0
LWPOLYLINE
  5
13c
100
AcDbEntity
  8
Layer_1
 62
5
100
AcDbPolyline
 90
5
 70
0
 10
92.006640
 20
155.471512
 30
0.0
 10
99.971470
 20
155.471512
 30
0.0
 10
99.971470
 20
152.506643
 30
0.0
 10
92.006640
 20
152.506643
 30
0.0
 10
92.006640
 20
155.471512
 30
0.0
  0
LWPOLYLINE
  5
13d
100
AcDbEntity
  8
Layer_1
 62
7
100
AcDbPolyline
 90
5
 70
0
 10
106.000001
 20
144.000006
 30
0.0
 10
126.000001
 20
144.000006
 30
0.0
 10
126.000001
 20
124.000005
 30
0.0
 10
106.000001
 20
124.000005
 30
0.0
 10
106.000001
 20
144.000006
 30
0.0
  0
LWPOLYLINE
  5
13e
100
AcDbEntity
  8
Layer_1
 62
5
100
AcDbPolyline
 90
5
 70
0
 10
112.006640
 20
135.471515
 30
0.0
 10
119.971469
 20
135.471515
 30
0.0
 10
119.971469
 20
132.506646
 30
0.0
 10
112.006640
 20
132.506646
 30
0.0
 10
112.006640
 20
135.471515
 30
0.0
  0
LWPOLYLINE
  5
13f
100
AcDbEntity
  8
Layer_1
 62
7
100
AcDbPolyline
 90
5
 70
0
 10
125.999998
 20
164.000002
 30
0.0
 10
145.999998
 20
164.000002
 30
0.0
 10
145.999998
 20
144.000002
 30
0.0
 10
125.999998
 20
144.000002
 30
0.0
 10
125.999998
 20
164.000002
 30
0.0
  0
LWPOLYLINE
  5
140
100
AcDbEntity
  8
Layer_1
 62
5
100
AcDbPolyline
 90
5
 70
0
 10
132.006637
 20
155.471512
 30
0.0
 10
139.971466
 20
155.471512
 30
0.0
 10
139.971466
 20
152.506643
 30
0.0
 10
132.006637
 20
152.506643
 30
0.0
 10
132.006637
 20
155.471512
 30
0.0
  0
LWPOLYLINE
  5
141
100
AcDbEntity
  8
Layer_1
 62
7
100
AcDbPolyline
 90
5
 70
0
 10
146.000000
 20
144.000006
 30
0.0
 10
166.000000
 20
144.000006
 30
0.0
 10
166.000000
 20
124.000005
 30
0.0
 10
146.000000
 20
124.000005
 30
0.0
 10
146.000000
 20
144.000006
 30
0.0
  0
LWPOLYLINE
  5
142
100
AcDbEntity
  8
Layer_1
 62
5
100
AcDbPolyline
 90
5
 70
0
 10
152.006639
 20
135.471515
 30
0.0
 10
159.971468
 20
135.471515
 30
0.0
 10
159.971468
 20
132.506646
 30
0.0
 10
152.006639
 20
132.506646
 30
0.0
 10
152.006639
 20
135.471515
 30
0.0
  0
LWPOLYLINE
  5
143
100
AcDbEntity
  8
Layer_1
 62
7
100
AcDbPolyline
 90
5
 70
0
 10
6.000000
 20
123.999998
 30
0.0
 10
26.000000
 20
123.999998
 30
0.0
 10
26.000000
 20
103.999997
 30
0.0
 10
6.000000
 20
103.999997
 30
0.0
 10
6.000000
 20
123.999998
 30
0.0
  0
LWPOLYLINE
  5
144
100
AcDbEntity
  8
Layer_1
 62
5
100
AcDbPolyline
 90
5
 70
0
 10
12.006639
 20
115.471507
 30
0.0
 10
19.971468
 20
115.471507
 30
0.0
 10
19.971468
 20
112.506638
 30
0.0
 10
12.006639
 20
112.506638
 30
0.0
 10
12.006639
 20
115.471507
 30
0.0
  0
LWPOLYLINE
  5
145
100
AcDbEntity
  8
Layer_1
 62
7
100
AcDbPolyline
 90
5
 70
0
 10
26.000000
 20
104.000001
 30
0.0
 10
46.000000
 20
104.000001
 30
0.0
 10
46.000000
 20
84.000001
 30
0.0
 10
26.000000
 20
84.000001
 30
0.0
 10
26.000000
 20
104.000001
 30
0.0
  0
LWPOLYLINE
  5
146
100
AcDbEntity
  8
Layer_1
 62
5
100
AcDbPolyline
 90
5
 70
0
 10
32.006638
 20
95.471511
 30
0.0
 10
39.971467
 20
95.471511
 30
0.0
 10
39.971467
 20
92.506642
 30
0.0
 10
32.006638
 20
92.506642
 30
0.0
 10
32.006638
 20
95.471511
 30
0.0
  0
LWPOLYLINE
  5
147
100
AcDbEntity
  8
Layer_1
 62
7
100
AcDbPolyline
 90
5
 70
0
 10
45.999997
 20
124.000000
 30
0.0
 10
65.999997
 20
124.000000
 30
0.0
 10
65.999997
 20
104.000000
 30
0.0
 10
45.999997
 20
104.000000
 30
0.0
 10
45.999997
 20
124.000000
 30
0.0
  0
LWPOLYLINE
  5
148
100
AcDbEntity
  8
Layer_1
 62
5
100
AcDbPolyline
 90
5
 70
0
 10
52.006636
 20
115.471510
 30
0.0
 10
59.971465
 20
115.471510
 30
0.0
 10
59.971465
 20
112.506641
 30
0.0
 10
52.006636
 20
112.506641
 30
0.0
 10
52.006636
 20
115.471510
 30
0.0
  0
LWPOLYLINE
  5
149
100
AcDbEntity
  8
Layer_1
 62
7
100
AcDbPolyline
 90
5
 70
0
 10
66.000000
 20
104.000004
 30
0.0
 10
86.000000
 20
104.000004
 30
0.0
 10
86.000000
 20
84.000004
 30
0.0
 10
66.000000
 20
84.000004
 30
0.0
 10
66.000000
 20
104.000004
 30
0.0
  0
LWPOLYLINE
  5
14a
100
AcDbEntity
  8
Layer_1
 62
5
100
AcDbPolyline
 90
5
 70
0
 10
72.006638
 20
95.471513
 30
0.0
 10
79.971467
 20
95.471513
 30
0.0
 10
79.971467
 20
92.506644
 30
0.0
 10
72.006638
 20
92.506644
 30
0.0
 10
72.006638
 20
95.471513
 30
0.0
  0
LWPOLYLINE
  5
14b
100
AcDbEntity
  8
Layer_1
 62
7
100
AcDbPolyline
 90
5
 70
0
 10
6.000000
 20
84.000001
 30
0.0
 10
26.000000
 20
84.000001
 30
0.0
 10
26.000000
 20
64.000001
 30
0.0
 10
6.000000
 20
64.000001
 30
0.0
 10
6.000000
 20
84.000001
 30
0.0
  0
LWPOLYLINE
  5
14c
100
AcDbEntity
  8
Layer_1
 62
5
100
AcDbPolyline
 90
5
 70
0
 10
12.006639
 20
75.471511
 30
0.0
 10
19.971468
 20
75.471511
 30
0.0
 10
19.971468
 20
72.506642
 30
0.0
 10
12.006639
 20
72.506642
 30
0.0
 10
12.006639
 20
75.471511
 30
0.0
  0
LWPOLYLINE
  5
14d
100
AcDbEntity
  8
Layer_1
 62
7
100
AcDbPolyline
 90
5
 70
0
 10
26.000000
 20
64.000005
 30
0.0
 10
46.000000
 20
64.000005
 30
0.0
 10
46.000000
 20
44.000005
 30
0.0
 10
26.000000
 20
44.000005
 30
0.0
 10
26.000000
 20
64.000005
 30
0.0
  0
LWPOLYLINE
  5
14e
100
AcDbEntity
  8
Layer_1
 62
5
100
AcDbPolyline
 90
5
 70
0
 10
32.006638
 20
55.471514
 30
0.0
 10
39.971467
 20
55.471514
 30
0.0
 10
39.971467
 20
52.506645
 30
0.0
 10
32.006638
 20
52.506645
 30
0.0
 10
32.006638
 20
55.471514
 30
0.0
  0
LWPOLYLINE
  5
14f
100
AcDbEntity
  8
Layer_1
 62
7
100
AcDbPolyline
 90
5
 70
0
 10
45.999997
 20
84.000001
 30
0.0
 10
65.999997
 20
84.000001
 30
0.0
 10
65.999997
 20
64.000001
 30
0.0
 10
45.999997
 20
64.000001
 30
0.0
 10
45.999997
 20
84.000001
 30
0.0
  0
LWPOLYLINE
  5
150
100
AcDbEntity
  8
Layer_1
 62
5
100
AcDbPolyline
 90
5
 70
0
 10
52.006636
 20
75.471511
 30
0.0
 10
59.971465
 20
75.471511
 30
0.0
 10
59.971465
 20
72.506642
 30
0.0
 10
52.006636
 20
72.506642
 30
0.0
 10
52.006636
 20
75.471511
 30
0.0
  0
LWPOLYLINE
  5
151
100
AcDbEntity
  8
Layer_1
 62
7
100
AcDbPolyline
 90
5
 70
0
 10
66.000000
 20
64.000005
 30
0.0
 10
86.000000
 20
64.000005
 30
0.0
 10
86.000000
 20
44.000005
 30
0.0
 10
66.000000
 20
44.000005
 30
0.0
 10
66.000000
 20
64.000005
 30
0.0
  0
LWPOLYLINE
  5
152
100
AcDbEntity
  8
Layer_1
 62
5
100
AcDbPolyline
 90
5
 70
0
 10
72.006638
 20
55.471514
 30
0.0
 10
79.971467
 20
55.471514
 30
0.0
 10
79.971467
 20
52.506645
 30
0.0
 10
72.006638
 20
52.506645
 30
0.0
 10
72.006638
 20
55.471514
 30
0.0
  0
LWPOLYLINE
  5
153
100
AcDbEntity
  8
Layer_1
 62
7
100
AcDbPolyline
 90
5
 70
0
 10
86.000002
 20
123.999998
 30
0.0
 10
106.000002
 20
123.999998
 30
0.0
 10
106.000002
 20
103.999997
 30
0.0
 10
86.000002
 20
103.999997
 30
0.0
 10
86.000002
 20
123.999998
 30
0.0
  0
LWPOLYLINE
  5
154
100
AcDbEntity
  8
Layer_1
 62
5
100
AcDbPolyline
 90
5
 70
0
 10
92.006640
 20
115.471507
 30
0.0
 10
99.971470
 20
115.471507
 30
0.0
 10
99.971470
 20
112.506638
 30
0.0
 10
92.006640
 20
112.506638
 30
0.0
 10
92.006640
 20
115.471507
 30
0.0
  0
LWPOLYLINE
  5
155
100
AcDbEntity
  8
Layer_1
 62
7
100
AcDbPolyline
 90
5
 70
0
 10
106.000001
 20
104.000001
 30
0.0
 10
126.000001
 20
104.000001
 30
0.0
 10
126.000001
 20
84.000001
 30
0.0
 10
106.000001
 20
84.000001
 30
0.0
 10
106.000001
 20
104.000001
 30
0.0
  0
LWPOLYLINE
  5
156
100
AcDbEntity
  8
Layer_1
 62
5
100
AcDbPolyline
 90
5
 70
0
 10
112.006640
 20
95.471511
 30
0.0
 10
119.971469
 20
95.471511
 30
0.0
 10
119.971469
 20
92.506642
 30
0.0
 10
112.006640
 20
92.506642
 30
0.0
 10
112.006640
 20
95.471511
 30
0.0
  0
LWPOLYLINE
  5
157
100
AcDbEntity
  8
Layer_1
 62
7
100
AcDbPolyline
 90
5
 70
0
 10
125.999998
 20
124.000000
 30
0.0
 10
145.999998
 20
124.000000
 30
0.0
 10
145.999998
 20
104.000000
 30
0.0
 10
125.999998
 20
104.000000
 30
0.0
 10
125.999998
 20
124.000000
 30
0.0
  0
LWPOLYLINE
  5
158
100
AcDbEntity
  8
Layer_1
 62
5
100
AcDbPolyline
 90
5
 70
0
 10
132.006637
 20
115.471510
 30
0.0
 10
139.971466
 20
115.471510
 30
0.0
 10
139.971466
 20
112.506641
 30
0.0
 10
132.006637
 20
112.506641
 30
0.0
 10
132.006637
 20
115.471510
 30
0.0
  0
LWPOLYLINE
  5
159
100
AcDbEntity
  8
Layer_1
 62
7
100
AcDbPolyline
 90
5
 70
0
 10
146.000000
 20
104.000004
 30
0.0
 10
166.000000
 20
104.000004
 30
0.0
 10
166.000000
 20
84.000004
 30
0.0
 10
146.000000
 20
84.000004
 30
0.0
 10
146.000000
 20
104.000004
 30
0.0
  0
LWPOLYLINE
  5
15a
100
AcDbEntity
  8
Layer_1
 62
5
100
AcDbPolyline
 90
5
 70
0
 10
152.006639
 20
95.471513
 30
0.0
 10
159.971468
 20
95.471513
 30
0.0
 10
159.971468
 20
92.506644
 30
0.0
 10
152.006639
 20
92.506644
 30
0.0
 10
152.006639
 20
95.471513
 30
0.0
  0
LWPOLYLINE
  5
15b
100
AcDbEntity
  8
Layer_1
 62
7
100
AcDbPolyline
 90
5
 70
0
 10
86.000002
 20
84.000001
 30
0.0
 10
106.000002
 20
84.000001
 30
0.0
 10
106.000002
 20
64.000001
 30
0.0
 10
86.000002
 20
64.000001
 30
0.0
 10
86.000002
 20
84.000001
 30
0.0
  0
LWPOLYLINE
  5
15c
100
AcDbEntity
  8
Layer_1
 62
5
100
AcDbPolyline
 90
5
 70
0
 10
92.006640
 20
75.471511
 30
0.0
 10
99.971470
 20
75.471511
 30
0.0
 10
99.971470
 20
72.506642
 30
0.0
 10
92.006640
 20
72.506642
 30
0.0
 10
92.006640
 20
75.471511
 30
0.0
  0
LWPOLYLINE
  5
15d
100
AcDbEntity
  8
Layer_1
 62
7
100
AcDbPolyline
 90
5
 70
0
 10
106.100001
 20
64.000005
 30
0.0
 10
126.100001
 20
64.000005
 30
0.0
 10
126.100001
 20
44.000005
 30
0.0
 10
106.100001
 20
44.000005
 30
0.0
 10
106.100001
 20
64.000005
 30
0.0
  0
LWPOLYLINE
  5
15e
100
AcDbEntity
  8
Layer_1
 62
5
100
AcDbPolyline
 90
5
 70
0
 10
112.106640
 20
55.471514
 30
0.0
 10
120.071469
 20
55.471514
 30
0.0
 10
120.071469
 20
52.506645
 30
0.0
 10
112.106640
 20
52.506645
 30
0.0
 10
112.106640
 20
55.471514
 30
0.0
  0
LWPOLYLINE
  5
15f
100
AcDbEntity
  8
Layer_1
 62
7
100
AcDbPolyline
 90
5
 70
0
 10
125.999998
 20
84.000001
 30
0.0
 10
145.999998
 20
84.000001
 30
0.0
 10
145.999998
 20
64.000001
 30
0.0
 10
125.999998
 20
64.000001
 30
0.0
 10
125.999998
 20
84.000001
 30
0.0
  0
LWPOLYLINE
  5
160
100
AcDbEntity
  8
Layer_1
 62
5
100
AcDbPolyline
 90
5
 70
0
 10
132.006637
 20
75.471511
 30
0.0
 10
139.971466
 20
75.471511
 30
0.0
 10
139.971466
 20
72.506642
 30
0.0
 10
132.006637
 20
72.506642
 30
0.0
 10
132.006637
 20
75.471511
 30
0.0
  0
LWPOLYLINE
  5
161
100
AcDbEntity
  8
Layer_1
 62
7
100
AcDbPolyline
 90
5
 70
0
 10
146.000000
 20
64.000005
 30
0.0
 10
166.000000
 20
64.000005
 30
0.0
 10
166.000000
 20
44.000005
 30
0.0
 10
146.000000
 20
44.000005
 30
0.0
 10
146.000000
 20
64.000005
 30
0.0
  0
LWPOLYLINE
  5
162
100
AcDbEntity
  8
Layer_1
 62
5
100
AcDbPolyline
 90
5
 70
0
 10
152.006639
 20
55.471514
 30
0.0
 10
159.971468
 20
55.471514
 30
0.0
 10
159.971468
 20
52.506645
 30
0.0
 10
152.006639
 20
52.506645
 30
0.0
 10
152.006639
 20
55.471514
 30
0.0
  0
LWPOLYLINE
  5
163
100
AcDbEntity
  8
Layer_1
 62
5
100
AcDbPolyline
 90
5
 70
0
 10
12.017639
 20
95.491512
 30
0.0
 10
19.982468
 20
95.491512
 30
0.0
 10
19.982468
 20
92.526643
 30
0.0
 10
12.017639
 20
92.526643
 30
0.0
 10
12.017639
 20
95.491512
 30
0.0
  0
LWPOLYLINE
  5
164
100
AcDbEntity
  8
Layer_1
 62
5
100
AcDbPolyline
 90
5
 70
0
 10
1.000000
 20
208.999999
 30
0.0
 10
170.999993
 20
208.999999
 30
0.0
 10
170.999993
 20
39.000006
 30
0.0
 10
1.000000
 20
39.000006
 30
0.0
 10
1.000000
 20
208.999999
 30
0.0
  0
LWPOLYLINE
  5
165
100
AcDbEntity
  8
Layer_1
 62
5
100
AcDbPolyline
 90
5
 70
0
 10
32.070638
 20
195.487510
 30
0.0
 10
40.035468
 20
195.487510
 30
0.0
 10
40.035468
 20
192.522641
 30
0.0
 10
32.070638
 20
192.522641
 30
0.0
 10
32.070638
 20
195.487510
 30
0.0
  0
LWPOLYLINE
  5
166
100
AcDbEntity
  8
Layer_1
 62
5
100
AcDbPolyline
 90
5
 70
0
 10
72.070635
 20
195.487519
 30
0.0
 10
80.035464
 20
195.487519
 30
0.0
 10
80.035464
 20
192.522650
 30
0.0
 10
72.070635
 20
192.522650
 30
0.0
 10
72.070635
 20
195.487519
 30
0.0
  0
LWPOLYLINE
  5
167
100
AcDbEntity
  8
Layer_1
 62
5
100
AcDbPolyline
 90
5
 70
0
 10
112.070611
 20
195.487510
 30
0.0
 10
120.035440
 20
195.487510
 30
0.0
 10
120.035440
 20
192.522641
 30
0.0
 10
112.070611
 20
192.522641
 30
0.0
 10
112.070611
 20
195.487510
 30
0.0
  0
LWPOLYLINE
  5
168
100
AcDbEntity
  8
Layer_1
 62
5
100
AcDbPolyline
 90
5
 70
0
 10
151.970638
 20
195.487510
 30
0.0
 10
159.935468
 20
195.487510
 30
0.0
 10
159.935468
 20
192.522641
 30
0.0
 10
151.970638
 20
192.522641
 30
0.0
 10
151.970638
 20
195.487510
 30
0.0
  0
LWPOLYLINE
  5
169
100
AcDbEntity
  8
Layer_1
 62
5
100
AcDbPolyline
 90
5
 70
0
 10
12.064639
 20
175.464504
 30
0.0
 10
20.029469
 20
175.464504
 30
0.0
 10
20.029469
 20
172.499635
 30
0.0
 10
12.064639
 20
172.499635
 30
0.0
 10
12.064639
 20
175.464504
 30
0.0
  0
LWPOLYLINE
  5
16a
100
AcDbEntity
  8
Layer_1
 62
5
100
AcDbPolyline
 90
5
 70
0
 10
52.035645
 20
175.464504
 30
0.0
 10
60.000474
 20
175.464504
 30
0.0
 10
60.000474
 20
172.499635
 30
0.0
 10
52.035645
 20
172.499635
 30
0.0
 10
52.035645
 20
175.464504
 30
0.0
  0
LWPOLYLINE
  5
16b
100
AcDbEntity
  8
Layer_1
 62
5
100
AcDbPolyline
 90
5
 70
0
 10
92.035638
 20
175.464504
 30
0.0
 10
100.000468
 20
175.464504
 30
0.0
 10
100.000468
 20
172.499635
 30
0.0
 10
92.035638
 20
172.499635
 30
0.0
 10
92.035638
 20
175.464504
 30
0.0
  0
LWPOLYLINE
  5
16c
100
AcDbEntity
  8
Layer_1
 62
5
100
AcDbPolyline
 90
5
 70
0
 10
132.035652
 20
175.464504
 30
0.0
 10
140.000481
 20
175.464504
 30
0.0
 10
140.000481
 20
172.499635
 30
0.0
 10
132.035652
 20
172.499635
 30
0.0
 10
132.035652
 20
175.464504
 30
0.0
  0
LWPOLYLINE
  5
16d
100
AcDbEntity
  8
Layer_1
 62
5
100
AcDbPolyline
 90
5
 70
0
 10
32.026640
 20
155.487505
 30
0.0
 10
39.991469
 20
155.487505
 30
0.0
 10
39.991469
 20
152.522637
 30
0.0
 10
32.026640
 20
152.522637
 30
0.0
 10
32.026640
 20
155.487505
 30
0.0
  0
LWPOLYLINE
  5
16e
100
AcDbEntity
  8
Layer_1
 62
5
100
AcDbPolyline
 90
5
 70
0
 10
72.026636
 20
155.487514
 30
0.0
 10
79.991465
 20
155.487514
 30
0.0
 10
79.991465
 20
152.522645
 30
0.0
 10
72.026636
 20
152.522645
 30
0.0
 10
72.026636
 20
155.487514
 30
0.0
  0
LWPOLYLINE
  5
16f
100
AcDbEntity
  8
Layer_1
 62
5
100
AcDbPolyline
 90
5
 70
0
 10
112.026641
 20
155.487505
 30
0.0
 10
119.991470
 20
155.487505
 30
0.0
 10
119.991470
 20
152.522637
 30
0.0
 10
112.026641
 20
152.522637
 30
0.0
 10
112.026641
 20
155.487505
 30
0.0
  0
LWPOLYLINE
  5
170
100
AcDbEntity
  8
Layer_1
 62
5
100
AcDbPolyline
 90
5
 70
0
 10
12.057639
 20
135.487503
 30
0.0
 10
20.022469
 20
135.487503
 30
0.0
 10
20.022469
 20
132.522634
 30
0.0
 10
12.057639
 20
132.522634
 30
0.0
 10
12.057639
 20
135.487503
 30
0.0
  0
LWPOLYLINE
  5
171
100
AcDbEntity
  8
Layer_1
 62
5
100
AcDbPolyline
 90
5
 70
0
 10
52.028638
 20
135.487503
 30
0.0
 10
59.993467
 20
135.487503
 30
0.0
 10
59.993467
 20
132.522634
 30
0.0
 10
52.028638
 20
132.522634
 30
0.0
 10
52.028638
 20
135.487503
 30
0.0
  0
LWPOLYLINE
  5
172
100
AcDbEntity
  8
Layer_1
 62
5
100
AcDbPolyline
 90
5
 70
0
 10
92.028637
 20
135.487503
 30
0.0
 10
99.993466
 20
135.487503
 30
0.0
 10
99.993466
 20
132.522634
 30
0.0
 10
92.028637
 20
132.522634
 30
0.0
 10
92.028637
 20
135.487503
 30
0.0
  0
LWPOLYLINE
  5
173
100
AcDbEntity
  8
Layer_1
 62
5
100
AcDbPolyline
 90
5
 70
0
 10
132.028641
 20
135.487503
 30
0.0
 10
139.993470
 20
135.487503
 30
0.0
 10
139.993470
 20
132.522634
 30
0.0
 10
132.028641
 20
132.522634
 30
0.0
 10
132.028641
 20
135.487503
 30
0.0
  0
LWPOLYLINE
  5
174
100
AcDbEntity
  8
Layer_1
 62
5
100
AcDbPolyline
 90
5
 70
0
 10
32.021639
 20
115.469501
 30
0.0
 10
39.986468
 20
115.469501
 30
0.0
 10
39.986468
 20
112.504632
 30
0.0
 10
32.021639
 20
112.504632
 30
0.0
 10
32.021639
 20
115.469501
 30
0.0
  0
LWPOLYLINE
  5
175
100
AcDbEntity
  8
Layer_1
 62
5
100
AcDbPolyline
 90
5
 70
0
 10
72.021638
 20
115.469724
 30
0.0
 10
79.986467
 20
115.469724
 30
0.0
 10
79.986467
 20
112.504855
 30
0.0
 10
72.021638
 20
112.504855
 30
0.0
 10
72.021638
 20
115.469724
 30
0.0
  0
LWPOLYLINE
  5
176
100
AcDbEntity
  8
Layer_1
 62
5
100
AcDbPolyline
 90
5
 70
0
 10
112.021637
 20
115.469724
 30
0.0
 10
119.986466
 20
115.469724
 30
0.0
 10
119.986466
 20
112.504855
 30
0.0
 10
112.021637
 20
112.504855
 30
0.0
 10
112.021637
 20
115.469724
 30
0.0
  0
LWPOLYLINE
  5
177
100
AcDbEntity
  8
Layer_1
 62
5
100
AcDbPolyline
 90
5
 70
0
 10
152.021642
 20
115.469501
 30
0.0
 10
159.986471
 20
115.469501
 30
0.0
 10
159.986471
 20
112.504632
 30
0.0
 10
152.021642
 20
112.504632
 30
0.0
 10
152.021642
 20
115.469501
 30
0.0
  0
LWPOLYLINE
  5
178
100
AcDbEntity
  8
Layer_1
 62
5
100
AcDbPolyline
 90
5
 70
0
 10
51.988641
 20
95.491512
 30
0.0
 10
59.953470
 20
95.491512
 30
0.0
 10
59.953470
 20
92.526643
 30
0.0
 10
51.988641
 20
92.526643
 30
0.0
 10
51.988641
 20
95.491512
 30
0.0
  0
LWPOLYLINE
  5
179
100
AcDbEntity
  8
Layer_1
 62
5
100
AcDbPolyline
 90
5
 70
0
 10
91.988640
 20
95.491512
 30
0.0
 10
99.953469
 20
95.491512
 30
0.0
 10
99.953469
 20
92.526643
 30
0.0
 10
91.988640
 20
92.526643
 30
0.0
 10
91.988640
 20
95.491512
 30
0.0
  0
LWPOLYLINE
  5
17a
100
AcDbEntity
  8
Layer_1
 62
5
100
AcDbPolyline
 90
5
 70
0
 10
131.888634
 20
95.491512
 30
0.0
 10
139.853463
 20
95.491512
 30
0.0
 10
139.853463
 20
92.526643
 30
0.0
 10
131.888634
 20
92.526643
 30
0.0
 10
131.888634
 20
95.491512
 30
0.0
  0
LWPOLYLINE
  5
17b
100
AcDbEntity
  8
Layer_1
 62
5
100
AcDbPolyline
 90
5
 70
0
 10
32.074637
 20
75.496505
 30
0.0
 10
40.039467
 20
75.496505
 30
0.0
 10
40.039467
 20
72.531636
 30
0.0
 10
32.074637
 20
72.531636
 30
0.0
 10
32.074637
 20
75.496505
 30
0.0
  0
LWPOLYLINE
  5
17c
100
AcDbEntity
  8
Layer_1
 62
5
100
AcDbPolyline
 90
5
 70
0
 10
72.074636
 20
75.496505
 30
0.0
 10
80.039466
 20
75.496505
 30
0.0
 10
80.039466
 20
72.531636
 30
0.0
 10
72.074636
 20
72.531636
 30
0.0
 10
72.074636
 20
75.496505
 30
0.0
  0
LWPOLYLINE
  5
17d
100
AcDbEntity
  8
Layer_1
 62
5
100
AcDbPolyline
 90
5
 70
0
 10
112.074590
 20
75.496505
 30
0.0
 10
120.039420
 20
75.496505
 30
0.0
 10
120.039420
 20
72.531636
 30
0.0
 10
112.074590
 20
72.531636
 30
0.0
 10
112.074590
 20
75.496505
 30
0.0
  0
LWPOLYLINE
  5
17e
100
AcDbEntity
  8
Layer_1
 62
5
100
AcDbPolyline
 90
5
 70
0
 10
151.974685
 20
75.496505
 30
0.0
 10
159.939515
 20
75.496505
 30
0.0
 10
159.939515
 20
72.531636
 30
0.0
 10
151.974685
 20
72.531636
 30
0.0
 10
151.974685
 20
75.496505
 30
0.0
  0
LWPOLYLINE
  5
17f
100
AcDbEntity
  8
Layer_1
 62
5
100
AcDbPolyline
 90
5
 70
0
 10
12.043639
 20
55.529508
 30
0.0
 10
20.008469
 20
55.529508
 30
0.0
 10
20.008469
 20
52.564639
 30
0.0
 10
12.043639
 20
52.564639
 30
0.0
 10
12.043639
 20
55.529508
 30
0.0
  0
LWPOLYLINE
  5
180
100
AcDbEntity
  8
Layer_1
 62
5
100
AcDbPolyline
 90
5
 70
0
 10
52.043646
 20
55.529508
 30
0.0
 10
60.008475
 20
55.529508
 30
0.0
 10
60.008475
 20
52.564639
 30
0.0
 10
52.043646
 20
52.564639
 30
0.0
 10
52.043646
 20
55.529508
 30
0.0
  0
LWPOLYLINE
  5
181
100
AcDbEntity
  8
Layer_1
 62
5
100
AcDbPolyline
 90
5
 70
0
 10
92.043623
 20
55.529508
 30
0.0
 10
100.008452
 20
55.529508
 30
0.0
 10
100.008452
 20
52.564639
 30
0.0
 10
92.043623
 20
52.564639
 30
0.0
 10
92.043623
 20
55.529508
 30
0.0
  0
LWPOLYLINE
  5
182
100
AcDbEntity
  8
Layer_1
 62
5
100
AcDbPolyline
 90
5
 70
0
 10
132.043647
 20
55.529508
 30
0.0
 10
140.008476
 20
55.529508
 30
0.0
 10
140.008476
 20
52.564639
 30
0.0
 10
132.043647
 20
52.564639
 30
0.0
 10
132.043647
 20
55.529508
 30
0.0
  0
LWPOLYLINE
  5
183
100
AcDbEntity
  8
Layer_1
 62
5
100
AcDbPolyline
 90
5
 70
0
 10
152.035645
 20
155.499503
 30
0.0
 10
160.000475
 20
155.499503
 30
0.0
 10
160.000475
 20
152.534634
 30
0.0
 10
152.035645
 20
152.534634
 30
0.0
 10
152.035645
 20
155.499503
 30
0.0
  0
ENDSEC
  0
SECTION
  2
OBJECTS
  0
DICTIONARY
  5
C
330
0
100
AcDbDictionary
  3
ACAD_GROUP
350
D
  3
ACAD_MLINESTYLE
350
17
  0
DICTIONARY
  5
D
330
C
100
AcDbDictionary
  0
DICTIONARY
  5
1A
330
C
100
AcDbDictionary
  0
DICTIONARY
  5
17
330
C
100
AcDbDictionary
  3
STANDARD
350
18
  0
DICTIONARY
  5
19
330
C
100
AcDbDictionary
  0
ENDSEC
  0
EOF
