0
SECTION
2
HEADER
9
$INSUNITS
70
4
9
$ACADVER
1
AC1014
9
$HANDSEED
5
FFFF
0
ENDSEC
0
SECTION
2
TABLES
0
TABLE
2
VPORT
5
8
100
AcDbSymbolTable
0
ENDTAB
0
TABLE
2
LTYPE
5
5
100
AcDbSymbolTable
0
LTYPE
5
14
100
AcDbSymbolTableRecord
100
AcDbLinetypeTableRecord
2
BYBLOCK
70
0
0
LTYPE
5
15
100
AcDbSymbolTableRecord
100
AcDbLinetypeTableRecord
2
BYLAYER
70
0
0
ENDTAB
0
TABLE
2
LAYER
5
2
100
AcDbSymbolTable
70
2
0
LAYER
5
50
100
AcDbSymbolTableRecord
100
AcDbLayerTableRecord
2
0
70
0
6
CONTINUOUS
0
ENDTAB
0
TABLE
2
STYLE
5
3
100
AcDbSymbolTable
70
1
0
STYLE
5
11
100
AcDbSymbolTableRecord
100
AcDbTextStyleTableRecord
2
STANDARD
70
0
0
ENDTAB
0
TABLE
2
VIEW
5
6
100
AcDbSymbolTable
70
0
0
ENDTAB
0
TABLE
2
UCS
5
7
100
AcDbSymbolTable
70
0
0
ENDTAB
0
TABLE
2
APPID
5
9
100
AcDbSymbolTable
70
2
0
APPID
5
12
100
AcDbSymbolTableRecord
100
AcDbRegAppTableRecord
2
ACAD
70
0
0
ENDTAB
0
TABLE
2
DIMSTYLE
5
A
100
AcDbSymbolTable
70
1
0
ENDTAB
0
TABLE
2
BLOCK_RECORD
5
1
100
AcDbSymbolTable
70
1
0
BLOCK_RECORD
5
1F
100
AcDbSymbolTableRecord
100
AcDbBlockTableRecord
2
*MODEL_SPACE
0
BLOCK_RECORD
5
1B
100
AcDbSymbolTableRecord
100
AcDbBlockTableRecord
2
*PAPER_SPACE
0
ENDTAB
0
ENDSEC
0
SECTION
2
BLOCKS
0
BLOCK
5
20
100
AcDbEntity
100
AcDbBlockBegin
2
*MODEL_SPACE
0
ENDBLK
5
21
100
AcDbEntity
100
AcDbBlockEnd
0
BLOCK
5
1C
100
AcDbEntity
100
AcDbBlockBegin
2
*PAPER_SPACE
0
ENDBLK
5
1D
100
AcDbEntity
100
AcDbBlockEnd
0
ENDSEC
0
SECTION
2
ENTITIES
0
SPLINE
5
100
100
AcDbEntity
8
0
100
AcDbSpline
70
1064
71
5
72
31
73
25
74
0
42
0.000000001
43
0.0000000001
44
0.0000000001
40
0
40
0
40
0
40
0
40
0
40
0
40
0.050000000000000003
40
0.10000000000000001
40
0.15000000000000002
40
0.20000000000000001
40
0.25
40
0.29999999999999999
40
0.34999999999999998
40
0.39999999999999997
40
0.44999999999999996
40
0.49999999999999994
40
0.54999999999999993
40
0.59999999999999998
40
0.65000000000000002
40
0.70000000000000007
40
0.75000000000000011
40
0.80000000000000016
40
0.8500000000000002
40
0.90000000000000024
40
0.95000000000000029
40
1
40
1
40
1
40
1
40
1
40
1
10
33.889353861267665
20
34.569013132306381
30
0
10
34.407223887087163
20
34.59490590782557
30
0
10
35.457694198741521
20
34.514947775248842
30
0
10
37.052856685981325
20
33.998542872186171
30
0
10
39.116403611663856
20
32.544780494452532
30
0
10
41.340251993436439
20
29.649193775816364
30
0
10
42.985962717610974
20
25.966853799249968
30
0
10
43.881831984499456
20
21.85300054894174
30
0
10
43.92941808845066
20
17.696734329312854
30
0
10
43.132651744509182
20
13.892273922350292
30
0
10
41.582667947456223
20
10.808000883613307
30
0
10
39.4368536182658
20
8.7545421343375125
30
0
10
36.901924734409931
20
7.9517211630175808
30
0
10
34.216930426225659
20
8.4935532901932582
30
0
10
31.63749676911392
20
10.310756262351743
30
0
10
29.413648387341627
20
13.206342980988167
30
0
10
27.767937663176451
20
16.888682957563905
30
0
10
26.872068396302513
20
21.002536207886639
30
0
10
26.824482292366717
20
25.15880242753088
30
0
10
27.62124863631918
20
28.963262834504313
30
0
10
29.171232433374421
20
32.047535873243561
30
0
10
30.887883896719512
20
33.690302872657
30
0
10
32.350474043824505
20
34.359591122133708
30
0
10
33.37148383544816
20
34.543120356787185
30
0
10
33.889353861267665
20
34.569013132306381
30
0
0
SPLINE
5
101
100
AcDbEntity
8
0
100
AcDbSpline
70
1064
71
5
72
31
73
25
74
0
42
0.000000001
43
0.0000000001
44
0.0000000001
40
0
40
0
40
0
40
0
40
0
40
0
40
0.050000000000000003
40
0.10000000000000001
40
0.15000000000000002
40
0.20000000000000001
40
0.25
40
0.29999999999999999
40
0.34999999999999998
40
0.39999999999999997
40
0.44999999999999996
40
0.49999999999999994
40
0.54999999999999993
40
0.59999999999999998
40
0.65000000000000002
40
0.70000000000000007
40
0.75000000000000011
40
0.80000000000000016
40
0.8500000000000002
40
0.90000000000000024
40
0.95000000000000029
40
1
40
1
40
1
40
1
40
1
40
1
10
334.56109201719084
20
42.444719895552907
30
0
10
335.00874875654006
20
43.294046963051684
30
0
10
335.97257546691378
20
44.968527853965163
30
0
10
337.60247402167516
20
47.367163472500557
30
0
10
340.04180526069706
20
50.183499651237994
30
0
10
343.23032411215701
20
52.734133031238983
30
0
10
346.23844153314059
20
54.060621067679321
30
0
10
348.76456817433029
20
54.014134033301048
30
0
10
350.55747908479162
20
52.576536552804562
30
0
10
351.45433342463411
20
49.897382042851461
30
0
10
351.38072494214475
20
46.258869144753348
30
0
10
350.34531037049453
20
42.029728428816604
30
0
10
348.43871640592704
20
37.625675744556936
30
0
10
345.83310763363494
20
33.468847777816741
30
0
10
342.78394358476811
20
29.948427554383848
30
0
10
339.59542473330885
20
27.397794174383083
30
0
10
336.58730731241997
20
26.071306137954622
30
0
10
334.06118067137976
20
26.117793172351575
30
0
10
332.26826976107651
20
27.55539065286785
30
0
10
331.37141542134538
20
30.23454516283509
30
0
10
331.44502390385765
20
33.873058060936224
30
0
10
332.27335556110353
20
37.256370633676241
30
0
10
333.28663503081879
20
39.872565448972502
30
0
10
334.11343527784163
20
41.595392828054116
30
0
10
334.56109201719084
20
42.444719895552907
30
0
0
SPLINE
5
102
100
AcDbEntity
8
0
100
AcDbSpline
70
1064
71
5
72
36
73
30
74
0
42
0.000000001
43
0.0000000001
44
0.0000000001
40
0
40
0
40
0
40
0
40
0
40
0
40
0.040000000000000001
40
0.080000000000000002
40
0.12
40
0.16
40
0.20000000000000001
40
0.24000000000000002
40
0.28000000000000003
40
0.32000000000000001
40
0.35999999999999999
40
0.39999999999999997
40
0.43999999999999995
40
0.47999999999999993
40
0.51999999999999991
40
0.55999999999999994
40
0.59999999999999998
40
0.64000000000000001
40
0.68000000000000005
40
0.72000000000000008
40
0.76000000000000012
40
0.80000000000000016
40
0.84000000000000019
40
0.88000000000000023
40
0.92000000000000026
40
0.9600000000000003
40
1
40
1
40
1
40
1
40
1
40
1
10
59.325635577936879
20
139.92027201140309
30
0
10
59.972312805985808
20
140.23708442976232
30
0
10
61.370459803381948
20
140.80597008104348
30
0
10
63.753333214192899
20
141.45981977967062
30
0
10
67.352111800034777
20
141.92349030558933
30
0
10
72.078067351454024
20
141.84513200708264
30
0
10
76.527827555494781
20
141.16268637566657
30
0
10
80.239947285956305
20
139.94868576650541
30
0
10
82.86996664150314
20
138.2811192237798
30
0
10
84.257717294287062
20
136.23196915063841
30
0
10
84.518741336819602
20
133.85180264905074
30
0
10
83.950800761379952
20
131.18946149137312
30
0
10
82.900930001641029
20
128.32072407231169
30
0
10
81.659562539052814
20
125.36979284628097
30
0
10
80.313642858618948
20
122.5451214999954
30
0
10
78.773122099570116
20
120.11258368147256
30
0
10
76.878319268716893
20
118.33837044821246
30
0
10
74.477129416760164
20
117.44376161483859
30
0
10
71.523246326504747
20
117.54911593950095
30
0
10
68.140613883990312
20
118.63706139930085
30
0
10
64.566284989489276
20
120.59057200226484
30
0
10
61.112062588535103
20
123.21875209746736
30
0
10
58.119314871451465
20
126.28659705091823
30
0
10
55.918454563279489
20
129.54107425404419
30
0
10
54.783101932687501
20
132.74086921991898
30
0
10
54.897312391959481
20
135.67492897129884
30
0
10
56.050655895954087
20
137.6685932033071
30
0
10
57.490396435088343
20
138.90509557088802
30
0
10
58.678958349887964
20
139.60345959304385
30
0
10
59.325635577936879
20
139.92027201140309
30
0
0
SPLINE
5
103
100
AcDbEntity
8
0
100
AcDbSpline
70
1064
71
5
72
41
73
35
74
0
42
0.000000001
43
0.0000000001
44
0.0000000001
40
0
40
0
40
0
40
0
40
0
40
0
40
0.033333333333333333
40
0.066666666666666666
40
0.10000000000000001
40
0.13333333333333333
40
0.16666666666666666
40
0.19999999999999998
40
0.23333333333333331
40
0.26666666666666666
40
0.29999999999999999
40
0.33333333333333331
40
0.36666666666666664
40
0.39999999999999997
40
0.43333333333333329
40
0.46666666666666662
40
0.49999999999999994
40
0.53333333333333333
40
0.56666666666666665
40
0.59999999999999998
40
0.6333333333333333
40
0.66666666666666663
40
0.69999999999999996
40
0.73333333333333328
40
0.76666666666666661
40
0.79999999999999993
40
0.83333333333333326
40
0.86666666666666659
40
0.89999999999999991
40
0.93333333333333324
40
0.96666666666666656
40
1
40
1
40
1
40
1
40
1
40
1
10
125.50360555206056
20
154.15974788896159
30
0
10
125.88142723402257
20
154.92799111547501
30
0
10
126.76423457458228
20
156.40504915182623
30
0
10
128.46868395226161
20
158.41102339436236
30
0
10
131.48982390860306
20
160.5884708451797
30
0
10
136.43702700820705
20
162.46450769837307
30
0
10
142.41854670466751
20
163.59674510872355
30
0
10
149.22454173910492
20
164.14819082537059
30
0
10
156.55879397308314
20
164.28652723469412
30
0
10
164.02204742424937
20
164.12449382786849
30
0
10
171.10341360338555
20
163.66970723441696
30
0
10
177.26072030491815
20
162.87070076205561
30
0
10
181.99126608585823
20
161.65369805494583
30
0
10
184.91106844591627
20
159.96510407656754
30
0
10
185.82119938152016
20
157.80633679004896
30
0
10
184.80646229019646
20
155.28550121262236
30
0
10
182.23314272335466
20
152.61585065230582
30
0
10
178.57935569608725
20
150.02486648004518
30
0
10
174.31647524800951
20
147.69202667555868
30
0
10
169.74545127286075
20
145.65704673364561
30
0
10
165.00852944479848
20
143.85080241844051
30
0
10
160.15295825795664
20
142.16283811163581
30
0
10
155.17791410975093
20
140.49821776573413
30
0
10
150.08595899109912
20
138.83481805534814
30
0
10
144.9372911704173
20
137.29026752862583
30
0
10
139.88866127060251
20
136.15738953553534
30
0
10
135.15389898228651
20
135.79019214124531
30
0
10
130.97509363881804
20
136.50739563781096
30
0
10
127.59095980011972
20
138.49574132291716
30
0
10
125.20370342186972
20
141.69633913805137
30
0
10
123.95428298709142
20
145.74573234757344
30
0
10
123.93733089484491
20
149.25475980012098
30
0
10
124.49730448281016
20
151.79558979274577
30
0
10
125.12578387009856
20
153.39150466244823
30
0
10
125.50360555206056
20
154.15974788896159
30
0
0
SPLINE
5
104
100
AcDbEntity
8
0
100
AcDbSpline
70
1064
71
5
72
51
73
45
74
0
42
0.000000001
43
0.0000000001
44
0.0000000001
40
0
40
0
40
0
40
0
40
0
40
0
40
0.025000000000000001
40
0.050000000000000003
40
0.075000000000000011
40
0.10000000000000001
40
0.125
40
0.14999999999999999
40
0.17499999999999999
40
0.19999999999999998
40
0.22499999999999998
40
0.24999999999999997
40
0.27499999999999997
40
0.29999999999999999
40
0.32500000000000001
40
0.35000000000000003
40
0.37500000000000006
40
0.40000000000000008
40
0.4250000000000001
40
0.45000000000000012
40
0.47500000000000014
40
0.50000000000000011
40
0.52500000000000013
40
0.55000000000000016
40
0.57500000000000018
40
0.6000000000000002
40
0.62500000000000022
40
0.65000000000000024
40
0.67500000000000027
40
0.70000000000000029
40
0.72500000000000031
40
0.75000000000000033
40
0.77500000000000036
40
0.80000000000000038
40
0.8250000000000004
40
0.85000000000000042
40
0.87500000000000044
40
0.90000000000000047
40
0.92500000000000049
40
0.95000000000000051
40
0.97500000000000053
40
1
40
1
40
1
40
1
40
1
40
1
10
261.06453900611893
20
155.7875669930234
30
0
10
261.18814651117748
20
155.27338338278133
30
0
10
261.29730050647538
20
154.20270947621117
30
0
10
261.05324103581216
20
152.47809559057862
30
0
10
259.96256208243375
20
149.99051148488292
30
0
10
257.53572991326871
20
146.74140522827753
30
0
10
254.30703707861997
20
143.55029932391449
30
0
10
250.5498128097976
20
140.60995040313082
30
0
10
246.51505758193179
20
138.08277731969542
30
0
10
242.38793304421077
20
136.0674969430965
30
0
10
238.27969622526388
20
134.59499737237508
30
0
10
234.25266128655039
20
133.65153797206656
30
0
10
230.33539005390753
20
133.19370229210836
30
0
10
226.54263513900844
20
133.16754634018986
30
0
10
222.89102566145019
20
133.52352716818348
30
0
10
219.42185210090634
20
134.23896821803353
30
0
10
216.19865272503662
20
135.3132763427092
30
0
10
213.28538121193515
20
136.74252969049843
30
0
10
210.72902802738037
20
138.49805311809973
30
0
10
208.54271629398744
20
140.50738242841084
30
0
10
206.68238226975257
20
142.62339958445091
30
0
10
205.06434918339153
20
144.66803029443849
30
0
10
203.59674953367406
20
146.50592284977313
30
0
10
202.20636688198286
20
148.09991677341736
30
0
10
200.86731039814902
20
149.59530438330137
30
0
10
199.62268984349066
20
151.21024736042256
30
0
10
198.59840619456563
20
153.11020323073021
30
0
10
198.03479410141293
20
155.25411505941267
30
0
10
198.22786607174112
20
157.44535182461453
30
0
10
199.44682369319543
20
159.4482752505061
30
0
10
201.84383115722943
20
161.10255907914083
30
0
10
205.43656819193166
20
162.34901662882373
30
0
10
210.13896823705215
20
163.19141131579215
30
0
10
215.7765753544553
20
163.6784475006003
30
0
10
222.10779873374605
20
163.87793033938817
30
0
10
228.84224994572151
20
163.85372275694593
30
0
10
235.66004298816995
20
163.64319147811318
30
0
10
242.23049923192789
20
163.23001032043857
30
0
10
248.23095543290108
20
162.55771199229326
30
0
10
253.36550022996849
20
161.55122757819217
30
0
10
257.38386896632068
20
160.13556648121821
30
0
10
259.55716581331762
20
158.63166484846249
30
0
10
260.55565547612457
20
157.28781113766348
30
0
10
260.9409315010605
20
156.30175060326539
30
0
10
261.06453900611893
20
155.7875669930234
30
0
0
SPLINE
5
105
100
AcDbEntity
8
0
100
AcDbSpline
70
1064
71
5
72
41
73
35
74
0
42
0.000000001
43
0.0000000001
44
0.0000000001
40
0
40
0
40
0
40
0
40
0
40
0
40
0.033333333333333333
40
0.066666666666666666
40
0.10000000000000001
40
0.13333333333333333
40
0.16666666666666666
40
0.19999999999999998
40
0.23333333333333331
40
0.26666666666666666
40
0.29999999999999999
40
0.33333333333333331
40
0.36666666666666664
40
0.39999999999999997
40
0.43333333333333329
40
0.46666666666666662
40
0.49999999999999994
40
0.53333333333333333
40
0.56666666666666665
40
0.59999999999999998
40
0.6333333333333333
40
0.66666666666666663
40
0.69999999999999996
40
0.73333333333333328
40
0.76666666666666661
40
0.79999999999999993
40
0.83333333333333326
40
0.86666666666666659
40
0.89999999999999991
40
0.93333333333333324
40
0.96666666666666656
40
1
40
1
40
1
40
1
40
1
40
1
10
72.391495577591229
20
107.43201756220991
30
0
10
72.583677648938846
20
107.74547903930072
30
0
10
72.970470438337642
20
108.38020313789714
30
0
10
73.547911893173804
20
109.34221767593775
30
0
10
74.293386534963645
20
110.57731787014546
30
0
10
75.211205706483156
20
111.84385793416288
30
0
10
76.184087928574058
20
112.64551022532289
30
0
10
77.293656086330614
20
112.84116060474918
30
0
10
78.599659058501345
20
112.38251969824304
30
0
10
80.129666133730183
20
111.30950118617271
30
0
10
81.878831197442423
20
109.7249373416881
30
0
10
83.805750585246898
20
107.77644313895415
30
0
10
85.83047741875987
20
105.63610544096184
30
0
10
87.82925117656994
20
103.48071395422672
30
0
10
89.636598984052625
20
101.47410872758009
30
0
10
91.072857749322964
20
99.758233882412696
30
0
10
91.967129069839842
20
98.442865299551769
30
0
10
92.182877772200925
20
97.594951658141611
30
0
10
91.640948277344805
20
97.229205786973381
30
0
10
90.348846063847432
20
97.293837597026865
30
0
10
88.390194527256526
20
97.688894680840804
30
0
10
85.905886246344721
20
98.291144147533046
30
0
10
83.078737522205657
20
98.977185389258224
30
0
10
80.117018517649043
20
99.645471676852367
30
0
10
77.239116048102304
20
100.24305723440409
30
0
10
74.656721383973675
20
100.7766882091953
30
0
10
72.554762628617112
20
101.29118984236524
30
0
10
71.072498612092488
20
101.85511931523855
30
0
10
70.282277210687127
20
102.54360958084513
30
0
10
70.17211752513748
20
103.42277764851247
30
0
10
70.616972930853422
20
104.53267237992898
30
0
10
71.261794375743563
20
105.60763003704039
30
0
10
71.817378010251872
20
106.49943427535254
30
0
10
72.199313506243627
20
107.11855608511917
30
0
10
72.391495577591229
20
107.43201756220991
30
0
0
SPLINE
5
106
100
AcDbEntity
8
0
100
AcDbSpline
70
1064
71
5
72
31
73
25
74
0
42
0.000000001
43
0.0000000001
44
0.0000000001
40
0
40
0
40
0
40
0
40
0
40
0
40
0.050000000000000003
40
0.10000000000000001
40
0.15000000000000002
40
0.20000000000000001
40
0.25
40
0.29999999999999999
40
0.34999999999999998
40
0.39999999999999997
40
0.44999999999999996
40
0.49999999999999994
40
0.54999999999999993
40
0.59999999999999998
40
0.65000000000000002
40
0.70000000000000007
40
0.75000000000000011
40
0.80000000000000016
40
0.8500000000000002
40
0.90000000000000024
40
0.95000000000000029
40
1
40
1
40
1
40
1
40
1
40
1
10
190.50175877069654
20
120.71194367442594
30
0
10
190.90816364372643
20
121.528443385944
30
0
10
191.79392277735485
20
123.15904163353423
30
0
10
193.3219602763327
20
125.55866015915355
30
0
10
195.66314497604878
20
128.51164799285237
30
0
10
198.80532427317883
20
131.443681125214
30
0
10
201.85052862379814
20
133.32875142455001
30
0
10
204.49594443083299
20
133.96757140478482
30
0
10
206.47803242990253
20
133.27371306403177
30
0
10
207.60920607715505
20
131.31334345649682
30
0
10
207.7918200604405
20
128.29937449762969
30
0
10
207.0108238810283
20
124.54199303062251
30
0
10
205.3345048054473
20
120.41394439813507
30
0
10
202.91435954360637
20
116.31187038295927
30
0
10
199.98787866890842
20
112.62063559080475
30
0
10
196.84569937176988
20
109.68860245843788
30
0
10
193.8004950211934
20
107.8035321591272
30
0
10
191.15507921423387
20
107.16471217893697
30
0
10
189.17299121524934
20
107.85857051974099
30
0
10
188.04181756806301
20
109.81894012731593
30
0
10
187.85920358479916
20
112.83290908619631
30
0
10
188.48400052829606
20
115.83881425978191
30
0
10
189.35549353917534
20
118.26004336442591
30
0
10
190.0953538976666
20
119.89544396290782
30
0
10
190.50175877069654
20
120.71194367442594
30
0
0
SPLINE
5
107
100
AcDbEntity
8
0
100
AcDbSpline
70
1064
71
5
72
31
73
25
74
0
42
0.000000001
43
0.0000000001
44
0.0000000001
40
0
40
0
40
0
40
0
40
0
40
0
40
0.050000000000000003
40
0.10000000000000001
40
0.15000000000000002
40
0.20000000000000001
40
0.25
40
0.29999999999999999
40
0.34999999999999998
40
0.39999999999999997
40
0.44999999999999996
40
0.49999999999999994
40
0.54999999999999993
40
0.59999999999999998
40
0.65000000000000002
40
0.70000000000000007
40
0.75000000000000011
40
0.80000000000000016
40
0.8500000000000002
40
0.90000000000000024
40
0.95000000000000029
40
1
40
1
40
1
40
1
40
1
40
1
10
218.15498739393391
20
18.256587437402981
30
0
10
218.49246948474274
20
18.890037814158845
30
0
10
219.34781527573844
20
20.137574365458821
30
0
10
221.15572485545331
20
21.920278118892753
30
0
10
224.50780452988585
20
24.005521778550332
30
0
10
229.83887481005695
20
25.888094565078148
30
0
10
235.78032895875697
20
26.868779016582632
30
0
10
241.75253925228915
20
26.842612200961295
30
0
10
247.17881035935758
20
25.791723206728815
30
0
10
251.53793675092044
20
23.802394904478046
30
0
10
254.4162972156187
20
21.081256860301036
30
0
10
255.52956470707238
20
17.912629560107312
30
0
10
254.74853088684452
20
14.619990719403884
30
0
10
252.12765390724385
20
11.527278347730583
30
0
10
247.9375543141233
20
8.9207237731524476
30
0
10
242.60648403392739
20
7.0381509866227052
30
0
10
236.66502988526867
20
6.0574665351214643
30
0
10
230.6928195918245
20
6.0836333507496132
30
0
10
225.26654848486567
20
7.1345223449906587
30
0
10
220.90742209339837
20
9.1238506472488687
30
0
10
218.0290616287445
20
11.844988691429352
30
0
10
217.13844763555213
20
14.379890531581994
30
0
10
217.32292273088552
20
16.336872104923629
30
0
10
217.81750530312513
20
17.623137060647117
30
0
10
218.15498739393391
20
18.256587437402981
30
0
0
SPLINE
5
108
100
AcDbEntity
8
0
100
AcDbSpline
70
1064
71
5
72
36
73
30
74
0
42
0.000000001
43
0.0000000001
44
0.0000000001
40
0
40
0
40
0
40
0
40
0
40
0
40
0.040000000000000001
40
0.080000000000000002
40
0.12
40
0.16
40
0.20000000000000001
40
0.24000000000000002
40
0.28000000000000003
40
0.32000000000000001
40
0.35999999999999999
40
0.39999999999999997
40
0.43999999999999995
40
0.47999999999999993
40
0.51999999999999991
40
0.55999999999999994
40
0.59999999999999998
40
0.64000000000000001
40
0.68000000000000005
40
0.72000000000000008
40
0.76000000000000012
40
0.80000000000000016
40
0.84000000000000019
40
0.88000000000000023
40
0.92000000000000026
40
0.9600000000000003
40
1
40
1
40
1
40
1
40
1
40
1
10
39.169920980347499
20
76.069755650788494
30
0
10
39.445751258648087
20
76.575598316721752
30
0
10
40.070528101757041
20
77.549997041065041
30
0
10
41.219272256839432
20
78.883579509113019
30
0
10
43.131945610838528
20
80.346247144962462
30
0
10
46.009407970552523
20
81.531814719594706
30
0
10
49.193769361402957
20
81.994900683138482
30
0
10
52.485311479012282
20
81.699449208159194
30
0
10
55.675412458431701
20
80.659924646256258
30
0
10
58.557472441915294
20
78.948938502827232
30
0
10
60.939887930582543
20
76.684517407254972
30
0
10
62.658960115439285
20
74.017852492777052
30
0
10
63.592854427134561
20
71.121450618797468
30
0
10
63.674507194059345
20
68.177741865962247
30
0
10
62.909284352264237
20
65.367383385155776
30
0
10
61.365805478523725
20
62.860687622076341
30
0
10
59.160760838138096
20
60.809678124231191
30
0
10
56.446666887854413
20
59.339677405998145
30
0
10
53.399121267867322
20
58.540575534255659
30
0
10
50.204877327507198
20
58.457791750413399
30
0
10
47.053565568576929
20
59.094947455352681
30
0
10
44.129551633934383
20
60.415903861099537
30
0
10
41.603626497054371
20
62.346087093236598
30
0
10
39.62475844483744
20
64.773837396458887
30
0
10
38.310939705719377
20
67.549809379637836
30
0
10
37.744839529858218
20
70.498657091168283
30
0
10
37.924848855436053
20
72.845779109698455
30
0
10
38.415546431953487
20
74.514941045465463
30
0
10
38.89409070204691
20
75.563912984855207
30
0
10
39.169920980347499
20
76.069755650788494
30
0
0
SPLINE
5
109
100
AcDbEntity
8
0
100
AcDbSpline
70
1064
71
5
72
46
73
40
74
0
42
0.000000001
43
0.0000000001
44
0.0000000001
40
0
40
0
40
0
40
0
40
0
40
0
40
0.028571428571428571
40
0.057142857142857141
40
0.085714285714285715
40
0.11428571428571428
40
0.14285714285714285
40
0.17142857142857143
40
0.20000000000000001
40
0.22857142857142859
40
0.25714285714285717
40
0.28571428571428575
40
0.31428571428571433
40
0.34285714285714292
40
0.3714285714285715
40
0.40000000000000008
40
0.42857142857142866
40
0.45714285714285724
40
0.48571428571428582
40
0.51428571428571435
40
0.54285714285714293
40
0.57142857142857151
40
0.60000000000000009
40
0.62857142857142867
40
0.65714285714285725
40
0.68571428571428583
40
0.71428571428571441
40
0.74285714285714299
40
0.77142857142857157
40
0.80000000000000016
40
0.82857142857142874
40
0.85714285714285732
40
0.8857142857142859
40
0.91428571428571448
40
0.94285714285714306
40
0.97142857142857164
40
1
40
1
40
1
40
1
40
1
40
1
10
97.417157191865797
20
92.212854005863676
30
0
10
97.443925772413877
20
92.568956501287815
30
0
10
97.490661606797318
20
93.259469019173835
30
0
10
97.538731747606263
20
94.215405388862138
30
0
10
97.602763780358515
20
95.324224708835587
30
0
10
97.919514538222487
20
96.574279825849771
30
0
10
98.720688282169945
20
97.884012559732355
30
0
10
100.12917622058451
20
99.389250885656324
30
0
10
102.14934149011145
20
101.15584228776596
30
0
10
104.70247174238695
20
103.19072107780399
30
0
10
107.65133117735331
20
105.44553165535498
30
0
10
110.82951151243941
20
107.82254067497576
30
0
10
114.06691394452005
20
110.1803860416257
30
0
10
117.22078764470911
20
112.33666587453669
30
0
10
120.17706750969259
20
114.09215963473872
30
0
10
122.84336293736624
20
115.26191201986984
30
0
10
125.14494071104559
20
115.70339476235766
30
0
10
127.01945183030273
20
115.34766750807948
30
0
10
128.41264757524578
20
114.22613710909707
30
0
10
129.27289950292268
20
112.50924386129525
30
0
10
129.55503316538477
20
110.44670567831065
30
0
10
129.22571695177479
20
108.29168076137643
30
0
10
128.26840921362768
20
106.23096983023551
30
0
10
126.68869703501653
20
104.31177841165112
30
0
10
124.51678979610568
20
102.48487533470518
30
0
10
121.81037908792919
20
100.64839212519291
30
0
10
118.65718727782058
20
98.689905768710403
30
0
10
115.17875444598107
20
96.531699118728312
30
0
10
111.53189463548981
20
94.168761165162948
30
0
10
107.91646617782186
20
91.725238186412298
30
0
10
104.55970103596943
20
89.442039123723575
30
0
10
101.67845037999385
20
87.601445064932221
30
0
10
99.449142066242331
20
86.471737232305884
30
0
10
97.97091105521686
20
86.238902192516491
30
0
10
97.239161646204849
20
86.954284013818295
30
0
10
97.094552679751899
20
88.448091271148925
30
0
10
97.220768042271501
20
89.971685420267974
30
0
10
97.330050123508755
20
91.122854046629016
30
0
10
97.390388611317732
20
91.856751510439523
30
0
10
97.417157191865797
20
92.212854005863676
30
0
0
SPLINE
5
110
100
AcDbEntity
8
0
100
AcDbSpline
70
1064
71
5
72
41
73
35
74
0
42
0.000000001
43
0.0000000001
44
0.0000000001
40
0
40
0
40
0
40
0
40
0
40
0
40
0.033333333333333333
40
0.066666666666666666
40
0.10000000000000001
40
0.13333333333333333
40
0.16666666666666666
40
0.19999999999999998
40
0.23333333333333331
40
0.26666666666666666
40
0.29999999999999999
40
0.33333333333333331
40
0.36666666666666664
40
0.39999999999999997
40
0.43333333333333329
40
0.46666666666666662
40
0.49999999999999994
40
0.53333333333333333
40
0.56666666666666665
40
0.59999999999999998
40
0.6333333333333333
40
0.66666666666666663
40
0.69999999999999996
40
0.73333333333333328
40
0.76666666666666661
40
0.79999999999999993
40
0.83333333333333326
40
0.86666666666666659
40
0.89999999999999991
40
0.93333333333333324
40
0.96666666666666656
40
1
40
1
40
1
40
1
40
1
40
1
10
32.120207587441705
20
138.70409791890643
30
0
10
32.498854074499697
20
138.82177532481279
30
0
10
33.310254041670539
20
138.94499850747653
30
0
10
34.690284092615343
20
138.78571133683698
30
0
10
36.856653952123239
20
137.88917476624667
30
0
10
40.086934981997771
20
135.76986031860605
30
0
10
43.782398754248419
20
132.88308721407324
30
0
10
47.836619916197201
20
129.50766251487602
30
0
10
52.081237413276853
20
125.9296709251646
30
0
10
56.269573739387496
20
122.39957507222118
30
0
10
60.069364279085669
20
119.09660059652077
30
0
10
63.123055086048083
20
116.14326611839553
30
0
10
65.099176051620432
20
113.61421542135804
30
0
10
65.750799400208038
20
111.54687694078041
30
0
10
64.963871448183113
20
109.95076432712638
30
0
10
62.830593044700045
20
108.81747782423106
30
0
10
59.630263865744936
20
108.12817668050825
30
0
10
55.739015388546356
20
107.85919082159262
30
0
10
51.559919239380925
20
107.98815661142029
30
0
10
47.447788775424307
20
108.49955451020674
30
0
10
43.629400288830766
20
109.39121753790543
30
0
10
40.224683019710255
20
110.66891737167822
30
0
10
37.277660289063761
20
112.33971743888696
30
0
10
34.78394742464986
20
114.40583555781303
30
0
10
32.717366566328138
20
116.85789501901938
30
0
10
31.061131959263207
20
119.66898527282923
30
0
10
29.815894917774145
20
122.7852071618404
30
0
10
28.992995234071422
20
126.11516407455498
30
0
10
28.612163544986707
20
129.51751084701249
30
0
10
28.697429910129589
20
132.79321614415568
30
0
10
29.273572193883297
20
135.66441093451982
30
0
10
30.145308005869861
20
137.38903658032893
30
0
10
31.038375119322595
20
138.23893407203832
30
0
10
31.74156110038372
20
138.58642051300009
30
0
10
32.120207587441705
20
138.70409791890643
30
0
0
SPLINE
5
111
100
AcDbEntity
8
0
100
AcDbSpline
70
1064
71
5
72
46
73
40
74
0
42
0.000000001
43
0.0000000001
44
0.0000000001
40
0
40
0
40
0
40
0
40
0
40
0
40
0.028571428571428571
40
0.057142857142857141
40
0.085714285714285715
40
0.11428571428571428
40
0.14285714285714285
40
0.17142857142857143
40
0.20000000000000001
40
0.22857142857142859
40
0.25714285714285717
40
0.28571428571428575
40
0.31428571428571433
40
0.34285714285714292
40
0.3714285714285715
40
0.40000000000000008
40
0.42857142857142866
40
0.45714285714285724
40
0.48571428571428582
40
0.51428571428571435
40
0.54285714285714293
40
0.57142857142857151
40
0.60000000000000009
40
0.62857142857142867
40
0.65714285714285725
40
0.68571428571428583
40
0.71428571428571441
40
0.74285714285714299
40
0.77142857142857157
40
0.80000000000000016
40
0.82857142857142874
40
0.85714285714285732
40
0.8857142857142859
40
0.91428571428571448
40
0.94285714285714306
40
0.97142857142857164
40
1
40
1
40
1
40
1
40
1
40
1
10
70.382062699230246
20
82.766653734023379
30
0
10
70.671521787686459
20
83.078947199844293
30
0
10
71.315350848960179
20
83.635772580068306
30
0
10
72.471505844728938
20
84.265170406060179
30
0
10
74.359580348474253
20
84.714906013485276
30
0
10
77.1494376389265
20
84.782728546704845
30
0
10
80.182160206373283
20
84.544328472083805
30
0
10
83.254166417546543
20
84.162455844148326
30
0
10
86.168210132985791
20
83.699229679616209
30
0
10
88.754185514387402
20
83.09570693101881
30
0
10
90.886436672585688
20
82.231206448488052
30
0
10
92.50263593328738
20
80.963392149213988
30
0
10
93.621324294918097
20
79.175282546788722
30
0
10
94.3633643254676
20
76.821273265813559
30
0
10
94.904663325482204
20
73.924413103861795
30
0
10
95.427157687337001
20
70.570275328570645
30
0
10
96.067543674174829
20
66.903443664797862
30
0
10
96.873656945044218
20
63.121188203523324
30
0
10
97.739833111706659
20
59.473986323048337
30
0
10
98.438254102080961
20
56.236906516985371
30
0
10
98.697114369956211
20
53.667675492290726
30
0
10
98.266955818150706
20
51.966467552944309
30
0
10
96.984992371944045
20
51.239911211841459
30
0
10
94.858391448805847
20
51.449437911728296
30
0
10
92.044878571839604
20
52.437187233702105
30
0
10
88.788115600304167
20
53.985093735836159
30
0
10
85.366089029675265
20
55.865316323816394
30
0
10
82.039075953452155
20
57.888652272071241
30
0
10
78.986274952793408
20
59.967304611608313
30
0
10
76.296733076818697
20
62.114031204233122
30
0
10
74.0037858001443
20
64.390566891245214
30
0
10
72.105909282280663
20
66.872175218520312
30
0
10
70.594155838997253
20
69.603252092319408
30
0
10
69.473694968213891
20
72.562289107229361
30
0
10
68.795362541177767
20
75.608096423221866
30
0
10
68.642419399696749
20
78.511629865155456
30
0
10
69.006639281695868
20
80.522759996380145
30
0
10
69.578596318222822
20
81.76201178514296
30
0
10
70.09260361077402
20
82.454360268202507
30
0
10
70.382062699230246
20
82.766653734023379
30
0
0
SPLINE
5
112
100
AcDbEntity
8
0
100
AcDbSpline
70
1064
71
5
72
36
73
30
74
0
42
0.000000001
43
0.0000000001
44
0.0000000001
40
0
40
0
40
0
40
0
40
0
40
0
40
0.040000000000000001
40
0.080000000000000002
40
0.12
40
0.16
40
0.20000000000000001
40
0.24000000000000002
40
0.28000000000000003
40
0.32000000000000001
40
0.35999999999999999
40
0.39999999999999997
40
0.43999999999999995
40
0.47999999999999993
40
0.51999999999999991
40
0.55999999999999994
40
0.59999999999999998
40
0.64000000000000001
40
0.68000000000000005
40
0.72000000000000008
40
0.76000000000000012
40
0.80000000000000016
40
0.84000000000000019
40
0.88000000000000023
40
0.92000000000000026
40
0.9600000000000003
40
1
40
1
40
1
40
1
40
1
40
1
10
113.8915574527018
20
154.3213316329834
30
0
10
113.93458742172226
20
153.73173444889485
30
0
10
113.87958859564129
20
152.54498909566101
30
0
10
113.381674929863
20
150.76043359081444
30
0
10
111.96147714296147
20
148.4410084369475
30
0
10
109.24842174656285
20
145.79398956255983
30
0
10
105.97610041696061
20
143.53159964733788
30
0
10
102.50171327078833
20
141.76592883347143
30
0
10
99.077544322498881
20
140.58833447593489
30
0
10
95.784552405158081
20
140.0681495385096
30
0
10
92.609523162834819
20
140.24751201921541
30
0
10
89.512007956643615
20
141.13564496840945
30
0
10
86.487489238479739
20
142.70360545967247
30
0
10
83.64937279943905
20
144.8759523536965
30
0
10
81.242389501716985
20
147.530739500236
30
0
10
79.560722969484402
20
150.51147607147922
30
0
10
78.887962483575592
20
153.63539068478076
30
0
10
79.432567699480614
20
156.70314422555629
30
0
10
81.252531838627803
20
159.5065214668449
30
0
10
84.261510241118543
20
161.8438848149593
30
0
10
88.260014702823668
20
163.53736078864645
30
0
10
92.955780130494944
20
164.45086482526369
30
0
10
97.988437409270276
20
164.50614041775933
30
0
10
102.94785547958112
20
163.70624513016736
30
0
10
107.40744205384318
20
162.13451124799886
30
0
10
110.9715300006137
20
159.92936078231503
30
0
10
112.84979357018454
20
157.79916883950841
30
0
10
113.62140878151843
20
156.08257220019223
30
0
10
113.84852748368132
20
154.91092881707192
30
0
10
113.8915574527018
20
154.3213316329834
30
0
0
SPLINE
5
113
100
AcDbEntity
8
0
100
AcDbSpline
70
1064
71
5
72
41
73
35
74
0
42
0.000000001
43
0.0000000001
44
0.0000000001
40
0
40
0
40
0
40
0
40
0
40
0
40
0.033333333333333333
40
0.066666666666666666
40
0.10000000000000001
40
0.13333333333333333
40
0.16666666666666666
40
0.19999999999999998
40
0.23333333333333331
40
0.26666666666666666
40
0.29999999999999999
40
0.33333333333333331
40
0.36666666666666664
40
0.39999999999999997
40
0.43333333333333329
40
0.46666666666666662
40
0.49999999999999994
40
0.53333333333333333
40
0.56666666666666665
40
0.59999999999999998
40
0.6333333333333333
40
0.66666666666666663
40
0.69999999999999996
40
0.73333333333333328
40
0.76666666666666661
40
0.79999999999999993
40
0.83333333333333326
40
0.86666666666666659
40
0.89999999999999991
40
0.93333333333333324
40
0.96666666666666656
40
1
40
1
40
1
40
1
40
1
40
1
10
82.558271032295906
20
26.261433282637796
30
0
10
82.947728190871914
20
27.055478508665001
30
0
10
83.914601031335664
20
28.65079343783156
30
0
10
85.882133866578698
20
31.045830361311801
30
0
10
89.275710525504479
20
34.157013481187782
30
0
10
93.951683748279351
20
37.674692827658951
30
0
10
98.213478937059122
20
40.589017644945017
30
0
10
101.42188351629679
20
42.691408715593333
30
0
10
103.31569773374292
20
43.817192681399547
30
0
10
104.27957901780994
20
43.868797124862709
30
0
10
105.27806762353521
20
42.8331193643535
30
0
10
107.01192781223376
20
40.804806352944503
30
0
10
109.7737517203221
20
37.970088931061824
30
0
10
113.57308760903896
20
34.566873030397488
30
0
10
118.18515859782272
20
30.851401597673757
30
0
10
123.22763657581652
20
27.065409520885986
30
0
10
128.22630242170749
20
23.396062685650843
30
0
10
132.67403475784886
20
19.968107673151316
30
0
10
136.07677114075736
20
16.863781034550563
30
0
10
138.00432735007735
20
14.134610881382017
30
0
10
138.13823318845891
20
11.815892309944939
30
0
10
136.3255324258061
20
9.9405618774616968
30
0
10
132.62083484152461
20
8.5508885618133839
30
0
10
127.24598980479442
20
7.6919446717485505
30
0
10
120.56010521450085
20
7.4070318222382543
30
0
10
113.0266382316274
20
7.7322803253316614
30
0
10
105.18385031194022
20
8.6913300725115299
30
0
10
97.612515705427811
20
10.290003096753338
30
0
10
90.910726403203313
20
12.510108498602845
30
0
10
85.642096462850347
20
15.305971913449676
30
0
10
82.264100610404341
20
18.60292398739962
30
0
10
81.301951954436774
20
21.556505452196099
30
0
10
81.577858079879476
20
23.886522081668339
30
0
10
82.168813873719856
20
25.467388056610595
30
0
10
82.558271032295906
20
26.261433282637796
30
0
0
SPLINE
5
114
100
AcDbEntity
8
0
100
AcDbSpline
70
1064
71
5
72
36
73
30
74
0
42
0.000000001
43
0.0000000001
44
0.0000000001
40
0
40
0
40
0
40
0
40
0
40
0
40
0.040000000000000001
40
0.080000000000000002
40
0.12
40
0.16
40
0.20000000000000001
40
0.24000000000000002
40
0.28000000000000003
40
0.32000000000000001
40
0.35999999999999999
40
0.39999999999999997
40
0.43999999999999995
40
0.47999999999999993
40
0.51999999999999991
40
0.55999999999999994
40
0.59999999999999998
40
0.64000000000000001
40
0.68000000000000005
40
0.72000000000000008
40
0.76000000000000012
40
0.80000000000000016
40
0.84000000000000019
40
0.88000000000000023
40
0.92000000000000026
40
0.9600000000000003
40
1
40
1
40
1
40
1
40
1
40
1
10
169.25138164494984
20
126.18016571749045
30
0
10
169.54953630349576
20
127.11971446667025
30
0
10
170.16934257343001
20
128.98044722774074
30
0
10
171.16833070129701
20
131.68466346748889
30
0
10
172.65026409739644
20
135.02773770010657
30
0
10
174.81479363654245
20
138.68333038123257
30
0
10
177.3418970191554
20
141.812743755094
30
0
10
180.22022916580829
20
144.4402732405691
30
0
10
183.3363495030186
20
146.56915895280508
30
0
10
186.40836962421253
20
148.11653743275772
30
0
10
189.00247254460598
20
148.90398962060658
30
0
10
190.68338656906923
20
148.73632944131325
30
0
10
191.12804856868809
20
147.45770431738865
30
0
10
190.26801068775157
20
145.02219519236658
30
0
10
188.23805416061813
20
141.48991721312117
30
0
10
185.31095581978209
20
137.0181346831171
30
0
10
181.83797215959416
20
131.85671534824525
30
0
10
178.19121620704283
20
126.34069245419067
30
0
10
174.69920483214509
20
120.89156202444221
30
0
10
171.60777700802029
20
115.99517748721203
30
0
10
169.09277105757155
20
112.13046006650964
30
0
10
167.26110177723666
20
109.70997667147944
30
0
10
166.15493862312655
20
109.0115355018291
30
0
10
165.7548102883087
20
110.11939355180692
30
0
10
165.97881922023964
20
112.83874592985164
30
0
10
166.70737318565915
20
116.76657421621636
30
0
10
167.59289906984719
20
120.47365585729638
30
0
10
168.3804146221544
20
123.34315473266209
30
0
10
168.95322698640388
20
125.24061696831069
30
0
10
169.25138164494984
20
126.18016571749045
30
0
0
SPLINE
5
115
100
AcDbEntity
8
0
100
AcDbSpline
70
1064
71
5
72
36
73
30
74
0
42
0.000000001
43
0.0000000001
44
0.0000000001
40
0
40
0
40
0
40
0
40
0
40
0
40
0.040000000000000001
40
0.080000000000000002
40
0.12
40
0.16
40
0.20000000000000001
40
0.24000000000000002
40
0.28000000000000003
40
0.32000000000000001
40
0.35999999999999999
40
0.39999999999999997
40
0.43999999999999995
40
0.47999999999999993
40
0.51999999999999991
40
0.55999999999999994
40
0.59999999999999998
40
0.64000000000000001
40
0.68000000000000005
40
0.72000000000000008
40
0.76000000000000012
40
0.80000000000000016
40
0.84000000000000019
40
0.88000000000000023
40
0.92000000000000026
40
0.9600000000000003
40
1
40
1
40
1
40
1
40
1
40
1
10
187.71580531371922
20
38.304116765504332
30
0
10
187.95083020603619
20
39.7974000739991
30
0
10
188.38871859427528
20
42.77979838641776
30
0
10
188.94923066098346
20
47.181871758879083
30
0
10
189.56433057629144
20
52.683409003169992
30
0
10
190.4350951839676
20
58.466705474117006
30
0
10
191.77972231019621
20
62.782615379401243
30
0
10
193.88924295550493
20
65.393926115076496
30
0
10
196.8638151401837
20
66.222631511927986
30
0
10
200.44794513604231
20
65.396152221691381
30
0
10
204.08974917439937
20
63.201950458757651
30
0
10
207.15030993293726
20
59.979073814239428
30
0
10
209.0564936241733
20
56.037052723875732
30
0
10
209.50236406733154
20
51.546556546565256
30
0
10
208.43314167133542
20
46.579232622979099
30
0
10
205.98726128327138
20
41.176380698630801
30
0
10
202.45569740309747
20
35.411250479043183
30
0
10
198.23569593237181
20
29.446094618222066
30
0
10
193.79076339218773
20
23.612544976229167
30
0
10
189.60231450850088
20
18.411948035637057
30
0
10
186.11238065022789
20
14.399135062456496
30
0
10
183.6656570582108
20
12.092434239373537
30
0
10
182.45581462069532
20
11.877811202959276
30
0
10
182.45589749233665
20
13.901048479307077
30
0
10
183.39047469950157
20
18.000917415713744
30
0
10
184.86110483752185
20
23.801395874132943
30
0
10
186.12860460608826
20
29.380510421844896
30
0
10
186.97856924037347
20
33.820098535449176
30
0
10
187.48078042140222
20
36.810833457009579
30
0
10
187.71580531371922
20
38.304116765504332
30
0
0
SPLINE
5
116
100
AcDbEntity
8
0
100
AcDbSpline
70
1064
71
5
72
41
73
35
74
0
42
0.000000001
43
0.0000000001
44
0.0000000001
40
0
40
0
40
0
40
0
40
0
40
0
40
0.033333333333333333
40
0.066666666666666666
40
0.10000000000000001
40
0.13333333333333333
40
0.16666666666666666
40
0.19999999999999998
40
0.23333333333333331
40
0.26666666666666666
40
0.29999999999999999
40
0.33333333333333331
40
0.36666666666666664
40
0.39999999999999997
40
0.43333333333333329
40
0.46666666666666662
40
0.49999999999999994
40
0.53333333333333333
40
0.56666666666666665
40
0.59999999999999998
40
0.6333333333333333
40
0.66666666666666663
40
0.69999999999999996
40
0.73333333333333328
40
0.76666666666666661
40
0.79999999999999993
40
0.83333333333333326
40
0.86666666666666659
40
0.89999999999999991
40
0.93333333333333324
40
0.96666666666666656
40
1
40
1
40
1
40
1
40
1
40
1
10
210.01976747758235
20
118.23459185474242
30
0
10
210.37163729856678
20
118.78482015198745
30
0
10
211.13741254321255
20
119.83930428970962
30
0
10
212.46733948324018
20
121.27754694360826
30
0
10
214.57840864242417
20
122.89088748014589
30
0
10
217.68772238548422
20
124.37650953150346
30
0
10
221.13978629463594
20
125.32175369310181
30
0
10
224.76687698592568
20
125.72701450773124
30
0
10
228.35676532765277
20
125.59782130767562
30
0
10
231.64627234563642
20
124.94006971717597
30
0
10
234.36423914026363
20
123.76084679105051
30
0
10
236.2799622069939
20
122.06921316030733
30
0
10
237.24409932646228
20
119.87790208284468
30
0
10
237.24756970335491
20
117.20289482005958
30
0
10
236.41428739027646
20
114.07180314079733
30
0
10
234.94235627725249
20
110.53855274892763
30
0
10
233.05911893254563
20
106.69777835691943
30
0
10
230.9746744458771
20
102.69693247395006
30
0
10
228.82723885348409
20
98.756516042142636
30
0
10
226.6622386115821
20
95.164375603933934
30
0
10
224.47294195049852
20
92.224083631773453
30
0
10
222.22680466652488
20
90.213668187230638
30
0
10
219.89717950870318
20
89.340200287741439
30
0
10
217.49302934006624
20
89.694956669211422
30
0
10
215.08886373769298
20
91.208848424789323
30
0
10
212.80236453304559
20
93.69913323962075
30
0
10
210.7726966597524
20
96.914919661240546
30
0
10
209.13994643701216
20
100.57982163436286
30
0
10
208.02121309047033
20
104.44128250890158
30
0
10
207.49813091454072
20
108.2959648965857
30
0
10
207.62172447216511
20
111.97909124153688
30
0
10
208.25458710135851
20
114.68593974142287
30
0
10
209.02619361730586
20
116.53793450623934
30
0
10
209.66789765659794
20
117.68436355749735
30
0
10
210.01976747758235
20
118.23459185474242
30
0
0
SPLINE
5
117
100
AcDbEntity
8
0
100
AcDbSpline
70
1064
71
5
72
41
73
35
74
0
42
0.000000001
43
0.0000000001
44
0.0000000001
40
0
40
0
40
0
40
0
40
0
40
0
40
0.033333333333333333
40
0.066666666666666666
40
0.10000000000000001
40
0.13333333333333333
40
0.16666666666666666
40
0.19999999999999998
40
0.23333333333333331
40
0.26666666666666666
40
0.29999999999999999
40
0.33333333333333331
40
0.36666666666666664
40
0.39999999999999997
40
0.43333333333333329
40
0.46666666666666662
40
0.49999999999999994
40
0.53333333333333333
40
0.56666666666666665
40
0.59999999999999998
40
0.6333333333333333
40
0.66666666666666663
40
0.69999999999999996
40
0.73333333333333328
40
0.76666666666666661
40
0.79999999999999993
40
0.83333333333333326
40
0.86666666666666659
40
0.89999999999999991
40
0.93333333333333324
40
0.96666666666666656
40
1
40
1
40
1
40
1
40
1
40
1
10
244.39442764110368
20
59.689297163100193
30
0
10
244.68447480362227
20
60.182554062740223
30
0
10
245.30989737737229
20
61.140787658019121
30
0
10
246.3752614648738
20
62.477626241855695
30
0
10
247.9937957970568
20
63.981801100965512
30
0
10
250.14795807777938
20
65.177583723401085
30
0
10
252.22658681515779
20
65.48787573411181
30
0
10
254.06127294811509
20
64.774151493857744
30
0
10
255.58024015771903
20
63.014926606032127
30
0
10
256.79395799178275
20
60.296983672047276
30
0
10
257.7576672618427
20
56.786567259651449
30
0
10
258.54150326871098
20
52.707968412895468
30
0
10
259.19883467853987
20
48.319882267741335
30
0
10
259.73262330493986
20
43.892744633738374
30
0
10
260.07043639714448
20
39.687153544233631
30
0
10
260.10266264336065
20
35.941826817508328
30
0
10
259.71295203863002
20
32.860588781734243
30
0
10
258.81289359205397
20
30.598821285462513
30
0
10
257.37215922964208
20
29.251027777671965
30
0
10
255.45818422937674
20
28.834036273240741
30
0
10
253.249770850376
20
29.281747086528135
30
0
10
250.96869752530935
20
30.476294819835186
30
0
10
248.83077575704988
20
32.271059521437266
30
0
10
246.97940298543156
20
34.51902961660862
30
0
10
245.45938160988112
20
37.09005318547765
30
0
10
244.25927907456833
20
39.870198896205991
30
0
10
243.33877362041699
20
42.765130100165329
30
0
10
242.66088512993022
20
45.701699572907856
30
0
10
242.22382801884936
20
48.63105294535459
30
0
10
242.08792153840849
20
51.52946458901495
30
0
10
242.33876120095476
20
54.377849726108359
30
0
10
242.91220455316409
20
56.589885840328392
30
0
10
243.56961440226115
20
58.181246260178845
30
0
10
244.10438047858517
20
59.196040263460148
30
0
10
244.39442764110368
20
59.689297163100193
30
0
0
SPLINE
5
118
100
AcDbEntity
8
0
100
AcDbSpline
70
1064
71
5
72
41
73
35
74
0
42
0.000000001
43
0.0000000001
44
0.0000000001
40
0
40
0
40
0
40
0
40
0
40
0
40
0.033333333333333333
40
0.066666666666666666
40
0.10000000000000001
40
0.13333333333333333
40
0.16666666666666666
40
0.19999999999999998
40
0.23333333333333331
40
0.26666666666666666
40
0.29999999999999999
40
0.33333333333333331
40
0.36666666666666664
40
0.39999999999999997
40
0.43333333333333329
40
0.46666666666666662
40
0.49999999999999994
40
0.53333333333333333
40
0.56666666666666665
40
0.59999999999999998
40
0.6333333333333333
40
0.66666666666666663
40
0.69999999999999996
40
0.73333333333333328
40
0.76666666666666661
40
0.79999999999999993
40
0.83333333333333326
40
0.86666666666666659
40
0.89999999999999991
40
0.93333333333333324
40
0.96666666666666656
40
1
40
1
40
1
40
1
40
1
40
1
10
237.54773234415842
20
99.042510433065729
30
0
10
237.91469478201009
20
99.542290788365179
30
0
10
238.7183194695622
20
100.45856026579787
30
0
10
240.12317044651547
20
101.56515202002053
30
0
10
242.34077296437721
20
102.45230448140441
30
0
10
245.49897451705519
20
102.53465728648982
30
0
10
248.82877172966136
20
101.62056282860374
30
0
10
252.1148897286827
20
99.808019948380007
30
0
10
255.16526828340872
20
97.254012167487659
30
0
10
257.84041960973354
20
94.168696649391578
30
0
10
260.05120340325095
20
90.794200303205628
30
0
10
261.74708036318515
20
87.378378564638112
30
0
10
262.90808764955756
20
84.151223140194546
30
0
10
263.53528115283598
20
81.298309194802968
30
0
10
263.64292314058838
20
78.93937597328231
30
0
10
263.24820879933225
20
77.093831146424378
30
0
10
262.37020067856065
20
75.693503129662332
30
0
10
261.03609875673521
20
74.633730840399153
30
0
10
259.2863060332204
20
73.816743281328627
30
0
10
257.17807821407871
20
73.187830333505417
30
0
10
254.78120039253253
20
72.7337148033006
30
0
10
252.17538397780322
20
72.48693083081551
30
0
10
249.4468944394838
20
72.530712052847548
30
0
10
246.68630832733862
20
72.996184912614311
30
0
10
243.98927267777097
20
74.023517505252812
30
0
10
241.45703065972873
20
75.727829072782555
30
0
10
239.19677069901786
20
78.164601184246138
30
0
10
237.32276814866455
20
81.291026832718813
30
0
10
235.95509200660885
20
84.939474682598458
30
0
10
235.2051841444046
20
88.860358752122096
30
0
10
235.16294903926408
20
92.755676749172039
30
0
10
235.73899217212625
20
95.603665281278282
30
0
10
236.51654484245242
20
97.459878134001315
30
0
10
237.18076990630686
20
98.542730077766279
30
0
10
237.54773234415842
20
99.042510433065729
30
0
0
SPLINE
5
119
100
AcDbEntity
8
0
100
AcDbSpline
70
1064
71
5
72
41
73
35
74
0
42
0.000000001
43
0.0000000001
44
0.0000000001
40
0
40
0
40
0
40
0
40
0
40
0
40
0.033333333333333333
40
0.066666666666666666
40
0.10000000000000001
40
0.13333333333333333
40
0.16666666666666666
40
0.19999999999999998
40
0.23333333333333331
40
0.26666666666666666
40
0.29999999999999999
40
0.33333333333333331
40
0.36666666666666664
40
0.39999999999999997
40
0.43333333333333329
40
0.46666666666666662
40
0.49999999999999994
40
0.53333333333333333
40
0.56666666666666665
40
0.59999999999999998
40
0.6333333333333333
40
0.66666666666666663
40
0.69999999999999996
40
0.73333333333333328
40
0.76666666666666661
40
0.79999999999999993
40
0.83333333333333326
40
0.86666666666666659
40
0.89999999999999991
40
0.93333333333333324
40
0.96666666666666656
40
1
40
1
40
1
40
1
40
1
40
1
10
292.49912319774705
20
86.258955150866825
30
0
10
293.31235804687537
20
86.823913759035321
30
0
10
294.95047990633418
20
87.925864859867801
30
0
10
297.42028561912838
20
89.473849184492806
30
0
10
300.6742853219709
20
91.244866456683155
30
0
10
304.60119628119787
20
92.786020467551509
30
0
10
308.35898710168158
20
93.511405441490496
30
0
10
311.92668922763528
20
93.337905458033603
30
0
10
315.25416041600482
20
92.26010674477817
30
0
10
318.21927193355839
20
90.37241158489843
30
0
10
320.60144706139727
20
87.880818760884324
30
0
10
322.15310383130179
20
85.049610409088658
30
0
10
322.66400184335123
20
82.153719800501591
30
0
10
322.02061267228083
20
79.433390886089555
30
0
10
320.28833806629473
20
77.037269633365796
30
0
10
317.68366583988404
20
75.023357233961946
30
0
10
314.49066707832333
20
73.389401370109638
30
0
10
310.99524064480431
20
72.093542714187492
30
0
10
307.41348488240885
20
71.078454193913984
30
0
10
303.81911452055311
20
70.294071941905869
30
0
10
300.19847138059578
20
69.703423499705139
30
0
10
296.50752671912915
20
69.287281483057996
30
0
10
292.73139060129427
20
69.050101450813528
30
0
10
288.93467753475556
20
69.023832477717548
30
0
10
285.33635947228765
20
69.276999515047194
30
0
10
282.30035490372006
20
69.906054112525183
30
0
10
280.21185453630159
20
71.002435210650091
30
0
10
279.39038586686564
20
72.627714783358087
30
0
10
279.97012627826126
20
74.780647438723122
30
0
10
281.84943645668233
20
77.381999500482181
30
0
10
284.78181433927142
20
80.29642729510752
30
0
10
287.70613454957254
20
82.736433846686438
30
0
10
290.07107081156414
20
84.536113210856882
30
0
10
291.68588834861873
20
85.693996542698372
30
0
10
292.49912319774705
20
86.258955150866825
30
0
0
SPLINE
5
120
100
AcDbEntity
8
0
100
AcDbSpline
70
1064
71
5
72
36
73
30
74
0
42
0.000000001
43
0.0000000001
44
0.0000000001
40
0
40
0
40
0
40
0
40
0
40
0
40
0.040000000000000001
40
0.080000000000000002
40
0.12
40
0.16
40
0.20000000000000001
40
0.24000000000000002
40
0.28000000000000003
40
0.32000000000000001
40
0.35999999999999999
40
0.39999999999999997
40
0.43999999999999995
40
0.47999999999999993
40
0.51999999999999991
40
0.55999999999999994
40
0.59999999999999998
40
0.64000000000000001
40
0.68000000000000005
40
0.72000000000000008
40
0.76000000000000012
40
0.80000000000000016
40
0.84000000000000019
40
0.88000000000000023
40
0.92000000000000026
40
0.9600000000000003
40
1
40
1
40
1
40
1
40
1
40
1
10
308.00395750982096
20
16.759352404714317
30
0
10
308.08043945065236
20
17.234000460278224
30
0
10
308.35640445821241
20
18.176934567041577
30
0
10
309.12674298011541
20
19.555364656635263
30
0
10
310.77575941248847
20
21.257661858699421
30
0
10
313.52551953928457
20
23.024951721197962
30
0
10
316.57364631415243
20
24.327102529310864
30
0
10
319.56927136184026
20
25.09571145766218
30
0
10
322.27478809797759
20
25.304111169721306
30
0
10
324.66038869750145
20
24.976064967790556
30
0
10
326.83584423387299
20
24.172920006964944
30
0
10
328.94867568321928
20
22.97643382253662
30
0
10
331.10325670130948
20
21.474918436554059
30
0
10
333.25113594355599
20
19.745160031537257
30
0
10
335.15974317721987
20
17.846891129394223
30
0
10
336.51922234942367
20
15.839201823552893
30
0
10
337.01862142998266
20
13.792362822430643
30
0
10
336.43289140857996
20
11.801156547144409
30
0
10
334.71014757828442
20
9.9990779079107206
30
0
10
331.94437588625925
20
8.5371558758763992
30
0
10
328.34336685865622
20
7.5617083215342422
30
0
10
324.20048460769567
20
7.1912666538577055
30
0
10
319.86565736167398
20
7.4959450734401898
30
0
10
315.71922117637206
20
8.4686915117166315
30
0
10
312.13795639390185
20
10.029026165518705
30
0
10
309.45632671435078
20
12.046118371702541
30
0
10
308.23418442435747
20
13.893358104782168
30
0
10
307.89751281322424
20
15.329046233658154
30
0
10
307.92747556898968
20
16.28470434915042
30
0
10
308.00395750982096
20
16.759352404714317
30
0
0
SPLINE
5
121
100
AcDbEntity
8
0
100
AcDbSpline
70
1064
71
5
72
36
73
30
74
0
42
0.000000001
43
0.0000000001
44
0.0000000001
40
0
40
0
40
0
40
0
40
0
40
0
40
0.040000000000000001
40
0.080000000000000002
40
0.12
40
0.16
40
0.20000000000000001
40
0.24000000000000002
40
0.28000000000000003
40
0.32000000000000001
40
0.35999999999999999
40
0.39999999999999997
40
0.43999999999999995
40
0.47999999999999993
40
0.51999999999999991
40
0.55999999999999994
40
0.59999999999999998
40
0.64000000000000001
40
0.68000000000000005
40
0.72000000000000008
40
0.76000000000000012
40
0.80000000000000016
40
0.84000000000000019
40
0.88000000000000023
40
0.92000000000000026
40
0.9600000000000003
40
1
40
1
40
1
40
1
40
1
40
1
10
340.46192937401287
20
117.43066331174752
30
0
10
342.21435203302406
20
117.41097950787827
30
0
10
345.74115019694631
20
117.36744689441355
30
0
10
351.02443302515945
20
117.30085743293492
30
0
10
357.74751649768825
20
117.21977750310479
30
0
10
364.85305556772755
20
117.03785845536891
30
0
10
369.98832696054535
20
116.61402275185851
30
0
10
372.66580425587705
20
115.77188503153322
30
0
10
372.66043819624167
20
114.36818702857595
30
0
10
370.13359759431955
20
112.35263240612879
30
0
10
365.60324792972432
20
109.7871278218206
30
0
10
359.76276189790644
20
106.82314340937276
30
0
10
353.33692831073665
20
103.69292256762607
30
0
10
346.93881712141609
20
100.69313389817168
30
0
10
340.88907235738304
20
98.180211775274842
30
0
10
335.25514715801285
20
96.519804381158508
30
0
10
329.98000393475843
20
96.020544129794771
30
0
10
324.98537320206907
20
96.86725705153637
30
0
10
320.27303514202322
20
99.063528988438662
30
0
10
316.05614468131739
20
102.34170730728663
30
0
10
312.77609023626479
20
106.17774011634695
30
0
10
310.93923505963363
20
109.9713444248907
30
0
10
311.00515364878493
20
113.1746541697123
30
0
10
313.23660358357631
20
115.46515470714084
30
0
10
317.61715535520688
20
116.82658322243873
30
0
10
323.91194590658461
20
117.42671231541962
30
0
10
330.14090702771824
20
117.51465412755766
30
0
10
335.22661424287861
20
117.48554971762917
30
0
10
338.70950671500157
20
117.45034711561679
30
0
10
340.46192937401287
20
117.43066331174752
30
0
0
SPLINE
5
122
100
AcDbEntity
8
0
100
AcDbSpline
70
1064
71
5
72
46
73
40
74
0
42
0.000000001
43
0.0000000001
44
0.0000000001
40
0
40
0
40
0
40
0
40
0
40
0
40
0.028571428571428571
40
0.057142857142857141
40
0.085714285714285715
40
0.11428571428571428
40
0.14285714285714285
40
0.17142857142857143
40
0.20000000000000001
40
0.22857142857142859
40
0.25714285714285717
40
0.28571428571428575
40
0.31428571428571433
40
0.34285714285714292
40
0.3714285714285715
40
0.40000000000000008
40
0.42857142857142866
40
0.45714285714285724
40
0.48571428571428582
40
0.51428571428571435
40
0.54285714285714293
40
0.57142857142857151
40
0.60000000000000009
40
0.62857142857142867
40
0.65714285714285725
40
0.68571428571428583
40
0.71428571428571441
40
0.74285714285714299
40
0.77142857142857157
40
0.80000000000000016
40
0.82857142857142874
40
0.85714285714285732
40
0.8857142857142859
40
0.91428571428571448
40
0.94285714285714306
40
0.97142857142857164
40
1
40
1
40
1
40
1
40
1
40
1
10
331.84898820637102
20
80.236876415147094
30
0
10
332.02398316654626
20
80.737652121884707
30
0
10
332.46528699825888
20
81.769437604364171
30
0
10
333.41764251682855
20
83.408787282489669
30
0
10
335.29851010649827
20
85.751540597976259
30
0
10
338.60360937660681
20
88.765351118661542
30
0
10
342.69266641474985
20
91.616751482074449
30
0
10
347.32478094021315
20
94.025226089046811
30
0
10
352.2229978120231
20
95.716994966965757
30
0
10
357.10708971358042
20
96.461989678068477
30
0
10
361.73140104806919
20
96.117920675600772
30
0
10
365.89247192903179
20
94.634309060994667
30
0
10
369.4272817289596
20
92.044357017891727
30
0
10
372.2147595581107
20
88.461077989594529
30
0
10
374.17649513868946
20
84.073051892799839
30
0
10
375.27750185339863
20
79.138990356808904
30
0
10
375.52888414059919
20
73.988238417644524
30
0
10
374.98036292682627
20
68.989034502714162
30
0
10
373.70904399329737
20
64.504296026147415
30
0
10
371.80990395686251
20
60.852817281592678
30
0
10
369.38524833626167
20
58.265104841383604
30
0
10
366.53594690369721
20
56.847678726770937
30
0
10
363.34898089570697
20
56.526250039478256
30
0
10
359.90002479685199
20
57.072520104721278
30
0
10
356.26523602916023
20
58.184251724207421
30
0
10
352.53151197860069
20
59.5522370500722
30
0
10
348.80482282089974
20
60.925073185660551
30
0
10
345.22586838562074
20
62.193042102262368
30
0
10
341.95889119981808
20
63.396436355217517
30
0
10
339.15231393497976
20
64.648413733594509
30
0
10
336.90265603351099
20
66.076770074292156
30
0
10
335.22558481537573
20
67.766727200815581
30
0
10
334.0015710634936
20
69.681726686290745
30
0
10
333.0437562563074
20
71.703872886373844
30
0
10
332.2102825898574
20
73.721889546280551
30
0
10
331.52431028738533
20
75.71987233991041
30
0
10
331.28478692085224
20
77.397540306840853
30
0
10
331.41531723720732
20
78.764783363938591
30
0
10
331.67399324619566
20
79.736100708409481
30
0
10
331.84898820637102
20
80.236876415147094
30
0
0
SPLINE
5
123
100
AcDbEntity
8
0
100
AcDbSpline
70
1064
71
5
72
36
73
30
74
0
42
0.000000001
43
0.0000000001
44
0.0000000001
40
0
40
0
40
0
40
0
40
0
40
0
40
0.040000000000000001
40
0.080000000000000002
40
0.12
40
0.16
40
0.20000000000000001
40
0.24000000000000002
40
0.28000000000000003
40
0.32000000000000001
40
0.35999999999999999
40
0.39999999999999997
40
0.43999999999999995
40
0.47999999999999993
40
0.51999999999999991
40
0.55999999999999994
40
0.59999999999999998
40
0.64000000000000001
40
0.68000000000000005
40
0.72000000000000008
40
0.76000000000000012
40
0.80000000000000016
40
0.84000000000000019
40
0.88000000000000023
40
0.92000000000000026
40
0.9600000000000003
40
1
40
1
40
1
40
1
40
1
40
1
10
286.21563816705299
20
19.626077015105846
30
0
10
286.32325823410554
20
20.229952623845804
30
0
10
286.60441484969351
20
21.421148264982097
30
0
10
287.22266211480439
20
23.135647919712166
30
0
10
288.42230303256338
20
25.20400097437081
30
0
10
290.45122490079808
20
27.315284742915491
30
0
10
292.87294803490289
20
28.897053583500544
30
0
10
295.52122759958746
20
29.935091915770865
30
0
10
298.21103833777374
20
30.442629548271594
30
0
10
300.74800637323199
20
30.445266012434097
30
0
10
302.94249888003372
20
29.972537745774993
30
0
10
304.62965012646362
20
29.05563440563656
30
0
10
305.68667006309249
20
27.724462157861502
30
0
10
306.05510910633586
20
26.003411733021437
30
0
10
305.75187817289412
20
23.913209518871543
30
0
10
304.84551987786682
20
21.490585502888464
30
0
10
303.43858030646294
20
18.806882139559828
30
0
10
301.64957289807336
20
15.983806896285015
30
0
10
299.59243071839643
20
13.220193549183357
30
0
10
297.37041782834478
20
10.77678528954163
30
0
10
295.08278074585678
20
8.9251284352812341
30
0
10
292.82781269863779
20
7.9066269410520329
30
0
10
290.70736754980419
20
7.8872458541004695
30
0
10
288.83088598458903
20
8.9124532355976811
30
0
10
287.31934619446793
20
10.862090460870897
30
0
10
286.2905200698699
20
13.503606765275249
30
0
10
285.93369551557601
20
15.934394770717105
30
0
10
285.95869444737804
20
17.797894612542351
30
0
10
286.10801810000038
20
19.022201406365891
30
0
10
286.21563816705299
20
19.626077015105846
30
0
0
SPLINE
5
124
100
AcDbEntity
8
0
100
AcDbSpline
70
1064
71
5
72
46
73
40
74
0
42
0.000000001
43
0.0000000001
44
0.0000000001
40
0
40
0
40
0
40
0
40
0
40
0
40
0.028571428571428571
40
0.057142857142857141
40
0.085714285714285715
40
0.11428571428571428
40
0.14285714285714285
40
0.17142857142857143
40
0.20000000000000001
40
0.22857142857142859
40
0.25714285714285717
40
0.28571428571428575
40
0.31428571428571433
40
0.34285714285714292
40
0.3714285714285715
40
0.40000000000000008
40
0.42857142857142866
40
0.45714285714285724
40
0.48571428571428582
40
0.51428571428571435
40
0.54285714285714293
40
0.57142857142857151
40
0.60000000000000009
40
0.62857142857142867
40
0.65714285714285725
40
0.68571428571428583
40
0.71428571428571441
40
0.74285714285714299
40
0.77142857142857157
40
0.80000000000000016
40
0.82857142857142874
40
0.85714285714285732
40
0.8857142857142859
40
0.91428571428571448
40
0.94285714285714306
40
0.97142857142857164
40
1
40
1
40
1
40
1
40
1
40
1
10
277.83186489469546
20
106.93277113098389
30
0
10
278.25286110642946
20
107.76367007341958
30
0
10
279.11358845769996
20
109.42119141653797
30
0
10
280.45413948598059
20
111.87644487298758
30
0
10
282.3103547109252
20
114.99892972828306
30
0
10
284.66361855679958
20
118.39027978933883
30
0
10
286.97088900194382
20
121.01757227053321
30
0
10
289.1651554613714
20
122.68101420728235
30
0
10
291.20039189305186
20
123.27732544685092
30
0
10
293.06141970936801
20
122.84733293473718
30
0
10
294.77162186560236
20
121.6151729601475
30
0
10
296.3577596334917
20
119.880019684373
30
0
10
297.82207925944027
20
117.92786961882265
30
0
10
299.10190245461695
20
115.91391636070908
30
0
10
300.0732096484079
20
113.84484442780337
30
0
10
300.5953924544695
20
111.65175699934359
30
0
10
300.54156748879404
20
109.233977164092
30
0
10
299.84169070382598
20
106.52284211441584
30
0
10
298.4900858708566
20
103.49999397669495
30
0
10
296.53094476543225
20
100.18968615042299
30
0
10
294.05058232134752
20
96.658574359634756
30
0
10
291.16725531598541
20
93.013216134206658
30
0
10
288.02223835102575
20
89.397633250235288
30
0
10
284.77068237893707
20
85.993959435968435
30
0
10
281.57222167560968
20
83.011706499697823
30
0
10
278.58038443256254
20
80.658010656839679
30
0
10
275.9326546545459
20
79.113461084815057
30
0
10
273.73937988393368
20
78.503166574484325
30
0
10
272.07484374122561
20
78.874889702954917
30
0
10
270.96259324335813
20
80.1602697229049
30
0
10
270.38221068716518
20
82.19867880083666
30
0
10
270.29086153160995
20
84.802809403011778
30
0
10
270.64321296501157
20
87.822364415572224
30
0
10
271.40256012519035
20
91.174087877145013
30
0
10
272.53415751345563
20
94.807151514724225
30
0
10
274.00284350982361
20
98.684266428940077
30
0
10
275.41567450920274
20
101.9420554296845
30
0
10
276.58761118729643
20
104.43579776192422
30
0
10
277.41086868296156
20
106.10187218854827
30
0
10
277.83186489469546
20
106.93277113098389
30
0
0
SPLINE
5
125
100
AcDbEntity
8
0
100
AcDbSpline
70
1064
71
5
72
41
73
35
74
0
42
0.000000001
43
0.0000000001
44
0.0000000001
40
0
40
0
40
0
40
0
40
0
40
0
40
0.033333333333333333
40
0.066666666666666666
40
0.10000000000000001
40
0.13333333333333333
40
0.16666666666666666
40
0.19999999999999998
40
0.23333333333333331
40
0.26666666666666666
40
0.29999999999999999
40
0.33333333333333331
40
0.36666666666666664
40
0.39999999999999997
40
0.43333333333333329
40
0.46666666666666662
40
0.49999999999999994
40
0.53333333333333333
40
0.56666666666666665
40
0.59999999999999998
40
0.6333333333333333
40
0.66666666666666663
40
0.69999999999999996
40
0.73333333333333328
40
0.76666666666666661
40
0.79999999999999993
40
0.83333333333333326
40
0.86666666666666659
40
0.89999999999999991
40
0.93333333333333324
40
0.96666666666666656
40
1
40
1
40
1
40
1
40
1
40
1
10
288.8316308335007
20
62.389214995115132
30
0
10
289.26230163981393
20
62.415362963803375
30
0
10
290.13324642068005
20
62.369875473724761
30
0
10
291.45988370213132
20
62.006505572082645
30
0
10
293.24027792285131
20
60.945785325704556
30
0
10
295.43010883224372
20
58.778349100136083
30
0
10
297.53696522916391
20
55.950265646814145
30
0
10
299.51116704259857
20
52.683217065885003
30
0
10
301.29128407693707
20
49.218848179146875
30
0
10
302.79335758637717
20
45.797879824316176
30
0
10
303.90382955586875
20
42.639887341145879
30
0
10
304.50561655962485
20
39.928061460997014
30
0
10
304.50112389052276
20
37.793487362168598
30
0
10
303.83697634992478
20
36.298753456168782
30
0
10
302.52762804694964
20
35.422191833771294
30
0
10
300.68223667226204
20
35.038517015852683
30
0
10
298.46662308669755
20
34.975385705803795
30
0
10
296.06330897815832
20
35.072102154879602
30
0
10
293.63166009048172
20
35.239012991826336
30
0
10
291.27033895683115
20
35.512700737163911
30
0
10
289.03821483388066
20
36.006537857622384
30
0
10
286.97360041247663
20
36.864233890334582
30
0
10
285.11195248692513
20
38.215943337555814
30
0
10
283.50883096079724
20
40.124997209725421
30
0
10
282.24229365112882
20
42.570285012491198
30
0
10
281.3939500331453
20
45.465781184333871
30
0
10
281.03560292935435
20
48.669424601105426
30
0
10
281.21379922766334
20
51.995936358134749
30
0
10
281.93425483051703
20
55.22718445066279
30
0
10
283.14811024039517
20
58.124219192896689
30
0
10
284.77001837257501
20
60.452632354562219
30
0
10
286.30901281549177
20
61.696306716138629
30
0
10
287.54922158280078
20
62.212987661595392
30
0
10
288.40096002718752
20
62.363067026426926
30
0
10
288.8316308335007
20
62.389214995115132
30
0
0
SPLINE
5
126
100
AcDbEntity
8
0
100
AcDbSpline
70
1064
71
5
72
41
73
35
74
0
42
0.000000001
43
0.0000000001
44
0.0000000001
40
0
40
0
40
0
40
0
40
0
40
0
40
0.033333333333333333
40
0.066666666666666666
40
0.10000000000000001
40
0.13333333333333333
40
0.16666666666666666
40
0.19999999999999998
40
0.23333333333333331
40
0.26666666666666666
40
0.29999999999999999
40
0.33333333333333331
40
0.36666666666666664
40
0.39999999999999997
40
0.43333333333333329
40
0.46666666666666662
40
0.49999999999999994
40
0.53333333333333333
40
0.56666666666666665
40
0.59999999999999998
40
0.6333333333333333
40
0.66666666666666663
40
0.69999999999999996
40
0.73333333333333328
40
0.76666666666666661
40
0.79999999999999993
40
0.83333333333333326
40
0.86666666666666659
40
0.89999999999999991
40
0.93333333333333324
40
0.96666666666666656
40
1
40
1
40
1
40
1
40
1
40
1
10
89.491984052659603
20
126.11940993471528
30
0
10
89.832149997003881
20
126.80238311478654
30
0
10
90.579343819176771
20
128.13249757482615
30
0
10
91.89001979554574
20
129.99938309527633
30
0
10
93.967169601644713
20
132.16793055220347
30
0
10
96.965570243507045
20
134.26168731103809
30
0
10
100.21110258364685
20
135.71644054670253
30
0
10
103.55685087811284
20
136.55339062000394
30
0
10
106.87657429245077
20
136.82118823926157
30
0
10
110.08409520974709
20
136.57783748843758
30
0
10
113.12716666964431
20
135.88271432012982
30
0
10
115.96237456661868
20
134.79646585847328
30
0
10
118.53422657345696
20
133.37872545192448
30
0
10
120.75563094410296
20
131.68684357337742
30
0
10
122.47963774221046
20
129.77416618356216
30
0
10
123.52944420165815
20
127.68909064940289
30
0
10
123.7455377178612
20
125.47422554679403
30
0
10
123.02742900573968
20
123.16552072060779
30
0
10
121.37766731746341
20
120.79140707904939
30
0
10
118.88034282400628
20
118.38410342696996
30
0
10
115.68139702241012
20
115.99029520803016
30
0
10
111.96863262211005
20
113.68320601077693
30
0
10
107.95303197756397
20
111.57182417485416
30
0
10
103.8482071558027
20
109.81779319780991
30
0
10
99.86034315632152
20
108.61366155551899
30
0
10
96.182252907545546
20
108.1459082378488
30
0
10
92.985975402970269
20
108.5625903355461
30
0
10
90.415843340731612
20
109.93920459168783
30
0
10
88.580914963490585
20
112.24344428366066
30
0
10
87.547695655426864
20
115.30287851099101
30
0
10
87.342193337109421
20
118.85497477239694
30
0
10
87.829429578096679
20
121.84528587301568
30
0
10
88.538348153111187
20
124.03465849439866
30
0
10
89.151818108315354
20
125.43643675464402
30
0
10
89.491984052659603
20
126.11940993471528
30
0
0
SPLINE
5
127
100
AcDbEntity
8
0
100
AcDbSpline
70
1064
71
5
72
31
73
25
74
0
42
0.000000001
43
0.0000000001
44
0.0000000001
40
0
40
0
40
0
40
0
40
0
40
0
40
0.050000000000000003
40
0.10000000000000001
40
0.15000000000000002
40
0.20000000000000001
40
0.25
40
0.29999999999999999
40
0.34999999999999998
40
0.39999999999999997
40
0.44999999999999996
40
0.49999999999999994
40
0.54999999999999993
40
0.59999999999999998
40
0.65000000000000002
40
0.70000000000000007
40
0.75000000000000011
40
0.80000000000000016
40
0.8500000000000002
40
0.90000000000000024
40
0.95000000000000029
40
1
40
1
40
1
40
1
40
1
40
1
10
120.89681777547911
20
65.129447406123163
30
0
10
121.49379311120079
20
66.274478877641542
30
0
10
122.81386771976423
20
68.454847810278338
30
0
10
125.14380039583514
20
71.341556700089455
30
0
10
128.80348312356995
20
74.228868697159669
30
0
10
133.8317880465905
20
75.893353384910526
30
0
10
138.80334630569968
20
75.437644058112255
30
0
10
143.22055124591196
20
72.87290690284874
30
0
10
146.66231654476809
20
68.437222957881573
30
0
10
148.82103601882775
20
62.586334399358002
30
0
10
149.50105628192122
20
55.910570362005537
30
0
10
148.62934221668323
20
49.073374405384371
30
0
10
146.26476414501064
20
42.743650872176254
30
0
10
142.61200377911712
20
37.531788893560247
30
0
10
138.03740036942327
20
33.922648897208958
30
0
10
133.00909544641402
20
32.258164209464205
30
0
10
128.03753718735061
20
32.713873536286762
30
0
10
123.62033224719897
20
35.278610691582585
30
0
10
120.17856694839998
20
39.714294636580156
30
0
10
118.01984747437379
20
45.565183195121605
30
0
10
117.33982721127795
20
52.240947232472834
30
0
10
118.03719846343273
20
57.710703997750912
30
0
10
119.23201570543434
20
61.584658981168118
30
0
10
120.29984243975746
20
63.984415934604797
30
0
10
120.89681777547911
20
65.129447406123163
30
0
0
SPLINE
5
128
100
AcDbEntity
8
0
100
AcDbSpline
70
1064
71
5
72
36
73
30
74
0
42
0.000000001
43
0.0000000001
44
0.0000000001
40
0
40
0
40
0
40
0
40
0
40
0
40
0.040000000000000001
40
0.080000000000000002
40
0.12
40
0.16
40
0.20000000000000001
40
0.24000000000000002
40
0.28000000000000003
40
0.32000000000000001
40
0.35999999999999999
40
0.39999999999999997
40
0.43999999999999995
40
0.47999999999999993
40
0.51999999999999991
40
0.55999999999999994
40
0.59999999999999998
40
0.64000000000000001
40
0.68000000000000005
40
0.72000000000000008
40
0.76000000000000012
40
0.80000000000000016
40
0.84000000000000019
40
0.88000000000000023
40
0.92000000000000026
40
0.9600000000000003
40
1
40
1
40
1
40
1
40
1
40
1
10
203.7866940639833
20
29.791454534731088
30
0
10
204.72969188702305
20
30.969110673007719
30
0
10
206.6158299260797
20
33.335722415266154
30
0
10
209.41685064254091
20
36.870332145331503
30
0
10
213.02374411254738
20
41.346775875897947
30
0
10
217.28228349675749
20
46.046440652695715
30
0
10
221.32433331452211
20
49.416287634633179
30
0
10
225.18022659733643
20
51.150847254816881
30
0
10
228.81179259890857
20
51.125505964484539
30
0
10
232.02593508573204
20
49.473588610396853
30
0
10
234.45149430584706
20
46.595030117155041
30
0
10
235.68092441581484
20
42.982485327577308
30
0
10
235.37319517207422
20
39.093919320722947
30
0
10
233.38876808754054
20
35.184429247869105
30
0
10
229.78037578373491
20
31.343837721309058
30
0
10
224.75857718369713
20
27.571036057994995
30
0
10
218.668996120868
20
23.836648104535247
30
0
10
211.96527055595854
20
20.145648811133732
30
0
10
205.18956632367207
20
16.610676951211161
30
0
10
198.93890940480546
20
13.488397808641988
30
0
10
193.78985270182523
20
11.101607852342159
30
0
10
190.23005464905961
20
9.7821449610954065
30
0
10
188.58622500326038
20
9.805702949265287
30
0
10
188.95080404270675
20
11.328928621629421
30
0
10
191.10770238523119
20
14.324748507216285
30
0
10
194.64067966911568
20
18.613757784295476
30
0
10
198.15810380814747
20
22.836871046883502
30
0
10
200.95784298784099
20
26.269785585606336
30
0
10
202.84369624094347
20
28.61379839645446
30
0
10
203.7866940639833
20
29.791454534731088
30
0
0
SPLINE
5
129
100
AcDbEntity
8
0
100
AcDbSpline
70
1064
71
5
72
41
73
35
74
0
42
0.000000001
43
0.0000000001
44
0.0000000001
40
0
40
0
40
0
40
0
40
0
40
0
40
0.033333333333333333
40
0.066666666666666666
40
0.10000000000000001
40
0.13333333333333333
40
0.16666666666666666
40
0.19999999999999998
40
0.23333333333333331
40
0.26666666666666666
40
0.29999999999999999
40
0.33333333333333331
40
0.36666666666666664
40
0.39999999999999997
40
0.43333333333333329
40
0.46666666666666662
40
0.49999999999999994
40
0.53333333333333333
40
0.56666666666666665
40
0.59999999999999998
40
0.6333333333333333
40
0.66666666666666663
40
0.69999999999999996
40
0.73333333333333328
40
0.76666666666666661
40
0.79999999999999993
40
0.83333333333333326
40
0.86666666666666659
40
0.89999999999999991
40
0.93333333333333324
40
0.96666666666666656
40
1
40
1
40
1
40
1
40
1
40
1
10
261.72227140696219
20
24.802570615431243
30
0
10
261.94898427802832
20
25.105023692941582
30
0
10
262.44497436134498
20
25.681881715019447
30
0
10
263.3125566672756
20
26.467522864493272
30
0
10
264.70008637720787
20
27.388172842833342
30
0
10
266.77066517579522
20
28.440367833714866
30
0
10
269.11410442850485
20
29.497512360852816
30
0
10
271.64527157307634
20
30.615044669477424
30
0
10
274.2484281390677
20
31.755819528512813
30
0
10
276.77293087697274
20
32.760265835504441
30
0
10
279.05691283567688
20
33.4088298698926
30
0
10
280.94873620280453
20
33.47595624475084
30
0
10
282.3274904571648
20
32.782980560568987
30
0
10
283.12865846606292
20
31.26197687761865
30
0
10
283.35261076624465
20
28.980940645196434
30
0
10
283.04252508208015
20
26.099583934769043
30
0
10
282.26945294156116
20
22.841440082652198
30
0
10
281.11525105328235
20
19.460491034658055
30
0
10
279.65577053375682
20
16.209615035165658
30
0
10
277.94660688054273
20
13.311064952080478
30
0
10
276.03290484172317
20
10.951261905864682
30
0
10
273.95652930230273
20
9.2730984486402033
30
0
10
271.76469935962348
20
8.3682131081270832
30
0
10
269.51705196225328
20
8.2700843491405358
30
0
10
267.29593060027992
20
8.9429619892494365
30
0
10
265.20717077779773
20
10.282843484389307
30
0
10
263.3639607655324
20
12.140982645039664
30
0
10
261.87392947193757
20
14.342168047076537
30
0
10
260.82605237367181
20
16.70430347343483
30
0
10
260.27463048050498
20
19.058293395030901
30
0
10
260.23409299904239
20
21.264136039523859
30
0
10
260.6001938996601
20
22.829088903996897
30
0
10
261.08469713494759
20
23.867163249957404
30
0
10
261.49555853589595
20
24.500117537920904
30
0
10
261.72227140696219
20
24.802570615431243
30
0
0
SPLINE
5
130
100
AcDbEntity
8
0
100
AcDbSpline
70
1064
71
5
72
41
73
35
74
0
42
0.000000001
43
0.0000000001
44
0.0000000001
40
0
40
0
40
0
40
0
40
0
40
0
40
0.033333333333333333
40
0.066666666666666666
40
0.10000000000000001
40
0.13333333333333333
40
0.16666666666666666
40
0.19999999999999998
40
0.23333333333333331
40
0.26666666666666666
40
0.29999999999999999
40
0.33333333333333331
40
0.36666666666666664
40
0.39999999999999997
40
0.43333333333333329
40
0.46666666666666662
40
0.49999999999999994
40
0.53333333333333333
40
0.56666666666666665
40
0.59999999999999998
40
0.6333333333333333
40
0.66666666666666663
40
0.69999999999999996
40
0.73333333333333328
40
0.76666666666666661
40
0.79999999999999993
40
0.83333333333333326
40
0.86666666666666659
40
0.89999999999999991
40
0.93333333333333324
40
0.96666666666666656
40
1
40
1
40
1
40
1
40
1
40
1
10
47.596329913441409
20
43.50835143130795
30
0
10
47.759276875396239
20
44.109926306144061
30
0
10
48.154206309194514
20
45.272883394299761
30
0
10
48.968294480999717
20
46.895741376581057
30
0
10
50.544033903352812
20
48.810969610849185
30
0
10
53.374308844672605
20
50.768728810243282
30
0
10
57.015537760379672
20
52.258233979867519
30
0
10
61.310143975325317
20
53.236643251118764
30
0
10
65.96424081887821
20
53.647612582903051
30
0
10
70.588082671886781
20
53.428406625866465
30
0
10
74.759562903135915
20
52.520475622883467
30
0
10
78.082171791763301
20
50.879170613588222
30
0
10
80.240084655407571
20
48.483740855518185
30
0
10
81.06823884624832
20
45.348292569742064
30
0
10
80.564228723461682
20
41.529626377589125
30
0
10
78.845464931225052
20
37.131931607023915
30
0
10
76.122611613486967
20
32.313081062670655
30
0
10
72.667488939514982
20
27.290211555748467
30
0
10
68.78391008274636
20
22.347539890361272
30
0
10
64.778349304126266
20
17.839768618845135
30
0
10
60.937368385534626
20
14.139159592211456
30
0
10
57.505037343792644
20
11.587802280019355
30
0
10
54.658597276484535
20
10.445347343030839
30
0
10
52.487713699681606
20
10.843124262875214
30
0
10
50.963300573163878
20
12.721795776722525
30
0
10
49.936375156906493
20
15.815285948823352
30
0
10
49.211483533432492
20
19.748917604739013
30
0
10
48.604301893732298
20
24.113380280055374
30
0
10
48.007078409730838
20
28.549455298391948
30
0
10
47.446471401053785
20
32.82325779927379
30
0
10
47.041969806867556
20
36.796133204152326
30
0
10
46.983755954655081
20
39.678842209350734
30
0
10
47.176524537465511
20
41.663434145283098
30
0
10
47.433382951486593
20
42.906776556471861
30
0
10
47.596329913441409
20
43.50835143130795
30
0
0
SPLINE
5
131
100
AcDbEntity
8
0
100
AcDbSpline
70
1064
71
5
72
41
73
35
74
0
42
0.000000001
43
0.0000000001
44
0.0000000001
40
0
40
0
40
0
40
0
40
0
40
0
40
0.033333333333333333
40
0.066666666666666666
40
0.10000000000000001
40
0.13333333333333333
40
0.16666666666666666
40
0.19999999999999998
40
0.23333333333333331
40
0.26666666666666666
40
0.29999999999999999
40
0.33333333333333331
40
0.36666666666666664
40
0.39999999999999997
40
0.43333333333333329
40
0.46666666666666662
40
0.49999999999999994
40
0.53333333333333333
40
0.56666666666666665
40
0.59999999999999998
40
0.6333333333333333
40
0.66666666666666663
40
0.69999999999999996
40
0.73333333333333328
40
0.76666666666666661
40
0.79999999999999993
40
0.83333333333333326
40
0.86666666666666659
40
0.89999999999999991
40
0.93333333333333324
40
0.96666666666666656
40
1
40
1
40
1
40
1
40
1
40
1
10
54.063883474713002
20
102.77537957319467
30
0
10
54.668568402083011
20
102.85693717745849
30
0
10
55.882541951050264
20
102.9899973546941
30
0
10
57.695494691138833
20
103.09991353497539
30
0
10
60.008588819338058
20
103.07068960521933
30
0
10
62.525283508192913
20
102.7551188096099
30
0
10
64.508247778800495
20
102.17667132684707
30
0
10
65.866458332957038
20
101.35054461373771
30
0
10
66.596048078600461
20
100.2889940855391
30
0
10
66.818272456284149
20
98.996407938985485
30
0
10
66.742249490404021
20
97.476755286474997
30
0
10
66.57512136138223
20
95.749782888005072
30
0
10
66.449304694005605
20
93.86444060382216
30
0
10
66.338860405920954
20
91.914505576489177
30
0
10
66.114406711868583
20
90.02142821178181
30
0
10
65.603483508161773
20
88.315755100939128
30
0
10
64.644082723524477
20
86.9203458962524
30
0
10
63.151885767619966
20
85.929923206904206
30
0
10
61.138627483379445
20
85.403482554603642
30
0
10
58.685320254105918
20
85.368658647811543
30
0
10
55.928493769177912
20
85.822334162534474
30
0
10
53.041766852646518
20
86.73277299622842
30
0
10
50.219569152986161
20
88.039981774566655
30
0
10
47.661001374108452
20
89.659138336929345
30
0
10
45.555803918679054
20
91.490110273385298
30
0
10
44.070037999258503
20
93.425419790063756
30
0
10
43.330946951007341
20
95.358972021924316
30
0
10
43.413402543776286
20
97.193798866677866
30
0
10
44.321151575411413
20
98.851791044154908
30
0
10
45.984612617064386
20
100.27700221854106
30
0
10
48.278534705981649
20
101.431354048163
30
0
10
50.48291289478405
20
102.12024026719615
30
0
10
52.254432386830203
20
102.50065172911118
30
0
10
53.459198547342979
20
102.69382196893085
30
0
10
54.063883474713002
20
102.77537957319467
30
0
0
SPLINE
5
132
100
AcDbEntity
8
0
100
AcDbSpline
70
1064
71
5
72
36
73
30
74
0
42
0.000000001
43
0.0000000001
44
0.0000000001
40
0
40
0
40
0
40
0
40
0
40
0
40
0.040000000000000001
40
0.080000000000000002
40
0.12
40
0.16
40
0.20000000000000001
40
0.24000000000000002
40
0.28000000000000003
40
0.32000000000000001
40
0.35999999999999999
40
0.39999999999999997
40
0.43999999999999995
40
0.47999999999999993
40
0.51999999999999991
40
0.55999999999999994
40
0.59999999999999998
40
0.64000000000000001
40
0.68000000000000005
40
0.72000000000000008
40
0.76000000000000012
40
0.80000000000000016
40
0.84000000000000019
40
0.88000000000000023
40
0.92000000000000026
40
0.9600000000000003
40
1
40
1
40
1
40
1
40
1
40
1
10
69.38057085378604
20
154.6177895280058
30
0
10
69.430972707386601
20
154.10623279378203
30
0
10
69.359034635754099
20
153.08854980968098
30
0
10
68.734421553698823
20
151.59201124405647
30
0
10
66.92555152535256
20
149.69962656195025
30
0
10
63.358808333436762
20
147.57349476050501
30
0
10
58.90803583921037
20
145.73310683901684
30
0
10
54.020577279857108
20
144.22150084281958
30
0
10
49.092272594190845
20
143.09726563930735
30
0
10
44.398089543224479
20
142.45036421744271
30
0
10
40.124759929478259
20
142.37750966045485
30
0
10
36.395353763018633
20
142.96073674065389
30
0
10
33.297015529950279
20
144.24318663548402
30
0
10
30.90429845024471
20
146.20827455255466
30
0
10
29.309865458989044
20
148.74925213116353
30
0
10
28.617412179477935
20
151.68342508691009
30
0
10
28.919395457477531
20
154.78390008284069
30
0
10
30.279493815924091
20
157.80463469762549
30
0
10
32.711737310480032
20
160.50866447873187
30
0
10
36.170107729708732
20
162.68404896218979
30
0
10
40.539248181497982
20
164.15858143025736
30
0
10
45.621658212139963
20
164.81668814935284
30
0
10
51.129585423228846
20
164.61355385339579
30
0
10
56.662232063315592
20
163.5983667316697
30
0
10
61.743272333241876
20
161.90161145313016
30
0
10
65.892191755028776
20
159.70252028814062
30
0
10
68.126560586694453
20
157.70330313974765
30
0
10
69.056623514150715
20
156.15789021502363
30
0
10
69.330169000185464
20
155.12934626222957
30
0
10
69.38057085378604
20
154.6177895280058
30
0
0
SPLINE
5
133
100
AcDbEntity
8
0
100
AcDbSpline
70
1064
71
5
72
36
73
30
74
0
42
0.000000001
43
0.0000000001
44
0.0000000001
40
0
40
0
40
0
40
0
40
0
40
0
40
0.040000000000000001
40
0.080000000000000002
40
0.12
40
0.16
40
0.20000000000000001
40
0.24000000000000002
40
0.28000000000000003
40
0.32000000000000001
40
0.35999999999999999
40
0.39999999999999997
40
0.43999999999999995
40
0.47999999999999993
40
0.51999999999999991
40
0.55999999999999994
40
0.59999999999999998
40
0.64000000000000001
40
0.68000000000000005
40
0.72000000000000008
40
0.76000000000000012
40
0.80000000000000016
40
0.84000000000000019
40
0.88000000000000023
40
0.92000000000000026
40
0.9600000000000003
40
1
40
1
40
1
40
1
40
1
40
1
10
29.2968195492071
20
64.951127288648152
30
0
10
29.574462619489221
20
65.049485430124264
30
0
10
30.163299660592102
20
65.154708503088628
30
0
10
31.143163764571842
20
65.040498709634292
30
0
10
32.619324020609312
20
64.379713602735379
30
0
10
34.656507774700188
20
62.878627997988474
30
0
10
36.766976791066867
20
60.911718881143422
30
0
10
38.809016734071179
20
58.683105529483861
30
0
10
40.619954059109105
20
56.340111097958058
30
0
10
42.026337373927944
20
53.952102003005685
30
0
10
42.870259057106431
20
51.550568056802959
30
0
10
43.033157347689837
20
49.156501630731569
30
0
10
42.459826680518411
20
46.811227555968756
30
0
10
41.186513376375984
20
44.609265263360555
30
0
10
39.358933119849894
20
42.720834002774396
30
0
10
37.186047745662052
20
41.346710997499002
30
0
10
34.900557554104594
20
40.679649373487081
30
0
10
32.720429014793119
20
40.866264083405412
30
0
10
30.802669967475381
20
41.960426279171642
30
0
10
29.225905983926012
20
43.905967700546569
30
0
10
28.018006838622391
20
46.565589989191658
30
0
10
27.172345420918557
20
49.737589318768094
30
0
10
26.66800097841065
20
53.176424505615671
30
0
10
26.488017136665615
20
56.610787939702895
30
0
10
26.637946741574762
20
59.762350227106111
30
0
10
27.13386526977661
20
62.371963655431571
30
0
10
27.8195352397635
20
63.85533055778702
30
0
10
28.497441238899349
20
64.564559654231914
30
0
10
29.01917647892498
20
64.852769147172054
30
0
10
29.2968195492071
20
64.951127288648152
30
0
0
SPLINE
5
134
100
AcDbEntity
8
0
100
AcDbSpline
70
1064
71
5
72
41
73
35
74
0
42
0.000000001
43
0.0000000001
44
0.0000000001
40
0
40
0
40
0
40
0
40
0
40
0
40
0.033333333333333333
40
0.066666666666666666
40
0.10000000000000001
40
0.13333333333333333
40
0.16666666666666666
40
0.19999999999999998
40
0.23333333333333331
40
0.26666666666666666
40
0.29999999999999999
40
0.33333333333333331
40
0.36666666666666664
40
0.39999999999999997
40
0.43333333333333329
40
0.46666666666666662
40
0.49999999999999994
40
0.53333333333333333
40
0.56666666666666665
40
0.59999999999999998
40
0.6333333333333333
40
0.66666666666666663
40
0.69999999999999996
40
0.73333333333333328
40
0.76666666666666661
40
0.79999999999999993
40
0.83333333333333326
40
0.86666666666666659
40
0.89999999999999991
40
0.93333333333333324
40
0.96666666666666656
40
1
40
1
40
1
40
1
40
1
40
1
10
152.31060301005067
20
40.323091772946647
30
0
10
152.66902868150149
20
41.538743262919866
30
0
10
153.38244142961042
20
43.976483201997524
30
0
10
154.43106321811618
20
47.629146054505185
30
0
10
155.79224104362919
20
52.397640882673649
30
0
10
157.60631366462499
20
57.954545523582055
30
0
10
159.77538087428661
20
62.878562816598446
30
0
10
162.5140425874684
20
66.949768719843107
30
0
10
165.9248792312892
20
69.962928025992085
30
0
10
169.88485196506431
20
71.730614624512611
30
0
10
174.02387675901463
20
72.09506480882203
30
0
10
177.88300671136722
20
70.959122773257675
30
0
10
181.02119791605983
20
68.309850484668715
30
0
10
183.16721927667635
20
64.254383495814992
30
0
10
184.263457228861
20
59.021015496279865
30
0
10
184.38327041855808
20
52.916808764978313
30
0
10
183.68201039458575
20
46.297313095744023
30
0
10
182.33313692160982
20
39.531268749149113
30
0
10
180.47634038176318
20
32.969511647069226
30
0
10
178.1471403248346
20
26.907553834150335
30
0
10
175.31099767414975
20
21.583349690206461
30
0
10
171.92363893524799
20
17.183795502639811
30
0
10
167.98334531354328
20
13.847774418989063
30
0
10
163.5849690332461
20
11.670060818573884
30
0
10
158.978603612569
20
10.704332827736634
30
0
10
154.61386262671962
20
10.965837191953465
30
0
10
150.99332257421366
20
12.431001878603873
30
0
10
148.54529206397521
20
15.0370693257223
30
0
10
147.47830711739996
20
18.680777086309565
30
0
10
147.67193961242401
20
23.218008436765913
30
0
10
148.810086769192
20
28.47224330822921
30
0
10
150.15231825925576
20
33.087844041828809
30
0
10
151.23188740090529
20
36.682574262158099
30
0
10
151.95217733859982
20
39.107440282973414
30
0
10
152.31060301005067
20
40.323091772946647
30
0
0
SPLINE
5
135
100
AcDbEntity
8
0
100
AcDbSpline
70
1064
71
5
72
36
73
30
74
0
42
0.000000001
43
0.0000000001
44
0.0000000001
40
0
40
0
40
0
40
0
40
0
40
0
40
0.040000000000000001
40
0.080000000000000002
40
0.12
40
0.16
40
0.20000000000000001
40
0.24000000000000002
40
0.28000000000000003
40
0.32000000000000001
40
0.35999999999999999
40
0.39999999999999997
40
0.43999999999999995
40
0.47999999999999993
40
0.51999999999999991
40
0.55999999999999994
40
0.59999999999999998
40
0.64000000000000001
40
0.68000000000000005
40
0.72000000000000008
40
0.76000000000000012
40
0.80000000000000016
40
0.84000000000000019
40
0.88000000000000023
40
0.92000000000000026
40
0.9600000000000003
40
1
40
1
40
1
40
1
40
1
40
1
10
149.21141021355251
20
133.63120912381106
30
0
10
150.10447216863403
20
133.66967119941816
30
0
10
151.87493701655833
20
133.66837311469948
30
0
10
154.44673519365284
20
133.42166756897745
30
0
10
157.56054837224048
20
132.58378987330994
30
0
10
160.59222131272779
20
130.73096127245202
30
0
10
162.49354221299666
20
128.1941940067338
30
0
10
163.09502596130176
20
125.16273264793662
30
0
10
162.3583391959541
20
121.88172649959897
30
0
10
160.42179795101356
20
118.64481885453944
30
0
10
157.55745474472215
20
115.7612492559484
30
0
10
154.10805304131426
20
113.51699364550984
30
0
10
150.43183679641146
20
112.1373420966099
30
0
10
146.84550430076615
20
111.7488348544037
30
0
10
143.56600757097254
20
112.33834474624737
30
0
10
140.65711718227399
20
113.71660677863247
30
0
10
138.09461169508327
20
115.59711711075917
30
0
10
135.82541465213774
20
117.66900380796137
30
0
10
133.82791363601623
20
119.67090791047613
30
0
10
132.17287560864261
20
121.46585458815046
30
0
10
131.08148122162507
20
123.11303586227801
30
0
10
130.82191313716925
20
124.75563444131892
30
0
10
131.61957224549963
20
126.52469321157477
30
0
10
133.54362761440257
20
128.41653734427544
30
0
10
136.5084086540339
20
130.30212372691804
30
0
10
140.3146744050415
20
131.98274354177471
30
0
10
143.80383554880584
20
132.98030608336489
30
0
10
146.51656528606895
20
133.43760066105671
30
0
10
148.31834825847096
20
133.59274704820393
30
0
10
149.21141021355251
20
133.63120912381106
30
0
0
SPLINE
5
136
100
AcDbEntity
8
0
100
AcDbSpline
70
1064
71
5
72
36
73
30
74
0
42
0.000000001
43
0.0000000001
44
0.0000000001
40
0
40
0
40
0
40
0
40
0
40
0
40
0.040000000000000001
40
0.080000000000000002
40
0.12
40
0.16
40
0.20000000000000001
40
0.24000000000000002
40
0.28000000000000003
40
0.32000000000000001
40
0.35999999999999999
40
0.39999999999999997
40
0.43999999999999995
40
0.47999999999999993
40
0.51999999999999991
40
0.55999999999999994
40
0.59999999999999998
40
0.64000000000000001
40
0.68000000000000005
40
0.72000000000000008
40
0.76000000000000012
40
0.80000000000000016
40
0.84000000000000019
40
0.88000000000000023
40
0.92000000000000026
40
0.9600000000000003
40
1
40
1
40
1
40
1
40
1
40
1
10
335.64826203199004
20
144.96941348868199
30
0
10
337.23955502733168
20
146.03650279532641
30
0
10
340.40177659025517
20
148.20320109661617
30
0
10
345.02646164692436
20
151.50375110531567
30
0
10
350.78656529985614
20
155.76142280665925
30
0
10
357.11207022117162
20
160.10733699774252
30
0
10
362.51109586177836
20
162.75756580183779
30
0
10
366.99648012185503
20
163.16838674228057
30
0
10
370.57464930850068
20
161.10495024454369
30
0
10
373.15184376709288
20
156.84300305932146
30
0
10
374.53797904422322
20
151.09238236176441
30
0
10
374.51358364776968
20
144.73368760414971
30
0
10
372.87569113356705
20
138.63258050464771
30
0
10
369.49796895219401
20
133.37971744711592
30
0
10
364.36550750081074
20
129.23972717495934
30
0
10
357.59217575416039
20
126.26052704050998
30
0
10
349.44626118068982
20
124.33552270638427
30
0
10
340.37164128364782
20
123.2812963183237
30
0
10
331.02155552597077
20
122.91040582352889
30
0
10
322.26560792337813
20
123.09564013709772
30
0
10
315.02900311964373
20
123.76176361823708
30
0
10
310.15014205093985
20
124.88649400880347
30
0
10
308.23250682711279
20
126.49777203484433
30
0
10
309.49022820263838
20
128.67403349035789
30
0
10
313.60736286991829
20
131.54049789437752
30
0
10
319.91993879992685
20
135.20391179424789
30
0
10
326.04605371165371
20
138.79279244003993
30
0
10
330.85401861820515
20
141.80066525674965
30
0
10
334.05696903664841
20
143.90232418203752
30
0
10
335.64826203199004
20
144.96941348868199
30
0
0
SPLINE
5
137
100
AcDbEntity
8
0
100
AcDbSpline
70
1064
71
5
72
51
73
45
74
0
42
0.000000001
43
0.0000000001
44
0.0000000001
40
0
40
0
40
0
40
0
40
0
40
0
40
0.025000000000000001
40
0.050000000000000003
40
0.075000000000000011
40
0.10000000000000001
40
0.125
40
0.14999999999999999
40
0.17499999999999999
40
0.19999999999999998
40
0.22499999999999998
40
0.24999999999999997
40
0.27499999999999997
40
0.29999999999999999
40
0.32500000000000001
40
0.35000000000000003
40
0.37500000000000006
40
0.40000000000000008
40
0.4250000000000001
40
0.45000000000000012
40
0.47500000000000014
40
0.50000000000000011
40
0.52500000000000013
40
0.55000000000000016
40
0.57500000000000018
40
0.6000000000000002
40
0.62500000000000022
40
0.65000000000000024
40
0.67500000000000027
40
0.70000000000000029
40
0.72500000000000031
40
0.75000000000000033
40
0.77500000000000036
40
0.80000000000000038
40
0.8250000000000004
40
0.85000000000000042
40
0.87500000000000044
40
0.90000000000000047
40
0.92500000000000049
40
0.95000000000000051
40
0.97500000000000053
40
1
40
1
40
1
40
1
40
1
40
1
10
136.37243914301442
20
97.404269512830481
30
0
10
136.26007864099427
20
97.966209329009331
30
0
10
136.06162840549632
20
99.083023601144731
30
0
10
135.84555066909292
20
100.72461141088199
30
0
10
135.74057944312057
20
102.7890923334397
30
0
10
135.98680901224856
20
105.00958725914407
30
0
10
136.68275704234912
20
106.73394060271528
30
0
10
137.88019290906303
20
107.86759115858112
30
0
10
139.58544803344563
20
108.38875907570034
30
0
10
141.74791503582622
20
108.35919198332525
30
0
10
144.2766427948101
20
107.8924897317029
30
0
10
147.05079286769418
20
107.1309784822659
30
0
10
149.932521201513
20
106.22058941461056
30
0
10
152.7783776266333
20
105.28368029408698
30
0
10
155.45246166215779
20
104.40335587782943
30
0
10
157.84110742919427
20
103.62590514057386
30
0
10
159.86766177197839
20
102.95853094866712
30
0
10
161.50664209612779
20
102.36912948370781
30
0
10
162.80012027760796
20
101.78427584997326
30
0
10
163.868487088069
20
101.08991477050273
30
0
10
164.845937716295
20
100.16415767448848
30
0
10
165.82111415973492
20
98.907883856540906
30
0
10
166.77514066051413
20
97.276575022563208
30
0
10
167.61589315587301
20
95.275681928467179
30
0
10
168.21366637946238
20
92.956395148322684
30
0
10
168.4339496969852
20
90.410673402650019
30
0
10
168.17678144980445
20
87.76876297204511
30
0
10
167.38748223141425
20
85.186474642675734
30
0
10
166.05066738197735
20
82.826724836507054
30
0
10
164.18972698895641
20
80.842461138647224
30
0
10
161.86388346536208
20
79.359891181828786
30
0
10
159.16735331986473
20
78.459294794566091
30
0
10
156.22508848923559
20
78.163405534141077
30
0
10
153.17767996273062
20
78.4531203885591
30
0
10
150.16817129309698
20
79.278493733665016
30
0
10
147.32790616487173
20
80.571575813872286
30
0
10
144.76333884336688
20
82.257928221204764
30
0
10
142.54093996478932
20
84.269592215093638
30
0
10
140.67687760132301
20
86.554560732440663
30
0
10
139.15499769476088
20
89.066638468851636
30
0
10
137.94136762948114
20
91.75758797286953
30
0
10
137.18830607084928
20
94.00620865229692
30
0
10
136.73579141761701
20
95.711384704071804
30
0
10
136.48479964503449
20
96.84232969665166
30
0
10
136.37243914301442
20
97.404269512830481
30
0
0
SPLINE
5
138
100
AcDbEntity
8
0
100
AcDbSpline
70
1064
71
5
72
31
73
25
74
0
42
0.000000001
43
0.0000000001
44
0.0000000001
40
0
40
0
40
0
40
0
40
0
40
0
40
0.050000000000000003
40
0.10000000000000001
40
0.15000000000000002
40
0.20000000000000001
40
0.25
40
0.29999999999999999
40
0.34999999999999998
40
0.39999999999999997
40
0.44999999999999996
40
0.49999999999999994
40
0.54999999999999993
40
0.59999999999999998
40
0.65000000000000002
40
0.70000000000000007
40
0.75000000000000011
40
0.80000000000000016
40
0.8500000000000002
40
0.90000000000000024
40
0.95000000000000029
40
1
40
1
40
1
40
1
40
1
40
1
10
81.470743840615256
20
97.145091019506538
30
0
10
82.107298838526489
20
97.017087428117492
30
0
10
83.379363760257732
20
96.719443945391546
30
0
10
85.253922427732675
20
96.154183599978737
30
0
10
87.565353144131194
20
95.197593631372825
30
0
10
89.864487306214542
20
93.785516319374409
30
0
10
91.343818309780772
20
92.298910771140982
30
0
10
91.844916768773459
20
90.884556453301826
30
0
10
91.303405738189767
20
89.67985842519154
30
0
10
89.78058375555446
20
88.796949910777343
30
0
10
87.441068492690931
20
88.317649479795236
30
0
10
84.522204277860524
20
88.289861993278549
30
0
10
81.30857160652306
20
88.722532590663633
30
0
10
78.105981810584936
20
89.580087537937501
30
0
10
75.216693415064498
20
90.775824998668753
30
0
10
72.91755925298132
20
92.18790231066761
30
0
10
71.438228249439021
20
93.674507858929303
30
0
10
70.93712979048388
20
95.088862176812583
30
0
10
71.478640821107362
20
96.293560204969339
30
0
10
73.001462803770551
20
97.176468719416675
30
0
10
75.340978066640091
20
97.655769150405902
30
0
10
77.67606943848611
20
97.677999139597716
30
0
10
79.560033772790334
20
97.487465493725693
30
0
10
80.834188842704023
20
97.273094610895583
30
0
10
81.470743840615256
20
97.145091019506538
30
0
0
SPLINE
5
139
100
AcDbEntity
8
0
100
AcDbSpline
70
1064
71
5
72
36
73
30
74
0
42
0.000000001
43
0.0000000001
44
0.0000000001
40
0
40
0
40
0
40
0
40
0
40
0
40
0.040000000000000001
40
0.080000000000000002
40
0.12
40
0.16
40
0.20000000000000001
40
0.24000000000000002
40
0.28000000000000003
40
0.32000000000000001
40
0.35999999999999999
40
0.39999999999999997
40
0.43999999999999995
40
0.47999999999999993
40
0.51999999999999991
40
0.55999999999999994
40
0.59999999999999998
40
0.64000000000000001
40
0.68000000000000005
40
0.72000000000000008
40
0.76000000000000012
40
0.80000000000000016
40
0.84000000000000019
40
0.88000000000000023
40
0.92000000000000026
40
0.9600000000000003
40
1
40
1
40
1
40
1
40
1
40
1
10
276.40235969729525
20
155.66130611132479
30
0
10
276.65053292366275
20
156.33652599652254
30
0
10
277.3530863753254
20
157.66015614931757
30
0
10
279.05325316971198
20
159.54916179200322
30
0
10
282.63035390921243
20
161.80014914381644
30
0
10
288.96710670948283
20
163.95592100623549
30
0
10
296.59053623694751
20
165.24655993891025
30
0
10
304.75954935942957
20
165.49825138150095
30
0
10
312.66932878978673
20
164.60201881760389
30
0
10
319.54399255332373
20
162.54083211887573
30
0
10
324.74275228867066
20
159.43072215100111
30
0
10
327.8105786970138
20
155.50749598915704
30
0
10
328.49597545020316
20
151.08037166577074
30
0
10
326.78139526346013
20
146.49686818521656
30
0
10
322.91234122882264
20
142.10378580154244
30
0
10
317.42986606562334
20
138.21026392473047
30
0
10
311.04539578788507
20
135.07751349132081
30
0
10
304.51837460386662
20
132.90806138303685
30
0
10
298.53528411231741
20
131.83443468696862
30
0
10
293.58535497345997
20
131.90653740658055
30
0
10
289.84162159510862
20
133.07916663447909
30
0
10
287.02031320370725
20
135.19540071479287
30
0
10
284.62327816855742
20
138.03078916920634
30
0
10
282.19730843529385
20
141.33976799834406
30
0
10
279.59143514648434
20
144.90125350038113
30
0
10
277.20496237974078
20
148.56259700145662
30
0
10
276.01974321304635
20
151.47854463702191
30
0
10
275.86404701712001
20
153.60883683813117
30
0
10
276.15418647092775
20
154.98608622612707
30
0
10
276.40235969729525
20
155.66130611132479
30
0
0
SPLINE
5
140
100
AcDbEntity
8
0
100
AcDbSpline
70
1064
71
5
72
36
73
30
74
0
42
0.000000001
43
0.0000000001
44
0.0000000001
40
0
40
0
40
0
40
0
40
0
40
0
40
0.040000000000000001
40
0.080000000000000002
40
0.12
40
0.16
40
0.20000000000000001
40
0.24000000000000002
40
0.28000000000000003
40
0.32000000000000001
40
0.35999999999999999
40
0.39999999999999997
40
0.43999999999999995
40
0.47999999999999993
40
0.51999999999999991
40
0.55999999999999994
40
0.59999999999999998
40
0.64000000000000001
40
0.68000000000000005
40
0.72000000000000008
40
0.76000000000000012
40
0.80000000000000016
40
0.84000000000000019
40
0.88000000000000023
40
0.92000000000000026
40
0.9600000000000003
40
1
40
1
40
1
40
1
40
1
40
1
10
114.00241661925895
20
90.173883524886946
30
0
10
114.81699246209385
20
90.691934437815007
30
0
10
116.48206118571264
20
91.655575563331425
30
0
10
119.04847004885445
20
92.873480519898806
30
0
10
122.41468357426481
20
93.994180321239256
30
0
10
125.97480254005964
20
94.427208817984052
30
0
10
128.38207755142545
20
93.782860990543512
30
0
10
129.28861898250744
20
91.998227288962823
30
0
10
128.64909313891985
20
89.090603190539767
30
0
10
126.68663242802114
20
85.161881693529025
30
0
10
123.78383899878982
20
80.39124932592452
30
0
10
120.40072065091064
20
75.032726181216574
30
0
10
116.98218931820881
20
69.412300580250047
30
0
10
113.87237808463199
20
63.925469419153885
30
0
10
111.22005464369907
20
59.037939481893183
30
0
10
109.03174234073559
20
55.219739071249535
30
0
10
107.2300259921447
20
52.876268099408243
30
0
10
105.70903715488782
20
52.278987853165191
30
0
10
104.38975120031658
20
53.49572606820567
30
0
10
103.27723058935284
20
56.314628388428396
30
0
10
102.4414686106916
20
60.339690674535561
30
0
10
101.99647515507868
20
65.09316193363334
30
0
10
102.07990498361688
20
70.107080168644075
30
0
10
102.83392793258508
20
75.035395357575993
30
0
10
104.37699158318453
20
79.65029985818083
30
0
10
106.7722556529997
20
83.802739240712583
30
0
10
109.35145060708746
20
86.677218826126108
30
0
10
111.59460612870322
20
88.54727008576296
30
0
10
113.18784077642405
20
89.655832611958871
30
0
10
114.00241661925895
20
90.173883524886946
30
0
0
SPLINE
5
141
100
AcDbEntity
8
0
100
AcDbSpline
70
1064
71
5
72
36
73
30
74
0
42
0.000000001
43
0.0000000001
44
0.0000000001
40
0
40
0
40
0
40
0
40
0
40
0
40
0.040000000000000001
40
0.080000000000000002
40
0.12
40
0.16
40
0.20000000000000001
40
0.24000000000000002
40
0.28000000000000003
40
0.32000000000000001
40
0.35999999999999999
40
0.39999999999999997
40
0.43999999999999995
40
0.47999999999999993
40
0.51999999999999991
40
0.55999999999999994
40
0.59999999999999998
40
0.64000000000000001
40
0.68000000000000005
40
0.72000000000000008
40
0.76000000000000012
40
0.80000000000000016
40
0.84000000000000019
40
0.88000000000000023
40
0.92000000000000026
40
0.9600000000000003
40
1
40
1
40
1
40
1
40
1
40
1
10
256.27783402981788
20
134.21834742587413
30
0
10
257.11208204018692
20
134.59599792816516
30
0
10
258.80904085164286
20
135.33544970303365
30
0
10
261.41104972305266
20
136.38373557651803
30
0
10
264.87660855284537
20
137.5616338084387
30
0
10
268.91860907043304
20
138.30573379591658
30
0
10
272.41274054763505
20
137.95106319389808
30
0
10
275.14360454750476
20
136.2223573508717
30
0
10
276.95710515163023
20
133.05477537002454
30
0
10
277.77565296380823
20
128.68223566971875
30
0
10
277.5853978277583
20
123.5339477928102
30
0
10
276.42740680641202
20
118.15492944464134
30
0
10
274.38829610435232
20
113.11654243041417
30
0
10
271.59228277865554
20
108.9380534786885
30
0
10
268.19298447563784
20
105.9882928903488
30
0
10
264.3678883981953
20
104.45057017196434
30
0
10
260.31512879845315
20
104.35919121979273
30
0
10
256.2506527479826
20
105.61415311822176
30
0
10
252.40427924115124
20
108.00490101417226
30
0
10
249.01959288252033
20
111.22250658371085
30
0
10
246.33850479724987
20
114.90005430911287
30
0
10
244.57551923461548
20
118.6691216626871
30
0
10
243.89314945075955
20
122.21515457133404
30
0
10
244.379050464616
20
125.32500418664269
30
0
10
246.01361857830685
20
127.96009649556238
30
0
10
248.67194364398279
20
130.23102542377393
30
0
10
251.45770903444642
20
131.87861774836469
30
0
10
253.80355278942858
20
133.06954668928765
30
0
10
255.44358601944884
20
133.84069692358312
30
0
10
256.27783402981788
20
134.21834742587413
30
0
0
SPLINE
5
142
100
AcDbEntity
8
0
100
AcDbSpline
70
1064
71
5
72
41
73
35
74
0
42
0.000000001
43
0.0000000001
44
0.0000000001
40
0
40
0
40
0
40
0
40
0
40
0
40
0.033333333333333333
40
0.066666666666666666
40
0.10000000000000001
40
0.13333333333333333
40
0.16666666666666666
40
0.19999999999999998
40
0.23333333333333331
40
0.26666666666666666
40
0.29999999999999999
40
0.33333333333333331
40
0.36666666666666664
40
0.39999999999999997
40
0.43333333333333329
40
0.46666666666666662
40
0.49999999999999994
40
0.53333333333333333
40
0.56666666666666665
40
0.59999999999999998
40
0.6333333333333333
40
0.66666666666666663
40
0.69999999999999996
40
0.73333333333333328
40
0.76666666666666661
40
0.79999999999999993
40
0.83333333333333326
40
0.86666666666666659
40
0.89999999999999991
40
0.93333333333333324
40
0.96666666666666656
40
1
40
1
40
1
40
1
40
1
40
1
10
208.61701890916675
20
77.134749313965344
30
0
10
208.8137896577625
20
77.548312395429818
30
0
10
209.29325451444589
20
78.336820233344298
30
0
10
210.263733627872
20
79.394495200275784
30
0
10
212.00854119267302
20
80.527937639987385
30
0
10
214.73021246320886
20
81.456740925598652
30
0
10
217.74820969117116
20
81.899133801263332
30
0
10
220.83011942020588
20
81.874017095573208
30
0
10
223.80575016730177
20
81.405870397654212
30
0
10
226.6041261274911
20
80.51581787168405
30
0
10
229.21191410225754
20
79.228409453322229
30
0
10
231.64223944313852
20
77.576481745037711
30
0
10
233.89843678690031
20
75.607196427675689
30
0
10
235.9431234831037
20
73.387072008945211
30
0
10
237.65660009986601
20
71.00945373103842
30
0
10
238.86948764910272
20
68.585824012728565
30
0
10
239.41140291439694
20
66.23370089350172
30
0
10
239.15251538430005
20
64.066090507421322
30
0
10
238.0520967900249
20
62.179587309798023
30
0
10
236.19421940120858
20
60.644899042018885
30
0
10
233.74016926367531
20
59.512895830278268
30
0
10
230.88816650160109
20
58.819219410559207
30
0
10
227.83436034116576
20
58.58860507807929
30
0
10
224.72461945295319
20
58.840699977854889
30
0
10
221.65282255527146
20
59.587514336171623
30
0
10
218.68638478011118
20
60.82584975098537
30
0
10
215.88297936860539
20
62.531170638484255
30
0
10
213.31119025505782
20
64.650420916193909
30
0
10
211.06851488980908
20
67.095453404012488
30
0
10
209.30326292172401
20
69.734576507201851
30
0
10
208.18126372190358
20
72.410539592277274
30
0
10
207.9154611448605
20
74.450201852491801
30
0
10
208.11263002287134
20
75.855441744557496
30
0
10
208.42024816057105
20
76.721186232500898
30
0
10
208.61701890916675
20
77.134749313965344
30
0
0
SPLINE
5
143
100
AcDbEntity
8
0
100
AcDbSpline
70
1064
71
5
72
41
73
35
74
0
42
0.000000001
43
0.0000000001
44
0.0000000001
40
0
40
0
40
0
40
0
40
0
40
0
40
0.033333333333333333
40
0.066666666666666666
40
0.10000000000000001
40
0.13333333333333333
40
0.16666666666666666
40
0.19999999999999998
40
0.23333333333333331
40
0.26666666666666666
40
0.29999999999999999
40
0.33333333333333331
40
0.36666666666666664
40
0.39999999999999997
40
0.43333333333333329
40
0.46666666666666662
40
0.49999999999999994
40
0.53333333333333333
40
0.56666666666666665
40
0.59999999999999998
40
0.6333333333333333
40
0.66666666666666663
40
0.69999999999999996
40
0.73333333333333328
40
0.76666666666666661
40
0.79999999999999993
40
0.83333333333333326
40
0.86666666666666659
40
0.89999999999999991
40
0.93333333333333324
40
0.96666666666666656
40
1
40
1
40
1
40
1
40
1
40
1
10
265.01903351482201
20
69.864246668371038
30
0
10
265.29392007700744
20
70.044955100054423
30
0
10
265.8635015671166
20
70.335769153359422
30
0
10
266.76628137806847
20
70.57367027478746
30
0
10
268.01558546604531
20
70.574121084434111
30
0
10
269.52557105757143
20
70.278322206257116
30
0
10
270.8874003198946
20
69.864361366756782
30
0
10
272.08010547217157
20
69.340597375758705
30
0
10
273.13717922173112
20
68.581053100039568
30
0
10
274.10191142246947
20
67.418993440926755
30
0
10
274.98220103485693
20
65.734455736143005
30
0
10
275.74620542026861
20
63.48035125782728
30
0
10
276.34132969287157
20
60.670443819655276
30
0
10
276.70571780930015
20
57.380563501310633
30
0
10
276.78240585896776
20
53.74433025848279
30
0
10
276.5333327667505
20
49.953137321436778
30
0
10
275.95074951756737
20
46.250831731467663
30
0
10
275.051186352299
20
42.904418098653053
30
0
10
273.87190923799113
20
40.177917498978736
30
0
10
272.4666383042682
20
38.304771140147118
30
0
10
270.90178190471062
20
37.461056025416269
30
0
10
269.25260796836898
20
37.736649835107713
30
0
10
267.59956225322435
20
39.109748027209982
30
0
10
266.02460777818362
20
41.469995851921368
30
0
10
264.60759713858533
20
44.637781788085611
30
0
10
263.42258829303495
20
48.384207289184651
30
0
10
262.53417170222951
20
52.450169269065931
30
0
10
261.99355411407288
20
56.565368605357349
30
0
10
261.83500477821616
20
60.467239913108529
30
0
10
262.0734245580004
20
63.920210524814507
30
0
10
262.7014795793317
20
66.73514458980074
30
0
10
263.48967767468332
20
68.378192151270852
30
0
10
264.21418219400425
20
69.251518563259026
30
0
10
264.7441469526367
20
69.683538236687639
30
0
10
265.01903351482201
20
69.864246668371038
30
0
0
SPLINE
5
144
100
AcDbEntity
8
0
100
AcDbSpline
70
1064
71
5
72
36
73
30
74
0
42
0.000000001
43
0.0000000001
44
0.0000000001
40
0
40
0
40
0
40
0
40
0
40
0
40
0.040000000000000001
40
0.080000000000000002
40
0.12
40
0.16
40
0.20000000000000001
40
0.24000000000000002
40
0.28000000000000003
40
0.32000000000000001
40
0.35999999999999999
40
0.39999999999999997
40
0.43999999999999995
40
0.47999999999999993
40
0.51999999999999991
40
0.55999999999999994
40
0.59999999999999998
40
0.64000000000000001
40
0.68000000000000005
40
0.72000000000000008
40
0.76000000000000012
40
0.80000000000000016
40
0.84000000000000019
40
0.88000000000000023
40
0.92000000000000026
40
0.9600000000000003
40
1
40
1
40
1
40
1
40
1
40
1
10
352.2336294687932
20
35.214155198825132
30
0
10
352.97437080102111
20
36.102804424032961
30
0
10
354.48756091667605
20
37.874126872605721
30
0
10
356.82212175587131
20
40.483594619615111
30
0
10
359.95940383304963
20
43.719180717172712
30
0
10
363.72601729925225
20
46.916825775567489
30
0
10
367.19370814945648
20
48.839060118307074
30
0
10
370.25608813855109
20
49.153583091043167
30
0
10
372.8307199727879
20
47.703216216982661
30
0
10
374.84470039766933
20
44.603515379585545
30
0
10
376.23148995849357
20
40.181401193971197
30
0
10
376.92960326393541
20
34.89246050179468
30
0
10
376.8809126829002
20
29.247944332349039
30
0
10
376.02957793471194
20
23.739014567206475
30
0
10
374.32079378028743
20
18.762356551984453
30
0
10
371.7283899066075
20
14.621491453044616
30
0
10
368.28151381431519
20
11.528140668063621
30
0
10
364.09539456200258
20
9.601266885060177
30
0
10
359.39513545588409
20
8.8678550239510034
30
0
10
354.56047401259349
20
9.2557512586566766
30
0
10
350.07289717783755
20
10.619289340709187
30
0
10
346.4212220349749
20
12.778388721616158
30
0
10
344.0195353692763
20
15.553040894061336
30
0
10
343.12171856558359
20
18.797916504154838
30
0
10
343.7284201406078
20
22.440396972279281
30
0
10
345.65035531950514
20
26.439328218327134
30
0
10
347.99391914485761
20
29.878979757758408
30
0
10
350.0431129233084
20
32.542231521358715
30
0
10
351.49288813656534
20
34.325505973617297
30
0
10
352.2336294687932
20
35.214155198825132
30
0
0
SPLINE
5
145
100
AcDbEntity
8
0
100
AcDbSpline
70
1064
71
5
72
31
73
25
74
0
42
0.000000001
43
0.0000000001
44
0.0000000001
40
0
40
0
40
0
40
0
40
0
40
0
40
0.050000000000000003
40
0.10000000000000001
40
0.15000000000000002
40
0.20000000000000001
40
0.25
40
0.29999999999999999
40
0.34999999999999998
40
0.39999999999999997
40
0.44999999999999996
40
0.49999999999999994
40
0.54999999999999993
40
0.59999999999999998
40
0.65000000000000002
40
0.70000000000000007
40
0.75000000000000011
40
0.80000000000000016
40
0.8500000000000002
40
0.90000000000000024
40
0.95000000000000029
40
1
40
1
40
1
40
1
40
1
40
1
10
313.63002000909734
20
68.718929423986538
30
0
10
314.2809006656513
20
69.221409524669298
30
0
10
315.60346165696507
20
70.157672211499886
30
0
10
317.6185638129673
20
71.331934868728695
30
0
10
320.23689454538328
20
72.357228793144529
30
0
10
323.06928092581768
20
72.620231680740787
30
0
10
325.17103055722094
20
71.834346103172578
30
0
10
326.3203130960718
20
70.061077827018693
30
0
10
326.40661500704732
20
67.467188124312315
30
0
10
325.4421764222385
20
64.31420414241822
30
0
10
323.53410398875303
20
60.917571122817506
30
0
10
320.86908087404834
20
57.615099393974603
30
0
10
317.69541068500052
20
54.732500441208956
30
0
10
314.30837703221204
20
52.55023367139043
30
0
10
311.03546361662893
20
51.268616265856998
30
0
10
308.20307723622579
20
51.005613378267512
30
0
10
306.10132760494071
20
51.791498955861385
30
0
10
304.95204506624646
20
53.564767232049171
30
0
10
304.86574315541543
20
56.15865693478699
30
0
10
305.83018174030764
20
59.311640916699282
30
0
10
307.73825417378492
20
62.708273936298333
30
0
10
309.87027266545761
20
65.350251319352694
30
0
10
311.69817771764087
20
67.142791607403225
30
0
10
312.97913935254326
20
68.216449323303735
30
0
10
313.63002000909734
20
68.718929423986538
30
0
0
SPLINE
5
146
100
AcDbEntity
8
0
100
AcDbSpline
70
1064
71
5
72
41
73
35
74
0
42
0.000000001
43
0.0000000001
44
0.0000000001
40
0
40
0
40
0
40
0
40
0
40
0
40
0.033333333333333333
40
0.066666666666666666
40
0.10000000000000001
40
0.13333333333333333
40
0.16666666666666666
40
0.19999999999999998
40
0.23333333333333331
40
0.26666666666666666
40
0.29999999999999999
40
0.33333333333333331
40
0.36666666666666664
40
0.39999999999999997
40
0.43333333333333329
40
0.46666666666666662
40
0.49999999999999994
40
0.53333333333333333
40
0.56666666666666665
40
0.59999999999999998
40
0.6333333333333333
40
0.66666666666666663
40
0.69999999999999996
40
0.73333333333333328
40
0.76666666666666661
40
0.79999999999999993
40
0.83333333333333326
40
0.86666666666666659
40
0.89999999999999991
40
0.93333333333333324
40
0.96666666666666656
40
1
40
1
40
1
40
1
40
1
40
1
10
308.96655154925844
20
35.709165786703991
30
0
10
309.05146959084493
20
36.027762476120479
30
0
10
309.27209911649368
20
36.69780930732685
30
0
10
309.74831466065842
20
37.809070482919765
30
0
10
310.64949022614007
20
39.523804585377931
30
0
10
312.17132889025453
20
42.057265596139501
30
0
10
314.04303992085579
20
44.932929077578592
30
0
10
316.21281554505464
20
48.052842253292482
30
0
10
318.61336494229647
20
51.268762160958701
30
0
10
321.15188950046053
20
54.380370434663881
30
0
10
323.70221522947935
20
57.136539405781114
30
0
10
326.12291940259911
20
59.273386412996665
30
0
10
328.27298092262873
20
60.54857847026976
30
0
10
330.02917799041774
20
60.779171032272089
30
0
10
331.30102679631193
20
59.874137471587225
30
0
10
332.05177606412065
20
57.881009486015842
30
0
10
332.29381677475322
20
54.972974575254213
30
0
10
332.0703427944315
20
51.404088297357696
30
0
10
331.44187732293904
20
47.475530923638807
30
0
10
330.47048454820646
20
43.497159663694738
30
0
10
329.20643366077263
20
39.753018618477057
30
0
10
327.67038085650518
20
36.460646938044007
30
0
10
325.86560715817365
20
33.768992540668314
30
0
10
323.79653946734214
20
31.76427167309955
30
0
10
321.4854222562098
20
30.472352344144447
30
0
10
318.98930426868708
20
29.862370165727206
30
0
10
316.41863249652766
20
29.848301354491753
30
0
10
313.95148535996771
20
30.293351296053604
30
0
10
311.79026185111087
20
31.046839782338598
30
0
10
310.11981678107185
20
31.981292651410214
30
0
10
309.06961392319425
20
33.024694602646804
30
0
10
308.74351630507493
20
33.970649066593836
30
0
10
308.76259086697479
20
34.786229170827951
30
0
10
308.88163350767212
20
35.390569097287511
30
0
10
308.96655154925844
20
35.709165786703991
30
0
0
SPLINE
5
147
100
AcDbEntity
8
0
100
AcDbSpline
70
1064
71
5
72
36
73
30
74
0
42
0.000000001
43
0.0000000001
44
0.0000000001
40
0
40
0
40
0
40
0
40
0
40
0
40
0.040000000000000001
40
0.080000000000000002
40
0.12
40
0.16
40
0.20000000000000001
40
0.24000000000000002
40
0.28000000000000003
40
0.32000000000000001
40
0.35999999999999999
40
0.39999999999999997
40
0.43999999999999995
40
0.47999999999999993
40
0.51999999999999991
40
0.55999999999999994
40
0.59999999999999998
40
0.64000000000000001
40
0.68000000000000005
40
0.72000000000000008
40
0.76000000000000012
40
0.80000000000000016
40
0.84000000000000019
40
0.88000000000000023
40
0.92000000000000026
40
0.9600000000000003
40
1
40
1
40
1
40
1
40
1
40
1
10
180.22633614961453
20
125.69914362052053
30
0
10
180.91848850758012
20
126.6390864661122
30
0
10
182.32687461367121
20
128.50856425487476
30
0
10
184.48472548561324
20
131.24962476385036
30
0
10
187.33662557594096
20
134.63968028432197
30
0
10
190.56147062233688
20
138.07948131883984
30
0
10
193.16990248670297
20
140.39572624676427
30
0
10
194.93947978541337
20
141.33813948611842
30
0
10
195.73000194843658
20
140.77128514206566
30
0
10
195.52409634157101
20
138.7305328517543
30
0
10
194.43010046583373
20
135.42748062779003
30
0
10
192.63216581916288
20
131.18480432362259
30
0
10
190.35522919230502
20
126.39083570477482
30
0
10
187.82337448820721
20
121.44608495871971
30
0
10
185.2248475019166
20
116.71705544013079
30
0
10
182.66515579216971
20
112.47845992142553
30
0
10
180.18683908347381
20
108.91827821883625
30
0
10
177.80638338098288
20
106.15912821358536
30
0
10
175.54644661500618
20
104.27351842058117
30
0
10
173.46668916774675
20
103.29990821056755
30
0
10
171.70323912877436
20
103.25951066754116
30
0
10
170.48215334476816
20
104.16644215163407
30
0
10
170.02397662739244
20
106.00909317678631
30
0
10
170.45003521176287
20
108.73270190378207
30
0
10
171.77829833626288
20
112.23622164717911
30
0
10
173.94311937767407
20
116.37303115411079
30
0
10
176.23284210535175
20
120.034175550545
30
0
10
178.17396046587774
20
122.86890718132466
30
0
10
179.5341837916489
20
124.75920077492887
30
0
10
180.22633614961453
20
125.69914362052053
30
0
0
SPLINE
5
148
100
AcDbEntity
8
0
100
AcDbSpline
70
1064
71
5
72
46
73
40
74
0
42
0.000000001
43
0.0000000001
44
0.0000000001
40
0
40
0
40
0
40
0
40
0
40
0
40
0.028571428571428571
40
0.057142857142857141
40
0.085714285714285715
40
0.11428571428571428
40
0.14285714285714285
40
0.17142857142857143
40
0.20000000000000001
40
0.22857142857142859
40
0.25714285714285717
40
0.28571428571428575
40
0.31428571428571433
40
0.34285714285714292
40
0.3714285714285715
40
0.40000000000000008
40
0.42857142857142866
40
0.45714285714285724
40
0.48571428571428582
40
0.51428571428571435
40
0.54285714285714293
40
0.57142857142857151
40
0.60000000000000009
40
0.62857142857142867
40
0.65714285714285725
40
0.68571428571428583
40
0.71428571428571441
40
0.74285714285714299
40
0.77142857142857157
40
0.80000000000000016
40
0.82857142857142874
40
0.85714285714285732
40
0.8857142857142859
40
0.91428571428571448
40
0.94285714285714306
40
0.97142857142857164
40
1
40
1
40
1
40
1
40
1
40
1
10
175.40419708784756
20
97.506292905365797
30
0
10
175.62429209370424
20
97.788363807871121
30
0
10
176.1273624548019
20
98.327500793867117
30
0
10
177.070752801672
20
99.059480132173348
30
0
10
178.69436217997904
20
99.877264862008758
30
0
10
181.25350868652478
20
100.62979173434599
30
0
10
184.22308211298474
20
101.10778762148085
30
0
10
187.45563245231307
20
101.30269311401048
30
0
10
190.78633065931666
20
101.19830218544163
30
0
10
194.04369650439037
20
100.7642205014084
30
0
10
197.06057519743547
20
99.962460862315922
30
0
10
199.68531942820584
20
98.759768960242127
30
0
10
201.79289851514096
20
97.138072255411828
30
0
10
203.29642294834926
20
95.106020168208602
30
0
10
204.15824626574283
20
92.709778410564553
30
0
10
204.4029218840893
20
90.04562653360891
30
0
10
204.10011419503371
20
87.244551722626099
30
0
10
203.34633586834349
20
84.455655336868745
30
0
10
202.24661563011983
20
81.829582891318609
30
0
10
200.89799011159616
20
79.503225740110423
30
0
10
199.36814733337982
20
77.580748795169043
30
0
10
197.69247526353598
20
76.128288344654578
30
0
10
195.88882786126425
20
75.181760270084638
30
0
10
193.96724328000633
20
74.75084645258805
30
0
10
191.94189726606098
20
74.824362303729515
30
0
10
189.84152691271137
20
75.374764440401322
30
0
10
187.70493371414742
20
76.360693615501546
30
0
10
185.57677046142598
20
77.729372926978854
30
0
10
183.50366392597698
20
79.418977242297416
30
0
10
181.5292884971081
20
81.360846715577182
30
0
10
179.69301815780221
20
83.481906655233331
30
0
10
178.03554516346679
20
85.707546969986254
30
0
10
176.6027958351593
20
87.964353689636027
30
0
10
175.45088897066879
20
90.18292667739351
30
0
10
174.64984445611708
20
92.300580822873158
30
0
10
174.29006611147116
20
94.264374872524016
30
0
10
174.42932521722668
20
95.678052669383931
30
0
10
174.8067924196618
20
96.635075378835268
30
0
10
175.18410208199094
20
97.224222002860529
30
0
10
175.40419708784756
20
97.506292905365797
30
0
0
SPLINE
5
149
100
AcDbEntity
8
0
100
AcDbSpline
70
1064
71
5
72
36
73
30
74
0
42
0.000000001
43
0.0000000001
44
0.0000000001
40
0
40
0
40
0
40
0
40
0
40
0
40
0.040000000000000001
40
0.080000000000000002
40
0.12
40
0.16
40
0.20000000000000001
40
0.24000000000000002
40
0.28000000000000003
40
0.32000000000000001
40
0.35999999999999999
40
0.39999999999999997
40
0.43999999999999995
40
0.47999999999999993
40
0.51999999999999991
40
0.55999999999999994
40
0.59999999999999998
40
0.64000000000000001
40
0.68000000000000005
40
0.72000000000000008
40
0.76000000000000012
40
0.80000000000000016
40
0.84000000000000019
40
0.88000000000000023
40
0.92000000000000026
40
0.9600000000000003
40
1
40
1
40
1
40
1
40
1
40
1
10
31.702709477349789
20
109.10832801845878
30
0
10
32.010160584357656
20
109.01565476221897
30
0
10
32.636100435374857
20
108.68263235289946
30
0
10
33.599208907565668
20
107.75645130540214
30
0
10
34.887374752158948
20
105.77891891381383
30
0
10
36.369701745168143
20
102.47832954413244
30
0
10
37.58575388670279
20
98.79790631403209
30
0
10
38.412974796077293
20
95.135687495742928
30
0
10
38.764976999800432
20
91.744793736295804
30
0
10
38.610971914992511
20
88.647025880721472
30
0
10
37.967158880119904
20
85.734195916235876
30
0
10
36.889849111318448
20
82.861213060881568
30
0
10
35.468538463731157
20
79.940236991419539
30
0
10
33.819747682270091
20
77.037608548327256
30
0
10
32.080602319276615
20
74.462712279108814
30
0
10
30.391846058873821
20
72.639906919487316
30
0
10
28.881237385833678
20
71.989506167820124
30
0
10
27.646889136514268
20
72.806465260684007
30
0
10
26.739809797712539
20
75.135655512388041
30
0
10
26.174719637670979
20
78.82016115099043
30
0
10
25.94102163615721
20
83.551380345950875
30
0
10
26.013387662243041
20
88.916133093725136
30
0
10
26.361882981625669
20
94.443085548519704
30
0
10
26.96271195271126
20
99.648610201378474
30
0
10
27.806714025710843
20
104.08162190992847
30
0
10
28.886922867624381
20
107.35937975513195
30
0
10
29.927624054146001
20
108.83576986626247
30
0
10
30.791393793327664
20
109.23867189033828
30
0
10
31.395258370341917
20
109.20100127469853
30
0
10
31.702709477349789
20
109.10832801845878
30
0
0
LWPOLYLINE
5
150
100
AcDbEntity
8
0
100
AcDbPolyline
90
124
70
1
43
0.0
10
211.40000000000003
20
5.0000000000000187
10
195
20
5.0000000000000169
10
195
20
-4.7184465311679352e-15
10
175
20
-3.3306690738754696e-15
10
175
20
5.0000000000000142
10
160
20
5.0000000000000124
10
160
20
-4.7184465311679352e-15
10
140
20
-3.3306690738754696e-15
10
140
20
5.0000000000000107
10
125
20
5.0000000000000089
10
125
20
-4.7184465311679352e-15
10
105
20
-3.3306690738754696e-15
10
105
20
5.000000000000008
10
90
20
5.0000000000000053
10
90
20
-4.7184465311679352e-15
10
70
20
-3.3306690738754696e-15
10
70
20
5.0000000000000044
10
55
20
5.0000000000000018
10
55
20
-4.7184465311679352e-15
10
35
20
-3.8857805861880479e-15
10
35
20
4.9999999999999991
10
20
20
4.9999999999999982
10
20
20
-4.7184465311679352e-15
10
-1.7237534383798459e-29
20
-6.6613381477509392e-15
10
0
20
12.620000000000067
10
5
20
12.620000000000072
10
5
20
32.620000000000068
10
-1.7237534383798459e-29
20
32.620000000000076
10
0
20
52.620000000000076
10
5
20
52.620000000000076
10
5
20
72.620000000000076
10
-1.7237534383798459e-29
20
72.620000000000076
10
0
20
92.620000000000076
10
5
20
92.620000000000076
10
5
20
112.62000000000008
10
-1.7237534383798459e-29
20
112.62000000000008
10
0
20
132.62000000000006
10
5
20
132.62000000000006
10
5
20
152.62000000000006
10
-1.7237534383798453e-29
20
152.62000000000003
10
0
20
172.61999999999998
10
20
20
172.61999999999998
10
20
20
167.61999999999998
10
35
20
167.61999999999998
10
35
20
172.61999999999998
10
55
20
172.61999999999998
10
55
20
167.61999999999998
10
70
20
167.61999999999998
10
70
20
172.61999999999998
10
90
20
172.62
10
90
20
167.61999999999998
10
105
20
167.61999999999998
10
105
20
172.62
10
125
20
172.62
10
125
20
167.62
10
139.99999999999997
20
167.62
10
140
20
172.62
10
160
20
172.62
10
160
20
167.62
10
175
20
167.61999999999998
10
175
20
172.62
10
195
20
172.62
10
195
20
167.61999999999998
10
211.39999999999992
20
167.62
10
211.39999999999992
20
172.61999999999998
10
231.39999999999998
20
172.62
10
231.39999999999998
20
167.62
10
246.39999999999998
20
167.62
10
246.39999999999998
20
172.62000000000003
10
266.39999999999998
20
172.62000000000003
10
266.39999999999998
20
167.62
10
281.39999999999998
20
167.62
10
281.39999999999998
20
172.62000000000003
10
301.39999999999998
20
172.62000000000003
10
301.39999999999998
20
167.62
10
316.39999999999998
20
167.62
10
316.39999999999998
20
172.62000000000003
10
336.39999999999998
20
172.62000000000003
10
336.39999999999998
20
167.62
10
351.39999999999998
20
167.62
10
351.39999999999998
20
172.62000000000003
10
371.39999999999998
20
172.62000000000003
10
371.39999999999998
20
167.62
10
386.39999999999998
20
167.62
10
386.39999999999998
20
172.62000000000006
10
406.39999999999998
20
172.62000000000006
10
406.39999999999998
20
152.62000000000006
10
401.39999999999998
20
152.62000000000006
10
401.39999999999998
20
132.62000000000006
10
406.39999999999998
20
132.62000000000006
10
406.39999999999998
20
112.62000000000008
10
401.39999999999998
20
112.62000000000008
10
401.39999999999998
20
92.620000000000076
10
406.39999999999998
20
92.620000000000076
10
406.39999999999998
20
72.620000000000076
10
401.39999999999998
20
72.620000000000047
10
401.39999999999998
20
52.620000000000076
10
406.39999999999998
20
52.620000000000076
10
406.39999999999998
20
32.620000000000068
10
401.39999999999998
20
32.620000000000068
10
401.39999999999998
20
12.620000000000065
10
406.39999999999998
20
12.620000000000068
10
406.39999999999998
20
-4.7184465311679352e-15
10
386.39999999999998
20
-3.3306690738754696e-15
10
386.39999999999998
20
5.0000000000000435
10
371.39999999999998
20
5.0000000000000373
10
371.39999999999998
20
-4.7184465311679352e-15
10
351.39999999999998
20
-3.3306690738754696e-15
10
351.39999999999998
20
5.0000000000000364
10
336.39999999999998
20
5.0000000000000338
10
336.39999999999998
20
-4.7184465311679352e-15
10
316.40000000000003
20
-3.3306690738754696e-15
10
316.40000000000003
20
5.000000000000032
10
301.40000000000003
20
5.0000000000000284
10
301.40000000000003
20
-4.7184465311679352e-15
10
281.40000000000003
20
-3.3306690738754696e-15
10
281.40000000000003
20
5.0000000000000275
10
266.40000000000003
20
5.0000000000000249
10
266.40000000000003
20
-4.7184465311679352e-15
10
246.40000000000003
20
-3.3306690738754696e-15
10
246.40000000000003
20
5.0000000000000231
10
231.40000000000003
20
5.0000000000000213
10
231.40000000000003
20
-4.7184465311679352e-15
10
211.40000000000003
20
-3.3306690738754696e-15
0
ENDSEC
0
SECTION
2
OBJECTS
0
DICTIONARY
5
C
100
AcDbDictionary
3
ACAD_GROUP
350
D
3
ACAD_MLINESTYLE
350
17
0
DICTIONARY
5
D
100
AcDbDictionary
0
DICTIONARY
5
1A
330
C
100
AcDbDictionary
0
DICTIONARY
5
17
100
AcDbDictionary
0
ENDSEC
0
EOF
