  0
SECTION
  2
HEADER
  9
$ACADVER
  1
AC1006
  9
$DWGCODEPAGE
  3
ansi_1252
  9
$INSBASE
 10
0.0
 20
0.0
 30
0.0
  9
$EXTMIN
 10
-86.4101
 20
-26.7882
  9
$EXTMAX
 10
-1.2101
 20
136.3657
  9
$LIMMIN
 10
0.0
 20
0.0
  9
$LIMMAX
 10
12.0
 20
9.0
  9
$ORTHOMODE
 70
     0
  9
$REGENMODE
 70
     1
  9
$FILLMODE
 70
     1
  9
$QTEXTMODE
 70
     0
  9
$MIRRTEXT
 70
     1
  9
$DRAGMODE
 70
     2
  9
$LTSCALE
 40
1.0
  9
$OSMODE
 70
    37
  9
$ATTMODE
 70
     1
  9
$TEXTSIZE
 40
0.2
  9
$TRACEWID
 40
0.05
  9
$TEXTSTYLE
  7
STANDARD
  9
$CLAYER
  8
0
  9
$CELTYPE
  6
BYLAYER
  9
$CECOLOR
 62
   256
  9
$DIMSCALE
 40
1.0
  9
$DIMASZ
 40
0.18
  9
$DIMEXO
 40
0.0625
  9
$DIMDLI
 40
0.38
  9
$DIMRND
 40
0.0
  9
$DIMDLE
 40
0.0
  9
$DIMEXE
 40
0.18
  9
$DIMTP
 40
0.0
  9
$DIMTM
 40
0.0
  9
$DIMTXT
 40
0.18
  9
$DIMCEN
 40
0.09
  9
$DIMTSZ
 40
0.0
  9
$DIMTOL
 70
     0
  9
$DIMLIM
 70
     0
  9
$DIMTIH
 70
     1
  9
$DIMTOH
 70
     1
  9
$DIMSE1
 70
     0
  9
$DIMSE2
 70
     0
  9
$DIMTAD
 70
     0
  9
$DIMZIN
 70
     0
  9
$DIMBLK
  1

  9
$DIMASO
 70
     1
  9
$DIMSHO
 70
     1
  9
$DIMPOST
  1

  9
$DIMAPOST
  1

  9
$DIMALT
 70
     0
  9
$DIMALTD
 70
     2
  9
$DIMALTF
 40
25.4
  9
$DIMLFAC
 40
1.0
  9
$DIMTOFL
 70
     0
  9
$DIMTVP
 40
0.0
  9
$DIMTIX
 70
     0
  9
$DIMSOXD
 70
     0
  9
$DIMSAH
 70
     0
  9
$DIMBLK1
  1

  9
$DIMBLK2
  1

  9
$LUNITS
 70
     2
  9
$LUPREC
 70
     4
  9
$SKETCHINC
 40
0.1
  9
$FILLETRAD
 40
0.5
  9
$AUNITS
 70
     0
  9
$AUPREC
 70
     0
  9
$MENU
  1
.
  9
$ELEVATION
 40
0.0
  9
$THICKNESS
 40
0.0
  9
$LIMCHECK
 70
     0
  9
$CHAMFERA
 40
0.5
  9
$CHAMFERB
 40
0.5
  9
$SKPOLY
 70
     0
  9
$TDCREATE
 40
2456247.40894566
  9
$TDUPDATE
 40
2456247.408945671
  9
$TDINDWG
 40
0.0000000116
  9
$TDUSRTIMER
 40
0.0000000116
  9
$USRTIMER
 70
     1
  9
$ANGBASE
 50
0.0
  9
$ANGDIR
 70
     0
  9
$PDMODE
 70
     0
  9
$PDSIZE
 40
0.0
  9
$PLINEWID
 40
0.0
  9
$COORDS
 70
     1
  9
$SPLFRAME
 70
     0
  9
$SPLINETYPE
 70
     6
  9
$SPLINESEGS
 70
     8
  9
$ATTDIA
 70
     0
  9
$ATTREQ
 70
     1
  9
$HANDLING
 70
     1
  9
$HANDSEED
  5
BDD
  9
$SURFTAB1
 70
     6
  9
$SURFTAB2
 70
     6
  9
$SURFTYPE
 70
     6
  9
$SURFU
 70
     6
  9
$SURFV
 70
     6
  9
$UCSNAME
  2

  9
$UCSORG
 10
0.0
 20
0.0
 30
0.0
  9
$UCSXDIR
 10
1.0
 20
0.0
 30
0.0
  9
$UCSYDIR
 10
0.0
 20
1.0
 30
0.0
  9
$USERI1
 70
     0
  9
$USERI2
 70
     0
  9
$USERI3
 70
     0
  9
$USERI4
 70
     0
  9
$USERI5
 70
     0
  9
$USERR1
 40
0.0
  9
$USERR2
 40
0.0
  9
$USERR3
 40
0.0
  9
$USERR4
 40
0.0
  9
$USERR5
 40
0.0
  9
$WORLDVIEW
 70
     1
  0
ENDSEC
  0
SECTION
  2
TABLES
  0
TABLE
  2
VPORT
 70
     1
  0
VPORT
  2
*ACTIVE
 70
     0
 10
0.0
 20
0.0
 11
1.0
 21
1.0
 12
10.42990654205607
 22
4.5
 13
0.0
 23
0.0
 14
0.5
 24
0.5
 15
0.5
 25
0.5
 16
0.0
 26
0.0
 36
1.0
 17
0.0
 27
0.0
 37
0.0
 40
9.0
 41
1.972972972850329
 42
50.0
 43
0.0
 44
0.0
 50
0.0
 51
0.0
 71
     0
 72
   100
 73
     1
 74
     3
 75
     0
 76
     0
 77
     0
 78
     0
  0
ENDTAB
  0
TABLE
  2
LTYPE
 70
     1
  0
LTYPE
  2
CONTINUOUS
 70
     0
  3
Solid line
 72
    65
 73
     0
 40
0.0
  0
ENDTAB
  0
TABLE
  2
LAYER
 70
     2
  0
LAYER
  2
0
 70
     0
 62
     7
  6
CONTINUOUS
  0
LAYER
  2
LAYER_1
 70
     0
 62
     7
  6
CONTINUOUS
  0
ENDTAB
  0
TABLE
  2
STYLE
 70
     1
  0
STYLE
  2
STANDARD
 70
     0
 40
0.0
 41
1.0
 50
0.0
 71
     0
 42
0.2
  3
txt
  4

  0
ENDTAB
  0
TABLE
  2
VIEW
 70
     0
  0
ENDTAB
  0
TABLE
  2
UCS
 70
     0
  0
ENDTAB
  0
ENDSEC
  0
SECTION
  2
BLOCKS
  0
ENDSEC
  0
SECTION
  2
ENTITIES
  0
POLYLINE
  5
41
  8
LAYER_1
 62
   250
 66
     1
 10
0.0
 20
0.0
 30
0.0
 70
     1
  0
VERTEX
  5
AC
  8
LAYER_1
 62
   250
 10
-24.5721
 20
26.6228
 30
0.0
  0
VERTEX
  5
AD
  8
LAYER_1
 62
   250
 10
-19.5721
 20
26.6228
 30
0.0
  0
VERTEX
  5
AE
  8
LAYER_1
 62
   250
 10
-19.5721
 20
31.6228
 30
0.0
  0
VERTEX
  5
AF
  8
LAYER_1
 62
   250
 10
-24.5721
 20
31.6228
 30
0.0
  0
VERTEX
  5
B0
  8
LAYER_1
 62
   250
 10
-24.5721
 20
26.6228
 30
0.0
  0
SEQEND
  5
B1
  8
LAYER_1
 62
   250
  0
POLYLINE
  5
42
  8
LAYER_1
 62
   250
 66
     1
 10
0.0
 20
0.0
 30
0.0
  0
VERTEX
  5
B2
  8
LAYER_1
 62
   250
 10
-46.3101
 20
72.8657
 30
0.0
  0
VERTEX
  5
B3
  8
LAYER_1
 62
   250
 10
-46.3101
 20
75.6767
 30
0.0
  0
SEQEND
  5
B4
  8
LAYER_1
 62
   250
  0
POLYLINE
  5
43
  8
LAYER_1
 62
   250
 66
     1
 10
0.0
 20
0.0
 30
0.0
  0
VERTEX
  5
B5
  8
LAYER_1
 62
   250
 10
-41.3101
 20
75.6767
 30
0.0
  0
VERTEX
  5
B6
  8
LAYER_1
 62
   250
 10
-41.3101
 20
72.8657
 30
0.0
  0
SEQEND
  5
B7
  8
LAYER_1
 62
   250
  0
POLYLINE
  5
44
  8
LAYER_1
 62
   250
 66
     1
 10
0.0
 20
0.0
 30
0.0
  0
VERTEX
  5
B8
  8
LAYER_1
 62
   250
 10
-76.3101
 20
128.8874
 30
0.0
  0
VERTEX
  5
B9
  8
LAYER_1
 62
   250
 10
-76.3101
 20
129.7355
 30
0.0
  0
VERTEX
  5
BA
  8
LAYER_1
 62
   250
 10
-76.1768
 20
131.0473
 30
0.0
  0
VERTEX
  5
BB
  8
LAYER_1
 62
   250
 10
-75.7948
 20
132.2711
 30
0.0
  0
VERTEX
  5
BC
  8
LAYER_1
 62
   250
 10
-75.1909
 20
133.38
 30
0.0
  0
VERTEX
  5
BD
  8
LAYER_1
 62
   250
 10
-74.3919
 20
134.3475
 30
0.0
  0
VERTEX
  5
BE
  8
LAYER_1
 62
   250
 10
-73.4245
 20
135.1465
 30
0.0
  0
VERTEX
  5
BF
  8
LAYER_1
 62
   250
 10
-72.3155
 20
135.7504
 30
0.0
  0
VERTEX
  5
C0
  8
LAYER_1
 62
   250
 10
-71.0917
 20
136.1324
 30
0.0
  0
VERTEX
  5
C1
  8
LAYER_1
 62
   250
 10
-69.7799
 20
136.2657
 30
0.0
  0
VERTEX
  5
C2
  8
LAYER_1
 62
   250
 10
-17.8403
 20
136.2657
 30
0.0
  0
VERTEX
  5
C3
  8
LAYER_1
 62
   250
 10
-16.5285
 20
136.1324
 30
0.0
  0
VERTEX
  5
C4
  8
LAYER_1
 62
   250
 10
-15.3047
 20
135.7504
 30
0.0
  0
VERTEX
  5
C5
  8
LAYER_1
 62
   250
 10
-14.1957
 20
135.1464
 30
0.0
  0
VERTEX
  5
C6
  8
LAYER_1
 62
   250
 10
-13.2283
 20
134.3473
 30
0.0
  0
VERTEX
  5
C7
  8
LAYER_1
 62
   250
 10
-12.4293
 20
133.3799
 30
0.0
  0
VERTEX
  5
C8
  8
LAYER_1
 62
   250
 10
-11.8254
 20
132.2709
 30
0.0
  0
VERTEX
  5
C9
  8
LAYER_1
 62
   250
 10
-11.4434
 20
131.0472
 30
0.0
  0
VERTEX
  5
CA
  8
LAYER_1
 62
   250
 10
-11.3101
 20
129.7355
 30
0.0
  0
VERTEX
  5
CB
  8
LAYER_1
 62
   250
 10
-11.3101
 20
128.8874
 30
0.0
  0
SEQEND
  5
CC
  8
LAYER_1
 62
   250
  0
POLYLINE
  5
45
  8
LAYER_1
 62
   250
 66
     1
 10
0.0
 20
0.0
 30
0.0
  0
VERTEX
  5
CD
  8
LAYER_1
 62
   250
 10
-11.3101
 20
113.644
 30
0.0
  0
VERTEX
  5
CE
  8
LAYER_1
 62
   250
 10
-11.3101
 20
112.7958
 30
0.0
  0
VERTEX
  5
CF
  8
LAYER_1
 62
   250
 10
-11.4434
 20
111.4841
 30
0.0
  0
VERTEX
  5
D0
  8
LAYER_1
 62
   250
 10
-11.8254
 20
110.2604
 30
0.0
  0
VERTEX
  5
D1
  8
LAYER_1
 62
   250
 10
-12.4293
 20
109.1514
 30
0.0
  0
VERTEX
  5
D2
  8
LAYER_1
 62
   250
 10
-13.2284
 20
108.184
 30
0.0
  0
VERTEX
  5
D3
  8
LAYER_1
 62
   250
 10
-14.1959
 20
107.3849
 30
0.0
  0
VERTEX
  5
D4
  8
LAYER_1
 62
   250
 10
-15.3048
 20
106.781
 30
0.0
  0
VERTEX
  5
D5
  8
LAYER_1
 62
   250
 10
-16.5286
 20
106.399
 30
0.0
  0
VERTEX
  5
D6
  8
LAYER_1
 62
   250
 10
-17.8403
 20
106.2657
 30
0.0
  0
VERTEX
  5
D7
  8
LAYER_1
 62
   250
 10
-69.7799
 20
106.2657
 30
0.0
  0
VERTEX
  5
D8
  8
LAYER_1
 62
   250
 10
-71.0916
 20
106.399
 30
0.0
  0
VERTEX
  5
D9
  8
LAYER_1
 62
   250
 10
-72.3154
 20
106.781
 30
0.0
  0
VERTEX
  5
DA
  8
LAYER_1
 62
   250
 10
-73.4243
 20
107.3849
 30
0.0
  0
VERTEX
  5
DB
  8
LAYER_1
 62
   250
 10
-74.3918
 20
108.1839
 30
0.0
  0
VERTEX
  5
DC
  8
LAYER_1
 62
   250
 10
-75.1909
 20
109.1513
 30
0.0
  0
VERTEX
  5
DD
  8
LAYER_1
 62
   250
 10
-75.7948
 20
110.2603
 30
0.0
  0
VERTEX
  5
DE
  8
LAYER_1
 62
   250
 10
-76.1768
 20
111.484
 30
0.0
  0
VERTEX
  5
DF
  8
LAYER_1
 62
   250
 10
-76.3101
 20
112.7958
 30
0.0
  0
VERTEX
  5
E0
  8
LAYER_1
 62
   250
 10
-76.3101
 20
113.644
 30
0.0
  0
SEQEND
  5
E1
  8
LAYER_1
 62
   250
  0
POLYLINE
  5
46
  8
LAYER_1
 62
   250
 66
     1
 10
0.0
 20
0.0
 30
0.0
 70
     1
  0
VERTEX
  5
E2
  8
LAYER_1
 62
   250
 10
-6.3101
 20
123.7656
 30
0.0
  0
VERTEX
  5
E3
  8
LAYER_1
 62
   250
 10
-5.8063
 20
123.7148
 30
0.0
  0
VERTEX
  5
E4
  8
LAYER_1
 62
   250
 10
-5.337
 20
123.5691
 30
0.0
  0
VERTEX
  5
E5
  8
LAYER_1
 62
   250
 10
-4.9123
 20
123.3386
 30
0.0
  0
VERTEX
  5
E6
  8
LAYER_1
 62
   250
 10
-4.5423
 20
123.0334
 30
0.0
  0
VERTEX
  5
E7
  8
LAYER_1
 62
   250
 10
-4.2371
 20
122.6634
 30
0.0
  0
VERTEX
  5
E8
  8
LAYER_1
 62
   250
 10
-4.0066
 20
122.2387
 30
0.0
  0
VERTEX
  5
E9
  8
LAYER_1
 62
   250
 10
-3.8609
 20
121.7694
 30
0.0
  0
VERTEX
  5
EA
  8
LAYER_1
 62
   250
 10
-3.8101
 20
121.2656
 30
0.0
  0
VERTEX
  5
EB
  8
LAYER_1
 62
   250
 10
-3.8609
 20
120.7618
 30
0.0
  0
VERTEX
  5
EC
  8
LAYER_1
 62
   250
 10
-4.0066
 20
120.2925
 30
0.0
  0
VERTEX
  5
ED
  8
LAYER_1
 62
   250
 10
-4.2371
 20
119.8678
 30
0.0
  0
VERTEX
  5
EE
  8
LAYER_1
 62
   250
 10
-4.5423
 20
119.4978
 30
0.0
  0
VERTEX
  5
EF
  8
LAYER_1
 62
   250
 10
-4.9123
 20
119.1926
 30
0.0
  0
VERTEX
  5
F0
  8
LAYER_1
 62
   250
 10
-5.337
 20
118.9621
 30
0.0
  0
VERTEX
  5
F1
  8
LAYER_1
 62
   250
 10
-5.8063
 20
118.8164
 30
0.0
  0
VERTEX
  5
F2
  8
LAYER_1
 62
   250
 10
-6.3101
 20
118.7656
 30
0.0
  0
VERTEX
  5
F3
  8
LAYER_1
 62
   250
 10
-6.8139
 20
118.8164
 30
0.0
  0
VERTEX
  5
F4
  8
LAYER_1
 62
   250
 10
-7.2832
 20
118.9621
 30
0.0
  0
VERTEX
  5
F5
  8
LAYER_1
 62
   250
 10
-7.7079
 20
119.1926
 30
0.0
  0
VERTEX
  5
F6
  8
LAYER_1
 62
   250
 10
-8.0779
 20
119.4978
 30
0.0
  0
VERTEX
  5
F7
  8
LAYER_1
 62
   250
 10
-8.3831
 20
119.8678
 30
0.0
  0
VERTEX
  5
F8
  8
LAYER_1
 62
   250
 10
-8.6136
 20
120.2925
 30
0.0
  0
VERTEX
  5
F9
  8
LAYER_1
 62
   250
 10
-8.7593
 20
120.7618
 30
0.0
  0
VERTEX
  5
FA
  8
LAYER_1
 62
   250
 10
-8.8101
 20
121.2656
 30
0.0
  0
VERTEX
  5
FB
  8
LAYER_1
 62
   250
 10
-8.7593
 20
121.7694
 30
0.0
  0
VERTEX
  5
FC
  8
LAYER_1
 62
   250
 10
-8.6136
 20
122.2387
 30
0.0
  0
VERTEX
  5
FD
  8
LAYER_1
 62
   250
 10
-8.3831
 20
122.6634
 30
0.0
  0
VERTEX
  5
FE
  8
LAYER_1
 62
   250
 10
-8.0779
 20
123.0334
 30
0.0
  0
VERTEX
  5
FF
  8
LAYER_1
 62
   250
 10
-7.7079
 20
123.3386
 30
0.0
  0
VERTEX
  5
100
  8
LAYER_1
 62
   250
 10
-7.2832
 20
123.5691
 30
0.0
  0
VERTEX
  5
101
  8
LAYER_1
 62
   250
 10
-6.8139
 20
123.7148
 30
0.0
  0
VERTEX
  5
102
  8
LAYER_1
 62
   250
 10
-6.3101
 20
123.7656
 30
0.0
  0
SEQEND
  5
103
  8
LAYER_1
 62
   250
  0
POLYLINE
  5
47
  8
LAYER_1
 62
   250
 66
     1
 10
0.0
 20
0.0
 30
0.0
 70
     1
  0
VERTEX
  5
104
  8
LAYER_1
 62
   250
 10
-81.3101
 20
123.7656
 30
0.0
  0
VERTEX
  5
105
  8
LAYER_1
 62
   250
 10
-80.8063
 20
123.7148
 30
0.0
  0
VERTEX
  5
106
  8
LAYER_1
 62
   250
 10
-80.337
 20
123.5691
 30
0.0
  0
VERTEX
  5
107
  8
LAYER_1
 62
   250
 10
-79.9123
 20
123.3386
 30
0.0
  0
VERTEX
  5
108
  8
LAYER_1
 62
   250
 10
-79.5423
 20
123.0334
 30
0.0
  0
VERTEX
  5
109
  8
LAYER_1
 62
   250
 10
-79.2371
 20
122.6634
 30
0.0
  0
VERTEX
  5
10A
  8
LAYER_1
 62
   250
 10
-79.0066
 20
122.2387
 30
0.0
  0
VERTEX
  5
10B
  8
LAYER_1
 62
   250
 10
-78.8609
 20
121.7694
 30
0.0
  0
VERTEX
  5
10C
  8
LAYER_1
 62
   250
 10
-78.8101
 20
121.2656
 30
0.0
  0
VERTEX
  5
10D
  8
LAYER_1
 62
   250
 10
-78.8609
 20
120.7618
 30
0.0
  0
VERTEX
  5
10E
  8
LAYER_1
 62
   250
 10
-79.0066
 20
120.2925
 30
0.0
  0
VERTEX
  5
10F
  8
LAYER_1
 62
   250
 10
-79.2371
 20
119.8678
 30
0.0
  0
VERTEX
  5
110
  8
LAYER_1
 62
   250
 10
-79.5423
 20
119.4978
 30
0.0
  0
VERTEX
  5
111
  8
LAYER_1
 62
   250
 10
-79.9123
 20
119.1926
 30
0.0
  0
VERTEX
  5
112
  8
LAYER_1
 62
   250
 10
-80.337
 20
118.9621
 30
0.0
  0
VERTEX
  5
113
  8
LAYER_1
 62
   250
 10
-80.8063
 20
118.8164
 30
0.0
  0
VERTEX
  5
114
  8
LAYER_1
 62
   250
 10
-81.3101
 20
118.7656
 30
0.0
  0
VERTEX
  5
115
  8
LAYER_1
 62
   250
 10
-81.8139
 20
118.8164
 30
0.0
  0
VERTEX
  5
116
  8
LAYER_1
 62
   250
 10
-82.2832
 20
118.9621
 30
0.0
  0
VERTEX
  5
117
  8
LAYER_1
 62
   250
 10
-82.7079
 20
119.1926
 30
0.0
  0
VERTEX
  5
118
  8
LAYER_1
 62
   250
 10
-83.0779
 20
119.4978
 30
0.0
  0
VERTEX
  5
119
  8
LAYER_1
 62
   250
 10
-83.3831
 20
119.8678
 30
0.0
  0
VERTEX
  5
11A
  8
LAYER_1
 62
   250
 10
-83.6136
 20
120.2925
 30
0.0
  0
VERTEX
  5
11B
  8
LAYER_1
 62
   250
 10
-83.7593
 20
120.7618
 30
0.0
  0
VERTEX
  5
11C
  8
LAYER_1
 62
   250
 10
-83.8101
 20
121.2656
 30
0.0
  0
VERTEX
  5
11D
  8
LAYER_1
 62
   250
 10
-83.7593
 20
121.7694
 30
0.0
  0
VERTEX
  5
11E
  8
LAYER_1
 62
   250
 10
-83.6136
 20
122.2387
 30
0.0
  0
VERTEX
  5
11F
  8
LAYER_1
 62
   250
 10
-83.3831
 20
122.6634
 30
0.0
  0
VERTEX
  5
120
  8
LAYER_1
 62
   250
 10
-83.0779
 20
123.0334
 30
0.0
  0
VERTEX
  5
121
  8
LAYER_1
 62
   250
 10
-82.7079
 20
123.3386
 30
0.0
  0
VERTEX
  5
122
  8
LAYER_1
 62
   250
 10
-82.2832
 20
123.5691
 30
0.0
  0
VERTEX
  5
123
  8
LAYER_1
 62
   250
 10
-81.8139
 20
123.7148
 30
0.0
  0
VERTEX
  5
124
  8
LAYER_1
 62
   250
 10
-81.3101
 20
123.7656
 30
0.0
  0
SEQEND
  5
125
  8
LAYER_1
 62
   250
  0
POLYLINE
  5
48
  8
LAYER_1
 62
   250
 66
     1
 10
0.0
 20
0.0
 30
0.0
  0
VERTEX
  5
126
  8
LAYER_1
 62
   250
 10
-11.3101
 20
128.8874
 30
0.0
  0
VERTEX
  5
127
  8
LAYER_1
 62
   250
 10
-4.6281
 20
128.8874
 30
0.0
  0
VERTEX
  5
128
  8
LAYER_1
 62
   250
 10
-3.9616
 20
128.8197
 30
0.0
  0
VERTEX
  5
129
  8
LAYER_1
 62
   250
 10
-3.3398
 20
128.6256
 30
0.0
  0
VERTEX
  5
12A
  8
LAYER_1
 62
   250
 10
-2.7763
 20
128.3187
 30
0.0
  0
VERTEX
  5
12B
  8
LAYER_1
 62
   250
 10
-2.2848
 20
127.9127
 30
0.0
  0
VERTEX
  5
12C
  8
LAYER_1
 62
   250
 10
-1.8788
 20
127.4211
 30
0.0
  0
VERTEX
  5
12D
  8
LAYER_1
 62
   250
 10
-1.5719
 20
126.8576
 30
0.0
  0
VERTEX
  5
12E
  8
LAYER_1
 62
   250
 10
-1.3778
 20
126.2359
 30
0.0
  0
VERTEX
  5
12F
  8
LAYER_1
 62
   250
 10
-1.3101
 20
125.5694
 30
0.0
  0
VERTEX
  5
130
  8
LAYER_1
 62
   250
 10
-1.3101
 20
116.962
 30
0.0
  0
VERTEX
  5
131
  8
LAYER_1
 62
   250
 10
-1.3778
 20
116.2955
 30
0.0
  0
VERTEX
  5
132
  8
LAYER_1
 62
   250
 10
-1.5719
 20
115.6738
 30
0.0
  0
VERTEX
  5
133
  8
LAYER_1
 62
   250
 10
-1.8788
 20
115.1103
 30
0.0
  0
VERTEX
  5
134
  8
LAYER_1
 62
   250
 10
-2.2848
 20
114.6187
 30
0.0
  0
VERTEX
  5
135
  8
LAYER_1
 62
   250
 10
-2.7764
 20
114.2127
 30
0.0
  0
VERTEX
  5
136
  8
LAYER_1
 62
   250
 10
-3.3399
 20
113.9058
 30
0.0
  0
VERTEX
  5
137
  8
LAYER_1
 62
   250
 10
-3.9616
 20
113.7117
 30
0.0
  0
VERTEX
  5
138
  8
LAYER_1
 62
   250
 10
-4.6281
 20
113.644
 30
0.0
  0
VERTEX
  5
139
  8
LAYER_1
 62
   250
 10
-11.3101
 20
113.644
 30
0.0
  0
SEQEND
  5
13A
  8
LAYER_1
 62
   250
  0
POLYLINE
  5
49
  8
LAYER_1
 62
   250
 66
     1
 10
0.0
 20
0.0
 30
0.0
  0
VERTEX
  5
13B
  8
LAYER_1
 62
   250
 10
-76.3101
 20
113.644
 30
0.0
  0
VERTEX
  5
13C
  8
LAYER_1
 62
   250
 10
-82.9921
 20
113.644
 30
0.0
  0
VERTEX
  5
13D
  8
LAYER_1
 62
   250
 10
-83.6586
 20
113.7117
 30
0.0
  0
VERTEX
  5
13E
  8
LAYER_1
 62
   250
 10
-84.2804
 20
113.9058
 30
0.0
  0
VERTEX
  5
13F
  8
LAYER_1
 62
   250
 10
-84.8439
 20
114.2127
 30
0.0
  0
VERTEX
  5
140
  8
LAYER_1
 62
   250
 10
-85.3354
 20
114.6187
 30
0.0
  0
VERTEX
  5
141
  8
LAYER_1
 62
   250
 10
-85.7414
 20
115.1102
 30
0.0
  0
VERTEX
  5
142
  8
LAYER_1
 62
   250
 10
-86.0483
 20
115.6737
 30
0.0
  0
VERTEX
  5
143
  8
LAYER_1
 62
   250
 10
-86.2424
 20
116.2955
 30
0.0
  0
VERTEX
  5
144
  8
LAYER_1
 62
   250
 10
-86.3101
 20
116.962
 30
0.0
  0
VERTEX
  5
145
  8
LAYER_1
 62
   250
 10
-86.3101
 20
125.5694
 30
0.0
  0
VERTEX
  5
146
  8
LAYER_1
 62
   250
 10
-86.2424
 20
126.2359
 30
0.0
  0
VERTEX
  5
147
  8
LAYER_1
 62
   250
 10
-86.0483
 20
126.8577
 30
0.0
  0
VERTEX
  5
148
  8
LAYER_1
 62
   250
 10
-85.7414
 20
127.4212
 30
0.0
  0
VERTEX
  5
149
  8
LAYER_1
 62
   250
 10
-85.3354
 20
127.9127
 30
0.0
  0
VERTEX
  5
14A
  8
LAYER_1
 62
   250
 10
-84.8439
 20
128.3187
 30
0.0
  0
VERTEX
  5
14B
  8
LAYER_1
 62
   250
 10
-84.2804
 20
128.6256
 30
0.0
  0
VERTEX
  5
14C
  8
LAYER_1
 62
   250
 10
-83.6586
 20
128.8197
 30
0.0
  0
VERTEX
  5
14D
  8
LAYER_1
 62
   250
 10
-82.9921
 20
128.8874
 30
0.0
  0
VERTEX
  5
14E
  8
LAYER_1
 62
   250
 10
-76.3101
 20
128.8874
 30
0.0
  0
SEQEND
  5
14F
  8
LAYER_1
 62
   250
  0
POLYLINE
  5
4A
  8
LAYER_1
 62
   250
 66
     1
 10
0.0
 20
0.0
 30
0.0
 70
     1
  0
VERTEX
  5
150
  8
LAYER_1
 62
   250
 10
-70.4642
 20
69.5802
 30
0.0
  0
VERTEX
  5
151
  8
LAYER_1
 62
   250
 10
-18.5246
 20
69.5802
 30
0.0
  0
VERTEX
  5
152
  8
LAYER_1
 62
   250
 10
-17.2128
 20
69.4469
 30
0.0
  0
VERTEX
  5
153
  8
LAYER_1
 62
   250
 10
-15.989
 20
69.0649
 30
0.0
  0
VERTEX
  5
154
  8
LAYER_1
 62
   250
 10
-14.88
 20
68.461
 30
0.0
  0
VERTEX
  5
155
  8
LAYER_1
 62
   250
 10
-13.9126
 20
67.662
 30
0.0
  0
VERTEX
  5
156
  8
LAYER_1
 62
   250
 10
-13.1136
 20
66.6945
 30
0.0
  0
VERTEX
  5
157
  8
LAYER_1
 62
   250
 10
-12.5097
 20
65.5856
 30
0.0
  0
VERTEX
  5
158
  8
LAYER_1
 62
   250
 10
-12.1277
 20
64.3618
 30
0.0
  0
VERTEX
  5
159
  8
LAYER_1
 62
   250
 10
-11.9944
 20
63.05
 30
0.0
  0
VERTEX
  5
15A
  8
LAYER_1
 62
   250
 10
-11.9944
 20
46.1103
 30
0.0
  0
VERTEX
  5
15B
  8
LAYER_1
 62
   250
 10
-12.1277
 20
44.7985
 30
0.0
  0
VERTEX
  5
15C
  8
LAYER_1
 62
   250
 10
-12.5097
 20
43.5748
 30
0.0
  0
VERTEX
  5
15D
  8
LAYER_1
 62
   250
 10
-13.1136
 20
42.4658
 30
0.0
  0
VERTEX
  5
15E
  8
LAYER_1
 62
   250
 10
-13.9126
 20
41.4984
 30
0.0
  0
VERTEX
  5
15F
  8
LAYER_1
 62
   250
 10
-14.88
 20
40.6994
 30
0.0
  0
VERTEX
  5
160
  8
LAYER_1
 62
   250
 10
-15.989
 20
40.0955
 30
0.0
  0
VERTEX
  5
161
  8
LAYER_1
 62
   250
 10
-17.2128
 20
39.7135
 30
0.0
  0
VERTEX
  5
162
  8
LAYER_1
 62
   250
 10
-18.5246
 20
39.5802
 30
0.0
  0
VERTEX
  5
163
  8
LAYER_1
 62
   250
 10
-70.4642
 20
39.5802
 30
0.0
  0
VERTEX
  5
164
  8
LAYER_1
 62
   250
 10
-71.776
 20
39.7135
 30
0.0
  0
VERTEX
  5
165
  8
LAYER_1
 62
   250
 10
-72.9998
 20
40.0955
 30
0.0
  0
VERTEX
  5
166
  8
LAYER_1
 62
   250
 10
-74.1088
 20
40.6994
 30
0.0
  0
VERTEX
  5
167
  8
LAYER_1
 62
   250
 10
-75.0762
 20
41.4984
 30
0.0
  0
VERTEX
  5
168
  8
LAYER_1
 62
   250
 10
-75.8752
 20
42.4658
 30
0.0
  0
VERTEX
  5
169
  8
LAYER_1
 62
   250
 10
-76.4791
 20
43.5748
 30
0.0
  0
VERTEX
  5
16A
  8
LAYER_1
 62
   250
 10
-76.8611
 20
44.7985
 30
0.0
  0
VERTEX
  5
16B
  8
LAYER_1
 62
   250
 10
-76.9944
 20
46.1103
 30
0.0
  0
VERTEX
  5
16C
  8
LAYER_1
 62
   250
 10
-76.9944
 20
63.05
 30
0.0
  0
VERTEX
  5
16D
  8
LAYER_1
 62
   250
 10
-76.8611
 20
64.3618
 30
0.0
  0
VERTEX
  5
16E
  8
LAYER_1
 62
   250
 10
-76.4791
 20
65.5856
 30
0.0
  0
VERTEX
  5
16F
  8
LAYER_1
 62
   250
 10
-75.8752
 20
66.6945
 30
0.0
  0
VERTEX
  5
170
  8
LAYER_1
 62
   250
 10
-75.0762
 20
67.662
 30
0.0
  0
VERTEX
  5
171
  8
LAYER_1
 62
   250
 10
-74.1088
 20
68.461
 30
0.0
  0
VERTEX
  5
172
  8
LAYER_1
 62
   250
 10
-72.9998
 20
69.0649
 30
0.0
  0
VERTEX
  5
173
  8
LAYER_1
 62
   250
 10
-71.776
 20
69.4469
 30
0.0
  0
VERTEX
  5
174
  8
LAYER_1
 62
   250
 10
-70.4642
 20
69.5802
 30
0.0
  0
SEQEND
  5
175
  8
LAYER_1
 62
   250
  0
POLYLINE
  5
4B
  8
LAYER_1
 62
   250
 66
     1
 10
0.0
 20
0.0
 30
0.0
  0
VERTEX
  5
176
  8
LAYER_1
 62
   250
 10
-35.572
 20
14.5228
 30
0.0
  0
VERTEX
  5
177
  8
LAYER_1
 62
   250
 10
-65.572
 20
14.5228
 30
0.0
  0
VERTEX
  5
178
  8
LAYER_1
 62
   250
 10
-65.572
 20
28.5228
 30
0.0
  0
VERTEX
  5
179
  8
LAYER_1
 62
   250
 10
-35.572
 20
28.5228
 30
0.0
  0
SEQEND
  5
17A
  8
LAYER_1
 62
   250
  0
POLYLINE
  5
4C
  8
LAYER_1
 62
   250
 66
     1
 10
0.0
 20
0.0
 30
0.0
 70
     1
  0
VERTEX
  5
17B
  8
LAYER_1
 62
   250
 10
-15.7444
 20
56.0801
 30
0.0
  0
VERTEX
  5
17C
  8
LAYER_1
 62
   250
 10
-16.03703548302419
 20
56.05127792060485
 30
0.0
  0
VERTEX
  5
17D
  8
LAYER_1
 62
   250
 10
-16.31842514854764
 20
55.96591929876693
 30
0.0
  0
VERTEX
  5
17E
  8
LAYER_1
 62
   250
 10
-16.5777553495294
 20
55.82730441845382
 30
0.0
  0
VERTEX
  5
17F
  8
LAYER_1
 62
   250
 10
-16.80506017177982
 20
55.64076017177982
 30
0.0
  0
VERTEX
  5
180
  8
LAYER_1
 62
   250
 10
-16.99160441845382
 20
55.41345534952941
 30
0.0
  0
VERTEX
  5
181
  8
LAYER_1
 62
   250
 10
-17.13021929876693
 20
55.15412514854764
 30
0.0
  0
VERTEX
  5
182
  8
LAYER_1
 62
   250
 10
-17.21557792060485
 20
54.87273548302419
 30
0.0
  0
VERTEX
  5
183
  8
LAYER_1
 62
   250
 10
-17.2444
 20
54.5801
 30
0.0
  0
VERTEX
  5
184
  8
LAYER_1
 62
   250
 10
-17.21557792060485
 20
54.28746451697581
 30
0.0
  0
VERTEX
  5
185
  8
LAYER_1
 62
   250
 10
-17.13021929876693
 20
54.00607485145237
 30
0.0
  0
VERTEX
  5
186
  8
LAYER_1
 62
   250
 10
-16.99160441845382
 20
53.7467446504706
 30
0.0
  0
VERTEX
  5
187
  8
LAYER_1
 62
   250
 10
-16.80506017177982
 20
53.51943982822018
 30
0.0
  0
VERTEX
  5
188
  8
LAYER_1
 62
   250
 10
-16.5777553495294
 20
53.33289558154618
 30
0.0
  0
VERTEX
  5
189
  8
LAYER_1
 62
   250
 10
-16.31842514854764
 20
53.19428070123307
 30
0.0
  0
VERTEX
  5
18A
  8
LAYER_1
 62
   250
 10
-16.03703548302419
 20
53.10892207939516
 30
0.0
  0
VERTEX
  5
18B
  8
LAYER_1
 62
   250
 10
-15.7444
 20
53.0801
 30
0.0
  0
VERTEX
  5
18C
  8
LAYER_1
 62
   250
 10
-15.45176451697581
 20
53.10892207939516
 30
0.0
  0
VERTEX
  5
18D
  8
LAYER_1
 62
   250
 10
-15.17037485145236
 20
53.19428070123307
 30
0.0
  0
VERTEX
  5
18E
  8
LAYER_1
 62
   250
 10
-14.9110446504706
 20
53.33289558154618
 30
0.0
  0
VERTEX
  5
18F
  8
LAYER_1
 62
   250
 10
-14.68373982822018
 20
53.51943982822018
 30
0.0
  0
VERTEX
  5
190
  8
LAYER_1
 62
   250
 10
-14.49719558154618
 20
53.7467446504706
 30
0.0
  0
VERTEX
  5
191
  8
LAYER_1
 62
   250
 10
-14.35858070123307
 20
54.00607485145237
 30
0.0
  0
VERTEX
  5
192
  8
LAYER_1
 62
   250
 10
-14.27322207939515
 20
54.28746451697581
 30
0.0
  0
VERTEX
  5
193
  8
LAYER_1
 62
   250
 10
-14.2444
 20
54.58010000000001
 30
0.0
  0
VERTEX
  5
194
  8
LAYER_1
 62
   250
 10
-14.27322207939516
 20
54.8727354830242
 30
0.0
  0
VERTEX
  5
195
  8
LAYER_1
 62
   250
 10
-14.35858070123307
 20
55.15412514854764
 30
0.0
  0
VERTEX
  5
196
  8
LAYER_1
 62
   250
 10
-14.49719558154619
 20
55.41345534952941
 30
0.0
  0
VERTEX
  5
197
  8
LAYER_1
 62
   250
 10
-14.68373982822018
 20
55.64076017177982
 30
0.0
  0
VERTEX
  5
198
  8
LAYER_1
 62
   250
 10
-14.9110446504706
 20
55.82730441845382
 30
0.0
  0
VERTEX
  5
199
  8
LAYER_1
 62
   250
 10
-15.17037485145237
 20
55.96591929876693
 30
0.0
  0
VERTEX
  5
19A
  8
LAYER_1
 62
   250
 10
-15.45176451697581
 20
56.05127792060485
 30
0.0
  0
SEQEND
  5
19B
  8
LAYER_1
 62
   250
  0
POLYLINE
  5
4D
  8
LAYER_1
 62
   250
 66
     1
 10
0.0
 20
0.0
 30
0.0
 70
     1
  0
VERTEX
  5
19C
  8
LAYER_1
 62
   250
 10
-64.188
 20
66.7691
 30
0.0
  0
VERTEX
  5
19D
  8
LAYER_1
 62
   250
 10
-24.8008
 20
66.7691
 30
0.0
  0
VERTEX
  5
19E
  8
LAYER_1
 62
   250
 10
-23.7348
 20
66.6608
 30
0.0
  0
VERTEX
  5
19F
  8
LAYER_1
 62
   250
 10
-22.7404
 20
66.3504
 30
0.0
  0
VERTEX
  5
1A0
  8
LAYER_1
 62
   250
 10
-21.8392
 20
65.8597
 30
0.0
  0
VERTEX
  5
1A1
  8
LAYER_1
 62
   250
 10
-21.0531
 20
65.2104
 30
0.0
  0
VERTEX
  5
1A2
  8
LAYER_1
 62
   250
 10
-20.4038
 20
64.4243
 30
0.0
  0
VERTEX
  5
1A3
  8
LAYER_1
 62
   250
 10
-19.9131
 20
63.5231
 30
0.0
  0
VERTEX
  5
1A4
  8
LAYER_1
 62
   250
 10
-19.6027
 20
62.5287
 30
0.0
  0
VERTEX
  5
1A5
  8
LAYER_1
 62
   250
 10
-19.4944
 20
61.4627
 30
0.0
  0
VERTEX
  5
1A6
  8
LAYER_1
 62
   250
 10
-19.4944
 20
47.6975
 30
0.0
  0
VERTEX
  5
1A7
  8
LAYER_1
 62
   250
 10
-19.6027
 20
46.6315
 30
0.0
  0
VERTEX
  5
1A8
  8
LAYER_1
 62
   250
 10
-19.9131
 20
45.637
 30
0.0
  0
VERTEX
  5
1A9
  8
LAYER_1
 62
   250
 10
-20.4038
 20
44.7359
 30
0.0
  0
VERTEX
  5
1AA
  8
LAYER_1
 62
   250
 10
-21.0531
 20
43.9498
 30
0.0
  0
VERTEX
  5
1AB
  8
LAYER_1
 62
   250
 10
-21.8392
 20
43.3005
 30
0.0
  0
VERTEX
  5
1AC
  8
LAYER_1
 62
   250
 10
-22.7404
 20
42.8098
 30
0.0
  0
VERTEX
  5
1AD
  8
LAYER_1
 62
   250
 10
-23.7348
 20
42.4994
 30
0.0
  0
VERTEX
  5
1AE
  8
LAYER_1
 62
   250
 10
-24.8008
 20
42.3911
 30
0.0
  0
VERTEX
  5
1AF
  8
LAYER_1
 62
   250
 10
-64.188
 20
42.3911
 30
0.0
  0
VERTEX
  5
1B0
  8
LAYER_1
 62
   250
 10
-65.254
 20
42.4994
 30
0.0
  0
VERTEX
  5
1B1
  8
LAYER_1
 62
   250
 10
-66.2484
 20
42.8098
 30
0.0
  0
VERTEX
  5
1B2
  8
LAYER_1
 62
   250
 10
-67.1496
 20
43.3005
 30
0.0
  0
VERTEX
  5
1B3
  8
LAYER_1
 62
   250
 10
-67.9357
 20
43.9498
 30
0.0
  0
VERTEX
  5
1B4
  8
LAYER_1
 62
   250
 10
-68.585
 20
44.7359
 30
0.0
  0
VERTEX
  5
1B5
  8
LAYER_1
 62
   250
 10
-69.0757
 20
45.637
 30
0.0
  0
VERTEX
  5
1B6
  8
LAYER_1
 62
   250
 10
-69.3861
 20
46.6315
 30
0.0
  0
VERTEX
  5
1B7
  8
LAYER_1
 62
   250
 10
-69.4944
 20
47.6975
 30
0.0
  0
VERTEX
  5
1B8
  8
LAYER_1
 62
   250
 10
-69.4944
 20
61.4627
 30
0.0
  0
VERTEX
  5
1B9
  8
LAYER_1
 62
   250
 10
-69.3861
 20
62.5287
 30
0.0
  0
VERTEX
  5
1BA
  8
LAYER_1
 62
   250
 10
-69.0757
 20
63.5231
 30
0.0
  0
VERTEX
  5
1BB
  8
LAYER_1
 62
   250
 10
-68.585
 20
64.4243
 30
0.0
  0
VERTEX
  5
1BC
  8
LAYER_1
 62
   250
 10
-67.9357
 20
65.2104
 30
0.0
  0
VERTEX
  5
1BD
  8
LAYER_1
 62
   250
 10
-67.1496
 20
65.8597
 30
0.0
  0
VERTEX
  5
1BE
  8
LAYER_1
 62
   250
 10
-66.2484
 20
66.3504
 30
0.0
  0
VERTEX
  5
1BF
  8
LAYER_1
 62
   250
 10
-65.254
 20
66.6608
 30
0.0
  0
VERTEX
  5
1C0
  8
LAYER_1
 62
   250
 10
-64.188
 20
66.7691
 30
0.0
  0
SEQEND
  5
1C1
  8
LAYER_1
 62
   250
  0
POLYLINE
  5
4E
  8
LAYER_1
 62
   250
 66
     1
 10
0.0
 20
0.0
 30
0.0
 70
     1
  0
VERTEX
  5
1C2
  8
LAYER_1
 62
   250
 10
-73.2444
 20
56.0801
 30
0.0
  0
VERTEX
  5
1C3
  8
LAYER_1
 62
   250
 10
-73.5370354830242
 20
56.05127792060485
 30
0.0
  0
VERTEX
  5
1C4
  8
LAYER_1
 62
   250
 10
-73.81842514854763
 20
55.96591929876693
 30
0.0
  0
VERTEX
  5
1C5
  8
LAYER_1
 62
   250
 10
-74.0777553495294
 20
55.82730441845382
 30
0.0
  0
VERTEX
  5
1C6
  8
LAYER_1
 62
   250
 10
-74.30506017177981
 20
55.64076017177982
 30
0.0
  0
VERTEX
  5
1C7
  8
LAYER_1
 62
   250
 10
-74.49160441845382
 20
55.41345534952941
 30
0.0
  0
VERTEX
  5
1C8
  8
LAYER_1
 62
   250
 10
-74.63021929876693
 20
55.15412514854764
 30
0.0
  0
VERTEX
  5
1C9
  8
LAYER_1
 62
   250
 10
-74.71557792060484
 20
54.87273548302419
 30
0.0
  0
VERTEX
  5
1CA
  8
LAYER_1
 62
   250
 10
-74.7444
 20
54.5801
 30
0.0
  0
VERTEX
  5
1CB
  8
LAYER_1
 62
   250
 10
-74.71557792060484
 20
54.28746451697581
 30
0.0
  0
VERTEX
  5
1CC
  8
LAYER_1
 62
   250
 10
-74.63021929876693
 20
54.00607485145237
 30
0.0
  0
VERTEX
  5
1CD
  8
LAYER_1
 62
   250
 10
-74.49160441845382
 20
53.7467446504706
 30
0.0
  0
VERTEX
  5
1CE
  8
LAYER_1
 62
   250
 10
-74.30506017177981
 20
53.51943982822018
 30
0.0
  0
VERTEX
  5
1CF
  8
LAYER_1
 62
   250
 10
-74.0777553495294
 20
53.33289558154618
 30
0.0
  0
VERTEX
  5
1D0
  8
LAYER_1
 62
   250
 10
-73.81842514854763
 20
53.19428070123307
 30
0.0
  0
VERTEX
  5
1D1
  8
LAYER_1
 62
   250
 10
-73.53703548302418
 20
53.10892207939516
 30
0.0
  0
VERTEX
  5
1D2
  8
LAYER_1
 62
   250
 10
-73.2444
 20
53.0801
 30
0.0
  0
VERTEX
  5
1D3
  8
LAYER_1
 62
   250
 10
-72.9517645169758
 20
53.10892207939516
 30
0.0
  0
VERTEX
  5
1D4
  8
LAYER_1
 62
   250
 10
-72.67037485145237
 20
53.19428070123307
 30
0.0
  0
VERTEX
  5
1D5
  8
LAYER_1
 62
   250
 10
-72.4110446504706
 20
53.33289558154618
 30
0.0
  0
VERTEX
  5
1D6
  8
LAYER_1
 62
   250
 10
-72.18373982822017
 20
53.51943982822018
 30
0.0
  0
VERTEX
  5
1D7
  8
LAYER_1
 62
   250
 10
-71.99719558154618
 20
53.7467446504706
 30
0.0
  0
VERTEX
  5
1D8
  8
LAYER_1
 62
   250
 10
-71.85858070123307
 20
54.00607485145237
 30
0.0
  0
VERTEX
  5
1D9
  8
LAYER_1
 62
   250
 10
-71.77322207939515
 20
54.28746451697581
 30
0.0
  0
VERTEX
  5
1DA
  8
LAYER_1
 62
   250
 10
-71.7444
 20
54.58010000000001
 30
0.0
  0
VERTEX
  5
1DB
  8
LAYER_1
 62
   250
 10
-71.77322207939515
 20
54.8727354830242
 30
0.0
  0
VERTEX
  5
1DC
  8
LAYER_1
 62
   250
 10
-71.85858070123307
 20
55.15412514854764
 30
0.0
  0
VERTEX
  5
1DD
  8
LAYER_1
 62
   250
 10
-71.99719558154618
 20
55.41345534952941
 30
0.0
  0
VERTEX
  5
1DE
  8
LAYER_1
 62
   250
 10
-72.18373982822018
 20
55.64076017177982
 30
0.0
  0
VERTEX
  5
1DF
  8
LAYER_1
 62
   250
 10
-72.4110446504706
 20
55.82730441845382
 30
0.0
  0
VERTEX
  5
1E0
  8
LAYER_1
 62
   250
 10
-72.67037485145237
 20
55.96591929876693
 30
0.0
  0
VERTEX
  5
1E1
  8
LAYER_1
 62
   250
 10
-72.95176451697581
 20
56.05127792060485
 30
0.0
  0
SEQEND
  5
1E2
  8
LAYER_1
 62
   250
  0
POLYLINE
  5
4F
  8
LAYER_1
 62
   250
 66
     1
 10
0.0
 20
0.0
 30
0.0
 70
     1
  0
VERTEX
  5
1E3
  8
LAYER_1
 62
   250
 10
-69.0418
 20
36.5228
 30
0.0
  0
VERTEX
  5
1E4
  8
LAYER_1
 62
   250
 10
-17.1022
 20
36.5228
 30
0.0
  0
VERTEX
  5
1E5
  8
LAYER_1
 62
   250
 10
-15.7904
 20
36.3895
 30
0.0
  0
VERTEX
  5
1E6
  8
LAYER_1
 62
   250
 10
-14.5666
 20
36.0075
 30
0.0
  0
VERTEX
  5
1E7
  8
LAYER_1
 62
   250
 10
-13.4576
 20
35.4036
 30
0.0
  0
VERTEX
  5
1E8
  8
LAYER_1
 62
   250
 10
-12.4902
 20
34.6046
 30
0.0
  0
VERTEX
  5
1E9
  8
LAYER_1
 62
   250
 10
-11.6912
 20
33.6371
 30
0.0
  0
VERTEX
  5
1EA
  8
LAYER_1
 62
   250
 10
-11.0873
 20
32.5282
 30
0.0
  0
VERTEX
  5
1EB
  8
LAYER_1
 62
   250
 10
-10.7053
 20
31.3044
 30
0.0
  0
VERTEX
  5
1EC
  8
LAYER_1
 62
   250
 10
-10.572
 20
29.9926
 30
0.0
  0
VERTEX
  5
1ED
  8
LAYER_1
 62
   250
 10
-10.572
 20
13.0529
 30
0.0
  0
VERTEX
  5
1EE
  8
LAYER_1
 62
   250
 10
-10.7053
 20
11.7411
 30
0.0
  0
VERTEX
  5
1EF
  8
LAYER_1
 62
   250
 10
-11.0873
 20
10.5174
 30
0.0
  0
VERTEX
  5
1F0
  8
LAYER_1
 62
   250
 10
-11.6912
 20
9.4084
 30
0.0
  0
VERTEX
  5
1F1
  8
LAYER_1
 62
   250
 10
-12.4902
 20
8.441
 30
0.0
  0
VERTEX
  5
1F2
  8
LAYER_1
 62
   250
 10
-13.4576
 20
7.642
 30
0.0
  0
VERTEX
  5
1F3
  8
LAYER_1
 62
   250
 10
-14.5666
 20
7.0381
 30
0.0
  0
VERTEX
  5
1F4
  8
LAYER_1
 62
   250
 10
-15.7904
 20
6.6561
 30
0.0
  0
VERTEX
  5
1F5
  8
LAYER_1
 62
   250
 10
-17.1022
 20
6.5228
 30
0.0
  0
VERTEX
  5
1F6
  8
LAYER_1
 62
   250
 10
-69.0418
 20
6.5228
 30
0.0
  0
VERTEX
  5
1F7
  8
LAYER_1
 62
   250
 10
-70.3536
 20
6.6561
 30
0.0
  0
VERTEX
  5
1F8
  8
LAYER_1
 62
   250
 10
-71.5774
 20
7.0381
 30
0.0
  0
VERTEX
  5
1F9
  8
LAYER_1
 62
   250
 10
-72.6864
 20
7.642
 30
0.0
  0
VERTEX
  5
1FA
  8
LAYER_1
 62
   250
 10
-73.6538
 20
8.441
 30
0.0
  0
VERTEX
  5
1FB
  8
LAYER_1
 62
   250
 10
-74.4528
 20
9.4084
 30
0.0
  0
VERTEX
  5
1FC
  8
LAYER_1
 62
   250
 10
-75.0567
 20
10.5174
 30
0.0
  0
VERTEX
  5
1FD
  8
LAYER_1
 62
   250
 10
-75.4387
 20
11.7411
 30
0.0
  0
VERTEX
  5
1FE
  8
LAYER_1
 62
   250
 10
-75.572
 20
13.0529
 30
0.0
  0
VERTEX
  5
1FF
  8
LAYER_1
 62
   250
 10
-75.572
 20
29.9926
 30
0.0
  0
VERTEX
  5
200
  8
LAYER_1
 62
   250
 10
-75.4387
 20
31.3044
 30
0.0
  0
VERTEX
  5
201
  8
LAYER_1
 62
   250
 10
-75.0567
 20
32.5282
 30
0.0
  0
VERTEX
  5
202
  8
LAYER_1
 62
   250
 10
-74.4528
 20
33.6371
 30
0.0
  0
VERTEX
  5
203
  8
LAYER_1
 62
   250
 10
-73.6538
 20
34.6046
 30
0.0
  0
VERTEX
  5
204
  8
LAYER_1
 62
   250
 10
-72.6864
 20
35.4036
 30
0.0
  0
VERTEX
  5
205
  8
LAYER_1
 62
   250
 10
-71.5774
 20
36.0075
 30
0.0
  0
VERTEX
  5
206
  8
LAYER_1
 62
   250
 10
-70.3536
 20
36.3895
 30
0.0
  0
VERTEX
  5
207
  8
LAYER_1
 62
   250
 10
-69.0418
 20
36.5228
 30
0.0
  0
SEQEND
  5
208
  8
LAYER_1
 62
   250
  0
POLYLINE
  5
50
  8
LAYER_1
 62
   250
 66
     1
 10
0.0
 20
0.0
 30
0.0
 70
     1
  0
VERTEX
  5
209
  8
LAYER_1
 62
   250
 10
-14.322
 20
23.0227
 30
0.0
  0
VERTEX
  5
20A
  8
LAYER_1
 62
   250
 10
-14.61463548302419
 20
22.99387792060485
 30
0.0
  0
VERTEX
  5
20B
  8
LAYER_1
 62
   250
 10
-14.89602514854763
 20
22.90851929876693
 30
0.0
  0
VERTEX
  5
20C
  8
LAYER_1
 62
   250
 10
-15.1553553495294
 20
22.76990441845382
 30
0.0
  0
VERTEX
  5
20D
  8
LAYER_1
 62
   250
 10
-15.38266017177982
 20
22.58336017177982
 30
0.0
  0
VERTEX
  5
20E
  8
LAYER_1
 62
   250
 10
-15.56920441845382
 20
22.3560553495294
 30
0.0
  0
VERTEX
  5
20F
  8
LAYER_1
 62
   250
 10
-15.70781929876693
 20
22.09672514854763
 30
0.0
  0
VERTEX
  5
210
  8
LAYER_1
 62
   250
 10
-15.79317792060484
 20
21.81533548302419
 30
0.0
  0
VERTEX
  5
211
  8
LAYER_1
 62
   250
 10
-15.822
 20
21.5227
 30
0.0
  0
VERTEX
  5
212
  8
LAYER_1
 62
   250
 10
-15.79317792060484
 20
21.23006451697581
 30
0.0
  0
VERTEX
  5
213
  8
LAYER_1
 62
   250
 10
-15.70781929876693
 20
20.94867485145237
 30
0.0
  0
VERTEX
  5
214
  8
LAYER_1
 62
   250
 10
-15.56920441845382
 20
20.6893446504706
 30
0.0
  0
VERTEX
  5
215
  8
LAYER_1
 62
   250
 10
-15.38266017177982
 20
20.46203982822018
 30
0.0
  0
VERTEX
  5
216
  8
LAYER_1
 62
   250
 10
-15.1553553495294
 20
20.27549558154618
 30
0.0
  0
VERTEX
  5
217
  8
LAYER_1
 62
   250
 10
-14.89602514854763
 20
20.13688070123307
 30
0.0
  0
VERTEX
  5
218
  8
LAYER_1
 62
   250
 10
-14.61463548302419
 20
20.05152207939516
 30
0.0
  0
VERTEX
  5
219
  8
LAYER_1
 62
   250
 10
-14.322
 20
20.0227
 30
0.0
  0
VERTEX
  5
21A
  8
LAYER_1
 62
   250
 10
-14.02936451697581
 20
20.05152207939516
 30
0.0
  0
VERTEX
  5
21B
  8
LAYER_1
 62
   250
 10
-13.74797485145236
 20
20.13688070123307
 30
0.0
  0
VERTEX
  5
21C
  8
LAYER_1
 62
   250
 10
-13.48864465047059
 20
20.27549558154618
 30
0.0
  0
VERTEX
  5
21D
  8
LAYER_1
 62
   250
 10
-13.26133982822018
 20
20.46203982822018
 30
0.0
  0
VERTEX
  5
21E
  8
LAYER_1
 62
   250
 10
-13.07479558154618
 20
20.6893446504706
 30
0.0
  0
VERTEX
  5
21F
  8
LAYER_1
 62
   250
 10
-12.93618070123307
 20
20.94867485145237
 30
0.0
  0
VERTEX
  5
220
  8
LAYER_1
 62
   250
 10
-12.85082207939515
 20
21.23006451697581
 30
0.0
  0
VERTEX
  5
221
  8
LAYER_1
 62
   250
 10
-12.822
 20
21.5227
 30
0.0
  0
VERTEX
  5
222
  8
LAYER_1
 62
   250
 10
-12.85082207939515
 20
21.8153354830242
 30
0.0
  0
VERTEX
  5
223
  8
LAYER_1
 62
   250
 10
-12.93618070123307
 20
22.09672514854764
 30
0.0
  0
VERTEX
  5
224
  8
LAYER_1
 62
   250
 10
-13.07479558154618
 20
22.35605534952941
 30
0.0
  0
VERTEX
  5
225
  8
LAYER_1
 62
   250
 10
-13.26133982822018
 20
22.58336017177983
 30
0.0
  0
VERTEX
  5
226
  8
LAYER_1
 62
   250
 10
-13.4886446504706
 20
22.76990441845382
 30
0.0
  0
VERTEX
  5
227
  8
LAYER_1
 62
   250
 10
-13.74797485145237
 20
22.90851929876693
 30
0.0
  0
VERTEX
  5
228
  8
LAYER_1
 62
   250
 10
-14.02936451697581
 20
22.99387792060485
 30
0.0
  0
SEQEND
  5
229
  8
LAYER_1
 62
   250
  0
POLYLINE
  5
51
  8
LAYER_1
 62
   250
 66
     1
 10
0.0
 20
0.0
 30
0.0
 70
     1
  0
VERTEX
  5
22A
  8
LAYER_1
 62
   250
 10
-71.822
 20
23.0227
 30
0.0
  0
VERTEX
  5
22B
  8
LAYER_1
 62
   250
 10
-72.1146354830242
 20
22.99387792060485
 30
0.0
  0
VERTEX
  5
22C
  8
LAYER_1
 62
   250
 10
-72.39602514854764
 20
22.90851929876693
 30
0.0
  0
VERTEX
  5
22D
  8
LAYER_1
 62
   250
 10
-72.6553553495294
 20
22.76990441845382
 30
0.0
  0
VERTEX
  5
22E
  8
LAYER_1
 62
   250
 10
-72.88266017177982
 20
22.58336017177982
 30
0.0
  0
VERTEX
  5
22F
  8
LAYER_1
 62
   250
 10
-73.06920441845382
 20
22.3560553495294
 30
0.0
  0
VERTEX
  5
230
  8
LAYER_1
 62
   250
 10
-73.20781929876694
 20
22.09672514854763
 30
0.0
  0
VERTEX
  5
231
  8
LAYER_1
 62
   250
 10
-73.29317792060485
 20
21.81533548302419
 30
0.0
  0
VERTEX
  5
232
  8
LAYER_1
 62
   250
 10
-73.322
 20
21.5227
 30
0.0
  0
VERTEX
  5
233
  8
LAYER_1
 62
   250
 10
-73.29317792060485
 20
21.23006451697581
 30
0.0
  0
VERTEX
  5
234
  8
LAYER_1
 62
   250
 10
-73.20781929876694
 20
20.94867485145237
 30
0.0
  0
VERTEX
  5
235
  8
LAYER_1
 62
   250
 10
-73.06920441845382
 20
20.6893446504706
 30
0.0
  0
VERTEX
  5
236
  8
LAYER_1
 62
   250
 10
-72.88266017177982
 20
20.46203982822018
 30
0.0
  0
VERTEX
  5
237
  8
LAYER_1
 62
   250
 10
-72.6553553495294
 20
20.27549558154618
 30
0.0
  0
VERTEX
  5
238
  8
LAYER_1
 62
   250
 10
-72.39602514854764
 20
20.13688070123307
 30
0.0
  0
VERTEX
  5
239
  8
LAYER_1
 62
   250
 10
-72.11463548302419
 20
20.05152207939516
 30
0.0
  0
VERTEX
  5
23A
  8
LAYER_1
 62
   250
 10
-71.822
 20
20.0227
 30
0.0
  0
VERTEX
  5
23B
  8
LAYER_1
 62
   250
 10
-71.5293645169758
 20
20.05152207939516
 30
0.0
  0
VERTEX
  5
23C
  8
LAYER_1
 62
   250
 10
-71.24797485145237
 20
20.13688070123307
 30
0.0
  0
VERTEX
  5
23D
  8
LAYER_1
 62
   250
 10
-70.9886446504706
 20
20.27549558154618
 30
0.0
  0
VERTEX
  5
23E
  8
LAYER_1
 62
   250
 10
-70.76133982822017
 20
20.46203982822018
 30
0.0
  0
VERTEX
  5
23F
  8
LAYER_1
 62
   250
 10
-70.57479558154618
 20
20.6893446504706
 30
0.0
  0
VERTEX
  5
240
  8
LAYER_1
 62
   250
 10
-70.43618070123307
 20
20.94867485145237
 30
0.0
  0
VERTEX
  5
241
  8
LAYER_1
 62
   250
 10
-70.35082207939516
 20
21.23006451697581
 30
0.0
  0
VERTEX
  5
242
  8
LAYER_1
 62
   250
 10
-70.322
 20
21.5227
 30
0.0
  0
VERTEX
  5
243
  8
LAYER_1
 62
   250
 10
-70.35082207939516
 20
21.8153354830242
 30
0.0
  0
VERTEX
  5
244
  8
LAYER_1
 62
   250
 10
-70.43618070123307
 20
22.09672514854764
 30
0.0
  0
VERTEX
  5
245
  8
LAYER_1
 62
   250
 10
-70.57479558154618
 20
22.35605534952941
 30
0.0
  0
VERTEX
  5
246
  8
LAYER_1
 62
   250
 10
-70.76133982822019
 20
22.58336017177983
 30
0.0
  0
VERTEX
  5
247
  8
LAYER_1
 62
   250
 10
-70.9886446504706
 20
22.76990441845382
 30
0.0
  0
VERTEX
  5
248
  8
LAYER_1
 62
   250
 10
-71.24797485145237
 20
22.90851929876693
 30
0.0
  0
VERTEX
  5
249
  8
LAYER_1
 62
   250
 10
-71.52936451697582
 20
22.99387792060485
 30
0.0
  0
SEQEND
  5
24A
  8
LAYER_1
 62
   250
  0
POLYLINE
  5
52
  8
LAYER_1
 62
   250
 66
     1
 10
0.0
 20
0.0
 30
0.0
  0
VERTEX
  5
24B
  8
LAYER_1
 62
   250
 10
-46.3101
 20
72.8657
 30
0.0
  0
VERTEX
  5
24C
  8
LAYER_1
 62
   250
 10
-69.7799
 20
72.8657
 30
0.0
  0
VERTEX
  5
24D
  8
LAYER_1
 62
   250
 10
-71.0917
 20
72.999
 30
0.0
  0
VERTEX
  5
24E
  8
LAYER_1
 62
   250
 10
-72.3155
 20
73.381
 30
0.0
  0
VERTEX
  5
24F
  8
LAYER_1
 62
   250
 10
-73.4244
 20
73.9849
 30
0.0
  0
VERTEX
  5
250
  8
LAYER_1
 62
   250
 10
-74.3919
 20
74.7839
 30
0.0
  0
VERTEX
  5
251
  8
LAYER_1
 62
   250
 10
-75.1909
 20
75.7513
 30
0.0
  0
VERTEX
  5
252
  8
LAYER_1
 62
   250
 10
-75.7948
 20
76.8603
 30
0.0
  0
VERTEX
  5
253
  8
LAYER_1
 62
   250
 10
-76.1768
 20
78.084
 30
0.0
  0
VERTEX
  5
254
  8
LAYER_1
 62
   250
 10
-76.3101
 20
79.3958
 30
0.0
  0
VERTEX
  5
255
  8
LAYER_1
 62
   250
 10
-76.3101
 20
96.3355
 30
0.0
  0
VERTEX
  5
256
  8
LAYER_1
 62
   250
 10
-76.1768
 20
97.6473
 30
0.0
  0
VERTEX
  5
257
  8
LAYER_1
 62
   250
 10
-75.7948
 20
98.8711
 30
0.0
  0
VERTEX
  5
258
  8
LAYER_1
 62
   250
 10
-75.1909
 20
99.98
 30
0.0
  0
VERTEX
  5
259
  8
LAYER_1
 62
   250
 10
-74.3919
 20
100.9475
 30
0.0
  0
VERTEX
  5
25A
  8
LAYER_1
 62
   250
 10
-73.4245
 20
101.7465
 30
0.0
  0
VERTEX
  5
25B
  8
LAYER_1
 62
   250
 10
-72.3155
 20
102.3504
 30
0.0
  0
VERTEX
  5
25C
  8
LAYER_1
 62
   250
 10
-71.0917
 20
102.7324
 30
0.0
  0
VERTEX
  5
25D
  8
LAYER_1
 62
   250
 10
-69.7799
 20
102.8657
 30
0.0
  0
VERTEX
  5
25E
  8
LAYER_1
 62
   250
 10
-17.8403
 20
102.8657
 30
0.0
  0
VERTEX
  5
25F
  8
LAYER_1
 62
   250
 10
-16.5285
 20
102.7324
 30
0.0
  0
VERTEX
  5
260
  8
LAYER_1
 62
   250
 10
-15.3047
 20
102.3504
 30
0.0
  0
VERTEX
  5
261
  8
LAYER_1
 62
   250
 10
-14.1957
 20
101.7465
 30
0.0
  0
VERTEX
  5
262
  8
LAYER_1
 62
   250
 10
-13.2283
 20
100.9475
 30
0.0
  0
VERTEX
  5
263
  8
LAYER_1
 62
   250
 10
-12.4293
 20
99.98
 30
0.0
  0
VERTEX
  5
264
  8
LAYER_1
 62
   250
 10
-11.8254
 20
98.8711
 30
0.0
  0
VERTEX
  5
265
  8
LAYER_1
 62
   250
 10
-11.4434
 20
97.6473
 30
0.0
  0
VERTEX
  5
266
  8
LAYER_1
 62
   250
 10
-11.3101
 20
96.3355
 30
0.0
  0
VERTEX
  5
267
  8
LAYER_1
 62
   250
 10
-11.3101
 20
79.3958
 30
0.0
  0
VERTEX
  5
268
  8
LAYER_1
 62
   250
 10
-11.4434
 20
78.0841
 30
0.0
  0
VERTEX
  5
269
  8
LAYER_1
 62
   250
 10
-11.8254
 20
76.8604
 30
0.0
  0
VERTEX
  5
26A
  8
LAYER_1
 62
   250
 10
-12.4293
 20
75.7514
 30
0.0
  0
VERTEX
  5
26B
  8
LAYER_1
 62
   250
 10
-13.2284
 20
74.784
 30
0.0
  0
VERTEX
  5
26C
  8
LAYER_1
 62
   250
 10
-14.1958
 20
73.9849
 30
0.0
  0
VERTEX
  5
26D
  8
LAYER_1
 62
   250
 10
-15.3048
 20
73.381
 30
0.0
  0
VERTEX
  5
26E
  8
LAYER_1
 62
   250
 10
-16.5286
 20
72.999
 30
0.0
  0
VERTEX
  5
26F
  8
LAYER_1
 62
   250
 10
-17.8403
 20
72.8657
 30
0.0
  0
VERTEX
  5
270
  8
LAYER_1
 62
   250
 10
-41.3101
 20
72.8657
 30
0.0
  0
SEQEND
  5
271
  8
LAYER_1
 62
   250
  0
POLYLINE
  5
53
  8
LAYER_1
 62
   250
 66
     1
 10
0.0
 20
0.0
 30
0.0
  0
VERTEX
  5
272
  8
LAYER_1
 62
   250
 10
-46.3101
 20
75.6767
 30
0.0
  0
VERTEX
  5
273
  8
LAYER_1
 62
   250
 10
-63.5037
 20
75.6767
 30
0.0
  0
VERTEX
  5
274
  8
LAYER_1
 62
   250
 10
-64.5696
 20
75.785
 30
0.0
  0
VERTEX
  5
275
  8
LAYER_1
 62
   250
 10
-65.564
 20
76.0954
 30
0.0
  0
VERTEX
  5
276
  8
LAYER_1
 62
   250
 10
-66.4652
 20
76.5861
 30
0.0
  0
VERTEX
  5
277
  8
LAYER_1
 62
   250
 10
-67.2513
 20
77.2354
 30
0.0
  0
VERTEX
  5
278
  8
LAYER_1
 62
   250
 10
-67.9006
 20
78.0215
 30
0.0
  0
VERTEX
  5
279
  8
LAYER_1
 62
   250
 10
-68.3914
 20
78.9226
 30
0.0
  0
VERTEX
  5
27A
  8
LAYER_1
 62
   250
 10
-68.7018
 20
79.9171
 30
0.0
  0
VERTEX
  5
27B
  8
LAYER_1
 62
   250
 10
-68.8101
 20
80.9831
 30
0.0
  0
VERTEX
  5
27C
  8
LAYER_1
 62
   250
 10
-68.8101
 20
94.7483
 30
0.0
  0
VERTEX
  5
27D
  8
LAYER_1
 62
   250
 10
-68.7018
 20
95.8143
 30
0.0
  0
VERTEX
  5
27E
  8
LAYER_1
 62
   250
 10
-68.3914
 20
96.8087
 30
0.0
  0
VERTEX
  5
27F
  8
LAYER_1
 62
   250
 10
-67.9007
 20
97.7099
 30
0.0
  0
VERTEX
  5
280
  8
LAYER_1
 62
   250
 10
-67.2514
 20
98.496
 30
0.0
  0
VERTEX
  5
281
  8
LAYER_1
 62
   250
 10
-66.4653
 20
99.1453
 30
0.0
  0
VERTEX
  5
282
  8
LAYER_1
 62
   250
 10
-65.5641
 20
99.636
 30
0.0
  0
VERTEX
  5
283
  8
LAYER_1
 62
   250
 10
-64.5697
 20
99.9464
 30
0.0
  0
VERTEX
  5
284
  8
LAYER_1
 62
   250
 10
-63.5037
 20
100.0547
 30
0.0
  0
VERTEX
  5
285
  8
LAYER_1
 62
   250
 10
-24.1165
 20
100.0547
 30
0.0
  0
VERTEX
  5
286
  8
LAYER_1
 62
   250
 10
-23.0505
 20
99.9464
 30
0.0
  0
VERTEX
  5
287
  8
LAYER_1
 62
   250
 10
-22.0561
 20
99.636
 30
0.0
  0
VERTEX
  5
288
  8
LAYER_1
 62
   250
 10
-21.1549
 20
99.1453
 30
0.0
  0
VERTEX
  5
289
  8
LAYER_1
 62
   250
 10
-20.3688
 20
98.496
 30
0.0
  0
VERTEX
  5
28A
  8
LAYER_1
 62
   250
 10
-19.7195
 20
97.7099
 30
0.0
  0
VERTEX
  5
28B
  8
LAYER_1
 62
   250
 10
-19.2288
 20
96.8087
 30
0.0
  0
VERTEX
  5
28C
  8
LAYER_1
 62
   250
 10
-18.9184
 20
95.8143
 30
0.0
  0
VERTEX
  5
28D
  8
LAYER_1
 62
   250
 10
-18.8101
 20
94.7483
 30
0.0
  0
VERTEX
  5
28E
  8
LAYER_1
 62
   250
 10
-18.8101
 20
80.9831
 30
0.0
  0
VERTEX
  5
28F
  8
LAYER_1
 62
   250
 10
-18.9184
 20
79.9171
 30
0.0
  0
VERTEX
  5
290
  8
LAYER_1
 62
   250
 10
-19.2288
 20
78.9227
 30
0.0
  0
VERTEX
  5
291
  8
LAYER_1
 62
   250
 10
-19.7196
 20
78.0215
 30
0.0
  0
VERTEX
  5
292
  8
LAYER_1
 62
   250
 10
-20.3689
 20
77.2354
 30
0.0
  0
VERTEX
  5
293
  8
LAYER_1
 62
   250
 10
-21.155
 20
76.5861
 30
0.0
  0
VERTEX
  5
294
  8
LAYER_1
 62
   250
 10
-22.0561
 20
76.0954
 30
0.0
  0
VERTEX
  5
295
  8
LAYER_1
 62
   250
 10
-23.0506
 20
75.785
 30
0.0
  0
VERTEX
  5
296
  8
LAYER_1
 62
   250
 10
-24.1165
 20
75.6767
 30
0.0
  0
VERTEX
  5
297
  8
LAYER_1
 62
   250
 10
-41.3101
 20
75.6767
 30
0.0
  0
SEQEND
  5
298
  8
LAYER_1
 62
   250
  0
POLYLINE
  5
54
  8
LAYER_1
 62
   250
 66
     1
 10
0.0
 20
0.0
 30
0.0
 70
     1
  0
VERTEX
  5
299
  8
LAYER_1
 62
   250
 10
-72.5601
 20
90.8577
 30
0.0
  0
VERTEX
  5
29A
  8
LAYER_1
 62
   250
 10
-71.21
 20
90.1097
 30
0.0
  0
VERTEX
  5
29B
  8
LAYER_1
 62
   250
 10
-69.8601
 20
89.3616
 30
0.0
  0
VERTEX
  5
29C
  8
LAYER_1
 62
   250
 10
-69.8601
 20
87.8656
 30
0.0
  0
VERTEX
  5
29D
  8
LAYER_1
 62
   250
 10
-69.8601
 20
86.3695
 30
0.0
  0
VERTEX
  5
29E
  8
LAYER_1
 62
   250
 10
-71.21
 20
85.6214
 30
0.0
  0
VERTEX
  5
29F
  8
LAYER_1
 62
   250
 10
-72.5601
 20
84.8734
 30
0.0
  0
VERTEX
  5
2A0
  8
LAYER_1
 62
   250
 10
-73.9102
 20
85.6214
 30
0.0
  0
VERTEX
  5
2A1
  8
LAYER_1
 62
   250
 10
-75.2601
 20
86.3695
 30
0.0
  0
VERTEX
  5
2A2
  8
LAYER_1
 62
   250
 10
-75.2601
 20
87.8656
 30
0.0
  0
VERTEX
  5
2A3
  8
LAYER_1
 62
   250
 10
-75.2601
 20
89.3616
 30
0.0
  0
VERTEX
  5
2A4
  8
LAYER_1
 62
   250
 10
-73.9102
 20
90.1097
 30
0.0
  0
VERTEX
  5
2A5
  8
LAYER_1
 62
   250
 10
-72.5601
 20
90.8577
 30
0.0
  0
SEQEND
  5
2A6
  8
LAYER_1
 62
   250
  0
POLYLINE
  5
55
  8
LAYER_1
 62
   250
 66
     1
 10
0.0
 20
0.0
 30
0.0
 70
     1
  0
VERTEX
  5
2A7
  8
LAYER_1
 62
   250
 10
-15.0601
 20
90.8577
 30
0.0
  0
VERTEX
  5
2A8
  8
LAYER_1
 62
   250
 10
-13.71
 20
90.1097
 30
0.0
  0
VERTEX
  5
2A9
  8
LAYER_1
 62
   250
 10
-12.3601
 20
89.3616
 30
0.0
  0
VERTEX
  5
2AA
  8
LAYER_1
 62
   250
 10
-12.3601
 20
87.8656
 30
0.0
  0
VERTEX
  5
2AB
  8
LAYER_1
 62
   250
 10
-12.3601
 20
86.3695
 30
0.0
  0
VERTEX
  5
2AC
  8
LAYER_1
 62
   250
 10
-13.71
 20
85.6214
 30
0.0
  0
VERTEX
  5
2AD
  8
LAYER_1
 62
   250
 10
-15.0601
 20
84.8734
 30
0.0
  0
VERTEX
  5
2AE
  8
LAYER_1
 62
   250
 10
-16.4102
 20
85.6214
 30
0.0
  0
VERTEX
  5
2AF
  8
LAYER_1
 62
   250
 10
-17.7601
 20
86.3695
 30
0.0
  0
VERTEX
  5
2B0
  8
LAYER_1
 62
   250
 10
-17.7601
 20
87.8656
 30
0.0
  0
VERTEX
  5
2B1
  8
LAYER_1
 62
   250
 10
-17.7601
 20
89.3616
 30
0.0
  0
VERTEX
  5
2B2
  8
LAYER_1
 62
   250
 10
-16.4102
 20
90.1097
 30
0.0
  0
VERTEX
  5
2B3
  8
LAYER_1
 62
   250
 10
-15.0601
 20
90.8577
 30
0.0
  0
SEQEND
  5
2B4
  8
LAYER_1
 62
   250
  0
POLYLINE
  5
56
  8
LAYER_1
 62
   250
 66
     1
 10
0.0
 20
0.0
 30
0.0
 70
     1
  0
VERTEX
  5
2B5
  8
LAYER_1
 62
   250
 10
-15.0601
 20
122.7657
 30
0.0
  0
VERTEX
  5
2B6
  8
LAYER_1
 62
   250
 10
-15.35273548302419
 20
122.7368779206048
 30
0.0
  0
VERTEX
  5
2B7
  8
LAYER_1
 62
   250
 10
-15.63412514854764
 20
122.6515192987669
 30
0.0
  0
VERTEX
  5
2B8
  8
LAYER_1
 62
   250
 10
-15.8934553495294
 20
122.5129044184538
 30
0.0
  0
VERTEX
  5
2B9
  8
LAYER_1
 62
   250
 10
-16.12076017177982
 20
122.3263601717798
 30
0.0
  0
VERTEX
  5
2BA
  8
LAYER_1
 62
   250
 10
-16.30730441845382
 20
122.0990553495294
 30
0.0
  0
VERTEX
  5
2BB
  8
LAYER_1
 62
   250
 10
-16.44591929876693
 20
121.8397251485476
 30
0.0
  0
VERTEX
  5
2BC
  8
LAYER_1
 62
   250
 10
-16.53127792060485
 20
121.5583354830242
 30
0.0
  0
VERTEX
  5
2BD
  8
LAYER_1
 62
   250
 10
-16.5601
 20
121.2657
 30
0.0
  0
VERTEX
  5
2BE
  8
LAYER_1
 62
   250
 10
-16.53127792060485
 20
120.9730645169758
 30
0.0
  0
VERTEX
  5
2BF
  8
LAYER_1
 62
   250
 10
-16.44591929876693
 20
120.6916748514524
 30
0.0
  0
VERTEX
  5
2C0
  8
LAYER_1
 62
   250
 10
-16.30730441845382
 20
120.4323446504706
 30
0.0
  0
VERTEX
  5
2C1
  8
LAYER_1
 62
   250
 10
-16.12076017177982
 20
120.2050398282202
 30
0.0
  0
VERTEX
  5
2C2
  8
LAYER_1
 62
   250
 10
-15.8934553495294
 20
120.0184955815462
 30
0.0
  0
VERTEX
  5
2C3
  8
LAYER_1
 62
   250
 10
-15.63412514854763
 20
119.8798807012331
 30
0.0
  0
VERTEX
  5
2C4
  8
LAYER_1
 62
   250
 10
-15.35273548302419
 20
119.7945220793952
 30
0.0
  0
VERTEX
  5
2C5
  8
LAYER_1
 62
   250
 10
-15.0601
 20
119.7657
 30
0.0
  0
VERTEX
  5
2C6
  8
LAYER_1
 62
   250
 10
-14.76746451697581
 20
119.7945220793952
 30
0.0
  0
VERTEX
  5
2C7
  8
LAYER_1
 62
   250
 10
-14.48607485145236
 20
119.8798807012331
 30
0.0
  0
VERTEX
  5
2C8
  8
LAYER_1
 62
   250
 10
-14.22674465047059
 20
120.0184955815462
 30
0.0
  0
VERTEX
  5
2C9
  8
LAYER_1
 62
   250
 10
-13.99943982822018
 20
120.2050398282202
 30
0.0
  0
VERTEX
  5
2CA
  8
LAYER_1
 62
   250
 10
-13.81289558154618
 20
120.4323446504706
 30
0.0
  0
VERTEX
  5
2CB
  8
LAYER_1
 62
   250
 10
-13.67428070123307
 20
120.6916748514524
 30
0.0
  0
VERTEX
  5
2CC
  8
LAYER_1
 62
   250
 10
-13.58892207939515
 20
120.9730645169758
 30
0.0
  0
VERTEX
  5
2CD
  8
LAYER_1
 62
   250
 10
-13.5601
 20
121.2657
 30
0.0
  0
VERTEX
  5
2CE
  8
LAYER_1
 62
   250
 10
-13.58892207939516
 20
121.5583354830242
 30
0.0
  0
VERTEX
  5
2CF
  8
LAYER_1
 62
   250
 10
-13.67428070123307
 20
121.8397251485476
 30
0.0
  0
VERTEX
  5
2D0
  8
LAYER_1
 62
   250
 10
-13.81289558154618
 20
122.0990553495294
 30
0.0
  0
VERTEX
  5
2D1
  8
LAYER_1
 62
   250
 10
-13.99943982822018
 20
122.3263601717798
 30
0.0
  0
VERTEX
  5
2D2
  8
LAYER_1
 62
   250
 10
-14.2267446504706
 20
122.5129044184538
 30
0.0
  0
VERTEX
  5
2D3
  8
LAYER_1
 62
   250
 10
-14.48607485145237
 20
122.6515192987669
 30
0.0
  0
VERTEX
  5
2D4
  8
LAYER_1
 62
   250
 10
-14.76746451697581
 20
122.7368779206048
 30
0.0
  0
SEQEND
  5
2D5
  8
LAYER_1
 62
   250
  0
POLYLINE
  5
57
  8
LAYER_1
 62
   250
 66
     1
 10
0.0
 20
0.0
 30
0.0
 70
     1
  0
VERTEX
  5
2D6
  8
LAYER_1
 62
   250
 10
-72.5601
 20
122.7657
 30
0.0
  0
VERTEX
  5
2D7
  8
LAYER_1
 62
   250
 10
-72.8527354830242
 20
122.7368779206048
 30
0.0
  0
VERTEX
  5
2D8
  8
LAYER_1
 62
   250
 10
-73.13412514854764
 20
122.6515192987669
 30
0.0
  0
VERTEX
  5
2D9
  8
LAYER_1
 62
   250
 10
-73.3934553495294
 20
122.5129044184538
 30
0.0
  0
VERTEX
  5
2DA
  8
LAYER_1
 62
   250
 10
-73.62076017177982
 20
122.3263601717798
 30
0.0
  0
VERTEX
  5
2DB
  8
LAYER_1
 62
   250
 10
-73.80730441845382
 20
122.0990553495294
 30
0.0
  0
VERTEX
  5
2DC
  8
LAYER_1
 62
   250
 10
-73.94591929876694
 20
121.8397251485476
 30
0.0
  0
VERTEX
  5
2DD
  8
LAYER_1
 62
   250
 10
-74.03127792060485
 20
121.5583354830242
 30
0.0
  0
VERTEX
  5
2DE
  8
LAYER_1
 62
   250
 10
-74.0601
 20
121.2657
 30
0.0
  0
VERTEX
  5
2DF
  8
LAYER_1
 62
   250
 10
-74.03127792060485
 20
120.9730645169758
 30
0.0
  0
VERTEX
  5
2E0
  8
LAYER_1
 62
   250
 10
-73.94591929876694
 20
120.6916748514524
 30
0.0
  0
VERTEX
  5
2E1
  8
LAYER_1
 62
   250
 10
-73.80730441845382
 20
120.4323446504706
 30
0.0
  0
VERTEX
  5
2E2
  8
LAYER_1
 62
   250
 10
-73.62076017177982
 20
120.2050398282202
 30
0.0
  0
VERTEX
  5
2E3
  8
LAYER_1
 62
   250
 10
-73.3934553495294
 20
120.0184955815462
 30
0.0
  0
VERTEX
  5
2E4
  8
LAYER_1
 62
   250
 10
-73.13412514854764
 20
119.8798807012331
 30
0.0
  0
VERTEX
  5
2E5
  8
LAYER_1
 62
   250
 10
-72.85273548302419
 20
119.7945220793952
 30
0.0
  0
VERTEX
  5
2E6
  8
LAYER_1
 62
   250
 10
-72.5601
 20
119.7657
 30
0.0
  0
VERTEX
  5
2E7
  8
LAYER_1
 62
   250
 10
-72.2674645169758
 20
119.7945220793952
 30
0.0
  0
VERTEX
  5
2E8
  8
LAYER_1
 62
   250
 10
-71.98607485145237
 20
119.8798807012331
 30
0.0
  0
VERTEX
  5
2E9
  8
LAYER_1
 62
   250
 10
-71.72674465047061
 20
120.0184955815462
 30
0.0
  0
VERTEX
  5
2EA
  8
LAYER_1
 62
   250
 10
-71.49943982822018
 20
120.2050398282202
 30
0.0
  0
VERTEX
  5
2EB
  8
LAYER_1
 62
   250
 10
-71.31289558154619
 20
120.4323446504706
 30
0.0
  0
VERTEX
  5
2EC
  8
LAYER_1
 62
   250
 10
-71.17428070123307
 20
120.6916748514524
 30
0.0
  0
VERTEX
  5
2ED
  8
LAYER_1
 62
   250
 10
-71.08892207939516
 20
120.9730645169758
 30
0.0
  0
VERTEX
  5
2EE
  8
LAYER_1
 62
   250
 10
-71.0601
 20
121.2657
 30
0.0
  0
VERTEX
  5
2EF
  8
LAYER_1
 62
   250
 10
-71.08892207939516
 20
121.5583354830242
 30
0.0
  0
VERTEX
  5
2F0
  8
LAYER_1
 62
   250
 10
-71.17428070123307
 20
121.8397251485476
 30
0.0
  0
VERTEX
  5
2F1
  8
LAYER_1
 62
   250
 10
-71.31289558154619
 20
122.0990553495294
 30
0.0
  0
VERTEX
  5
2F2
  8
LAYER_1
 62
   250
 10
-71.49943982822019
 20
122.3263601717798
 30
0.0
  0
VERTEX
  5
2F3
  8
LAYER_1
 62
   250
 10
-71.72674465047061
 20
122.5129044184538
 30
0.0
  0
VERTEX
  5
2F4
  8
LAYER_1
 62
   250
 10
-71.98607485145237
 20
122.6515192987669
 30
0.0
  0
VERTEX
  5
2F5
  8
LAYER_1
 62
   250
 10
-72.26746451697582
 20
122.7368779206048
 30
0.0
  0
SEQEND
  5
2F6
  8
LAYER_1
 62
   250
  0
POLYLINE
  5
58
  8
LAYER_1
 62
   250
 66
     1
 10
0.0
 20
0.0
 30
0.0
 70
     1
  0
VERTEX
  5
2F7
  8
LAYER_1
 62
   250
 10
-65.163
 20
-18.6882
 30
0.0
  0
VERTEX
  5
2F8
  8
LAYER_1
 62
   250
 10
-35.163
 20
-18.6882
 30
0.0
  0
VERTEX
  5
2F9
  8
LAYER_1
 62
   250
 10
-35.163
 20
-4.6882
 30
0.0
  0
VERTEX
  5
2FA
  8
LAYER_1
 62
   250
 10
-65.163
 20
-4.6882
 30
0.0
  0
VERTEX
  5
2FB
  8
LAYER_1
 62
   250
 10
-65.163
 20
-18.6882
 30
0.0
  0
SEQEND
  5
2FC
  8
LAYER_1
 62
   250
  0
POLYLINE
  5
59
  8
LAYER_1
 62
   250
 66
     1
 10
0.0
 20
0.0
 30
0.0
 70
     1
  0
VERTEX
  5
2FD
  8
LAYER_1
 62
   250
 10
-31.6303
 20
-14.7349
 30
0.0
  0
VERTEX
  5
2FE
  8
LAYER_1
 62
   250
 10
-33.7963
 20
-8.6742
 30
0.0
  0
VERTEX
  5
2FF
  8
LAYER_1
 62
   250
 10
-32.4685
 20
-8.6742
 30
0.0
  0
VERTEX
  5
300
  8
LAYER_1
 62
   250
 10
-30.936
 20
-13.1601
 30
0.0
  0
VERTEX
  5
301
  8
LAYER_1
 62
   250
 10
-29.4515
 20
-8.6742
 30
0.0
  0
VERTEX
  5
302
  8
LAYER_1
 62
   250
 10
-28.1533
 20
-8.6742
 30
0.0
  0
VERTEX
  5
303
  8
LAYER_1
 62
   250
 10
-30.3236
 20
-14.7349
 30
0.0
  0
VERTEX
  5
304
  8
LAYER_1
 62
   250
 10
-31.6303
 20
-14.7349
 30
0.0
  0
SEQEND
  5
305
  8
LAYER_1
 62
   250
  0
POLYLINE
  5
5A
  8
LAYER_1
 62
   250
 66
     1
 10
0.0
 20
0.0
 30
0.0
 70
     1
  0
VERTEX
  5
306
  8
LAYER_1
 62
   250
 10
-21.8685
 20
-4.7595
 30
0.0
  0
VERTEX
  5
307
  8
LAYER_1
 62
   250
 10
-22.0390674685387
 20
-4.776299429343456
 30
0.0
  0
VERTEX
  5
308
  8
LAYER_1
 62
   250
 10
-22.2030801249168
 20
-4.826052124725382
 30
0.0
  0
VERTEX
  5
309
  8
LAYER_1
 62
   250
 10
-22.35423505472904
 20
-4.906846117963885
 30
0.0
  0
VERTEX
  5
30A
  8
LAYER_1
 62
   250
 10
-22.4867234587914
 20
-5.015576541208602
 30
0.0
  0
VERTEX
  5
30B
  8
LAYER_1
 62
   250
 10
-22.59545388203612
 20
-5.148064945270962
 30
0.0
  0
VERTEX
  5
30C
  8
LAYER_1
 62
   250
 10
-22.67624787527462
 20
-5.299219875083202
 30
0.0
  0
VERTEX
  5
30D
  8
LAYER_1
 62
   250
 10
-22.72600057065655
 20
-5.463232531461299
 30
0.0
  0
VERTEX
  5
30E
  8
LAYER_1
 62
   250
 10
-22.7428
 20
-5.6338
 30
0.0
  0
VERTEX
  5
30F
  8
LAYER_1
 62
   250
 10
-22.72600057065655
 20
-5.8043674685387
 30
0.0
  0
VERTEX
  5
310
  8
LAYER_1
 62
   250
 10
-22.67624787527462
 20
-5.968380124916798
 30
0.0
  0
VERTEX
  5
311
  8
LAYER_1
 62
   250
 10
-22.59545388203612
 20
-6.119535054729038
 30
0.0
  0
VERTEX
  5
312
  8
LAYER_1
 62
   250
 10
-22.4867234587914
 20
-6.252023458791398
 30
0.0
  0
VERTEX
  5
313
  8
LAYER_1
 62
   250
 10
-22.35423505472904
 20
-6.360753882036115
 30
0.0
  0
VERTEX
  5
314
  8
LAYER_1
 62
   250
 10
-22.2030801249168
 20
-6.441547875274618
 30
0.0
  0
VERTEX
  5
315
  8
LAYER_1
 62
   250
 10
-22.0390674685387
 20
-6.491300570656544
 30
0.0
  0
VERTEX
  5
316
  8
LAYER_1
 62
   250
 10
-21.8685
 20
-6.5081
 30
0.0
  0
VERTEX
  5
317
  8
LAYER_1
 62
   250
 10
-21.6979325314613
 20
-6.491300570656544
 30
0.0
  0
VERTEX
  5
318
  8
LAYER_1
 62
   250
 10
-21.5339198750832
 20
-6.441547875274617
 30
0.0
  0
VERTEX
  5
319
  8
LAYER_1
 62
   250
 10
-21.38276494527096
 20
-6.360753882036114
 30
0.0
  0
VERTEX
  5
31A
  8
LAYER_1
 62
   250
 10
-21.2502765412086
 20
-6.252023458791397
 30
0.0
  0
VERTEX
  5
31B
  8
LAYER_1
 62
   250
 10
-21.14154611796388
 20
-6.119535054729036
 30
0.0
  0
VERTEX
  5
31C
  8
LAYER_1
 62
   250
 10
-21.06075212472538
 20
-5.968380124916797
 30
0.0
  0
VERTEX
  5
31D
  8
LAYER_1
 62
   250
 10
-21.01099942934346
 20
-5.804367468538699
 30
0.0
  0
VERTEX
  5
31E
  8
LAYER_1
 62
   250
 10
-20.9942
 20
-5.633799999999998
 30
0.0
  0
VERTEX
  5
31F
  8
LAYER_1
 62
   250
 10
-21.01099942934346
 20
-5.463232531461297
 30
0.0
  0
VERTEX
  5
320
  8
LAYER_1
 62
   250
 10
-21.06075212472538
 20
-5.2992198750832
 30
0.0
  0
VERTEX
  5
321
  8
LAYER_1
 62
   250
 10
-21.14154611796389
 20
-5.148064945270959
 30
0.0
  0
VERTEX
  5
322
  8
LAYER_1
 62
   250
 10
-21.25027654120861
 20
-5.015576541208599
 30
0.0
  0
VERTEX
  5
323
  8
LAYER_1
 62
   250
 10
-21.38276494527096
 20
-4.906846117963883
 30
0.0
  0
VERTEX
  5
324
  8
LAYER_1
 62
   250
 10
-21.53391987508321
 20
-4.826052124725381
 30
0.0
  0
VERTEX
  5
325
  8
LAYER_1
 62
   250
 10
-21.6979325314613
 20
-4.776299429343455
 30
0.0
  0
SEQEND
  5
326
  8
LAYER_1
 62
   250
  0
POLYLINE
  5
5B
  8
LAYER_1
 62
   250
 66
     1
 10
0.0
 20
0.0
 30
0.0
 70
     1
  0
VERTEX
  5
327
  8
LAYER_1
 62
   250
 10
-68.6328
 20
3.3118
 30
0.0
  0
VERTEX
  5
328
  8
LAYER_1
 62
   250
 10
-16.6932
 20
3.3118
 30
0.0
  0
VERTEX
  5
329
  8
LAYER_1
 62
   250
 10
-15.3814
 20
3.1785
 30
0.0
  0
VERTEX
  5
32A
  8
LAYER_1
 62
   250
 10
-14.1576
 20
2.7965
 30
0.0
  0
VERTEX
  5
32B
  8
LAYER_1
 62
   250
 10
-13.0486
 20
2.1926
 30
0.0
  0
VERTEX
  5
32C
  8
LAYER_1
 62
   250
 10
-12.0812
 20
1.3936
 30
0.0
  0
VERTEX
  5
32D
  8
LAYER_1
 62
   250
 10
-11.2822
 20
0.4261
 30
0.0
  0
VERTEX
  5
32E
  8
LAYER_1
 62
   250
 10
-10.6783
 20
-0.6829
 30
0.0
  0
VERTEX
  5
32F
  8
LAYER_1
 62
   250
 10
-10.2963
 20
-1.9066
 30
0.0
  0
VERTEX
  5
330
  8
LAYER_1
 62
   250
 10
-10.163
 20
-3.2184
 30
0.0
  0
VERTEX
  5
331
  8
LAYER_1
 62
   250
 10
-10.163
 20
-20.1581
 30
0.0
  0
VERTEX
  5
332
  8
LAYER_1
 62
   250
 10
-10.2963
 20
-21.4699
 30
0.0
  0
VERTEX
  5
333
  8
LAYER_1
 62
   250
 10
-10.6783
 20
-22.6936
 30
0.0
  0
VERTEX
  5
334
  8
LAYER_1
 62
   250
 10
-11.2822
 20
-23.8026
 30
0.0
  0
VERTEX
  5
335
  8
LAYER_1
 62
   250
 10
-12.0812
 20
-24.77
 30
0.0
  0
VERTEX
  5
336
  8
LAYER_1
 62
   250
 10
-13.0486
 20
-25.569
 30
0.0
  0
VERTEX
  5
337
  8
LAYER_1
 62
   250
 10
-14.1576
 20
-26.1729
 30
0.0
  0
VERTEX
  5
338
  8
LAYER_1
 62
   250
 10
-15.3814
 20
-26.5549
 30
0.0
  0
VERTEX
  5
339
  8
LAYER_1
 62
   250
 10
-16.6932
 20
-26.6882
 30
0.0
  0
VERTEX
  5
33A
  8
LAYER_1
 62
   250
 10
-68.6328
 20
-26.6882
 30
0.0
  0
VERTEX
  5
33B
  8
LAYER_1
 62
   250
 10
-69.9446
 20
-26.5549
 30
0.0
  0
VERTEX
  5
33C
  8
LAYER_1
 62
   250
 10
-71.1684
 20
-26.1729
 30
0.0
  0
VERTEX
  5
33D
  8
LAYER_1
 62
   250
 10
-72.2774
 20
-25.569
 30
0.0
  0
VERTEX
  5
33E
  8
LAYER_1
 62
   250
 10
-73.2448
 20
-24.77
 30
0.0
  0
VERTEX
  5
33F
  8
LAYER_1
 62
   250
 10
-74.0438
 20
-23.8026
 30
0.0
  0
VERTEX
  5
340
  8
LAYER_1
 62
   250
 10
-74.6477
 20
-22.6936
 30
0.0
  0
VERTEX
  5
341
  8
LAYER_1
 62
   250
 10
-75.0297
 20
-21.4699
 30
0.0
  0
VERTEX
  5
342
  8
LAYER_1
 62
   250
 10
-75.163
 20
-20.1581
 30
0.0
  0
VERTEX
  5
343
  8
LAYER_1
 62
   250
 10
-75.163
 20
-3.2184
 30
0.0
  0
VERTEX
  5
344
  8
LAYER_1
 62
   250
 10
-75.0297
 20
-1.9066
 30
0.0
  0
VERTEX
  5
345
  8
LAYER_1
 62
   250
 10
-74.6477
 20
-0.6829
 30
0.0
  0
VERTEX
  5
346
  8
LAYER_1
 62
   250
 10
-74.0438
 20
0.4261
 30
0.0
  0
VERTEX
  5
347
  8
LAYER_1
 62
   250
 10
-73.2448
 20
1.3936
 30
0.0
  0
VERTEX
  5
348
  8
LAYER_1
 62
   250
 10
-72.2774
 20
2.1926
 30
0.0
  0
VERTEX
  5
349
  8
LAYER_1
 62
   250
 10
-71.1684
 20
2.7965
 30
0.0
  0
VERTEX
  5
34A
  8
LAYER_1
 62
   250
 10
-69.9446
 20
3.1785
 30
0.0
  0
VERTEX
  5
34B
  8
LAYER_1
 62
   250
 10
-68.6328
 20
3.3118
 30
0.0
  0
SEQEND
  5
34C
  8
LAYER_1
 62
   250
  0
POLYLINE
  5
5C
  8
LAYER_1
 62
   250
 66
     1
 10
0.0
 20
0.0
 30
0.0
 70
     1
  0
VERTEX
  5
34D
  8
LAYER_1
 62
   250
 10
-13.913
 20
-10.1883
 30
0.0
  0
VERTEX
  5
34E
  8
LAYER_1
 62
   250
 10
-14.20563548302419
 20
-10.21712207939515
 30
0.0
  0
VERTEX
  5
34F
  8
LAYER_1
 62
   250
 10
-14.48702514854764
 20
-10.30248070123307
 30
0.0
  0
VERTEX
  5
350
  8
LAYER_1
 62
   250
 10
-14.7463553495294
 20
-10.44109558154618
 30
0.0
  0
VERTEX
  5
351
  8
LAYER_1
 62
   250
 10
-14.97366017177982
 20
-10.62763982822018
 30
0.0
  0
VERTEX
  5
352
  8
LAYER_1
 62
   250
 10
-15.16020441845382
 20
-10.8549446504706
 30
0.0
  0
VERTEX
  5
353
  8
LAYER_1
 62
   250
 10
-15.29881929876693
 20
-11.11427485145236
 30
0.0
  0
VERTEX
  5
354
  8
LAYER_1
 62
   250
 10
-15.38417792060485
 20
-11.39566451697581
 30
0.0
  0
VERTEX
  5
355
  8
LAYER_1
 62
   250
 10
-15.413
 20
-11.6883
 30
0.0
  0
VERTEX
  5
356
  8
LAYER_1
 62
   250
 10
-15.38417792060485
 20
-11.98093548302419
 30
0.0
  0
VERTEX
  5
357
  8
LAYER_1
 62
   250
 10
-15.29881929876693
 20
-12.26232514854764
 30
0.0
  0
VERTEX
  5
358
  8
LAYER_1
 62
   250
 10
-15.16020441845382
 20
-12.5216553495294
 30
0.0
  0
VERTEX
  5
359
  8
LAYER_1
 62
   250
 10
-14.97366017177982
 20
-12.74896017177982
 30
0.0
  0
VERTEX
  5
35A
  8
LAYER_1
 62
   250
 10
-14.7463553495294
 20
-12.93550441845382
 30
0.0
  0
VERTEX
  5
35B
  8
LAYER_1
 62
   250
 10
-14.48702514854763
 20
-13.07411929876693
 30
0.0
  0
VERTEX
  5
35C
  8
LAYER_1
 62
   250
 10
-14.20563548302419
 20
-13.15947792060485
 30
0.0
  0
VERTEX
  5
35D
  8
LAYER_1
 62
   250
 10
-13.913
 20
-13.1883
 30
0.0
  0
VERTEX
  5
35E
  8
LAYER_1
 62
   250
 10
-13.62036451697581
 20
-13.15947792060484
 30
0.0
  0
VERTEX
  5
35F
  8
LAYER_1
 62
   250
 10
-13.33897485145236
 20
-13.07411929876693
 30
0.0
  0
VERTEX
  5
360
  8
LAYER_1
 62
   250
 10
-13.07964465047059
 20
-12.93550441845382
 30
0.0
  0
VERTEX
  5
361
  8
LAYER_1
 62
   250
 10
-12.85233982822018
 20
-12.74896017177982
 30
0.0
  0
VERTEX
  5
362
  8
LAYER_1
 62
   250
 10
-12.66579558154618
 20
-12.5216553495294
 30
0.0
  0
VERTEX
  5
363
  8
LAYER_1
 62
   250
 10
-12.52718070123307
 20
-12.26232514854763
 30
0.0
  0
VERTEX
  5
364
  8
LAYER_1
 62
   250
 10
-12.44182207939515
 20
-11.98093548302419
 30
0.0
  0
VERTEX
  5
365
  8
LAYER_1
 62
   250
 10
-12.413
 20
-11.6883
 30
0.0
  0
VERTEX
  5
366
  8
LAYER_1
 62
   250
 10
-12.44182207939516
 20
-11.3956645169758
 30
0.0
  0
VERTEX
  5
367
  8
LAYER_1
 62
   250
 10
-12.52718070123307
 20
-11.11427485145236
 30
0.0
  0
VERTEX
  5
368
  8
LAYER_1
 62
   250
 10
-12.66579558154618
 20
-10.85494465047059
 30
0.0
  0
VERTEX
  5
369
  8
LAYER_1
 62
   250
 10
-12.85233982822018
 20
-10.62763982822018
 30
0.0
  0
VERTEX
  5
36A
  8
LAYER_1
 62
   250
 10
-13.0796446504706
 20
-10.44109558154618
 30
0.0
  0
VERTEX
  5
36B
  8
LAYER_1
 62
   250
 10
-13.33897485145237
 20
-10.30248070123307
 30
0.0
  0
VERTEX
  5
36C
  8
LAYER_1
 62
   250
 10
-13.62036451697581
 20
-10.21712207939515
 30
0.0
  0
SEQEND
  5
36D
  8
LAYER_1
 62
   250
  0
POLYLINE
  5
5D
  8
LAYER_1
 62
   250
 66
     1
 10
0.0
 20
0.0
 30
0.0
 70
     1
  0
VERTEX
  5
36E
  8
LAYER_1
 62
   250
 10
-71.413
 20
-10.1883
 30
0.0
  0
VERTEX
  5
36F
  8
LAYER_1
 62
   250
 10
-71.7056354830242
 20
-10.21712207939515
 30
0.0
  0
VERTEX
  5
370
  8
LAYER_1
 62
   250
 10
-71.98702514854763
 20
-10.30248070123307
 30
0.0
  0
VERTEX
  5
371
  8
LAYER_1
 62
   250
 10
-72.2463553495294
 20
-10.44109558154618
 30
0.0
  0
VERTEX
  5
372
  8
LAYER_1
 62
   250
 10
-72.47366017177981
 20
-10.62763982822018
 30
0.0
  0
VERTEX
  5
373
  8
LAYER_1
 62
   250
 10
-72.66020441845382
 20
-10.8549446504706
 30
0.0
  0
VERTEX
  5
374
  8
LAYER_1
 62
   250
 10
-72.79881929876693
 20
-11.11427485145236
 30
0.0
  0
VERTEX
  5
375
  8
LAYER_1
 62
   250
 10
-72.88417792060484
 20
-11.39566451697581
 30
0.0
  0
VERTEX
  5
376
  8
LAYER_1
 62
   250
 10
-72.913
 20
-11.6883
 30
0.0
  0
VERTEX
  5
377
  8
LAYER_1
 62
   250
 10
-72.88417792060484
 20
-11.98093548302419
 30
0.0
  0
VERTEX
  5
378
  8
LAYER_1
 62
   250
 10
-72.79881929876693
 20
-12.26232514854764
 30
0.0
  0
VERTEX
  5
379
  8
LAYER_1
 62
   250
 10
-72.66020441845382
 20
-12.5216553495294
 30
0.0
  0
VERTEX
  5
37A
  8
LAYER_1
 62
   250
 10
-72.47366017177981
 20
-12.74896017177982
 30
0.0
  0
VERTEX
  5
37B
  8
LAYER_1
 62
   250
 10
-72.2463553495294
 20
-12.93550441845382
 30
0.0
  0
VERTEX
  5
37C
  8
LAYER_1
 62
   250
 10
-71.98702514854763
 20
-13.07411929876693
 30
0.0
  0
VERTEX
  5
37D
  8
LAYER_1
 62
   250
 10
-71.70563548302418
 20
-13.15947792060485
 30
0.0
  0
VERTEX
  5
37E
  8
LAYER_1
 62
   250
 10
-71.413
 20
-13.1883
 30
0.0
  0
VERTEX
  5
37F
  8
LAYER_1
 62
   250
 10
-71.1203645169758
 20
-13.15947792060484
 30
0.0
  0
VERTEX
  5
380
  8
LAYER_1
 62
   250
 10
-70.83897485145236
 20
-13.07411929876693
 30
0.0
  0
VERTEX
  5
381
  8
LAYER_1
 62
   250
 10
-70.5796446504706
 20
-12.93550441845382
 30
0.0
  0
VERTEX
  5
382
  8
LAYER_1
 62
   250
 10
-70.35233982822017
 20
-12.74896017177982
 30
0.0
  0
VERTEX
  5
383
  8
LAYER_1
 62
   250
 10
-70.16579558154618
 20
-12.5216553495294
 30
0.0
  0
VERTEX
  5
384
  8
LAYER_1
 62
   250
 10
-70.02718070123306
 20
-12.26232514854763
 30
0.0
  0
VERTEX
  5
385
  8
LAYER_1
 62
   250
 10
-69.94182207939515
 20
-11.98093548302419
 30
0.0
  0
VERTEX
  5
386
  8
LAYER_1
 62
   250
 10
-69.913
 20
-11.6883
 30
0.0
  0
VERTEX
  5
387
  8
LAYER_1
 62
   250
 10
-69.94182207939515
 20
-11.3956645169758
 30
0.0
  0
VERTEX
  5
388
  8
LAYER_1
 62
   250
 10
-70.02718070123306
 20
-11.11427485145236
 30
0.0
  0
VERTEX
  5
389
  8
LAYER_1
 62
   250
 10
-70.16579558154618
 20
-10.85494465047059
 30
0.0
  0
VERTEX
  5
38A
  8
LAYER_1
 62
   250
 10
-70.35233982822018
 20
-10.62763982822018
 30
0.0
  0
VERTEX
  5
38B
  8
LAYER_1
 62
   250
 10
-70.5796446504706
 20
-10.44109558154618
 30
0.0
  0
VERTEX
  5
38C
  8
LAYER_1
 62
   250
 10
-70.83897485145236
 20
-10.30248070123307
 30
0.0
  0
VERTEX
  5
38D
  8
LAYER_1
 62
   250
 10
-71.12036451697581
 20
-10.21712207939515
 30
0.0
  0
SEQEND
  5
38E
  8
LAYER_1
 62
   250
  0
POLYLINE
  5
5E
  8
LAYER_1
 62
   250
 66
     1
 10
0.0
 20
0.0
 30
0.0
  0
VERTEX
  5
38F
  8
LAYER_1
 62
   250
 10
-35.572
 20
28.5228
 30
0.0
  0
VERTEX
  5
390
  8
LAYER_1
 62
   250
 10
-35.5841
 20
33.7118
 30
0.0
  0
VERTEX
  5
391
  8
LAYER_1
 62
   250
 10
-32.5784
 20
33.7118
 30
0.0
  0
VERTEX
  5
392
  8
LAYER_1
 62
   250
 10
-31.5124
 20
33.6033
 30
0.0
  0
VERTEX
  5
393
  8
LAYER_1
 62
   250
 10
-30.518
 20
33.2923
 30
0.0
  0
VERTEX
  5
394
  8
LAYER_1
 62
   250
 10
-29.6168
 20
32.8009
 30
0.0
  0
VERTEX
  5
395
  8
LAYER_1
 62
   250
 10
-28.8307
 20
32.151
 30
0.0
  0
VERTEX
  5
396
  8
LAYER_1
 62
   250
 10
-28.1814
 20
31.3645
 30
0.0
  0
VERTEX
  5
397
  8
LAYER_1
 62
   250
 10
-27.6907
 20
30.4635
 30
0.0
  0
VERTEX
  5
398
  8
LAYER_1
 62
   250
 10
-27.3803
 20
29.4698
 30
0.0
  0
VERTEX
  5
399
  8
LAYER_1
 62
   250
 10
-27.272
 20
28.4054
 30
0.0
  0
VERTEX
  5
39A
  8
LAYER_1
 62
   250
 10
-27.272
 20
14.6402
 30
0.0
  0
VERTEX
  5
39B
  8
LAYER_1
 62
   250
 10
-27.3805
 20
13.5758
 30
0.0
  0
VERTEX
  5
39C
  8
LAYER_1
 62
   250
 10
-27.6915
 20
12.582
 30
0.0
  0
VERTEX
  5
39D
  8
LAYER_1
 62
   250
 10
-28.1828
 20
11.681
 30
0.0
  0
VERTEX
  5
39E
  8
LAYER_1
 62
   250
 10
-28.8328
 20
10.8945
 30
0.0
  0
VERTEX
  5
39F
  8
LAYER_1
 62
   250
 10
-29.6192
 20
10.2446
 30
0.0
  0
VERTEX
  5
3A0
  8
LAYER_1
 62
   250
 10
-30.5203
 20
9.7532
 30
0.0
  0
VERTEX
  5
3A1
  8
LAYER_1
 62
   250
 10
-31.514
 20
9.4423
 30
0.0
  0
VERTEX
  5
3A2
  8
LAYER_1
 62
   250
 10
-32.5784
 20
9.3338
 30
0.0
  0
VERTEX
  5
3A3
  8
LAYER_1
 62
   250
 10
-35.5838
 20
9.3338
 30
0.0
  0
VERTEX
  5
3A4
  8
LAYER_1
 62
   250
 10
-35.572
 20
14.5228
 30
0.0
  0
SEQEND
  5
3A5
  8
LAYER_1
 62
   250
  0
POLYLINE
  5
5F
  8
LAYER_1
 62
   250
 66
     1
 10
0.0
 20
0.0
 30
0.0
  0
VERTEX
  5
3A6
  8
LAYER_1
 62
   250
 10
-63.0247
 20
126.7776
 30
0.0
  0
VERTEX
  5
3A7
  8
LAYER_1
 62
   250
 10
-62.7901
 20
127.0791
 30
0.0
  0
VERTEX
  5
3A8
  8
LAYER_1
 62
   250
 10
-62.5349
 20
127.3627
 30
0.0
  0
VERTEX
  5
3A9
  8
LAYER_1
 62
   250
 10
-62.2602
 20
127.6276
 30
0.0
  0
VERTEX
  5
3AA
  8
LAYER_1
 62
   250
 10
-61.967
 20
127.8725
 30
0.0
  0
SEQEND
  5
3AB
  8
LAYER_1
 62
   250
  0
POLYLINE
  5
60
  8
LAYER_1
 62
   250
 66
     1
 10
0.0
 20
0.0
 30
0.0
 70
     1
  0
VERTEX
  5
3AC
  8
LAYER_1
 62
   250
 10
-61.5353
 20
126.0043
 30
0.0
  0
VERTEX
  5
3AD
  8
LAYER_1
 62
   250
 10
-61.5117
 20
125.7705
 30
0.0
  0
VERTEX
  5
3AE
  8
LAYER_1
 62
   250
 10
-61.4441
 20
125.5528
 30
0.0
  0
VERTEX
  5
3AF
  8
LAYER_1
 62
   250
 10
-61.3372
 20
125.3558
 30
0.0
  0
VERTEX
  5
3B0
  8
LAYER_1
 62
   250
 10
-61.1955
 20
125.1841
 30
0.0
  0
VERTEX
  5
3B1
  8
LAYER_1
 62
   250
 10
-61.0238
 20
125.0424
 30
0.0
  0
VERTEX
  5
3B2
  8
LAYER_1
 62
   250
 10
-60.8268
 20
124.9355
 30
0.0
  0
VERTEX
  5
3B3
  8
LAYER_1
 62
   250
 10
-60.609
 20
124.8679
 30
0.0
  0
VERTEX
  5
3B4
  8
LAYER_1
 62
   250
 10
-60.3752
 20
124.8443
 30
0.0
  0
VERTEX
  5
3B5
  8
LAYER_1
 62
   250
 10
-60.1414
 20
124.8679
 30
0.0
  0
VERTEX
  5
3B6
  8
LAYER_1
 62
   250
 10
-59.9237
 20
124.9355
 30
0.0
  0
VERTEX
  5
3B7
  8
LAYER_1
 62
   250
 10
-59.7267
 20
125.0424
 30
0.0
  0
VERTEX
  5
3B8
  8
LAYER_1
 62
   250
 10
-59.555
 20
125.1841
 30
0.0
  0
VERTEX
  5
3B9
  8
LAYER_1
 62
   250
 10
-59.4133
 20
125.3558
 30
0.0
  0
VERTEX
  5
3BA
  8
LAYER_1
 62
   250
 10
-59.3064
 20
125.5528
 30
0.0
  0
VERTEX
  5
3BB
  8
LAYER_1
 62
   250
 10
-59.2388
 20
125.7705
 30
0.0
  0
VERTEX
  5
3BC
  8
LAYER_1
 62
   250
 10
-59.2152
 20
126.0043
 30
0.0
  0
VERTEX
  5
3BD
  8
LAYER_1
 62
   250
 10
-59.2388
 20
126.2381
 30
0.0
  0
VERTEX
  5
3BE
  8
LAYER_1
 62
   250
 10
-59.3064
 20
126.4559
 30
0.0
  0
VERTEX
  5
3BF
  8
LAYER_1
 62
   250
 10
-59.4133
 20
126.6529
 30
0.0
  0
VERTEX
  5
3C0
  8
LAYER_1
 62
   250
 10
-59.555
 20
126.8246
 30
0.0
  0
VERTEX
  5
3C1
  8
LAYER_1
 62
   250
 10
-59.7267
 20
126.9663
 30
0.0
  0
VERTEX
  5
3C2
  8
LAYER_1
 62
   250
 10
-59.9237
 20
127.0732
 30
0.0
  0
VERTEX
  5
3C3
  8
LAYER_1
 62
   250
 10
-60.1414
 20
127.1408
 30
0.0
  0
VERTEX
  5
3C4
  8
LAYER_1
 62
   250
 10
-60.3752
 20
127.1644
 30
0.0
  0
VERTEX
  5
3C5
  8
LAYER_1
 62
   250
 10
-60.609
 20
127.1408
 30
0.0
  0
VERTEX
  5
3C6
  8
LAYER_1
 62
   250
 10
-60.8268
 20
127.0732
 30
0.0
  0
VERTEX
  5
3C7
  8
LAYER_1
 62
   250
 10
-61.0238
 20
126.9663
 30
0.0
  0
VERTEX
  5
3C8
  8
LAYER_1
 62
   250
 10
-61.1955
 20
126.8246
 30
0.0
  0
VERTEX
  5
3C9
  8
LAYER_1
 62
   250
 10
-61.3372
 20
126.6529
 30
0.0
  0
VERTEX
  5
3CA
  8
LAYER_1
 62
   250
 10
-61.4441
 20
126.4559
 30
0.0
  0
VERTEX
  5
3CB
  8
LAYER_1
 62
   250
 10
-61.5117
 20
126.2381
 30
0.0
  0
VERTEX
  5
3CC
  8
LAYER_1
 62
   250
 10
-61.5353
 20
126.0043
 30
0.0
  0
SEQEND
  5
3CD
  8
LAYER_1
 62
   250
  0
POLYLINE
  5
61
  8
LAYER_1
 62
   250
 66
     1
 10
0.0
 20
0.0
 30
0.0
 70
     1
  0
VERTEX
  5
3CE
  8
LAYER_1
 62
   250
 10
-66.2221
 20
122.0333
 30
0.0
  0
VERTEX
  5
3CF
  8
LAYER_1
 62
   250
 10
-61.7515
 20
125.0441
 30
0.0
  0
VERTEX
  5
3D0
  8
LAYER_1
 62
   250
 10
-61.6706
 20
124.938
 30
0.0
  0
VERTEX
  5
3D1
  8
LAYER_1
 62
   250
 10
-61.5726
 20
124.8313
 30
0.0
  0
VERTEX
  5
3D2
  8
LAYER_1
 62
   250
 10
-61.4677
 20
124.7324
 30
0.0
  0
VERTEX
  5
3D3
  8
LAYER_1
 62
   250
 10
-61.366
 20
124.6498
 30
0.0
  0
VERTEX
  5
3D4
  8
LAYER_1
 62
   250
 10
-65.2487
 20
119.4336
 30
0.0
  0
VERTEX
  5
3D5
  8
LAYER_1
 62
   250
 10
-65.4108
 20
119.7266
 30
0.0
  0
VERTEX
  5
3D6
  8
LAYER_1
 62
   250
 10
-65.565
 20
120.0361
 30
0.0
  0
VERTEX
  5
3D7
  8
LAYER_1
 62
   250
 10
-65.7094
 20
120.3584
 30
0.0
  0
VERTEX
  5
3D8
  8
LAYER_1
 62
   250
 10
-65.8423
 20
120.6898
 30
0.0
  0
VERTEX
  5
3D9
  8
LAYER_1
 62
   250
 10
-65.9618
 20
121.0267
 30
0.0
  0
VERTEX
  5
3DA
  8
LAYER_1
 62
   250
 10
-66.0661
 20
121.3654
 30
0.0
  0
VERTEX
  5
3DB
  8
LAYER_1
 62
   250
 10
-66.1535
 20
121.7021
 30
0.0
  0
VERTEX
  5
3DC
  8
LAYER_1
 62
   250
 10
-66.2221
 20
122.0333
 30
0.0
  0
SEQEND
  5
3DD
  8
LAYER_1
 62
   250
  0
POLYLINE
  5
62
  8
LAYER_1
 62
   250
 66
     1
 10
0.0
 20
0.0
 30
0.0
 70
     1
  0
VERTEX
  5
3DE
  8
LAYER_1
 62
   250
 10
-65.3108
 20
127.5541
 30
0.0
  0
VERTEX
  5
3DF
  8
LAYER_1
 62
   250
 10
-61.9854
 20
126.4781
 30
0.0
  0
VERTEX
  5
3E0
  8
LAYER_1
 62
   250
 10
-62.0181
 20
126.3483
 30
0.0
  0
VERTEX
  5
3E1
  8
LAYER_1
 62
   250
 10
-62.0394
 20
126.2038
 30
0.0
  0
VERTEX
  5
3E2
  8
LAYER_1
 62
   250
 10
-62.0502
 20
126.0586
 30
0.0
  0
VERTEX
  5
3E3
  8
LAYER_1
 62
   250
 10
-62.0515
 20
125.9269
 30
0.0
  0
VERTEX
  5
3E4
  8
LAYER_1
 62
   250
 10
-66.0678
 20
125.829
 30
0.0
  0
VERTEX
  5
3E5
  8
LAYER_1
 62
   250
 10
-66.0014
 20
126.0516
 30
0.0
  0
VERTEX
  5
3E6
  8
LAYER_1
 62
   250
 10
-65.9227
 20
126.2737
 30
0.0
  0
VERTEX
  5
3E7
  8
LAYER_1
 62
   250
 10
-65.8338
 20
126.4944
 30
0.0
  0
VERTEX
  5
3E8
  8
LAYER_1
 62
   250
 10
-65.7368
 20
126.7132
 30
0.0
  0
VERTEX
  5
3E9
  8
LAYER_1
 62
   250
 10
-65.5271
 20
127.1418
 30
0.0
  0
VERTEX
  5
3EA
  8
LAYER_1
 62
   250
 10
-65.3108
 20
127.5541
 30
0.0
  0
SEQEND
  5
3EB
  8
LAYER_1
 62
   250
  0
POLYLINE
  5
63
  8
LAYER_1
 62
   250
 66
     1
 10
0.0
 20
0.0
 30
0.0
 70
     1
  0
VERTEX
  5
3EC
  8
LAYER_1
 62
   250
 10
-62.1183
 20
130.6519
 30
0.0
  0
VERTEX
  5
3ED
  8
LAYER_1
 62
   250
 10
-60.9935
 20
127.5648
 30
0.0
  0
VERTEX
  5
3EE
  8
LAYER_1
 62
   250
 10
-61.1168
 20
127.5098
 30
0.0
  0
VERTEX
  5
3EF
  8
LAYER_1
 62
   250
 10
-61.246
 20
127.4356
 30
0.0
  0
VERTEX
  5
3F0
  8
LAYER_1
 62
   250
 10
-61.3692
 20
127.3529
 30
0.0
  0
VERTEX
  5
3F1
  8
LAYER_1
 62
   250
 10
-61.4747
 20
127.2719
 30
0.0
  0
VERTEX
  5
3F2
  8
LAYER_1
 62
   250
 10
-63.4993
 20
129.7418
 30
0.0
  0
VERTEX
  5
3F3
  8
LAYER_1
 62
   250
 10
-63.1772
 20
129.9857
 30
0.0
  0
VERTEX
  5
3F4
  8
LAYER_1
 62
   250
 10
-62.832
 20
130.2323
 30
0.0
  0
VERTEX
  5
3F5
  8
LAYER_1
 62
   250
 10
-62.4752
 20
130.4611
 30
0.0
  0
VERTEX
  5
3F6
  8
LAYER_1
 62
   250
 10
-62.1183
 20
130.6519
 30
0.0
  0
SEQEND
  5
3F7
  8
LAYER_1
 62
   250
  0
POLYLINE
  5
64
  8
LAYER_1
 62
   250
 66
     1
 10
0.0
 20
0.0
 30
0.0
 70
     1
  0
VERTEX
  5
3F8
  8
LAYER_1
 62
   250
 10
-57.0188
 20
131.4834
 30
0.0
  0
VERTEX
  5
3F9
  8
LAYER_1
 62
   250
 10
-57.3497
 20
131.5323
 30
0.0
  0
VERTEX
  5
3FA
  8
LAYER_1
 62
   250
 10
-57.6879
 20
131.5657
 30
0.0
  0
VERTEX
  5
3FB
  8
LAYER_1
 62
   250
 10
-58.027
 20
131.5848
 30
0.0
  0
VERTEX
  5
3FC
  8
LAYER_1
 62
   250
 10
-58.3607
 20
131.5909
 30
0.0
  0
VERTEX
  5
3FD
  8
LAYER_1
 62
   250
 10
-59.1551
 20
131.5555
 30
0.0
  0
VERTEX
  5
3FE
  8
LAYER_1
 62
   250
 10
-60.0399
 20
127.6489
 30
0.0
  0
VERTEX
  5
3FF
  8
LAYER_1
 62
   250
 10
-59.9107
 20
127.6144
 30
0.0
  0
VERTEX
  5
400
  8
LAYER_1
 62
   250
 10
-59.7689
 20
127.5658
 30
0.0
  0
VERTEX
  5
401
  8
LAYER_1
 62
   250
 10
-59.6302
 20
127.5071
 30
0.0
  0
VERTEX
  5
402
  8
LAYER_1
 62
   250
 10
-59.5105
 20
127.4427
 30
0.0
  0
VERTEX
  5
403
  8
LAYER_1
 62
   250
 10
-57.0188
 20
131.4834
 30
0.0
  0
SEQEND
  5
404
  8
LAYER_1
 62
   250
  0
POLYLINE
  5
65
  8
LAYER_1
 62
   250
 66
     1
 10
0.0
 20
0.0
 30
0.0
 70
     1
  0
VERTEX
  5
405
  8
LAYER_1
 62
   250
 10
-52.6284
 20
117.9683
 30
0.0
  0
VERTEX
  5
406
  8
LAYER_1
 62
   250
 10
-52.319
 20
118.3078
 30
0.0
  0
VERTEX
  5
407
  8
LAYER_1
 62
   250
 10
-52.0262
 20
118.6687
 30
0.0
  0
VERTEX
  5
408
  8
LAYER_1
 62
   250
 10
-51.7517
 20
119.0487
 30
0.0
  0
VERTEX
  5
409
  8
LAYER_1
 62
   250
 10
-51.4973
 20
119.4457
 30
0.0
  0
VERTEX
  5
40A
  8
LAYER_1
 62
   250
 10
-51.265
 20
119.8573
 30
0.0
  0
VERTEX
  5
40B
  8
LAYER_1
 62
   250
 10
-51.0566
 20
120.2812
 30
0.0
  0
VERTEX
  5
40C
  8
LAYER_1
 62
   250
 10
-50.8739
 20
120.7153
 30
0.0
  0
VERTEX
  5
40D
  8
LAYER_1
 62
   250
 10
-50.7188
 20
121.1571
 30
0.0
  0
VERTEX
  5
40E
  8
LAYER_1
 62
   250
 10
-58.8793
 20
125.2432
 30
0.0
  0
VERTEX
  5
40F
  8
LAYER_1
 62
   250
 10
-58.9452
 20
125.1282
 30
0.0
  0
VERTEX
  5
410
  8
LAYER_1
 62
   250
 10
-59.0294
 20
125.0066
 30
0.0
  0
VERTEX
  5
411
  8
LAYER_1
 62
   250
 10
-59.1225
 20
124.8905
 30
0.0
  0
VERTEX
  5
412
  8
LAYER_1
 62
   250
 10
-59.2152
 20
124.7919
 30
0.0
  0
VERTEX
  5
413
  8
LAYER_1
 62
   250
 10
-52.6284
 20
117.9683
 30
0.0
  0
SEQEND
  5
414
  8
LAYER_1
 62
   250
  0
POLYLINE
  5
66
  8
LAYER_1
 62
   250
 66
     1
 10
0.0
 20
0.0
 30
0.0
 70
     1
  0
VERTEX
  5
415
  8
LAYER_1
 62
   250
 10
-61.7398
 20
116.3006
 30
0.0
  0
VERTEX
  5
416
  8
LAYER_1
 62
   250
 10
-61.3429
 20
116.1353
 30
0.0
  0
VERTEX
  5
417
  8
LAYER_1
 62
   250
 10
-60.9274
 20
115.9883
 30
0.0
  0
VERTEX
  5
418
  8
LAYER_1
 62
   250
 10
-60.4975
 20
115.861
 30
0.0
  0
VERTEX
  5
419
  8
LAYER_1
 62
   250
 10
-60.0574
 20
115.7543
 30
0.0
  0
VERTEX
  5
41A
  8
LAYER_1
 62
   250
 10
-59.6114
 20
115.6695
 30
0.0
  0
VERTEX
  5
41B
  8
LAYER_1
 62
   250
 10
-59.1635
 20
115.6077
 30
0.0
  0
VERTEX
  5
41C
  8
LAYER_1
 62
   250
 10
-58.718
 20
115.5699
 30
0.0
  0
VERTEX
  5
41D
  8
LAYER_1
 62
   250
 10
-58.279
 20
115.5574
 30
0.0
  0
VERTEX
  5
41E
  8
LAYER_1
 62
   250
 10
-60.0508
 20
124.3576
 30
0.0
  0
VERTEX
  5
41F
  8
LAYER_1
 62
   250
 10
-60.1808
 20
124.3383
 30
0.0
  0
VERTEX
  5
420
  8
LAYER_1
 62
   250
 10
-60.3256
 20
124.3289
 30
0.0
  0
VERTEX
  5
421
  8
LAYER_1
 62
   250
 10
-60.4717
 20
124.3299
 30
0.0
  0
VERTEX
  5
422
  8
LAYER_1
 62
   250
 10
-60.6051
 20
124.3419
 30
0.0
  0
VERTEX
  5
423
  8
LAYER_1
 62
   250
 10
-61.7398
 20
116.3006
 30
0.0
  0
SEQEND
  5
424
  8
LAYER_1
 62
   250
  0
POLYLINE
  5
67
  8
LAYER_1
 62
   250
 66
     1
 10
0.0
 20
0.0
 30
0.0
 70
     1
  0
VERTEX
  5
425
  8
LAYER_1
 62
   250
 10
-51.0874
 20
126.9854
 30
0.0
  0
VERTEX
  5
426
  8
LAYER_1
 62
   250
 10
-51.2641
 20
127.3363
 30
0.0
  0
VERTEX
  5
427
  8
LAYER_1
 62
   250
 10
-51.4598
 20
127.6821
 30
0.0
  0
VERTEX
  5
428
  8
LAYER_1
 62
   250
 10
-51.6733
 20
128.0204
 30
0.0
  0
VERTEX
  5
429
  8
LAYER_1
 62
   250
 10
-51.9038
 20
128.3491
 30
0.0
  0
VERTEX
  5
42A
  8
LAYER_1
 62
   250
 10
-52.1502
 20
128.6661
 30
0.0
  0
VERTEX
  5
42B
  8
LAYER_1
 62
   250
 10
-52.4115
 20
128.9692
 30
0.0
  0
VERTEX
  5
42C
  8
LAYER_1
 62
   250
 10
-52.6867
 20
129.2561
 30
0.0
  0
VERTEX
  5
42D
  8
LAYER_1
 62
   250
 10
-52.9747
 20
129.5248
 30
0.0
  0
VERTEX
  5
42E
  8
LAYER_1
 62
   250
 10
-58.862
 20
126.7305
 30
0.0
  0
VERTEX
  5
42F
  8
LAYER_1
 62
   250
 10
-58.8109
 20
126.6069
 30
0.0
  0
VERTEX
  5
430
  8
LAYER_1
 62
   250
 10
-58.7646
 20
126.464
 30
0.0
  0
VERTEX
  5
431
  8
LAYER_1
 62
   250
 10
-58.7282
 20
126.3173
 30
0.0
  0
VERTEX
  5
432
  8
LAYER_1
 62
   250
 10
-58.7065
 20
126.1828
 30
0.0
  0
VERTEX
  5
433
  8
LAYER_1
 62
   250
 10
-51.0874
 20
126.9854
 30
0.0
  0
SEQEND
  5
434
  8
LAYER_1
 62
   250
  0
POLYLINE
  5
68
  8
LAYER_1
 62
   250
 66
     1
 10
0.0
 20
0.0
 30
0.0
  0
VERTEX
  5
435
  8
LAYER_1
 62
   250
 10
-61.2723
 20
128.3304
 30
0.0
  0
VERTEX
  5
436
  8
LAYER_1
 62
   250
 10
-60.9106
 20
128.5129
 30
0.0
  0
VERTEX
  5
437
  8
LAYER_1
 62
   250
 10
-60.5367
 20
128.6675
 30
0.0
  0
VERTEX
  5
438
  8
LAYER_1
 62
   250
 10
-60.1522
 20
128.7934
 30
0.0
  0
VERTEX
  5
439
  8
LAYER_1
 62
   250
 10
-59.7588
 20
128.89
 30
0.0
  0
SEQEND
  5
43A
  8
LAYER_1
 62
   250
  0
POLYLINE
  5
69
  8
LAYER_1
 62
   250
 66
     1
 10
0.0
 20
0.0
 30
0.0
  0
VERTEX
  5
43B
  8
LAYER_1
 62
   250
 10
-58.5507
 20
128.9991
 30
0.0
  0
VERTEX
  5
43C
  8
LAYER_1
 62
   250
 10
-58.1964
 20
128.9791
 30
0.0
  0
VERTEX
  5
43D
  8
LAYER_1
 62
   250
 10
-57.8454
 20
128.936
 30
0.0
  0
VERTEX
  5
43E
  8
LAYER_1
 62
   250
 10
-57.4986
 20
128.87
 30
0.0
  0
VERTEX
  5
43F
  8
LAYER_1
 62
   250
 10
-57.1574
 20
128.7814
 30
0.0
  0
VERTEX
  5
440
  8
LAYER_1
 62
   250
 10
-56.8227
 20
128.6706
 30
0.0
  0
VERTEX
  5
441
  8
LAYER_1
 62
   250
 10
-56.4956
 20
128.5379
 30
0.0
  0
VERTEX
  5
442
  8
LAYER_1
 62
   250
 10
-56.1773
 20
128.3836
 30
0.0
  0
VERTEX
  5
443
  8
LAYER_1
 62
   250
 10
-55.8689
 20
128.2081
 30
0.0
  0
SEQEND
  5
444
  8
LAYER_1
 62
   250
  0
POLYLINE
  5
6A
  8
LAYER_1
 62
   250
 66
     1
 10
0.0
 20
0.0
 30
0.0
  0
VERTEX
  5
445
  8
LAYER_1
 62
   250
 10
-54.2389
 20
126.6533
 30
0.0
  0
VERTEX
  5
446
  8
LAYER_1
 62
   250
 10
-54.025
 20
126.3122
 30
0.0
  0
VERTEX
  5
447
  8
LAYER_1
 62
   250
 10
-53.8381
 20
125.9575
 30
0.0
  0
VERTEX
  5
448
  8
LAYER_1
 62
   250
 10
-53.6786
 20
125.5908
 30
0.0
  0
VERTEX
  5
449
  8
LAYER_1
 62
   250
 10
-53.5469
 20
125.2138
 30
0.0
  0
VERTEX
  5
44A
  8
LAYER_1
 62
   250
 10
-53.4437
 20
124.8281
 30
0.0
  0
VERTEX
  5
44B
  8
LAYER_1
 62
   250
 10
-53.3693
 20
124.4352
 30
0.0
  0
VERTEX
  5
44C
  8
LAYER_1
 62
   250
 10
-53.3243
 20
124.0367
 30
0.0
  0
VERTEX
  5
44D
  8
LAYER_1
 62
   250
 10
-53.3092
 20
123.6343
 30
0.0
  0
VERTEX
  5
44E
  8
LAYER_1
 62
   250
 10
-53.3167
 20
123.3502
 30
0.0
  0
VERTEX
  5
44F
  8
LAYER_1
 62
   250
 10
-53.3393
 20
123.0671
 30
0.0
  0
VERTEX
  5
450
  8
LAYER_1
 62
   250
 10
-53.3767
 20
122.7855
 30
0.0
  0
VERTEX
  5
451
  8
LAYER_1
 62
   250
 10
-53.4291
 20
122.5061
 30
0.0
  0
SEQEND
  5
452
  8
LAYER_1
 62
   250
  0
POLYLINE
  5
6B
  8
LAYER_1
 62
   250
 66
     1
 10
0.0
 20
0.0
 30
0.0
  0
VERTEX
  5
453
  8
LAYER_1
 62
   250
 10
-54.6424
 20
120.0945
 30
0.0
  0
VERTEX
  5
454
  8
LAYER_1
 62
   250
 10
-55.0449
 20
119.6827
 30
0.0
  0
VERTEX
  5
455
  8
LAYER_1
 62
   250
 10
-55.4852
 20
119.3194
 30
0.0
  0
VERTEX
  5
456
  8
LAYER_1
 62
   250
 10
-55.9589
 20
119.0065
 30
0.0
  0
VERTEX
  5
457
  8
LAYER_1
 62
   250
 10
-56.4618
 20
118.746
 30
0.0
  0
VERTEX
  5
458
  8
LAYER_1
 62
   250
 10
-56.9892
 20
118.5399
 30
0.0
  0
VERTEX
  5
459
  8
LAYER_1
 62
   250
 10
-57.5369
 20
118.3902
 30
0.0
  0
VERTEX
  5
45A
  8
LAYER_1
 62
   250
 10
-58.1005
 20
118.299
 30
0.0
  0
VERTEX
  5
45B
  8
LAYER_1
 62
   250
 10
-58.6754
 20
118.2681
 30
0.0
  0
VERTEX
  5
45C
  8
LAYER_1
 62
   250
 10
-58.8058
 20
118.2697
 30
0.0
  0
SEQEND
  5
45D
  8
LAYER_1
 62
   250
  0
POLYLINE
  5
6C
  8
LAYER_1
 62
   250
 66
     1
 10
0.0
 20
0.0
 30
0.0
  0
VERTEX
  5
45E
  8
LAYER_1
 62
   250
 10
-61.3607
 20
118.9883
 30
0.0
  0
VERTEX
  5
45F
  8
LAYER_1
 62
   250
 10
-61.7379
 20
119.2278
 30
0.0
  0
VERTEX
  5
460
  8
LAYER_1
 62
   250
 10
-62.0921
 20
119.4964
 30
0.0
  0
VERTEX
  5
461
  8
LAYER_1
 62
   250
 10
-62.4218
 20
119.7923
 30
0.0
  0
VERTEX
  5
462
  8
LAYER_1
 62
   250
 10
-62.7255
 20
120.1139
 30
0.0
  0
VERTEX
  5
463
  8
LAYER_1
 62
   250
 10
-63.0016
 20
120.4594
 30
0.0
  0
VERTEX
  5
464
  8
LAYER_1
 62
   250
 10
-63.2488
 20
120.8271
 30
0.0
  0
VERTEX
  5
465
  8
LAYER_1
 62
   250
 10
-63.4655
 20
121.2152
 30
0.0
  0
VERTEX
  5
466
  8
LAYER_1
 62
   250
 10
-63.6501
 20
121.6221
 30
0.0
  0
SEQEND
  5
467
  8
LAYER_1
 62
   250
  0
POLYLINE
  5
6D
  8
LAYER_1
 62
   250
 66
     1
 10
0.0
 20
0.0
 30
0.0
  0
VERTEX
  5
468
  8
LAYER_1
 62
   250
 10
-64.04
 20
123.5028
 30
0.0
  0
VERTEX
  5
469
  8
LAYER_1
 62
   250
 10
-64.0417
 20
123.6343
 30
0.0
  0
VERTEX
  5
46A
  8
LAYER_1
 62
   250
 10
-64.034
 20
123.921
 30
0.0
  0
VERTEX
  5
46B
  8
LAYER_1
 62
   250
 10
-64.0111
 20
124.2062
 30
0.0
  0
VERTEX
  5
46C
  8
LAYER_1
 62
   250
 10
-63.9731
 20
124.4894
 30
0.0
  0
VERTEX
  5
46D
  8
LAYER_1
 62
   250
 10
-63.9202
 20
124.77
 30
0.0
  0
VERTEX
  5
46E
  8
LAYER_1
 62
   250
 10
-63.8523
 20
125.0474
 30
0.0
  0
VERTEX
  5
46F
  8
LAYER_1
 62
   250
 10
-63.7698
 20
125.3209
 30
0.0
  0
VERTEX
  5
470
  8
LAYER_1
 62
   250
 10
-63.6726
 20
125.5901
 30
0.0
  0
VERTEX
  5
471
  8
LAYER_1
 62
   250
 10
-63.561
 20
125.8542
 30
0.0
  0
SEQEND
  5
472
  8
LAYER_1
 62
   250
  0
POLYLINE
  5
6E
  8
LAYER_1
 62
   250
 66
     1
 10
0.0
 20
0.0
 30
0.0
 70
     1
  0
VERTEX
  5
473
  8
LAYER_1
 62
   250
 10
-64.6503
 20
112.6859
 30
0.0
  0
VERTEX
  5
474
  8
LAYER_1
 62
   250
 10
-64.006
 20
112.6859
 30
0.0
  0
VERTEX
  5
475
  8
LAYER_1
 62
   250
 10
-64.006
 20
111.7611
 30
0.0
  0
VERTEX
  5
476
  8
LAYER_1
 62
   250
 10
-63.9836
 20
111.6099
 30
0.0
  0
VERTEX
  5
477
  8
LAYER_1
 62
   250
 10
-63.9025
 20
111.5676
 30
0.0
  0
VERTEX
  5
478
  8
LAYER_1
 62
   250
 10
-63.8551
 20
111.5797
 30
0.0
  0
VERTEX
  5
479
  8
LAYER_1
 62
   250
 10
-63.8213
 20
111.6161
 30
0.0
  0
VERTEX
  5
47A
  8
LAYER_1
 62
   250
 10
-63.801
 20
111.6765
 30
0.0
  0
VERTEX
  5
47B
  8
LAYER_1
 62
   250
 10
-63.7943
 20
111.7611
 30
0.0
  0
VERTEX
  5
47C
  8
LAYER_1
 62
   250
 10
-63.7943
 20
112.6859
 30
0.0
  0
VERTEX
  5
47D
  8
LAYER_1
 62
   250
 10
-63.1499
 20
112.6859
 30
0.0
  0
VERTEX
  5
47E
  8
LAYER_1
 62
   250
 10
-63.1499
 20
111.7611
 30
0.0
  0
VERTEX
  5
47F
  8
LAYER_1
 62
   250
 10
-63.1264
 20
111.6099
 30
0.0
  0
VERTEX
  5
480
  8
LAYER_1
 62
   250
 10
-63.0447
 20
111.5676
 30
0.0
  0
VERTEX
  5
481
  8
LAYER_1
 62
   250
 10
-62.998
 20
111.5797
 30
0.0
  0
VERTEX
  5
482
  8
LAYER_1
 62
   250
 10
-62.9648
 20
111.6161
 30
0.0
  0
VERTEX
  5
483
  8
LAYER_1
 62
   250
 10
-62.9448
 20
111.6765
 30
0.0
  0
VERTEX
  5
484
  8
LAYER_1
 62
   250
 10
-62.9382
 20
111.7611
 30
0.0
  0
VERTEX
  5
485
  8
LAYER_1
 62
   250
 10
-62.9382
 20
112.6859
 30
0.0
  0
VERTEX
  5
486
  8
LAYER_1
 62
   250
 10
-62.2938
 20
112.6859
 30
0.0
  0
VERTEX
  5
487
  8
LAYER_1
 62
   250
 10
-62.2938
 20
111.6282
 30
0.0
  0
VERTEX
  5
488
  8
LAYER_1
 62
   250
 10
-62.3059
 20
111.4889
 30
0.0
  0
VERTEX
  5
489
  8
LAYER_1
 62
   250
 10
-62.3424
 20
111.3605
 30
0.0
  0
VERTEX
  5
48A
  8
LAYER_1
 62
   250
 10
-62.4032
 20
111.2429
 30
0.0
  0
VERTEX
  5
48B
  8
LAYER_1
 62
   250
 10
-62.4885
 20
111.1361
 30
0.0
  0
VERTEX
  5
48C
  8
LAYER_1
 62
   250
 10
-62.591
 20
111.0477
 30
0.0
  0
VERTEX
  5
48D
  8
LAYER_1
 62
   250
 10
-62.7038
 20
110.9844
 30
0.0
  0
VERTEX
  5
48E
  8
LAYER_1
 62
   250
 10
-62.827
 20
110.9465
 30
0.0
  0
VERTEX
  5
48F
  8
LAYER_1
 62
   250
 10
-62.9606
 20
110.9338
 30
0.0
  0
VERTEX
  5
490
  8
LAYER_1
 62
   250
 10
-63.0998
 20
110.9489
 30
0.0
  0
VERTEX
  5
491
  8
LAYER_1
 62
   250
 10
-63.2318
 20
110.9942
 30
0.0
  0
VERTEX
  5
492
  8
LAYER_1
 62
   250
 10
-63.3565
 20
111.0698
 30
0.0
  0
VERTEX
  5
493
  8
LAYER_1
 62
   250
 10
-63.4739
 20
111.1755
 30
0.0
  0
VERTEX
  5
494
  8
LAYER_1
 62
   250
 10
-63.5998
 20
111.0698
 30
0.0
  0
VERTEX
  5
495
  8
LAYER_1
 62
   250
 10
-63.7261
 20
110.9942
 30
0.0
  0
VERTEX
  5
496
  8
LAYER_1
 62
   250
 10
-63.8529
 20
110.9489
 30
0.0
  0
VERTEX
  5
497
  8
LAYER_1
 62
   250
 10
-63.9801
 20
110.9338
 30
0.0
  0
VERTEX
  5
498
  8
LAYER_1
 62
   250
 10
-64.1334
 20
110.9485
 30
0.0
  0
VERTEX
  5
499
  8
LAYER_1
 62
   250
 10
-64.2707
 20
110.9925
 30
0.0
  0
VERTEX
  5
49A
  8
LAYER_1
 62
   250
 10
-64.3918
 20
111.0658
 30
0.0
  0
VERTEX
  5
49B
  8
LAYER_1
 62
   250
 10
-64.4969
 20
111.1684
 30
0.0
  0
VERTEX
  5
49C
  8
LAYER_1
 62
   250
 10
-64.564
 20
111.2707
 30
0.0
  0
VERTEX
  5
49D
  8
LAYER_1
 62
   250
 10
-64.612
 20
111.3935
 30
0.0
  0
VERTEX
  5
49E
  8
LAYER_1
 62
   250
 10
-64.6407
 20
111.5367
 30
0.0
  0
VERTEX
  5
49F
  8
LAYER_1
 62
   250
 10
-64.6503
 20
111.7005
 30
0.0
  0
VERTEX
  5
4A0
  8
LAYER_1
 62
   250
 10
-64.6503
 20
112.6859
 30
0.0
  0
SEQEND
  5
4A1
  8
LAYER_1
 62
   250
  0
POLYLINE
  5
6F
  8
LAYER_1
 62
   250
 66
     1
 10
0.0
 20
0.0
 30
0.0
 70
     1
  0
VERTEX
  5
4A2
  8
LAYER_1
 62
   250
 10
-61.9169
 20
112.6859
 30
0.0
  0
VERTEX
  5
4A3
  8
LAYER_1
 62
   250
 10
-61.2726
 20
112.6859
 30
0.0
  0
VERTEX
  5
4A4
  8
LAYER_1
 62
   250
 10
-61.2726
 20
111.7611
 30
0.0
  0
VERTEX
  5
4A5
  8
LAYER_1
 62
   250
 10
-61.2502
 20
111.6099
 30
0.0
  0
VERTEX
  5
4A6
  8
LAYER_1
 62
   250
 10
-61.1691
 20
111.5676
 30
0.0
  0
VERTEX
  5
4A7
  8
LAYER_1
 62
   250
 10
-61.1217
 20
111.5797
 30
0.0
  0
VERTEX
  5
4A8
  8
LAYER_1
 62
   250
 10
-61.0879
 20
111.6161
 30
0.0
  0
VERTEX
  5
4A9
  8
LAYER_1
 62
   250
 10
-61.0676
 20
111.6765
 30
0.0
  0
VERTEX
  5
4AA
  8
LAYER_1
 62
   250
 10
-61.0609
 20
111.7611
 30
0.0
  0
VERTEX
  5
4AB
  8
LAYER_1
 62
   250
 10
-61.0609
 20
112.6859
 30
0.0
  0
VERTEX
  5
4AC
  8
LAYER_1
 62
   250
 10
-60.4165
 20
112.6859
 30
0.0
  0
VERTEX
  5
4AD
  8
LAYER_1
 62
   250
 10
-60.4165
 20
111.7611
 30
0.0
  0
VERTEX
  5
4AE
  8
LAYER_1
 62
   250
 10
-60.393
 20
111.6099
 30
0.0
  0
VERTEX
  5
4AF
  8
LAYER_1
 62
   250
 10
-60.3113
 20
111.5676
 30
0.0
  0
VERTEX
  5
4B0
  8
LAYER_1
 62
   250
 10
-60.2646
 20
111.5797
 30
0.0
  0
VERTEX
  5
4B1
  8
LAYER_1
 62
   250
 10
-60.2314
 20
111.6161
 30
0.0
  0
VERTEX
  5
4B2
  8
LAYER_1
 62
   250
 10
-60.2114
 20
111.6765
 30
0.0
  0
VERTEX
  5
4B3
  8
LAYER_1
 62
   250
 10
-60.2048
 20
111.7611
 30
0.0
  0
VERTEX
  5
4B4
  8
LAYER_1
 62
   250
 10
-60.2048
 20
112.6859
 30
0.0
  0
VERTEX
  5
4B5
  8
LAYER_1
 62
   250
 10
-59.5604
 20
112.6859
 30
0.0
  0
VERTEX
  5
4B6
  8
LAYER_1
 62
   250
 10
-59.5604
 20
111.6282
 30
0.0
  0
VERTEX
  5
4B7
  8
LAYER_1
 62
   250
 10
-59.5725
 20
111.4889
 30
0.0
  0
VERTEX
  5
4B8
  8
LAYER_1
 62
   250
 10
-59.609
 20
111.3605
 30
0.0
  0
VERTEX
  5
4B9
  8
LAYER_1
 62
   250
 10
-59.6698
 20
111.2429
 30
0.0
  0
VERTEX
  5
4BA
  8
LAYER_1
 62
   250
 10
-59.7551
 20
111.1361
 30
0.0
  0
VERTEX
  5
4BB
  8
LAYER_1
 62
   250
 10
-59.8576
 20
111.0477
 30
0.0
  0
VERTEX
  5
4BC
  8
LAYER_1
 62
   250
 10
-59.9704
 20
110.9844
 30
0.0
  0
VERTEX
  5
4BD
  8
LAYER_1
 62
   250
 10
-60.0936
 20
110.9465
 30
0.0
  0
VERTEX
  5
4BE
  8
LAYER_1
 62
   250
 10
-60.2272
 20
110.9338
 30
0.0
  0
VERTEX
  5
4BF
  8
LAYER_1
 62
   250
 10
-60.3664
 20
110.9489
 30
0.0
  0
VERTEX
  5
4C0
  8
LAYER_1
 62
   250
 10
-60.4984
 20
110.9942
 30
0.0
  0
VERTEX
  5
4C1
  8
LAYER_1
 62
   250
 10
-60.6231
 20
111.0698
 30
0.0
  0
VERTEX
  5
4C2
  8
LAYER_1
 62
   250
 10
-60.7405
 20
111.1755
 30
0.0
  0
VERTEX
  5
4C3
  8
LAYER_1
 62
   250
 10
-60.8664
 20
111.0698
 30
0.0
  0
VERTEX
  5
4C4
  8
LAYER_1
 62
   250
 10
-60.9927
 20
110.9942
 30
0.0
  0
VERTEX
  5
4C5
  8
LAYER_1
 62
   250
 10
-61.1195
 20
110.9489
 30
0.0
  0
VERTEX
  5
4C6
  8
LAYER_1
 62
   250
 10
-61.2467
 20
110.9338
 30
0.0
  0
VERTEX
  5
4C7
  8
LAYER_1
 62
   250
 10
-61.4
 20
110.9485
 30
0.0
  0
VERTEX
  5
4C8
  8
LAYER_1
 62
   250
 10
-61.5373
 20
110.9925
 30
0.0
  0
VERTEX
  5
4C9
  8
LAYER_1
 62
   250
 10
-61.6584
 20
111.0658
 30
0.0
  0
VERTEX
  5
4CA
  8
LAYER_1
 62
   250
 10
-61.7635
 20
111.1684
 30
0.0
  0
VERTEX
  5
4CB
  8
LAYER_1
 62
   250
 10
-61.8306
 20
111.2707
 30
0.0
  0
VERTEX
  5
4CC
  8
LAYER_1
 62
   250
 10
-61.8786
 20
111.3935
 30
0.0
  0
VERTEX
  5
4CD
  8
LAYER_1
 62
   250
 10
-61.9073
 20
111.5367
 30
0.0
  0
VERTEX
  5
4CE
  8
LAYER_1
 62
   250
 10
-61.9169
 20
111.7005
 30
0.0
  0
VERTEX
  5
4CF
  8
LAYER_1
 62
   250
 10
-61.9169
 20
112.6859
 30
0.0
  0
SEQEND
  5
4D0
  8
LAYER_1
 62
   250
  0
POLYLINE
  5
70
  8
LAYER_1
 62
   250
 66
     1
 10
0.0
 20
0.0
 30
0.0
 70
     1
  0
VERTEX
  5
4D1
  8
LAYER_1
 62
   250
 10
-59.1835
 20
112.6859
 30
0.0
  0
VERTEX
  5
4D2
  8
LAYER_1
 62
   250
 10
-58.5392
 20
112.6859
 30
0.0
  0
VERTEX
  5
4D3
  8
LAYER_1
 62
   250
 10
-58.5392
 20
111.7611
 30
0.0
  0
VERTEX
  5
4D4
  8
LAYER_1
 62
   250
 10
-58.5168
 20
111.6099
 30
0.0
  0
VERTEX
  5
4D5
  8
LAYER_1
 62
   250
 10
-58.4357
 20
111.5676
 30
0.0
  0
VERTEX
  5
4D6
  8
LAYER_1
 62
   250
 10
-58.3883
 20
111.5797
 30
0.0
  0
VERTEX
  5
4D7
  8
LAYER_1
 62
   250
 10
-58.3545
 20
111.6161
 30
0.0
  0
VERTEX
  5
4D8
  8
LAYER_1
 62
   250
 10
-58.3342
 20
111.6765
 30
0.0
  0
VERTEX
  5
4D9
  8
LAYER_1
 62
   250
 10
-58.3275
 20
111.7611
 30
0.0
  0
VERTEX
  5
4DA
  8
LAYER_1
 62
   250
 10
-58.3275
 20
112.6859
 30
0.0
  0
VERTEX
  5
4DB
  8
LAYER_1
 62
   250
 10
-57.6831
 20
112.6859
 30
0.0
  0
VERTEX
  5
4DC
  8
LAYER_1
 62
   250
 10
-57.6831
 20
111.7611
 30
0.0
  0
VERTEX
  5
4DD
  8
LAYER_1
 62
   250
 10
-57.6596
 20
111.6099
 30
0.0
  0
VERTEX
  5
4DE
  8
LAYER_1
 62
   250
 10
-57.5779
 20
111.5676
 30
0.0
  0
VERTEX
  5
4DF
  8
LAYER_1
 62
   250
 10
-57.5312
 20
111.5797
 30
0.0
  0
VERTEX
  5
4E0
  8
LAYER_1
 62
   250
 10
-57.498
 20
111.6161
 30
0.0
  0
VERTEX
  5
4E1
  8
LAYER_1
 62
   250
 10
-57.478
 20
111.6765
 30
0.0
  0
VERTEX
  5
4E2
  8
LAYER_1
 62
   250
 10
-57.4714
 20
111.7611
 30
0.0
  0
VERTEX
  5
4E3
  8
LAYER_1
 62
   250
 10
-57.4714
 20
112.6859
 30
0.0
  0
VERTEX
  5
4E4
  8
LAYER_1
 62
   250
 10
-56.827
 20
112.6859
 30
0.0
  0
VERTEX
  5
4E5
  8
LAYER_1
 62
   250
 10
-56.827
 20
111.6282
 30
0.0
  0
VERTEX
  5
4E6
  8
LAYER_1
 62
   250
 10
-56.8391
 20
111.4889
 30
0.0
  0
VERTEX
  5
4E7
  8
LAYER_1
 62
   250
 10
-56.8756
 20
111.3605
 30
0.0
  0
VERTEX
  5
4E8
  8
LAYER_1
 62
   250
 10
-56.9364
 20
111.2429
 30
0.0
  0
VERTEX
  5
4E9
  8
LAYER_1
 62
   250
 10
-57.0217
 20
111.1361
 30
0.0
  0
VERTEX
  5
4EA
  8
LAYER_1
 62
   250
 10
-57.1242
 20
111.0477
 30
0.0
  0
VERTEX
  5
4EB
  8
LAYER_1
 62
   250
 10
-57.237
 20
110.9844
 30
0.0
  0
VERTEX
  5
4EC
  8
LAYER_1
 62
   250
 10
-57.3602
 20
110.9465
 30
0.0
  0
VERTEX
  5
4ED
  8
LAYER_1
 62
   250
 10
-57.4938
 20
110.9338
 30
0.0
  0
VERTEX
  5
4EE
  8
LAYER_1
 62
   250
 10
-57.633
 20
110.9489
 30
0.0
  0
VERTEX
  5
4EF
  8
LAYER_1
 62
   250
 10
-57.765
 20
110.9942
 30
0.0
  0
VERTEX
  5
4F0
  8
LAYER_1
 62
   250
 10
-57.8897
 20
111.0698
 30
0.0
  0
VERTEX
  5
4F1
  8
LAYER_1
 62
   250
 10
-58.0071
 20
111.1755
 30
0.0
  0
VERTEX
  5
4F2
  8
LAYER_1
 62
   250
 10
-58.133
 20
111.0698
 30
0.0
  0
VERTEX
  5
4F3
  8
LAYER_1
 62
   250
 10
-58.2593
 20
110.9942
 30
0.0
  0
VERTEX
  5
4F4
  8
LAYER_1
 62
   250
 10
-58.3861
 20
110.9489
 30
0.0
  0
VERTEX
  5
4F5
  8
LAYER_1
 62
   250
 10
-58.5133
 20
110.9338
 30
0.0
  0
VERTEX
  5
4F6
  8
LAYER_1
 62
   250
 10
-58.6666
 20
110.9485
 30
0.0
  0
VERTEX
  5
4F7
  8
LAYER_1
 62
   250
 10
-58.8039
 20
110.9925
 30
0.0
  0
VERTEX
  5
4F8
  8
LAYER_1
 62
   250
 10
-58.925
 20
111.0658
 30
0.0
  0
VERTEX
  5
4F9
  8
LAYER_1
 62
   250
 10
-59.0301
 20
111.1684
 30
0.0
  0
VERTEX
  5
4FA
  8
LAYER_1
 62
   250
 10
-59.0972
 20
111.2707
 30
0.0
  0
VERTEX
  5
4FB
  8
LAYER_1
 62
   250
 10
-59.1452
 20
111.3935
 30
0.0
  0
VERTEX
  5
4FC
  8
LAYER_1
 62
   250
 10
-59.1739
 20
111.5367
 30
0.0
  0
VERTEX
  5
4FD
  8
LAYER_1
 62
   250
 10
-59.1835
 20
111.7005
 30
0.0
  0
VERTEX
  5
4FE
  8
LAYER_1
 62
   250
 10
-59.1835
 20
112.6859
 30
0.0
  0
SEQEND
  5
4FF
  8
LAYER_1
 62
   250
  0
POLYLINE
  5
71
  8
LAYER_1
 62
   250
 66
     1
 10
0.0
 20
0.0
 30
0.0
 70
     1
  0
VERTEX
  5
500
  8
LAYER_1
 62
   250
 10
-55.9727
 20
111.7646
 30
0.0
  0
VERTEX
  5
501
  8
LAYER_1
 62
   250
 10
-55.8914
 20
111.757
 30
0.0
  0
VERTEX
  5
502
  8
LAYER_1
 62
   250
 10
-55.8159
 20
111.7341
 30
0.0
  0
VERTEX
  5
503
  8
LAYER_1
 62
   250
 10
-55.7464
 20
111.6959
 30
0.0
  0
VERTEX
  5
504
  8
LAYER_1
 62
   250
 10
-55.6829
 20
111.6423
 30
0.0
  0
VERTEX
  5
505
  8
LAYER_1
 62
   250
 10
-55.6296
 20
111.5781
 30
0.0
  0
VERTEX
  5
506
  8
LAYER_1
 62
   250
 10
-55.5916
 20
111.5082
 30
0.0
  0
VERTEX
  5
507
  8
LAYER_1
 62
   250
 10
-55.5688
 20
111.4326
 30
0.0
  0
VERTEX
  5
508
  8
LAYER_1
 62
   250
 10
-55.5612
 20
111.3512
 30
0.0
  0
VERTEX
  5
509
  8
LAYER_1
 62
   250
 10
-55.5687
 20
111.2699
 30
0.0
  0
VERTEX
  5
50A
  8
LAYER_1
 62
   250
 10
-55.5912
 20
111.195
 30
0.0
  0
VERTEX
  5
50B
  8
LAYER_1
 62
   250
 10
-55.6289
 20
111.1265
 30
0.0
  0
VERTEX
  5
50C
  8
LAYER_1
 62
   250
 10
-55.6817
 20
111.0643
 30
0.0
  0
VERTEX
  5
50D
  8
LAYER_1
 62
   250
 10
-55.7452
 20
111.0126
 30
0.0
  0
VERTEX
  5
50E
  8
LAYER_1
 62
   250
 10
-55.8149
 20
110.9757
 30
0.0
  0
VERTEX
  5
50F
  8
LAYER_1
 62
   250
 10
-55.8907
 20
110.9536
 30
0.0
  0
VERTEX
  5
510
  8
LAYER_1
 62
   250
 10
-55.9727
 20
110.9462
 30
0.0
  0
VERTEX
  5
511
  8
LAYER_1
 62
   250
 10
-56.0577
 20
110.9534
 30
0.0
  0
VERTEX
  5
512
  8
LAYER_1
 62
   250
 10
-56.1347
 20
110.9749
 30
0.0
  0
VERTEX
  5
513
  8
LAYER_1
 62
   250
 10
-56.2037
 20
111.0107
 30
0.0
  0
VERTEX
  5
514
  8
LAYER_1
 62
   250
 10
-56.2649
 20
111.0608
 30
0.0
  0
VERTEX
  5
515
  8
LAYER_1
 62
   250
 10
-56.3151
 20
111.122
 30
0.0
  0
VERTEX
  5
516
  8
LAYER_1
 62
   250
 10
-56.3509
 20
111.191
 30
0.0
  0
VERTEX
  5
517
  8
LAYER_1
 62
   250
 10
-56.3724
 20
111.268
 30
0.0
  0
VERTEX
  5
518
  8
LAYER_1
 62
   250
 10
-56.3796
 20
111.353
 30
0.0
  0
VERTEX
  5
519
  8
LAYER_1
 62
   250
 10
-56.3722
 20
111.4358
 30
0.0
  0
VERTEX
  5
51A
  8
LAYER_1
 62
   250
 10
-56.35
 20
111.5121
 30
0.0
  0
VERTEX
  5
51B
  8
LAYER_1
 62
   250
 10
-56.3129
 20
111.5817
 30
0.0
  0
VERTEX
  5
51C
  8
LAYER_1
 62
   250
 10
-56.2608
 20
111.6446
 30
0.0
  0
VERTEX
  5
51D
  8
LAYER_1
 62
   250
 10
-56.1982
 20
111.6971
 30
0.0
  0
VERTEX
  5
51E
  8
LAYER_1
 62
   250
 10
-56.1294
 20
111.7346
 30
0.0
  0
VERTEX
  5
51F
  8
LAYER_1
 62
   250
 10
-56.0542
 20
111.7571
 30
0.0
  0
VERTEX
  5
520
  8
LAYER_1
 62
   250
 10
-55.9727
 20
111.7646
 30
0.0
  0
SEQEND
  5
521
  8
LAYER_1
 62
   250
  0
POLYLINE
  5
72
  8
LAYER_1
 62
   250
 66
     1
 10
0.0
 20
0.0
 30
0.0
 70
     1
  0
VERTEX
  5
522
  8
LAYER_1
 62
   250
 10
-26.3646
 20
111.7646
 30
0.0
  0
VERTEX
  5
523
  8
LAYER_1
 62
   250
 10
-26.2833
 20
111.757
 30
0.0
  0
VERTEX
  5
524
  8
LAYER_1
 62
   250
 10
-26.2078
 20
111.7341
 30
0.0
  0
VERTEX
  5
525
  8
LAYER_1
 62
   250
 10
-26.1383
 20
111.6959
 30
0.0
  0
VERTEX
  5
526
  8
LAYER_1
 62
   250
 10
-26.0748
 20
111.6423
 30
0.0
  0
VERTEX
  5
527
  8
LAYER_1
 62
   250
 10
-26.0215
 20
111.5781
 30
0.0
  0
VERTEX
  5
528
  8
LAYER_1
 62
   250
 10
-25.9835
 20
111.5082
 30
0.0
  0
VERTEX
  5
529
  8
LAYER_1
 62
   250
 10
-25.9607
 20
111.4326
 30
0.0
  0
VERTEX
  5
52A
  8
LAYER_1
 62
   250
 10
-25.9531
 20
111.3512
 30
0.0
  0
VERTEX
  5
52B
  8
LAYER_1
 62
   250
 10
-25.9606
 20
111.2699
 30
0.0
  0
VERTEX
  5
52C
  8
LAYER_1
 62
   250
 10
-25.9831
 20
111.195
 30
0.0
  0
VERTEX
  5
52D
  8
LAYER_1
 62
   250
 10
-26.0208
 20
111.1265
 30
0.0
  0
VERTEX
  5
52E
  8
LAYER_1
 62
   250
 10
-26.0736
 20
111.0643
 30
0.0
  0
VERTEX
  5
52F
  8
LAYER_1
 62
   250
 10
-26.1371
 20
111.0126
 30
0.0
  0
VERTEX
  5
530
  8
LAYER_1
 62
   250
 10
-26.2068
 20
110.9757
 30
0.0
  0
VERTEX
  5
531
  8
LAYER_1
 62
   250
 10
-26.2826
 20
110.9536
 30
0.0
  0
VERTEX
  5
532
  8
LAYER_1
 62
   250
 10
-26.3646
 20
110.9462
 30
0.0
  0
VERTEX
  5
533
  8
LAYER_1
 62
   250
 10
-26.4496
 20
110.9534
 30
0.0
  0
VERTEX
  5
534
  8
LAYER_1
 62
   250
 10
-26.5266
 20
110.9749
 30
0.0
  0
VERTEX
  5
535
  8
LAYER_1
 62
   250
 10
-26.5956
 20
111.0107
 30
0.0
  0
VERTEX
  5
536
  8
LAYER_1
 62
   250
 10
-26.6568
 20
111.0608
 30
0.0
  0
VERTEX
  5
537
  8
LAYER_1
 62
   250
 10
-26.707
 20
111.122
 30
0.0
  0
VERTEX
  5
538
  8
LAYER_1
 62
   250
 10
-26.7428
 20
111.191
 30
0.0
  0
VERTEX
  5
539
  8
LAYER_1
 62
   250
 10
-26.7643
 20
111.268
 30
0.0
  0
VERTEX
  5
53A
  8
LAYER_1
 62
   250
 10
-26.7715
 20
111.353
 30
0.0
  0
VERTEX
  5
53B
  8
LAYER_1
 62
   250
 10
-26.7641
 20
111.4358
 30
0.0
  0
VERTEX
  5
53C
  8
LAYER_1
 62
   250
 10
-26.7419
 20
111.5121
 30
0.0
  0
VERTEX
  5
53D
  8
LAYER_1
 62
   250
 10
-26.7048
 20
111.5817
 30
0.0
  0
VERTEX
  5
53E
  8
LAYER_1
 62
   250
 10
-26.6527
 20
111.6446
 30
0.0
  0
VERTEX
  5
53F
  8
LAYER_1
 62
   250
 10
-26.5901
 20
111.6971
 30
0.0
  0
VERTEX
  5
540
  8
LAYER_1
 62
   250
 10
-26.5213
 20
111.7346
 30
0.0
  0
VERTEX
  5
541
  8
LAYER_1
 62
   250
 10
-26.4461
 20
111.7571
 30
0.0
  0
VERTEX
  5
542
  8
LAYER_1
 62
   250
 10
-26.3646
 20
111.7646
 30
0.0
  0
SEQEND
  5
543
  8
LAYER_1
 62
   250
  0
POLYLINE
  5
73
  8
LAYER_1
 62
   250
 66
     1
 10
0.0
 20
0.0
 30
0.0
 70
     1
  0
VERTEX
  5
544
  8
LAYER_1
 62
   250
 10
-24.4526
 20
111.7834
 30
0.0
  0
VERTEX
  5
545
  8
LAYER_1
 62
   250
 10
-23.8135
 20
111.8075
 30
0.0
  0
VERTEX
  5
546
  8
LAYER_1
 62
   250
 10
-23.8411
 20
111.6297
 30
0.0
  0
VERTEX
  5
547
  8
LAYER_1
 62
   250
 10
-23.8965
 20
111.4684
 30
0.0
  0
VERTEX
  5
548
  8
LAYER_1
 62
   250
 10
-23.9796
 20
111.3237
 30
0.0
  0
VERTEX
  5
549
  8
LAYER_1
 62
   250
 10
-24.0905
 20
111.1954
 30
0.0
  0
VERTEX
  5
54A
  8
LAYER_1
 62
   250
 10
-24.2224
 20
111.0908
 30
0.0
  0
VERTEX
  5
54B
  8
LAYER_1
 62
   250
 10
-24.3676
 20
111.016
 30
0.0
  0
VERTEX
  5
54C
  8
LAYER_1
 62
   250
 10
-24.5265
 20
110.9711
 30
0.0
  0
VERTEX
  5
54D
  8
LAYER_1
 62
   250
 10
-24.699
 20
110.9561
 30
0.0
  0
VERTEX
  5
54E
  8
LAYER_1
 62
   250
 10
-24.8809
 20
110.9725
 30
0.0
  0
VERTEX
  5
54F
  8
LAYER_1
 62
   250
 10
-25.0482
 20
111.0219
 30
0.0
  0
VERTEX
  5
550
  8
LAYER_1
 62
   250
 10
-25.2008
 20
111.1042
 30
0.0
  0
VERTEX
  5
551
  8
LAYER_1
 62
   250
 10
-25.3387
 20
111.2195
 30
0.0
  0
VERTEX
  5
552
  8
LAYER_1
 62
   250
 10
-25.4529
 20
111.3587
 30
0.0
  0
VERTEX
  5
553
  8
LAYER_1
 62
   250
 10
-25.5345
 20
111.5128
 30
0.0
  0
VERTEX
  5
554
  8
LAYER_1
 62
   250
 10
-25.5834
 20
111.6818
 30
0.0
  0
VERTEX
  5
555
  8
LAYER_1
 62
   250
 10
-25.5997
 20
111.8657
 30
0.0
  0
VERTEX
  5
556
  8
LAYER_1
 62
   250
 10
-25.5833
 20
112.0409
 30
0.0
  0
VERTEX
  5
557
  8
LAYER_1
 62
   250
 10
-25.5339
 20
112.203
 30
0.0
  0
VERTEX
  5
558
  8
LAYER_1
 62
   250
 10
-25.4516
 20
112.352
 30
0.0
  0
VERTEX
  5
559
  8
LAYER_1
 62
   250
 10
-25.3363
 20
112.4878
 30
0.0
  0
VERTEX
  5
55A
  8
LAYER_1
 62
   250
 10
-25.1979
 20
112.6008
 30
0.0
  0
VERTEX
  5
55B
  8
LAYER_1
 62
   250
 10
-25.0463
 20
112.6814
 30
0.0
  0
VERTEX
  5
55C
  8
LAYER_1
 62
   250
 10
-24.8815
 20
112.7298
 30
0.0
  0
VERTEX
  5
55D
  8
LAYER_1
 62
   250
 10
-24.7037
 20
112.7459
 30
0.0
  0
VERTEX
  5
55E
  8
LAYER_1
 62
   250
 10
-24.5475
 20
112.7332
 30
0.0
  0
VERTEX
  5
55F
  8
LAYER_1
 62
   250
 10
-24.4008
 20
112.6951
 30
0.0
  0
VERTEX
  5
560
  8
LAYER_1
 62
   250
 10
-24.2635
 20
112.6315
 30
0.0
  0
VERTEX
  5
561
  8
LAYER_1
 62
   250
 10
-24.1357
 20
112.5424
 30
0.0
  0
VERTEX
  5
562
  8
LAYER_1
 62
   250
 10
-24.024
 20
112.434
 30
0.0
  0
VERTEX
  5
563
  8
LAYER_1
 62
   250
 10
-23.9358
 20
112.3115
 30
0.0
  0
VERTEX
  5
564
  8
LAYER_1
 62
   250
 10
-23.8707
 20
112.175
 30
0.0
  0
VERTEX
  5
565
  8
LAYER_1
 62
   250
 10
-23.8288
 20
112.0245
 30
0.0
  0
VERTEX
  5
566
  8
LAYER_1
 62
   250
 10
-24.4815
 20
112.0003
 30
0.0
  0
VERTEX
  5
567
  8
LAYER_1
 62
   250
 10
-24.5266
 20
112.0485
 30
0.0
  0
VERTEX
  5
568
  8
LAYER_1
 62
   250
 10
-24.5772
 20
112.0829
 30
0.0
  0
VERTEX
  5
569
  8
LAYER_1
 62
   250
 10
-24.6335
 20
112.1034
 30
0.0
  0
VERTEX
  5
56A
  8
LAYER_1
 62
   250
 10
-24.6955
 20
112.1103
 30
0.0
  0
VERTEX
  5
56B
  8
LAYER_1
 62
   250
 10
-24.7482
 20
112.1058
 30
0.0
  0
VERTEX
  5
56C
  8
LAYER_1
 62
   250
 10
-24.796
 20
112.0922
 30
0.0
  0
VERTEX
  5
56D
  8
LAYER_1
 62
   250
 10
-24.8388
 20
112.0696
 30
0.0
  0
VERTEX
  5
56E
  8
LAYER_1
 62
   250
 10
-24.8766
 20
112.038
 30
0.0
  0
VERTEX
  5
56F
  8
LAYER_1
 62
   250
 10
-24.9295
 20
111.956
 30
0.0
  0
VERTEX
  5
570
  8
LAYER_1
 62
   250
 10
-24.9471
 20
111.8551
 30
0.0
  0
VERTEX
  5
571
  8
LAYER_1
 62
   250
 10
-24.9424
 20
111.8014
 30
0.0
  0
VERTEX
  5
572
  8
LAYER_1
 62
   250
 10
-24.9282
 20
111.7523
 30
0.0
  0
VERTEX
  5
573
  8
LAYER_1
 62
   250
 10
-24.9047
 20
111.7077
 30
0.0
  0
VERTEX
  5
574
  8
LAYER_1
 62
   250
 10
-24.8719
 20
111.6676
 30
0.0
  0
VERTEX
  5
575
  8
LAYER_1
 62
   250
 10
-24.8321
 20
111.6344
 30
0.0
  0
VERTEX
  5
576
  8
LAYER_1
 62
   250
 10
-24.7877
 20
111.6107
 30
0.0
  0
VERTEX
  5
577
  8
LAYER_1
 62
   250
 10
-24.7386
 20
111.5964
 30
0.0
  0
VERTEX
  5
578
  8
LAYER_1
 62
   250
 10
-24.6849
 20
111.5917
 30
0.0
  0
VERTEX
  5
579
  8
LAYER_1
 62
   250
 10
-24.6092
 20
111.6037
 30
0.0
  0
VERTEX
  5
57A
  8
LAYER_1
 62
   250
 10
-24.5452
 20
111.6397
 30
0.0
  0
VERTEX
  5
57B
  8
LAYER_1
 62
   250
 10
-24.493
 20
111.6996
 30
0.0
  0
VERTEX
  5
57C
  8
LAYER_1
 62
   250
 10
-24.4526
 20
111.7834
 30
0.0
  0
SEQEND
  5
57D
  8
LAYER_1
 62
   250
  0
POLYLINE
  5
74
  8
LAYER_1
 62
   250
 66
     1
 10
0.0
 20
0.0
 30
0.0
 70
     1
  0
VERTEX
  5
57E
  8
LAYER_1
 62
   250
 10
-22.7182
 20
112.7459
 30
0.0
  0
VERTEX
  5
57F
  8
LAYER_1
 62
   250
 10
-22.5422
 20
112.7295
 30
0.0
  0
VERTEX
  5
580
  8
LAYER_1
 62
   250
 10
-22.3791
 20
112.6802
 30
0.0
  0
VERTEX
  5
581
  8
LAYER_1
 62
   250
 10
-22.2291
 20
112.5981
 30
0.0
  0
VERTEX
  5
582
  8
LAYER_1
 62
   250
 10
-22.0921
 20
112.4831
 30
0.0
  0
VERTEX
  5
583
  8
LAYER_1
 62
   250
 10
-21.9779
 20
112.3451
 30
0.0
  0
VERTEX
  5
584
  8
LAYER_1
 62
   250
 10
-21.8963
 20
112.1942
 30
0.0
  0
VERTEX
  5
585
  8
LAYER_1
 62
   250
 10
-21.8473
 20
112.0303
 30
0.0
  0
VERTEX
  5
586
  8
LAYER_1
 62
   250
 10
-21.831
 20
111.8534
 30
0.0
  0
VERTEX
  5
587
  8
LAYER_1
 62
   250
 10
-21.8475
 20
111.6745
 30
0.0
  0
VERTEX
  5
588
  8
LAYER_1
 62
   250
 10
-21.8972
 20
111.5091
 30
0.0
  0
VERTEX
  5
589
  8
LAYER_1
 62
   250
 10
-21.9798
 20
111.3574
 30
0.0
  0
VERTEX
  5
58A
  8
LAYER_1
 62
   250
 10
-22.0956
 20
111.2195
 30
0.0
  0
VERTEX
  5
58B
  8
LAYER_1
 62
   250
 10
-22.2344
 20
111.105
 30
0.0
  0
VERTEX
  5
58C
  8
LAYER_1
 62
   250
 10
-22.387
 20
111.0232
 30
0.0
  0
VERTEX
  5
58D
  8
LAYER_1
 62
   250
 10
-22.5534
 20
110.9742
 30
0.0
  0
VERTEX
  5
58E
  8
LAYER_1
 62
   250
 10
-22.7335
 20
110.9579
 30
0.0
  0
VERTEX
  5
58F
  8
LAYER_1
 62
   250
 10
-22.9137
 20
110.9743
 30
0.0
  0
VERTEX
  5
590
  8
LAYER_1
 62
   250
 10
-23.0802
 20
111.0236
 30
0.0
  0
VERTEX
  5
591
  8
LAYER_1
 62
   250
 10
-23.2332
 20
111.1057
 30
0.0
  0
VERTEX
  5
592
  8
LAYER_1
 62
   250
 10
-23.3726
 20
111.2207
 30
0.0
  0
VERTEX
  5
593
  8
LAYER_1
 62
   250
 10
-23.4887
 20
111.3588
 30
0.0
  0
VERTEX
  5
594
  8
LAYER_1
 62
   250
 10
-23.5716
 20
111.5104
 30
0.0
  0
VERTEX
  5
595
  8
LAYER_1
 62
   250
 10
-23.6213
 20
111.6752
 30
0.0
  0
VERTEX
  5
596
  8
LAYER_1
 62
   250
 10
-23.6378
 20
111.8534
 30
0.0
  0
VERTEX
  5
597
  8
LAYER_1
 62
   250
 10
-23.6213
 20
112.0346
 30
0.0
  0
VERTEX
  5
598
  8
LAYER_1
 62
   250
 10
-23.5716
 20
112.2009
 30
0.0
  0
VERTEX
  5
599
  8
LAYER_1
 62
   250
 10
-23.4887
 20
112.3521
 30
0.0
  0
VERTEX
  5
59A
  8
LAYER_1
 62
   250
 10
-23.3726
 20
112.4883
 30
0.0
  0
VERTEX
  5
59B
  8
LAYER_1
 62
   250
 10
-23.2322
 20
112.601
 30
0.0
  0
VERTEX
  5
59C
  8
LAYER_1
 62
   250
 10
-23.0763
 20
112.6815
 30
0.0
  0
VERTEX
  5
59D
  8
LAYER_1
 62
   250
 10
-22.905
 20
112.7298
 30
0.0
  0
VERTEX
  5
59E
  8
LAYER_1
 62
   250
 10
-22.7182
 20
112.7459
 30
0.0
  0
SEQEND
  5
59F
  8
LAYER_1
 62
   250
  0
POLYLINE
  5
75
  8
LAYER_1
 62
   250
 66
     1
 10
0.0
 20
0.0
 30
0.0
 70
     1
  0
VERTEX
  5
5A0
  8
LAYER_1
 62
   250
 10
-22.7353
 20
112.1103
 30
0.0
  0
VERTEX
  5
5A1
  8
LAYER_1
 62
   250
 10
-22.785
 20
112.1057
 30
0.0
  0
VERTEX
  5
5A2
  8
LAYER_1
 62
   250
 10
-22.8309
 20
112.0917
 30
0.0
  0
VERTEX
  5
5A3
  8
LAYER_1
 62
   250
 10
-22.873
 20
112.0684
 30
0.0
  0
VERTEX
  5
5A4
  8
LAYER_1
 62
   250
 10
-22.9111
 20
112.0356
 30
0.0
  0
VERTEX
  5
5A5
  8
LAYER_1
 62
   250
 10
-22.9653
 20
111.9523
 30
0.0
  0
VERTEX
  5
5A6
  8
LAYER_1
 62
   250
 10
-22.9834
 20
111.8522
 30
0.0
  0
VERTEX
  5
5A7
  8
LAYER_1
 62
   250
 10
-22.965
 20
111.7528
 30
0.0
  0
VERTEX
  5
5A8
  8
LAYER_1
 62
   250
 10
-22.9099
 20
111.6693
 30
0.0
  0
VERTEX
  5
5A9
  8
LAYER_1
 62
   250
 10
-22.8715
 20
111.6362
 30
0.0
  0
VERTEX
  5
5AA
  8
LAYER_1
 62
   250
 10
-22.8297
 20
111.6125
 30
0.0
  0
VERTEX
  5
5AB
  8
LAYER_1
 62
   250
 10
-22.7842
 20
111.5982
 30
0.0
  0
VERTEX
  5
5AC
  8
LAYER_1
 62
   250
 10
-22.7353
 20
111.5935
 30
0.0
  0
VERTEX
  5
5AD
  8
LAYER_1
 62
   250
 10
-22.6856
 20
111.5982
 30
0.0
  0
VERTEX
  5
5AE
  8
LAYER_1
 62
   250
 10
-22.6396
 20
111.6125
 30
0.0
  0
VERTEX
  5
5AF
  8
LAYER_1
 62
   250
 10
-22.5974
 20
111.6362
 30
0.0
  0
VERTEX
  5
5B0
  8
LAYER_1
 62
   250
 10
-22.5589
 20
111.6693
 30
0.0
  0
VERTEX
  5
5B1
  8
LAYER_1
 62
   250
 10
-22.5039
 20
111.7528
 30
0.0
  0
VERTEX
  5
5B2
  8
LAYER_1
 62
   250
 10
-22.4854
 20
111.8522
 30
0.0
  0
VERTEX
  5
5B3
  8
LAYER_1
 62
   250
 10
-22.5035
 20
111.9523
 30
0.0
  0
VERTEX
  5
5B4
  8
LAYER_1
 62
   250
 10
-22.5577
 20
112.0356
 30
0.0
  0
VERTEX
  5
5B5
  8
LAYER_1
 62
   250
 10
-22.5959
 20
112.0684
 30
0.0
  0
VERTEX
  5
5B6
  8
LAYER_1
 62
   250
 10
-22.6383
 20
112.0917
 30
0.0
  0
VERTEX
  5
5B7
  8
LAYER_1
 62
   250
 10
-22.6848
 20
112.1057
 30
0.0
  0
VERTEX
  5
5B8
  8
LAYER_1
 62
   250
 10
-22.7353
 20
112.1103
 30
0.0
  0
SEQEND
  5
5B9
  8
LAYER_1
 62
   250
  0
POLYLINE
  5
76
  8
LAYER_1
 62
   250
 66
     1
 10
0.0
 20
0.0
 30
0.0
 70
     1
  0
VERTEX
  5
5BA
  8
LAYER_1
 62
   250
 10
-21.0849
 20
111.7646
 30
0.0
  0
VERTEX
  5
5BB
  8
LAYER_1
 62
   250
 10
-21.0036
 20
111.757
 30
0.0
  0
VERTEX
  5
5BC
  8
LAYER_1
 62
   250
 10
-20.9281
 20
111.7341
 30
0.0
  0
VERTEX
  5
5BD
  8
LAYER_1
 62
   250
 10
-20.8586
 20
111.6959
 30
0.0
  0
VERTEX
  5
5BE
  8
LAYER_1
 62
   250
 10
-20.7951
 20
111.6423
 30
0.0
  0
VERTEX
  5
5BF
  8
LAYER_1
 62
   250
 10
-20.7418
 20
111.5781
 30
0.0
  0
VERTEX
  5
5C0
  8
LAYER_1
 62
   250
 10
-20.7038
 20
111.5082
 30
0.0
  0
VERTEX
  5
5C1
  8
LAYER_1
 62
   250
 10
-20.681
 20
111.4326
 30
0.0
  0
VERTEX
  5
5C2
  8
LAYER_1
 62
   250
 10
-20.6734
 20
111.3512
 30
0.0
  0
VERTEX
  5
5C3
  8
LAYER_1
 62
   250
 10
-20.6809
 20
111.2699
 30
0.0
  0
VERTEX
  5
5C4
  8
LAYER_1
 62
   250
 10
-20.7034
 20
111.195
 30
0.0
  0
VERTEX
  5
5C5
  8
LAYER_1
 62
   250
 10
-20.7411
 20
111.1265
 30
0.0
  0
VERTEX
  5
5C6
  8
LAYER_1
 62
   250
 10
-20.7939
 20
111.0643
 30
0.0
  0
VERTEX
  5
5C7
  8
LAYER_1
 62
   250
 10
-20.8574
 20
111.0126
 30
0.0
  0
VERTEX
  5
5C8
  8
LAYER_1
 62
   250
 10
-20.9271
 20
110.9757
 30
0.0
  0
VERTEX
  5
5C9
  8
LAYER_1
 62
   250
 10
-21.0029
 20
110.9536
 30
0.0
  0
VERTEX
  5
5CA
  8
LAYER_1
 62
   250
 10
-21.0849
 20
110.9462
 30
0.0
  0
VERTEX
  5
5CB
  8
LAYER_1
 62
   250
 10
-21.1699
 20
110.9534
 30
0.0
  0
VERTEX
  5
5CC
  8
LAYER_1
 62
   250
 10
-21.2469
 20
110.9749
 30
0.0
  0
VERTEX
  5
5CD
  8
LAYER_1
 62
   250
 10
-21.3159
 20
111.0107
 30
0.0
  0
VERTEX
  5
5CE
  8
LAYER_1
 62
   250
 10
-21.3771
 20
111.0608
 30
0.0
  0
VERTEX
  5
5CF
  8
LAYER_1
 62
   250
 10
-21.4273
 20
111.122
 30
0.0
  0
VERTEX
  5
5D0
  8
LAYER_1
 62
   250
 10
-21.4631
 20
111.191
 30
0.0
  0
VERTEX
  5
5D1
  8
LAYER_1
 62
   250
 10
-21.4846
 20
111.268
 30
0.0
  0
VERTEX
  5
5D2
  8
LAYER_1
 62
   250
 10
-21.4918
 20
111.353
 30
0.0
  0
VERTEX
  5
5D3
  8
LAYER_1
 62
   250
 10
-21.4844
 20
111.4358
 30
0.0
  0
VERTEX
  5
5D4
  8
LAYER_1
 62
   250
 10
-21.4622
 20
111.5121
 30
0.0
  0
VERTEX
  5
5D5
  8
LAYER_1
 62
   250
 10
-21.4251
 20
111.5817
 30
0.0
  0
VERTEX
  5
5D6
  8
LAYER_1
 62
   250
 10
-21.373
 20
111.6446
 30
0.0
  0
VERTEX
  5
5D7
  8
LAYER_1
 62
   250
 10
-21.3104
 20
111.6971
 30
0.0
  0
VERTEX
  5
5D8
  8
LAYER_1
 62
   250
 10
-21.2416
 20
111.7346
 30
0.0
  0
VERTEX
  5
5D9
  8
LAYER_1
 62
   250
 10
-21.1664
 20
111.7571
 30
0.0
  0
VERTEX
  5
5DA
  8
LAYER_1
 62
   250
 10
-21.0849
 20
111.7646
 30
0.0
  0
SEQEND
  5
5DB
  8
LAYER_1
 62
   250
  0
POLYLINE
  5
77
  8
LAYER_1
 62
   250
 66
     1
 10
0.0
 20
0.0
 30
0.0
 70
     1
  0
VERTEX
  5
5DC
  8
LAYER_1
 62
   250
 10
-20.2271
 20
112.6859
 30
0.0
  0
VERTEX
  5
5DD
  8
LAYER_1
 62
   250
 10
-19.5828
 20
112.6859
 30
0.0
  0
VERTEX
  5
5DE
  8
LAYER_1
 62
   250
 10
-19.5828
 20
111.7164
 30
0.0
  0
VERTEX
  5
5DF
  8
LAYER_1
 62
   250
 10
-19.5752
 20
111.652
 30
0.0
  0
VERTEX
  5
5E0
  8
LAYER_1
 62
   250
 10
-19.5523
 20
111.6061
 30
0.0
  0
VERTEX
  5
5E1
  8
LAYER_1
 62
   250
 10
-19.5141
 20
111.5786
 30
0.0
  0
VERTEX
  5
5E2
  8
LAYER_1
 62
   250
 10
-19.4605
 20
111.5694
 30
0.0
  0
VERTEX
  5
5E3
  8
LAYER_1
 62
   250
 10
-19.4077
 20
111.5786
 30
0.0
  0
VERTEX
  5
5E4
  8
LAYER_1
 62
   250
 10
-19.37
 20
111.6061
 30
0.0
  0
VERTEX
  5
5E5
  8
LAYER_1
 62
   250
 10
-19.3474
 20
111.652
 30
0.0
  0
VERTEX
  5
5E6
  8
LAYER_1
 62
   250
 10
-19.3399
 20
111.7164
 30
0.0
  0
VERTEX
  5
5E7
  8
LAYER_1
 62
   250
 10
-19.3399
 20
112.6859
 30
0.0
  0
VERTEX
  5
5E8
  8
LAYER_1
 62
   250
 10
-18.6955
 20
112.6859
 30
0.0
  0
VERTEX
  5
5E9
  8
LAYER_1
 62
   250
 10
-18.6955
 20
111.7281
 30
0.0
  0
VERTEX
  5
5EA
  8
LAYER_1
 62
   250
 10
-18.7094
 20
111.5675
 30
0.0
  0
VERTEX
  5
5EB
  8
LAYER_1
 62
   250
 10
-18.7511
 20
111.4199
 30
0.0
  0
VERTEX
  5
5EC
  8
LAYER_1
 62
   250
 10
-18.8205
 20
111.2853
 30
0.0
  0
VERTEX
  5
5ED
  8
LAYER_1
 62
   250
 10
-18.9178
 20
111.1637
 30
0.0
  0
VERTEX
  5
5EE
  8
LAYER_1
 62
   250
 10
-19.0352
 20
111.063
 30
0.0
  0
VERTEX
  5
5EF
  8
LAYER_1
 62
   250
 10
-19.1651
 20
110.9912
 30
0.0
  0
VERTEX
  5
5F0
  8
LAYER_1
 62
   250
 10
-19.3074
 20
110.9481
 30
0.0
  0
VERTEX
  5
5F1
  8
LAYER_1
 62
   250
 10
-19.4622
 20
110.9338
 30
0.0
  0
VERTEX
  5
5F2
  8
LAYER_1
 62
   250
 10
-19.6367
 20
110.9505
 30
0.0
  0
VERTEX
  5
5F3
  8
LAYER_1
 62
   250
 10
-19.7934
 20
111.0005
 30
0.0
  0
VERTEX
  5
5F4
  8
LAYER_1
 62
   250
 10
-19.9322
 20
111.0839
 30
0.0
  0
VERTEX
  5
5F5
  8
LAYER_1
 62
   250
 10
-20.0531
 20
111.2007
 30
0.0
  0
VERTEX
  5
5F6
  8
LAYER_1
 62
   250
 10
-20.1291
 20
111.3153
 30
0.0
  0
VERTEX
  5
5F7
  8
LAYER_1
 62
   250
 10
-20.1835
 20
111.45
 30
0.0
  0
VERTEX
  5
5F8
  8
LAYER_1
 62
   250
 10
-20.2162
 20
111.6048
 30
0.0
  0
VERTEX
  5
5F9
  8
LAYER_1
 62
   250
 10
-20.2271
 20
111.7799
 30
0.0
  0
VERTEX
  5
5FA
  8
LAYER_1
 62
   250
 10
-20.2271
 20
112.6859
 30
0.0
  0
SEQEND
  5
5FB
  8
LAYER_1
 62
   250
  0
POLYLINE
  5
78
  8
LAYER_1
 62
   250
 66
     1
 10
0.0
 20
0.0
 30
0.0
 70
     1
  0
VERTEX
  5
5FC
  8
LAYER_1
 62
   250
 10
-17.6761
 20
113.3438
 30
0.0
  0
VERTEX
  5
5FD
  8
LAYER_1
 62
   250
 10
-17.6761
 20
110.9926
 30
0.0
  0
VERTEX
  5
5FE
  8
LAYER_1
 62
   250
 10
-18.3204
 20
110.9926
 30
0.0
  0
VERTEX
  5
5FF
  8
LAYER_1
 62
   250
 10
-18.3204
 20
113.3438
 30
0.0
  0
VERTEX
  5
600
  8
LAYER_1
 62
   250
 10
-17.6761
 20
113.3438
 30
0.0
  0
SEQEND
  5
601
  8
LAYER_1
 62
   250
  0
POLYLINE
  5
79
  8
LAYER_1
 62
   250
 66
     1
 10
0.0
 20
0.0
 30
0.0
 70
     1
  0
VERTEX
  5
602
  8
LAYER_1
 62
   250
 10
-16.6889
 20
112.71
 30
0.0
  0
VERTEX
  5
603
  8
LAYER_1
 62
   250
 10
-17.004
 20
112.0844
 30
0.0
  0
VERTEX
  5
604
  8
LAYER_1
 62
   250
 10
-16.5354
 20
110.9926
 30
0.0
  0
VERTEX
  5
605
  8
LAYER_1
 62
   250
 10
-17.2486
 20
110.9926
 30
0.0
  0
VERTEX
  5
606
  8
LAYER_1
 62
   250
 10
-17.6519
 20
112.1138
 30
0.0
  0
VERTEX
  5
607
  8
LAYER_1
 62
   250
 10
-17.3591
 20
112.71
 30
0.0
  0
VERTEX
  5
608
  8
LAYER_1
 62
   250
 10
-16.6889
 20
112.71
 30
0.0
  0
SEQEND
  5
609
  8
LAYER_1
 62
   250
  0
POLYLINE
  5
7A
  8
LAYER_1
 62
   250
 66
     1
 10
0.0
 20
0.0
 30
0.0
 70
     1
  0
VERTEX
  5
60A
  8
LAYER_1
 62
   250
 10
-53.7204
 20
113.4208
 30
0.0
  0
VERTEX
  5
60B
  8
LAYER_1
 62
   250
 10
-53.7204
 20
112.4561
 30
0.0
  0
VERTEX
  5
60C
  8
LAYER_1
 62
   250
 10
-53.8916
 20
112.5088
 30
0.0
  0
VERTEX
  5
60D
  8
LAYER_1
 62
   250
 10
-53.9492
 20
112.5029
 30
0.0
  0
VERTEX
  5
60E
  8
LAYER_1
 62
   250
 10
-53.9992
 20
112.4853
 30
0.0
  0
VERTEX
  5
60F
  8
LAYER_1
 62
   250
 10
-54.0415
 20
112.456
 30
0.0
  0
VERTEX
  5
610
  8
LAYER_1
 62
   250
 10
-54.0762
 20
112.415
 30
0.0
  0
VERTEX
  5
611
  8
LAYER_1
 62
   250
 10
-54.1031
 20
112.3622
 30
0.0
  0
VERTEX
  5
612
  8
LAYER_1
 62
   250
 10
-54.1224
 20
112.2977
 30
0.0
  0
VERTEX
  5
613
  8
LAYER_1
 62
   250
 10
-54.1339
 20
112.2215
 30
0.0
  0
VERTEX
  5
614
  8
LAYER_1
 62
   250
 10
-54.1378
 20
112.1335
 30
0.0
  0
VERTEX
  5
615
  8
LAYER_1
 62
   250
 10
-54.1378
 20
110.9926
 30
0.0
  0
VERTEX
  5
616
  8
LAYER_1
 62
   250
 10
-55.0399
 20
110.9926
 30
0.0
  0
VERTEX
  5
617
  8
LAYER_1
 62
   250
 10
-55.0399
 20
112.3071
 30
0.0
  0
VERTEX
  5
618
  8
LAYER_1
 62
   250
 10
-55.0221
 20
112.5541
 30
0.0
  0
VERTEX
  5
619
  8
LAYER_1
 62
   250
 10
-54.9688
 20
112.7749
 30
0.0
  0
VERTEX
  5
61A
  8
LAYER_1
 62
   250
 10
-54.9288
 20
112.8755
 30
0.0
  0
VERTEX
  5
61B
  8
LAYER_1
 62
   250
 10
-54.8798
 20
112.9695
 30
0.0
  0
VERTEX
  5
61C
  8
LAYER_1
 62
   250
 10
-54.8219
 20
113.0569
 30
0.0
  0
VERTEX
  5
61D
  8
LAYER_1
 62
   250
 10
-54.7551
 20
113.1377
 30
0.0
  0
VERTEX
  5
61E
  8
LAYER_1
 62
   250
 10
-54.6811
 20
113.2103
 30
0.0
  0
VERTEX
  5
61F
  8
LAYER_1
 62
   250
 10
-54.6011
 20
113.2732
 30
0.0
  0
VERTEX
  5
620
  8
LAYER_1
 62
   250
 10
-54.5151
 20
113.3264
 30
0.0
  0
VERTEX
  5
621
  8
LAYER_1
 62
   250
 10
-54.4231
 20
113.3699
 30
0.0
  0
VERTEX
  5
622
  8
LAYER_1
 62
   250
 10
-54.3251
 20
113.4037
 30
0.0
  0
VERTEX
  5
623
  8
LAYER_1
 62
   250
 10
-54.2212
 20
113.4279
 30
0.0
  0
VERTEX
  5
624
  8
LAYER_1
 62
   250
 10
-54.1113
 20
113.4424
 30
0.0
  0
VERTEX
  5
625
  8
LAYER_1
 62
   250
 10
-53.9954
 20
113.4472
 30
0.0
  0
VERTEX
  5
626
  8
LAYER_1
 62
   250
 10
-53.7204
 20
113.4208
 30
0.0
  0
SEQEND
  5
627
  8
LAYER_1
 62
   250
  0
POLYLINE
  5
7B
  8
LAYER_1
 62
   250
 66
     1
 10
0.0
 20
0.0
 30
0.0
 70
     1
  0
VERTEX
  5
628
  8
LAYER_1
 62
   250
 10
-51.0922
 20
112.0487
 30
0.0
  0
VERTEX
  5
629
  8
LAYER_1
 62
   250
 10
-52.4594
 20
112.0487
 30
0.0
  0
VERTEX
  5
62A
  8
LAYER_1
 62
   250
 10
-52.4907
 20
112.2396
 30
0.0
  0
VERTEX
  5
62B
  8
LAYER_1
 62
   250
 10
-52.4471
 20
112.4759
 30
0.0
  0
VERTEX
  5
62C
  8
LAYER_1
 62
   250
 10
-51.9886
 20
112.4759
 30
0.0
  0
VERTEX
  5
62D
  8
LAYER_1
 62
   250
 10
-52.0256
 20
112.593
 30
0.0
  0
VERTEX
  5
62E
  8
LAYER_1
 62
   250
 10
-52.0884
 20
112.6766
 30
0.0
  0
VERTEX
  5
62F
  8
LAYER_1
 62
   250
 10
-52.1768
 20
112.7267
 30
0.0
  0
VERTEX
  5
630
  8
LAYER_1
 62
   250
 10
-52.2907
 20
112.7434
 30
0.0
  0
VERTEX
  5
631
  8
LAYER_1
 62
   250
 10
-52.3713
 20
112.7345
 30
0.0
  0
VERTEX
  5
632
  8
LAYER_1
 62
   250
 10
-52.4439
 20
112.7076
 30
0.0
  0
VERTEX
  5
633
  8
LAYER_1
 62
   250
 10
-52.5086
 20
112.6629
 30
0.0
  0
VERTEX
  5
634
  8
LAYER_1
 62
   250
 10
-52.5656
 20
112.6002
 30
0.0
  0
VERTEX
  5
635
  8
LAYER_1
 62
   250
 10
-52.6121
 20
112.523
 30
0.0
  0
VERTEX
  5
636
  8
LAYER_1
 62
   250
 10
-52.6453
 20
112.436
 30
0.0
  0
VERTEX
  5
637
  8
LAYER_1
 62
   250
 10
-52.6652
 20
112.339
 30
0.0
  0
VERTEX
  5
638
  8
LAYER_1
 62
   250
 10
-52.6718
 20
112.2322
 30
0.0
  0
VERTEX
  5
639
  8
LAYER_1
 62
   250
 10
-52.6653
 20
112.1206
 30
0.0
  0
VERTEX
  5
63A
  8
LAYER_1
 62
   250
 10
-52.646
 20
112.0204
 30
0.0
  0
VERTEX
  5
63B
  8
LAYER_1
 62
   250
 10
-52.6138
 20
111.9314
 30
0.0
  0
VERTEX
  5
63C
  8
LAYER_1
 62
   250
 10
-52.5689
 20
111.8536
 30
0.0
  0
VERTEX
  5
63D
  8
LAYER_1
 62
   250
 10
-52.5137
 20
111.7903
 30
0.0
  0
VERTEX
  5
63E
  8
LAYER_1
 62
   250
 10
-52.4505
 20
111.745
 30
0.0
  0
VERTEX
  5
63F
  8
LAYER_1
 62
   250
 10
-52.3795
 20
111.7178
 30
0.0
  0
VERTEX
  5
640
  8
LAYER_1
 62
   250
 10
-52.3006
 20
111.7087
 30
0.0
  0
VERTEX
  5
641
  8
LAYER_1
 62
   250
 10
-52.2334
 20
111.7172
 30
0.0
  0
VERTEX
  5
642
  8
LAYER_1
 62
   250
 10
-52.1676
 20
111.7426
 30
0.0
  0
VERTEX
  5
643
  8
LAYER_1
 62
   250
 10
-52.1031
 20
111.7848
 30
0.0
  0
VERTEX
  5
644
  8
LAYER_1
 62
   250
 10
-52.0396
 20
111.8437
 30
0.0
  0
VERTEX
  5
645
  8
LAYER_1
 62
   250
 10
-51.526
 20
111.2264
 30
0.0
  0
VERTEX
  5
646
  8
LAYER_1
 62
   250
 10
-51.7106
 20
111.1028
 30
0.0
  0
VERTEX
  5
647
  8
LAYER_1
 62
   250
 10
-51.9051
 20
111.0145
 30
0.0
  0
VERTEX
  5
648
  8
LAYER_1
 62
   250
 10
-52.1097
 20
110.9616
 30
0.0
  0
VERTEX
  5
649
  8
LAYER_1
 62
   250
 10
-52.3244
 20
110.944
 30
0.0
  0
VERTEX
  5
64A
  8
LAYER_1
 62
   250
 10
-52.4555
 20
110.9496
 30
0.0
  0
VERTEX
  5
64B
  8
LAYER_1
 62
   250
 10
-52.5812
 20
110.9665
 30
0.0
  0
VERTEX
  5
64C
  8
LAYER_1
 62
   250
 10
-52.7017
 20
110.9947
 30
0.0
  0
VERTEX
  5
64D
  8
LAYER_1
 62
   250
 10
-52.8169
 20
111.034
 30
0.0
  0
VERTEX
  5
64E
  8
LAYER_1
 62
   250
 10
-52.9267
 20
111.0846
 30
0.0
  0
VERTEX
  5
64F
  8
LAYER_1
 62
   250
 10
-53.0312
 20
111.1465
 30
0.0
  0
VERTEX
  5
650
  8
LAYER_1
 62
   250
 10
-53.1304
 20
111.2195
 30
0.0
  0
VERTEX
  5
651
  8
LAYER_1
 62
   250
 10
-53.2241
 20
111.3037
 30
0.0
  0
VERTEX
  5
652
  8
LAYER_1
 62
   250
 10
-53.3094
 20
111.3962
 30
0.0
  0
VERTEX
  5
653
  8
LAYER_1
 62
   250
 10
-53.3834
 20
111.494
 30
0.0
  0
VERTEX
  5
654
  8
LAYER_1
 62
   250
 10
-53.4459
 20
111.5972
 30
0.0
  0
VERTEX
  5
655
  8
LAYER_1
 62
   250
 10
-53.4971
 20
111.7058
 30
0.0
  0
VERTEX
  5
656
  8
LAYER_1
 62
   250
 10
-53.5368
 20
111.8196
 30
0.0
  0
VERTEX
  5
657
  8
LAYER_1
 62
   250
 10
-53.5652
 20
111.9389
 30
0.0
  0
VERTEX
  5
658
  8
LAYER_1
 62
   250
 10
-53.5822
 20
112.0636
 30
0.0
  0
VERTEX
  5
659
  8
LAYER_1
 62
   250
 10
-53.5879
 20
112.1936
 30
0.0
  0
VERTEX
  5
65A
  8
LAYER_1
 62
   250
 10
-53.5822
 20
112.3229
 30
0.0
  0
VERTEX
  5
65B
  8
LAYER_1
 62
   250
 10
-53.5649
 20
112.4471
 30
0.0
  0
VERTEX
  5
65C
  8
LAYER_1
 62
   250
 10
-53.5362
 20
112.5663
 30
0.0
  0
VERTEX
  5
65D
  8
LAYER_1
 62
   250
 10
-53.4959
 20
112.6804
 30
0.0
  0
VERTEX
  5
65E
  8
LAYER_1
 62
   250
 10
-53.4442
 20
112.7895
 30
0.0
  0
VERTEX
  5
65F
  8
LAYER_1
 62
   250
 10
-53.381
 20
112.8934
 30
0.0
  0
VERTEX
  5
660
  8
LAYER_1
 62
   250
 10
-53.3062
 20
112.9922
 30
0.0
  0
VERTEX
  5
661
  8
LAYER_1
 62
   250
 10
-53.22
 20
113.0858
 30
0.0
  0
VERTEX
  5
662
  8
LAYER_1
 62
   250
 10
-53.1254
 20
113.1712
 30
0.0
  0
VERTEX
  5
663
  8
LAYER_1
 62
   250
 10
-53.0257
 20
113.2451
 30
0.0
  0
VERTEX
  5
664
  8
LAYER_1
 62
   250
 10
-52.9207
 20
113.3077
 30
0.0
  0
VERTEX
  5
665
  8
LAYER_1
 62
   250
 10
-52.8105
 20
113.3588
 30
0.0
  0
VERTEX
  5
666
  8
LAYER_1
 62
   250
 10
-52.6951
 20
113.3986
 30
0.0
  0
VERTEX
  5
667
  8
LAYER_1
 62
   250
 10
-52.5743
 20
113.427
 30
0.0
  0
VERTEX
  5
668
  8
LAYER_1
 62
   250
 10
-52.4483
 20
113.444
 30
0.0
  0
VERTEX
  5
669
  8
LAYER_1
 62
   250
 10
-52.317
 20
113.4497
 30
0.0
  0
VERTEX
  5
66A
  8
LAYER_1
 62
   250
 10
-52.1887
 20
113.4441
 30
0.0
  0
VERTEX
  5
66B
  8
LAYER_1
 62
   250
 10
-52.0657
 20
113.4275
 30
0.0
  0
VERTEX
  5
66C
  8
LAYER_1
 62
   250
 10
-51.948
 20
113.3997
 30
0.0
  0
VERTEX
  5
66D
  8
LAYER_1
 62
   250
 10
-51.8355
 20
113.3608
 30
0.0
  0
VERTEX
  5
66E
  8
LAYER_1
 62
   250
 10
-51.7282
 20
113.3108
 30
0.0
  0
VERTEX
  5
66F
  8
LAYER_1
 62
   250
 10
-51.6262
 20
113.2496
 30
0.0
  0
VERTEX
  5
670
  8
LAYER_1
 62
   250
 10
-51.5294
 20
113.1774
 30
0.0
  0
VERTEX
  5
671
  8
LAYER_1
 62
   250
 10
-51.4379
 20
113.0941
 30
0.0
  0
VERTEX
  5
672
  8
LAYER_1
 62
   250
 10
-51.3546
 20
113.0026
 30
0.0
  0
VERTEX
  5
673
  8
LAYER_1
 62
   250
 10
-51.2824
 20
112.9059
 30
0.0
  0
VERTEX
  5
674
  8
LAYER_1
 62
   250
 10
-51.2212
 20
112.8041
 30
0.0
  0
VERTEX
  5
675
  8
LAYER_1
 62
   250
 10
-51.1712
 20
112.6971
 30
0.0
  0
VERTEX
  5
676
  8
LAYER_1
 62
   250
 10
-51.1323
 20
112.5849
 30
0.0
  0
VERTEX
  5
677
  8
LAYER_1
 62
   250
 10
-51.1045
 20
112.4676
 30
0.0
  0
VERTEX
  5
678
  8
LAYER_1
 62
   250
 10
-51.0879
 20
112.3451
 30
0.0
  0
VERTEX
  5
679
  8
LAYER_1
 62
   250
 10
-51.0823
 20
112.2174
 30
0.0
  0
VERTEX
  5
67A
  8
LAYER_1
 62
   250
 10
-51.0922
 20
112.0487
 30
0.0
  0
SEQEND
  5
67B
  8
LAYER_1
 62
   250
  0
POLYLINE
  5
7C
  8
LAYER_1
 62
   250
 66
     1
 10
0.0
 20
0.0
 30
0.0
 70
     1
  0
VERTEX
  5
67C
  8
LAYER_1
 62
   250
 10
-49.8789
 20
112.7722
 30
0.0
  0
VERTEX
  5
67D
  8
LAYER_1
 62
   250
 10
-49.8789
 20
112.1335
 30
0.0
  0
VERTEX
  5
67E
  8
LAYER_1
 62
   250
 10
-50.9811
 20
112.1335
 30
0.0
  0
VERTEX
  5
67F
  8
LAYER_1
 62
   250
 10
-50.9811
 20
112.7722
 30
0.0
  0
VERTEX
  5
680
  8
LAYER_1
 62
   250
 10
-49.8789
 20
112.7722
 30
0.0
  0
SEQEND
  5
681
  8
LAYER_1
 62
   250
  0
POLYLINE
  5
7D
  8
LAYER_1
 62
   250
 66
     1
 10
0.0
 20
0.0
 30
0.0
 70
     1
  0
VERTEX
  5
682
  8
LAYER_1
 62
   250
 10
-48.7142
 20
113.397
 30
0.0
  0
VERTEX
  5
683
  8
LAYER_1
 62
   250
 10
-48.7142
 20
110.9926
 30
0.0
  0
VERTEX
  5
684
  8
LAYER_1
 62
   250
 10
-49.6163
 20
110.9926
 30
0.0
  0
VERTEX
  5
685
  8
LAYER_1
 62
   250
 10
-49.6163
 20
113.397
 30
0.0
  0
VERTEX
  5
686
  8
LAYER_1
 62
   250
 10
-48.7142
 20
113.397
 30
0.0
  0
SEQEND
  5
687
  8
LAYER_1
 62
   250
  0
POLYLINE
  5
7E
  8
LAYER_1
 62
   250
 66
     1
 10
0.0
 20
0.0
 30
0.0
 70
     1
  0
VERTEX
  5
688
  8
LAYER_1
 62
   250
 10
-49.1628
 20
114.4703
 30
0.0
  0
VERTEX
  5
689
  8
LAYER_1
 62
   250
 10
-49.0744
 20
114.4623
 30
0.0
  0
VERTEX
  5
68A
  8
LAYER_1
 62
   250
 10
-48.992
 20
114.4381
 30
0.0
  0
VERTEX
  5
68B
  8
LAYER_1
 62
   250
 10
-48.9158
 20
114.3977
 30
0.0
  0
VERTEX
  5
68C
  8
LAYER_1
 62
   250
 10
-48.8459
 20
114.3411
 30
0.0
  0
VERTEX
  5
68D
  8
LAYER_1
 62
   250
 10
-48.787
 20
114.2738
 30
0.0
  0
VERTEX
  5
68E
  8
LAYER_1
 62
   250
 10
-48.7451
 20
114.2005
 30
0.0
  0
VERTEX
  5
68F
  8
LAYER_1
 62
   250
 10
-48.72
 20
114.1214
 30
0.0
  0
VERTEX
  5
690
  8
LAYER_1
 62
   250
 10
-48.7117
 20
114.0365
 30
0.0
  0
VERTEX
  5
691
  8
LAYER_1
 62
   250
 10
-48.7196
 20
113.9464
 30
0.0
  0
VERTEX
  5
692
  8
LAYER_1
 62
   250
 10
-48.7433
 20
113.8649
 30
0.0
  0
VERTEX
  5
693
  8
LAYER_1
 62
   250
 10
-48.7829
 20
113.7921
 30
0.0
  0
VERTEX
  5
694
  8
LAYER_1
 62
   250
 10
-48.8385
 20
113.7279
 30
0.0
  0
VERTEX
  5
695
  8
LAYER_1
 62
   250
 10
-48.906
 20
113.6749
 30
0.0
  0
VERTEX
  5
696
  8
LAYER_1
 62
   250
 10
-48.9827
 20
113.6371
 30
0.0
  0
VERTEX
  5
697
  8
LAYER_1
 62
   250
 10
-49.0684
 20
113.6145
 30
0.0
  0
VERTEX
  5
698
  8
LAYER_1
 62
   250
 10
-49.1628
 20
113.6069
 30
0.0
  0
VERTEX
  5
699
  8
LAYER_1
 62
   250
 10
-49.2572
 20
113.6145
 30
0.0
  0
VERTEX
  5
69A
  8
LAYER_1
 62
   250
 10
-49.3428
 20
113.6371
 30
0.0
  0
VERTEX
  5
69B
  8
LAYER_1
 62
   250
 10
-49.4195
 20
113.6749
 30
0.0
  0
VERTEX
  5
69C
  8
LAYER_1
 62
   250
 10
-49.4871
 20
113.7279
 30
0.0
  0
VERTEX
  5
69D
  8
LAYER_1
 62
   250
 10
-49.5427
 20
113.7921
 30
0.0
  0
VERTEX
  5
69E
  8
LAYER_1
 62
   250
 10
-49.5823
 20
113.8649
 30
0.0
  0
VERTEX
  5
69F
  8
LAYER_1
 62
   250
 10
-49.606
 20
113.9464
 30
0.0
  0
VERTEX
  5
6A0
  8
LAYER_1
 62
   250
 10
-49.6139
 20
114.0365
 30
0.0
  0
VERTEX
  5
6A1
  8
LAYER_1
 62
   250
 10
-49.6055
 20
114.1214
 30
0.0
  0
VERTEX
  5
6A2
  8
LAYER_1
 62
   250
 10
-49.5804
 20
114.2005
 30
0.0
  0
VERTEX
  5
6A3
  8
LAYER_1
 62
   250
 10
-49.5385
 20
114.2738
 30
0.0
  0
VERTEX
  5
6A4
  8
LAYER_1
 62
   250
 10
-49.4797
 20
114.3411
 30
0.0
  0
VERTEX
  5
6A5
  8
LAYER_1
 62
   250
 10
-49.4098
 20
114.3977
 30
0.0
  0
VERTEX
  5
6A6
  8
LAYER_1
 62
   250
 10
-49.3336
 20
114.4381
 30
0.0
  0
VERTEX
  5
6A7
  8
LAYER_1
 62
   250
 10
-49.2512
 20
114.4623
 30
0.0
  0
VERTEX
  5
6A8
  8
LAYER_1
 62
   250
 10
-49.1628
 20
114.4703
 30
0.0
  0
SEQEND
  5
6A9
  8
LAYER_1
 62
   250
  0
POLYLINE
  5
7F
  8
LAYER_1
 62
   250
 66
     1
 10
0.0
 20
0.0
 30
0.0
 70
     1
  0
VERTEX
  5
6AA
  8
LAYER_1
 62
   250
 10
-46.0398
 20
110.9926
 30
0.0
  0
VERTEX
  5
6AB
  8
LAYER_1
 62
   250
 10
-46.9419
 20
110.9926
 30
0.0
  0
VERTEX
  5
6AC
  8
LAYER_1
 62
   250
 10
-46.9419
 20
112.3499
 30
0.0
  0
VERTEX
  5
6AD
  8
LAYER_1
 62
   250
 10
-46.9526
 20
112.4407
 30
0.0
  0
VERTEX
  5
6AE
  8
LAYER_1
 62
   250
 10
-46.9846
 20
112.5055
 30
0.0
  0
VERTEX
  5
6AF
  8
LAYER_1
 62
   250
 10
-47.0381
 20
112.5444
 30
0.0
  0
VERTEX
  5
6B0
  8
LAYER_1
 62
   250
 10
-47.1131
 20
112.5574
 30
0.0
  0
VERTEX
  5
6B1
  8
LAYER_1
 62
   250
 10
-47.1871
 20
112.5444
 30
0.0
  0
VERTEX
  5
6B2
  8
LAYER_1
 62
   250
 10
-47.2398
 20
112.5055
 30
0.0
  0
VERTEX
  5
6B3
  8
LAYER_1
 62
   250
 10
-47.2714
 20
112.4407
 30
0.0
  0
VERTEX
  5
6B4
  8
LAYER_1
 62
   250
 10
-47.2819
 20
112.3499
 30
0.0
  0
VERTEX
  5
6B5
  8
LAYER_1
 62
   250
 10
-47.2819
 20
110.9926
 30
0.0
  0
VERTEX
  5
6B6
  8
LAYER_1
 62
   250
 10
-48.184
 20
110.9926
 30
0.0
  0
VERTEX
  5
6B7
  8
LAYER_1
 62
   250
 10
-48.184
 20
112.3335
 30
0.0
  0
VERTEX
  5
6B8
  8
LAYER_1
 62
   250
 10
-48.1791
 20
112.4488
 30
0.0
  0
VERTEX
  5
6B9
  8
LAYER_1
 62
   250
 10
-48.1646
 20
112.5593
 30
0.0
  0
VERTEX
  5
6BA
  8
LAYER_1
 62
   250
 10
-48.1403
 20
112.6652
 30
0.0
  0
VERTEX
  5
6BB
  8
LAYER_1
 62
   250
 10
-48.1062
 20
112.7665
 30
0.0
  0
VERTEX
  5
6BC
  8
LAYER_1
 62
   250
 10
-48.0625
 20
112.8631
 30
0.0
  0
VERTEX
  5
6BD
  8
LAYER_1
 62
   250
 10
-48.009
 20
112.9551
 30
0.0
  0
VERTEX
  5
6BE
  8
LAYER_1
 62
   250
 10
-47.9458
 20
113.0425
 30
0.0
  0
VERTEX
  5
6BF
  8
LAYER_1
 62
   250
 10
-47.8729
 20
113.1253
 30
0.0
  0
VERTEX
  5
6C0
  8
LAYER_1
 62
   250
 10
-47.7929
 20
113.2008
 30
0.0
  0
VERTEX
  5
6C1
  8
LAYER_1
 62
   250
 10
-47.7085
 20
113.2663
 30
0.0
  0
VERTEX
  5
6C2
  8
LAYER_1
 62
   250
 10
-47.6198
 20
113.3216
 30
0.0
  0
VERTEX
  5
6C3
  8
LAYER_1
 62
   250
 10
-47.5266
 20
113.3668
 30
0.0
  0
VERTEX
  5
6C4
  8
LAYER_1
 62
   250
 10
-47.4292
 20
113.402
 30
0.0
  0
VERTEX
  5
6C5
  8
LAYER_1
 62
   250
 10
-47.3273
 20
113.4271
 30
0.0
  0
VERTEX
  5
6C6
  8
LAYER_1
 62
   250
 10
-47.2212
 20
113.4422
 30
0.0
  0
VERTEX
  5
6C7
  8
LAYER_1
 62
   250
 10
-47.1107
 20
113.4472
 30
0.0
  0
VERTEX
  5
6C8
  8
LAYER_1
 62
   250
 10
-46.9849
 20
113.4414
 30
0.0
  0
VERTEX
  5
6C9
  8
LAYER_1
 62
   250
 10
-46.8654
 20
113.4239
 30
0.0
  0
VERTEX
  5
6CA
  8
LAYER_1
 62
   250
 10
-46.7524
 20
113.3947
 30
0.0
  0
VERTEX
  5
6CB
  8
LAYER_1
 62
   250
 10
-46.6458
 20
113.3539
 30
0.0
  0
VERTEX
  5
6CC
  8
LAYER_1
 62
   250
 10
-46.5456
 20
113.3013
 30
0.0
  0
VERTEX
  5
6CD
  8
LAYER_1
 62
   250
 10
-46.4518
 20
113.2371
 30
0.0
  0
VERTEX
  5
6CE
  8
LAYER_1
 62
   250
 10
-46.3644
 20
113.1612
 30
0.0
  0
VERTEX
  5
6CF
  8
LAYER_1
 62
   250
 10
-46.2834
 20
113.0735
 30
0.0
  0
VERTEX
  5
6D0
  8
LAYER_1
 62
   250
 10
-46.2264
 20
112.9971
 30
0.0
  0
VERTEX
  5
6D1
  8
LAYER_1
 62
   250
 10
-46.1769
 20
112.9134
 30
0.0
  0
VERTEX
  5
6D2
  8
LAYER_1
 62
   250
 10
-46.135
 20
112.8226
 30
0.0
  0
VERTEX
  5
6D3
  8
LAYER_1
 62
   250
 10
-46.1008
 20
112.7247
 30
0.0
  0
VERTEX
  5
6D4
  8
LAYER_1
 62
   250
 10
-46.0551
 20
112.5072
 30
0.0
  0
VERTEX
  5
6D5
  8
LAYER_1
 62
   250
 10
-46.0398
 20
112.261
 30
0.0
  0
VERTEX
  5
6D6
  8
LAYER_1
 62
   250
 10
-46.0398
 20
110.9926
 30
0.0
  0
SEQEND
  5
6D7
  8
LAYER_1
 62
   250
  0
POLYLINE
  5
80
  8
LAYER_1
 62
   250
 66
     1
 10
0.0
 20
0.0
 30
0.0
 70
     1
  0
VERTEX
  5
6D8
  8
LAYER_1
 62
   250
 10
-43.3704
 20
110.9926
 30
0.0
  0
VERTEX
  5
6D9
  8
LAYER_1
 62
   250
 10
-44.2725
 20
110.9926
 30
0.0
  0
VERTEX
  5
6DA
  8
LAYER_1
 62
   250
 10
-44.2725
 20
112.3499
 30
0.0
  0
VERTEX
  5
6DB
  8
LAYER_1
 62
   250
 10
-44.2832
 20
112.4407
 30
0.0
  0
VERTEX
  5
6DC
  8
LAYER_1
 62
   250
 10
-44.3152
 20
112.5055
 30
0.0
  0
VERTEX
  5
6DD
  8
LAYER_1
 62
   250
 10
-44.3687
 20
112.5444
 30
0.0
  0
VERTEX
  5
6DE
  8
LAYER_1
 62
   250
 10
-44.4437
 20
112.5574
 30
0.0
  0
VERTEX
  5
6DF
  8
LAYER_1
 62
   250
 10
-44.5177
 20
112.5444
 30
0.0
  0
VERTEX
  5
6E0
  8
LAYER_1
 62
   250
 10
-44.5704
 20
112.5055
 30
0.0
  0
VERTEX
  5
6E1
  8
LAYER_1
 62
   250
 10
-44.602
 20
112.4407
 30
0.0
  0
VERTEX
  5
6E2
  8
LAYER_1
 62
   250
 10
-44.6125
 20
112.3499
 30
0.0
  0
VERTEX
  5
6E3
  8
LAYER_1
 62
   250
 10
-44.6125
 20
110.9926
 30
0.0
  0
VERTEX
  5
6E4
  8
LAYER_1
 62
   250
 10
-45.5146
 20
110.9926
 30
0.0
  0
VERTEX
  5
6E5
  8
LAYER_1
 62
   250
 10
-45.5146
 20
112.3335
 30
0.0
  0
VERTEX
  5
6E6
  8
LAYER_1
 62
   250
 10
-45.5097
 20
112.4488
 30
0.0
  0
VERTEX
  5
6E7
  8
LAYER_1
 62
   250
 10
-45.4952
 20
112.5593
 30
0.0
  0
VERTEX
  5
6E8
  8
LAYER_1
 62
   250
 10
-45.4709
 20
112.6652
 30
0.0
  0
VERTEX
  5
6E9
  8
LAYER_1
 62
   250
 10
-45.4368
 20
112.7665
 30
0.0
  0
VERTEX
  5
6EA
  8
LAYER_1
 62
   250
 10
-45.3931
 20
112.8631
 30
0.0
  0
VERTEX
  5
6EB
  8
LAYER_1
 62
   250
 10
-45.3396
 20
112.9551
 30
0.0
  0
VERTEX
  5
6EC
  8
LAYER_1
 62
   250
 10
-45.2764
 20
113.0425
 30
0.0
  0
VERTEX
  5
6ED
  8
LAYER_1
 62
   250
 10
-45.2035
 20
113.1253
 30
0.0
  0
VERTEX
  5
6EE
  8
LAYER_1
 62
   250
 10
-45.1235
 20
113.2008
 30
0.0
  0
VERTEX
  5
6EF
  8
LAYER_1
 62
   250
 10
-45.0391
 20
113.2663
 30
0.0
  0
VERTEX
  5
6F0
  8
LAYER_1
 62
   250
 10
-44.9504
 20
113.3216
 30
0.0
  0
VERTEX
  5
6F1
  8
LAYER_1
 62
   250
 10
-44.8572
 20
113.3668
 30
0.0
  0
VERTEX
  5
6F2
  8
LAYER_1
 62
   250
 10
-44.7598
 20
113.402
 30
0.0
  0
VERTEX
  5
6F3
  8
LAYER_1
 62
   250
 10
-44.6579
 20
113.4271
 30
0.0
  0
VERTEX
  5
6F4
  8
LAYER_1
 62
   250
 10
-44.5518
 20
113.4422
 30
0.0
  0
VERTEX
  5
6F5
  8
LAYER_1
 62
   250
 10
-44.4413
 20
113.4472
 30
0.0
  0
VERTEX
  5
6F6
  8
LAYER_1
 62
   250
 10
-44.3155
 20
113.4414
 30
0.0
  0
VERTEX
  5
6F7
  8
LAYER_1
 62
   250
 10
-44.196
 20
113.4239
 30
0.0
  0
VERTEX
  5
6F8
  8
LAYER_1
 62
   250
 10
-44.083
 20
113.3947
 30
0.0
  0
VERTEX
  5
6F9
  8
LAYER_1
 62
   250
 10
-43.9764
 20
113.3539
 30
0.0
  0
VERTEX
  5
6FA
  8
LAYER_1
 62
   250
 10
-43.8762
 20
113.3013
 30
0.0
  0
VERTEX
  5
6FB
  8
LAYER_1
 62
   250
 10
-43.7824
 20
113.2371
 30
0.0
  0
VERTEX
  5
6FC
  8
LAYER_1
 62
   250
 10
-43.695
 20
113.1612
 30
0.0
  0
VERTEX
  5
6FD
  8
LAYER_1
 62
   250
 10
-43.614
 20
113.0735
 30
0.0
  0
VERTEX
  5
6FE
  8
LAYER_1
 62
   250
 10
-43.557
 20
112.9971
 30
0.0
  0
VERTEX
  5
6FF
  8
LAYER_1
 62
   250
 10
-43.5075
 20
112.9134
 30
0.0
  0
VERTEX
  5
700
  8
LAYER_1
 62
   250
 10
-43.4656
 20
112.8226
 30
0.0
  0
VERTEX
  5
701
  8
LAYER_1
 62
   250
 10
-43.4314
 20
112.7247
 30
0.0
  0
VERTEX
  5
702
  8
LAYER_1
 62
   250
 10
-43.3857
 20
112.5072
 30
0.0
  0
VERTEX
  5
703
  8
LAYER_1
 62
   250
 10
-43.3704
 20
112.261
 30
0.0
  0
VERTEX
  5
704
  8
LAYER_1
 62
   250
 10
-43.3704
 20
110.9926
 30
0.0
  0
SEQEND
  5
705
  8
LAYER_1
 62
   250
  0
POLYLINE
  5
81
  8
LAYER_1
 62
   250
 66
     1
 10
0.0
 20
0.0
 30
0.0
 70
     1
  0
VERTEX
  5
706
  8
LAYER_1
 62
   250
 10
-41.7044
 20
113.4472
 30
0.0
  0
VERTEX
  5
707
  8
LAYER_1
 62
   250
 10
-41.5789
 20
113.4414
 30
0.0
  0
VERTEX
  5
708
  8
LAYER_1
 62
   250
 10
-41.4579
 20
113.4242
 30
0.0
  0
VERTEX
  5
709
  8
LAYER_1
 62
   250
 10
-41.3415
 20
113.3954
 30
0.0
  0
VERTEX
  5
70A
  8
LAYER_1
 62
   250
 10
-41.2296
 20
113.3552
 30
0.0
  0
VERTEX
  5
70B
  8
LAYER_1
 62
   250
 10
-41.1223
 20
113.3034
 30
0.0
  0
VERTEX
  5
70C
  8
LAYER_1
 62
   250
 10
-41.0196
 20
113.2402
 30
0.0
  0
VERTEX
  5
70D
  8
LAYER_1
 62
   250
 10
-40.9214
 20
113.1654
 30
0.0
  0
VERTEX
  5
70E
  8
LAYER_1
 62
   250
 10
-40.8277
 20
113.0792
 30
0.0
  0
VERTEX
  5
70F
  8
LAYER_1
 62
   250
 10
-40.7421
 20
112.9849
 30
0.0
  0
VERTEX
  5
710
  8
LAYER_1
 62
   250
 10
-40.6678
 20
112.8861
 30
0.0
  0
VERTEX
  5
711
  8
LAYER_1
 62
   250
 10
-40.605
 20
112.7828
 30
0.0
  0
VERTEX
  5
712
  8
LAYER_1
 62
   250
 10
-40.5536
 20
112.6749
 30
0.0
  0
VERTEX
  5
713
  8
LAYER_1
 62
   250
 10
-40.5136
 20
112.5624
 30
0.0
  0
VERTEX
  5
714
  8
LAYER_1
 62
   250
 10
-40.4851
 20
112.4454
 30
0.0
  0
VERTEX
  5
715
  8
LAYER_1
 62
   250
 10
-40.4679
 20
112.3238
 30
0.0
  0
VERTEX
  5
716
  8
LAYER_1
 62
   250
 10
-40.4622
 20
112.1977
 30
0.0
  0
VERTEX
  5
717
  8
LAYER_1
 62
   250
 10
-40.468
 20
112.0701
 30
0.0
  0
VERTEX
  5
718
  8
LAYER_1
 62
   250
 10
-40.4854
 20
111.9472
 30
0.0
  0
VERTEX
  5
719
  8
LAYER_1
 62
   250
 10
-40.5143
 20
111.8291
 30
0.0
  0
VERTEX
  5
71A
  8
LAYER_1
 62
   250
 10
-40.5548
 20
111.7157
 30
0.0
  0
VERTEX
  5
71B
  8
LAYER_1
 62
   250
 10
-40.6069
 20
111.6071
 30
0.0
  0
VERTEX
  5
71C
  8
LAYER_1
 62
   250
 10
-40.6706
 20
111.5034
 30
0.0
  0
VERTEX
  5
71D
  8
LAYER_1
 62
   250
 10
-40.7459
 20
111.4044
 30
0.0
  0
VERTEX
  5
71E
  8
LAYER_1
 62
   250
 10
-40.8327
 20
111.3103
 30
0.0
  0
VERTEX
  5
71F
  8
LAYER_1
 62
   250
 10
-40.9274
 20
111.2244
 30
0.0
  0
VERTEX
  5
720
  8
LAYER_1
 62
   250
 10
-41.027
 20
111.15
 30
0.0
  0
VERTEX
  5
721
  8
LAYER_1
 62
   250
 10
-41.1314
 20
111.087
 30
0.0
  0
VERTEX
  5
722
  8
LAYER_1
 62
   250
 10
-41.2407
 20
111.0355
 30
0.0
  0
VERTEX
  5
723
  8
LAYER_1
 62
   250
 10
-41.3547
 20
110.9955
 30
0.0
  0
VERTEX
  5
724
  8
LAYER_1
 62
   250
 10
-41.4736
 20
110.9669
 30
0.0
  0
VERTEX
  5
725
  8
LAYER_1
 62
   250
 10
-41.5973
 20
110.9497
 30
0.0
  0
VERTEX
  5
726
  8
LAYER_1
 62
   250
 10
-41.7258
 20
110.944
 30
0.0
  0
VERTEX
  5
727
  8
LAYER_1
 62
   250
 10
-41.8543
 20
110.9498
 30
0.0
  0
VERTEX
  5
728
  8
LAYER_1
 62
   250
 10
-41.978
 20
110.967
 30
0.0
  0
VERTEX
  5
729
  8
LAYER_1
 62
   250
 10
-42.0969
 20
110.9958
 30
0.0
  0
VERTEX
  5
72A
  8
LAYER_1
 62
   250
 10
-42.2111
 20
111.036
 30
0.0
  0
VERTEX
  5
72B
  8
LAYER_1
 62
   250
 10
-42.3205
 20
111.0878
 30
0.0
  0
VERTEX
  5
72C
  8
LAYER_1
 62
   250
 10
-42.4252
 20
111.151
 30
0.0
  0
VERTEX
  5
72D
  8
LAYER_1
 62
   250
 10
-42.5252
 20
111.2258
 30
0.0
  0
VERTEX
  5
72E
  8
LAYER_1
 62
   250
 10
-42.6205
 20
111.312
 30
0.0
  0
VERTEX
  5
72F
  8
LAYER_1
 62
   250
 10
-42.7076
 20
111.4063
 30
0.0
  0
VERTEX
  5
730
  8
LAYER_1
 62
   250
 10
-42.783
 20
111.5054
 30
0.0
  0
VERTEX
  5
731
  8
LAYER_1
 62
   250
 10
-42.8468
 20
111.6091
 30
0.0
  0
VERTEX
  5
732
  8
LAYER_1
 62
   250
 10
-42.899
 20
111.7175
 30
0.0
  0
VERTEX
  5
733
  8
LAYER_1
 62
   250
 10
-42.9396
 20
111.8306
 30
0.0
  0
VERTEX
  5
734
  8
LAYER_1
 62
   250
 10
-42.9685
 20
111.9483
 30
0.0
  0
VERTEX
  5
735
  8
LAYER_1
 62
   250
 10
-42.9859
 20
112.0707
 30
0.0
  0
VERTEX
  5
736
  8
LAYER_1
 62
   250
 10
-42.9917
 20
112.1977
 30
0.0
  0
VERTEX
  5
737
  8
LAYER_1
 62
   250
 10
-42.9859
 20
112.3272
 30
0.0
  0
VERTEX
  5
738
  8
LAYER_1
 62
   250
 10
-42.9685
 20
112.4514
 30
0.0
  0
VERTEX
  5
739
  8
LAYER_1
 62
   250
 10
-42.9396
 20
112.5704
 30
0.0
  0
VERTEX
  5
73A
  8
LAYER_1
 62
   250
 10
-42.899
 20
112.6842
 30
0.0
  0
VERTEX
  5
73B
  8
LAYER_1
 62
   250
 10
-42.8468
 20
112.7927
 30
0.0
  0
VERTEX
  5
73C
  8
LAYER_1
 62
   250
 10
-42.783
 20
112.8959
 30
0.0
  0
VERTEX
  5
73D
  8
LAYER_1
 62
   250
 10
-42.7076
 20
112.9939
 30
0.0
  0
VERTEX
  5
73E
  8
LAYER_1
 62
   250
 10
-42.6205
 20
113.0867
 30
0.0
  0
VERTEX
  5
73F
  8
LAYER_1
 62
   250
 10
-42.5249
 20
113.1712
 30
0.0
  0
VERTEX
  5
740
  8
LAYER_1
 62
   250
 10
-42.4239
 20
113.2444
 30
0.0
  0
VERTEX
  5
741
  8
LAYER_1
 62
   250
 10
-42.3175
 20
113.3064
 30
0.0
  0
VERTEX
  5
742
  8
LAYER_1
 62
   250
 10
-42.2057
 20
113.3571
 30
0.0
  0
VERTEX
  5
743
  8
LAYER_1
 62
   250
 10
-42.0884
 20
113.3965
 30
0.0
  0
VERTEX
  5
744
  8
LAYER_1
 62
   250
 10
-41.9658
 20
113.4247
 30
0.0
  0
VERTEX
  5
745
  8
LAYER_1
 62
   250
 10
-41.8378
 20
113.4416
 30
0.0
  0
VERTEX
  5
746
  8
LAYER_1
 62
   250
 10
-41.7044
 20
113.4472
 30
0.0
  0
SEQEND
  5
747
  8
LAYER_1
 62
   250
  0
POLYLINE
  5
82
  8
LAYER_1
 62
   250
 66
     1
 10
0.0
 20
0.0
 30
0.0
 70
     1
  0
VERTEX
  5
748
  8
LAYER_1
 62
   250
 10
-41.7282
 20
112.5574
 30
0.0
  0
VERTEX
  5
749
  8
LAYER_1
 62
   250
 10
-41.7978
 20
112.5509
 30
0.0
  0
VERTEX
  5
74A
  8
LAYER_1
 62
   250
 10
-41.8621
 20
112.5314
 30
0.0
  0
VERTEX
  5
74B
  8
LAYER_1
 62
   250
 10
-41.9209
 20
112.4987
 30
0.0
  0
VERTEX
  5
74C
  8
LAYER_1
 62
   250
 10
-41.9743
 20
112.4528
 30
0.0
  0
VERTEX
  5
74D
  8
LAYER_1
 62
   250
 10
-42.0186
 20
112.3974
 30
0.0
  0
VERTEX
  5
74E
  8
LAYER_1
 62
   250
 10
-42.0503
 20
112.3362
 30
0.0
  0
VERTEX
  5
74F
  8
LAYER_1
 62
   250
 10
-42.0693
 20
112.269
 30
0.0
  0
VERTEX
  5
750
  8
LAYER_1
 62
   250
 10
-42.0756
 20
112.196
 30
0.0
  0
VERTEX
  5
751
  8
LAYER_1
 62
   250
 10
-42.0691
 20
112.1236
 30
0.0
  0
VERTEX
  5
752
  8
LAYER_1
 62
   250
 10
-42.0498
 20
112.0569
 30
0.0
  0
VERTEX
  5
753
  8
LAYER_1
 62
   250
 10
-42.0176
 20
111.9958
 30
0.0
  0
VERTEX
  5
754
  8
LAYER_1
 62
   250
 10
-41.9727
 20
111.94
 30
0.0
  0
VERTEX
  5
755
  8
LAYER_1
 62
   250
 10
-41.919
 20
111.8935
 30
0.0
  0
VERTEX
  5
756
  8
LAYER_1
 62
   250
 10
-41.8604
 20
111.8604
 30
0.0
  0
VERTEX
  5
757
  8
LAYER_1
 62
   250
 10
-41.7968
 20
111.8404
 30
0.0
  0
VERTEX
  5
758
  8
LAYER_1
 62
   250
 10
-41.7282
 20
111.8338
 30
0.0
  0
VERTEX
  5
759
  8
LAYER_1
 62
   250
 10
-41.6586
 20
111.8404
 30
0.0
  0
VERTEX
  5
75A
  8
LAYER_1
 62
   250
 10
-41.5943
 20
111.8604
 30
0.0
  0
VERTEX
  5
75B
  8
LAYER_1
 62
   250
 10
-41.5352
 20
111.8935
 30
0.0
  0
VERTEX
  5
75C
  8
LAYER_1
 62
   250
 10
-41.4813
 20
111.94
 30
0.0
  0
VERTEX
  5
75D
  8
LAYER_1
 62
   250
 10
-41.4364
 20
111.9958
 30
0.0
  0
VERTEX
  5
75E
  8
LAYER_1
 62
   250
 10
-41.4042
 20
112.0569
 30
0.0
  0
VERTEX
  5
75F
  8
LAYER_1
 62
   250
 10
-41.3849
 20
112.1236
 30
0.0
  0
VERTEX
  5
760
  8
LAYER_1
 62
   250
 10
-41.3784
 20
112.196
 30
0.0
  0
VERTEX
  5
761
  8
LAYER_1
 62
   250
 10
-41.3847
 20
112.269
 30
0.0
  0
VERTEX
  5
762
  8
LAYER_1
 62
   250
 10
-41.4037
 20
112.3362
 30
0.0
  0
VERTEX
  5
763
  8
LAYER_1
 62
   250
 10
-41.4353
 20
112.3974
 30
0.0
  0
VERTEX
  5
764
  8
LAYER_1
 62
   250
 10
-41.4796
 20
112.4528
 30
0.0
  0
VERTEX
  5
765
  8
LAYER_1
 62
   250
 10
-41.5332
 20
112.4987
 30
0.0
  0
VERTEX
  5
766
  8
LAYER_1
 62
   250
 10
-41.5925
 20
112.5314
 30
0.0
  0
VERTEX
  5
767
  8
LAYER_1
 62
   250
 10
-41.6575
 20
112.5509
 30
0.0
  0
VERTEX
  5
768
  8
LAYER_1
 62
   250
 10
-41.7282
 20
112.5574
 30
0.0
  0
SEQEND
  5
769
  8
LAYER_1
 62
   250
  0
POLYLINE
  5
83
  8
LAYER_1
 62
   250
 66
     1
 10
0.0
 20
0.0
 30
0.0
 70
     1
  0
VERTEX
  5
76A
  8
LAYER_1
 62
   250
 10
-38.2793
 20
113.397
 30
0.0
  0
VERTEX
  5
76B
  8
LAYER_1
 62
   250
 10
-39.4037
 20
110.8988
 30
0.0
  0
VERTEX
  5
76C
  8
LAYER_1
 62
   250
 10
-40.5125
 20
113.397
 30
0.0
  0
VERTEX
  5
76D
  8
LAYER_1
 62
   250
 10
-39.6515
 20
113.397
 30
0.0
  0
VERTEX
  5
76E
  8
LAYER_1
 62
   250
 10
-39.3963
 20
112.7483
 30
0.0
  0
VERTEX
  5
76F
  8
LAYER_1
 62
   250
 10
-39.1165
 20
113.397
 30
0.0
  0
VERTEX
  5
770
  8
LAYER_1
 62
   250
 10
-38.2793
 20
113.397
 30
0.0
  0
SEQEND
  5
771
  8
LAYER_1
 62
   250
  0
POLYLINE
  5
84
  8
LAYER_1
 62
   250
 66
     1
 10
0.0
 20
0.0
 30
0.0
 70
     1
  0
VERTEX
  5
772
  8
LAYER_1
 62
   250
 10
-36.8471
 20
111.8948
 30
0.0
  0
VERTEX
  5
773
  8
LAYER_1
 62
   250
 10
-36.8471
 20
110.9613
 30
0.0
  0
VERTEX
  5
774
  8
LAYER_1
 62
   250
 10
-37.0496
 20
110.9416
 30
0.0
  0
VERTEX
  5
775
  8
LAYER_1
 62
   250
 10
-37.1823
 20
110.9472
 30
0.0
  0
VERTEX
  5
776
  8
LAYER_1
 62
   250
 10
-37.3094
 20
110.964
 30
0.0
  0
VERTEX
  5
777
  8
LAYER_1
 62
   250
 10
-37.431
 20
110.9919
 30
0.0
  0
VERTEX
  5
778
  8
LAYER_1
 62
   250
 10
-37.5469
 20
111.031
 30
0.0
  0
VERTEX
  5
779
  8
LAYER_1
 62
   250
 10
-37.6572
 20
111.0812
 30
0.0
  0
VERTEX
  5
77A
  8
LAYER_1
 62
   250
 10
-37.7619
 20
111.1426
 30
0.0
  0
VERTEX
  5
77B
  8
LAYER_1
 62
   250
 10
-37.8609
 20
111.2151
 30
0.0
  0
VERTEX
  5
77C
  8
LAYER_1
 62
   250
 10
-37.9542
 20
111.2988
 30
0.0
  0
VERTEX
  5
77D
  8
LAYER_1
 62
   250
 10
-38.039
 20
111.3908
 30
0.0
  0
VERTEX
  5
77E
  8
LAYER_1
 62
   250
 10
-38.1124
 20
111.4885
 30
0.0
  0
VERTEX
  5
77F
  8
LAYER_1
 62
   250
 10
-38.1745
 20
111.5918
 30
0.0
  0
VERTEX
  5
780
  8
LAYER_1
 62
   250
 10
-38.2253
 20
111.7008
 30
0.0
  0
VERTEX
  5
781
  8
LAYER_1
 62
   250
 10
-38.2648
 20
111.8155
 30
0.0
  0
VERTEX
  5
782
  8
LAYER_1
 62
   250
 10
-38.293
 20
111.9358
 30
0.0
  0
VERTEX
  5
783
  8
LAYER_1
 62
   250
 10
-38.3099
 20
112.0619
 30
0.0
  0
VERTEX
  5
784
  8
LAYER_1
 62
   250
 10
-38.3155
 20
112.1936
 30
0.0
  0
VERTEX
  5
785
  8
LAYER_1
 62
   250
 10
-38.3098
 20
112.322
 30
0.0
  0
VERTEX
  5
786
  8
LAYER_1
 62
   250
 10
-38.2927
 20
112.4453
 30
0.0
  0
VERTEX
  5
787
  8
LAYER_1
 62
   250
 10
-38.2641
 20
112.5637
 30
0.0
  0
VERTEX
  5
788
  8
LAYER_1
 62
   250
 10
-38.2242
 20
112.6771
 30
0.0
  0
VERTEX
  5
789
  8
LAYER_1
 62
   250
 10
-38.1728
 20
112.7855
 30
0.0
  0
VERTEX
  5
78A
  8
LAYER_1
 62
   250
 10
-38.11
 20
112.8889
 30
0.0
  0
VERTEX
  5
78B
  8
LAYER_1
 62
   250
 10
-38.0357
 20
112.9874
 30
0.0
  0
VERTEX
  5
78C
  8
LAYER_1
 62
   250
 10
-37.9501
 20
113.0809
 30
0.0
  0
VERTEX
  5
78D
  8
LAYER_1
 62
   250
 10
-37.8562
 20
113.1663
 30
0.0
  0
VERTEX
  5
78E
  8
LAYER_1
 62
   250
 10
-37.7575
 20
113.2403
 30
0.0
  0
VERTEX
  5
78F
  8
LAYER_1
 62
   250
 10
-37.6537
 20
113.303
 30
0.0
  0
VERTEX
  5
790
  8
LAYER_1
 62
   250
 10
-37.5451
 20
113.3543
 30
0.0
  0
VERTEX
  5
791
  8
LAYER_1
 62
   250
 10
-37.4315
 20
113.3942
 30
0.0
  0
VERTEX
  5
792
  8
LAYER_1
 62
   250
 10
-37.313
 20
113.4227
 30
0.0
  0
VERTEX
  5
793
  8
LAYER_1
 62
   250
 10
-37.1895
 20
113.4398
 30
0.0
  0
VERTEX
  5
794
  8
LAYER_1
 62
   250
 10
-37.0611
 20
113.4455
 30
0.0
  0
VERTEX
  5
795
  8
LAYER_1
 62
   250
 10
-36.9192
 20
113.4402
 30
0.0
  0
VERTEX
  5
796
  8
LAYER_1
 62
   250
 10
-36.785
 20
113.4242
 30
0.0
  0
VERTEX
  5
797
  8
LAYER_1
 62
   250
 10
-36.6585
 20
113.3975
 30
0.0
  0
VERTEX
  5
798
  8
LAYER_1
 62
   250
 10
-36.5396
 20
113.3602
 30
0.0
  0
VERTEX
  5
799
  8
LAYER_1
 62
   250
 10
-36.4285
 20
113.3122
 30
0.0
  0
VERTEX
  5
79A
  8
LAYER_1
 62
   250
 10
-36.3251
 20
113.2535
 30
0.0
  0
VERTEX
  5
79B
  8
LAYER_1
 62
   250
 10
-36.2295
 20
113.184
 30
0.0
  0
VERTEX
  5
79C
  8
LAYER_1
 62
   250
 10
-36.1416
 20
113.1039
 30
0.0
  0
VERTEX
  5
79D
  8
LAYER_1
 62
   250
 10
-36.0626
 20
113.0148
 30
0.0
  0
VERTEX
  5
79E
  8
LAYER_1
 62
   250
 10
-35.9942
 20
112.9178
 30
0.0
  0
VERTEX
  5
79F
  8
LAYER_1
 62
   250
 10
-35.9364
 20
112.813
 30
0.0
  0
VERTEX
  5
7A0
  8
LAYER_1
 62
   250
 10
-35.889
 20
112.7004
 30
0.0
  0
VERTEX
  5
7A1
  8
LAYER_1
 62
   250
 10
-35.8523
 20
112.58
 30
0.0
  0
VERTEX
  5
7A2
  8
LAYER_1
 62
   250
 10
-35.826
 20
112.4518
 30
0.0
  0
VERTEX
  5
7A3
  8
LAYER_1
 62
   250
 10
-35.8102
 20
112.3159
 30
0.0
  0
VERTEX
  5
7A4
  8
LAYER_1
 62
   250
 10
-35.805
 20
112.1722
 30
0.0
  0
VERTEX
  5
7A5
  8
LAYER_1
 62
   250
 10
-35.805
 20
110.9926
 30
0.0
  0
VERTEX
  5
7A6
  8
LAYER_1
 62
   250
 10
-36.7071
 20
110.9926
 30
0.0
  0
VERTEX
  5
7A7
  8
LAYER_1
 62
   250
 10
-36.7071
 20
112.1071
 30
0.0
  0
VERTEX
  5
7A8
  8
LAYER_1
 62
   250
 10
-36.713
 20
112.1974
 30
0.0
  0
VERTEX
  5
7A9
  8
LAYER_1
 62
   250
 10
-36.7305
 20
112.2781
 30
0.0
  0
VERTEX
  5
7AA
  8
LAYER_1
 62
   250
 10
-36.7596
 20
112.3493
 30
0.0
  0
VERTEX
  5
7AB
  8
LAYER_1
 62
   250
 10
-36.8002
 20
112.4109
 30
0.0
  0
VERTEX
  5
7AC
  8
LAYER_1
 62
   250
 10
-36.8505
 20
112.4606
 30
0.0
  0
VERTEX
  5
7AD
  8
LAYER_1
 62
   250
 10
-36.9088
 20
112.4961
 30
0.0
  0
VERTEX
  5
7AE
  8
LAYER_1
 62
   250
 10
-36.9752
 20
112.5174
 30
0.0
  0
VERTEX
  5
7AF
  8
LAYER_1
 62
   250
 10
-37.0496
 20
112.5245
 30
0.0
  0
VERTEX
  5
7B0
  8
LAYER_1
 62
   250
 10
-37.1182
 20
112.518
 30
0.0
  0
VERTEX
  5
7B1
  8
LAYER_1
 62
   250
 10
-37.1822
 20
112.4986
 30
0.0
  0
VERTEX
  5
7B2
  8
LAYER_1
 62
   250
 10
-37.2414
 20
112.4661
 30
0.0
  0
VERTEX
  5
7B3
  8
LAYER_1
 62
   250
 10
-37.2957
 20
112.4207
 30
0.0
  0
VERTEX
  5
7B4
  8
LAYER_1
 62
   250
 10
-37.3411
 20
112.3664
 30
0.0
  0
VERTEX
  5
7B5
  8
LAYER_1
 62
   250
 10
-37.3735
 20
112.3073
 30
0.0
  0
VERTEX
  5
7B6
  8
LAYER_1
 62
   250
 10
-37.3929
 20
112.2433
 30
0.0
  0
VERTEX
  5
7B7
  8
LAYER_1
 62
   250
 10
-37.3994
 20
112.1746
 30
0.0
  0
VERTEX
  5
7B8
  8
LAYER_1
 62
   250
 10
-37.3935
 20
112.1028
 30
0.0
  0
VERTEX
  5
7B9
  8
LAYER_1
 62
   250
 10
-37.3759
 20
112.0379
 30
0.0
  0
VERTEX
  5
7BA
  8
LAYER_1
 62
   250
 10
-37.3466
 20
111.9796
 30
0.0
  0
VERTEX
  5
7BB
  8
LAYER_1
 62
   250
 10
-37.3056
 20
111.9277
 30
0.0
  0
VERTEX
  5
7BC
  8
LAYER_1
 62
   250
 10
-37.2554
 20
111.8856
 30
0.0
  0
VERTEX
  5
7BD
  8
LAYER_1
 62
   250
 10
-37.1989
 20
111.8555
 30
0.0
  0
VERTEX
  5
7BE
  8
LAYER_1
 62
   250
 10
-37.136
 20
111.8374
 30
0.0
  0
VERTEX
  5
7BF
  8
LAYER_1
 62
   250
 10
-37.0669
 20
111.8314
 30
0.0
  0
VERTEX
  5
7C0
  8
LAYER_1
 62
   250
 10
-36.9527
 20
111.8474
 30
0.0
  0
VERTEX
  5
7C1
  8
LAYER_1
 62
   250
 10
-36.8471
 20
111.8948
 30
0.0
  0
SEQEND
  5
7C2
  8
LAYER_1
 62
   250
  0
POLYLINE
  5
85
  8
LAYER_1
 62
   250
 66
     1
 10
0.0
 20
0.0
 30
0.0
 70
     1
  0
VERTEX
  5
7C3
  8
LAYER_1
 62
   250
 10
-34.4764
 20
114.2843
 30
0.0
  0
VERTEX
  5
7C4
  8
LAYER_1
 62
   250
 10
-34.4764
 20
113.3632
 30
0.0
  0
VERTEX
  5
7C5
  8
LAYER_1
 62
   250
 10
-34.0715
 20
113.3632
 30
0.0
  0
VERTEX
  5
7C6
  8
LAYER_1
 62
   250
 10
-34.0715
 20
112.4109
 30
0.0
  0
VERTEX
  5
7C7
  8
LAYER_1
 62
   250
 10
-34.4764
 20
112.4109
 30
0.0
  0
VERTEX
  5
7C8
  8
LAYER_1
 62
   250
 10
-34.4707
 20
112.2786
 30
0.0
  0
VERTEX
  5
7C9
  8
LAYER_1
 62
   250
 10
-34.4537
 20
112.1685
 30
0.0
  0
VERTEX
  5
7CA
  8
LAYER_1
 62
   250
 10
-34.4254
 20
112.0805
 30
0.0
  0
VERTEX
  5
7CB
  8
LAYER_1
 62
   250
 10
-34.3859
 20
112.0149
 30
0.0
  0
VERTEX
  5
7CC
  8
LAYER_1
 62
   250
 10
-34.3313
 20
111.9679
 30
0.0
  0
VERTEX
  5
7CD
  8
LAYER_1
 62
   250
 10
-34.2577
 20
111.9342
 30
0.0
  0
VERTEX
  5
7CE
  8
LAYER_1
 62
   250
 10
-34.1653
 20
111.9139
 30
0.0
  0
VERTEX
  5
7CF
  8
LAYER_1
 62
   250
 10
-34.0542
 20
111.9071
 30
0.0
  0
VERTEX
  5
7D0
  8
LAYER_1
 62
   250
 10
-34.0542
 20
110.9589
 30
0.0
  0
VERTEX
  5
7D1
  8
LAYER_1
 62
   250
 10
-34.1579
 20
110.9564
 30
0.0
  0
VERTEX
  5
7D2
  8
LAYER_1
 62
   250
 10
-34.3088
 20
110.9653
 30
0.0
  0
VERTEX
  5
7D3
  8
LAYER_1
 62
   250
 10
-34.4554
 20
110.9921
 30
0.0
  0
VERTEX
  5
7D4
  8
LAYER_1
 62
   250
 10
-34.5977
 20
111.0366
 30
0.0
  0
VERTEX
  5
7D5
  8
LAYER_1
 62
   250
 10
-34.7357
 20
111.0988
 30
0.0
  0
VERTEX
  5
7D6
  8
LAYER_1
 62
   250
 10
-34.8648
 20
111.1761
 30
0.0
  0
VERTEX
  5
7D7
  8
LAYER_1
 62
   250
 10
-34.9803
 20
111.2662
 30
0.0
  0
VERTEX
  5
7D8
  8
LAYER_1
 62
   250
 10
-35.0824
 20
111.3691
 30
0.0
  0
VERTEX
  5
7D9
  8
LAYER_1
 62
   250
 10
-35.1712
 20
111.4848
 30
0.0
  0
VERTEX
  5
7DA
  8
LAYER_1
 62
   250
 10
-35.262
 20
111.6531
 30
0.0
  0
VERTEX
  5
7DB
  8
LAYER_1
 62
   250
 10
-35.3268
 20
111.8466
 30
0.0
  0
VERTEX
  5
7DC
  8
LAYER_1
 62
   250
 10
-35.3656
 20
112.0655
 30
0.0
  0
VERTEX
  5
7DD
  8
LAYER_1
 62
   250
 10
-35.3786
 20
112.3096
 30
0.0
  0
VERTEX
  5
7DE
  8
LAYER_1
 62
   250
 10
-35.3786
 20
114.2843
 30
0.0
  0
VERTEX
  5
7DF
  8
LAYER_1
 62
   250
 10
-34.4764
 20
114.2843
 30
0.0
  0
SEQEND
  5
7E0
  8
LAYER_1
 62
   250
  0
POLYLINE
  5
86
  8
LAYER_1
 62
   250
 66
     1
 10
0.0
 20
0.0
 30
0.0
 70
     1
  0
VERTEX
  5
7E1
  8
LAYER_1
 62
   250
 10
-32.7257
 20
113.397
 30
0.0
  0
VERTEX
  5
7E2
  8
LAYER_1
 62
   250
 10
-32.7257
 20
110.9926
 30
0.0
  0
VERTEX
  5
7E3
  8
LAYER_1
 62
   250
 10
-33.6278
 20
110.9926
 30
0.0
  0
VERTEX
  5
7E4
  8
LAYER_1
 62
   250
 10
-33.6278
 20
113.397
 30
0.0
  0
VERTEX
  5
7E5
  8
LAYER_1
 62
   250
 10
-32.7257
 20
113.397
 30
0.0
  0
SEQEND
  5
7E6
  8
LAYER_1
 62
   250
  0
POLYLINE
  5
87
  8
LAYER_1
 62
   250
 66
     1
 10
0.0
 20
0.0
 30
0.0
 70
     1
  0
VERTEX
  5
7E7
  8
LAYER_1
 62
   250
 10
-33.1743
 20
114.4703
 30
0.0
  0
VERTEX
  5
7E8
  8
LAYER_1
 62
   250
 10
-33.0859
 20
114.4623
 30
0.0
  0
VERTEX
  5
7E9
  8
LAYER_1
 62
   250
 10
-33.0035
 20
114.4381
 30
0.0
  0
VERTEX
  5
7EA
  8
LAYER_1
 62
   250
 10
-32.9273
 20
114.3977
 30
0.0
  0
VERTEX
  5
7EB
  8
LAYER_1
 62
   250
 10
-32.8574
 20
114.3411
 30
0.0
  0
VERTEX
  5
7EC
  8
LAYER_1
 62
   250
 10
-32.7985
 20
114.2738
 30
0.0
  0
VERTEX
  5
7ED
  8
LAYER_1
 62
   250
 10
-32.7566
 20
114.2005
 30
0.0
  0
VERTEX
  5
7EE
  8
LAYER_1
 62
   250
 10
-32.7315
 20
114.1214
 30
0.0
  0
VERTEX
  5
7EF
  8
LAYER_1
 62
   250
 10
-32.7232
 20
114.0365
 30
0.0
  0
VERTEX
  5
7F0
  8
LAYER_1
 62
   250
 10
-32.7311
 20
113.9464
 30
0.0
  0
VERTEX
  5
7F1
  8
LAYER_1
 62
   250
 10
-32.7548
 20
113.8649
 30
0.0
  0
VERTEX
  5
7F2
  8
LAYER_1
 62
   250
 10
-32.7944
 20
113.7921
 30
0.0
  0
VERTEX
  5
7F3
  8
LAYER_1
 62
   250
 10
-32.85
 20
113.7279
 30
0.0
  0
VERTEX
  5
7F4
  8
LAYER_1
 62
   250
 10
-32.9175
 20
113.6749
 30
0.0
  0
VERTEX
  5
7F5
  8
LAYER_1
 62
   250
 10
-32.9942
 20
113.6371
 30
0.0
  0
VERTEX
  5
7F6
  8
LAYER_1
 62
   250
 10
-33.0799
 20
113.6145
 30
0.0
  0
VERTEX
  5
7F7
  8
LAYER_1
 62
   250
 10
-33.1743
 20
113.6069
 30
0.0
  0
VERTEX
  5
7F8
  8
LAYER_1
 62
   250
 10
-33.2687
 20
113.6145
 30
0.0
  0
VERTEX
  5
7F9
  8
LAYER_1
 62
   250
 10
-33.3543
 20
113.6371
 30
0.0
  0
VERTEX
  5
7FA
  8
LAYER_1
 62
   250
 10
-33.431
 20
113.6749
 30
0.0
  0
VERTEX
  5
7FB
  8
LAYER_1
 62
   250
 10
-33.4986
 20
113.7279
 30
0.0
  0
VERTEX
  5
7FC
  8
LAYER_1
 62
   250
 10
-33.5542
 20
113.7921
 30
0.0
  0
VERTEX
  5
7FD
  8
LAYER_1
 62
   250
 10
-33.5938
 20
113.8649
 30
0.0
  0
VERTEX
  5
7FE
  8
LAYER_1
 62
   250
 10
-33.6175
 20
113.9464
 30
0.0
  0
VERTEX
  5
7FF
  8
LAYER_1
 62
   250
 10
-33.6254
 20
114.0365
 30
0.0
  0
VERTEX
  5
800
  8
LAYER_1
 62
   250
 10
-33.617
 20
114.1214
 30
0.0
  0
VERTEX
  5
801
  8
LAYER_1
 62
   250
 10
-33.5919
 20
114.2005
 30
0.0
  0
VERTEX
  5
802
  8
LAYER_1
 62
   250
 10
-33.55
 20
114.2738
 30
0.0
  0
VERTEX
  5
803
  8
LAYER_1
 62
   250
 10
-33.4912
 20
114.3411
 30
0.0
  0
VERTEX
  5
804
  8
LAYER_1
 62
   250
 10
-33.4213
 20
114.3977
 30
0.0
  0
VERTEX
  5
805
  8
LAYER_1
 62
   250
 10
-33.3451
 20
114.4381
 30
0.0
  0
VERTEX
  5
806
  8
LAYER_1
 62
   250
 10
-33.2627
 20
114.4623
 30
0.0
  0
VERTEX
  5
807
  8
LAYER_1
 62
   250
 10
-33.1743
 20
114.4703
 30
0.0
  0
SEQEND
  5
808
  8
LAYER_1
 62
   250
  0
POLYLINE
  5
88
  8
LAYER_1
 62
   250
 66
     1
 10
0.0
 20
0.0
 30
0.0
 70
     1
  0
VERTEX
  5
809
  8
LAYER_1
 62
   250
 10
-31.0547
 20
113.4472
 30
0.0
  0
VERTEX
  5
80A
  8
LAYER_1
 62
   250
 10
-30.9292
 20
113.4414
 30
0.0
  0
VERTEX
  5
80B
  8
LAYER_1
 62
   250
 10
-30.8082
 20
113.4242
 30
0.0
  0
VERTEX
  5
80C
  8
LAYER_1
 62
   250
 10
-30.6918
 20
113.3954
 30
0.0
  0
VERTEX
  5
80D
  8
LAYER_1
 62
   250
 10
-30.5799
 20
113.3552
 30
0.0
  0
VERTEX
  5
80E
  8
LAYER_1
 62
   250
 10
-30.4726
 20
113.3034
 30
0.0
  0
VERTEX
  5
80F
  8
LAYER_1
 62
   250
 10
-30.3699
 20
113.2402
 30
0.0
  0
VERTEX
  5
810
  8
LAYER_1
 62
   250
 10
-30.2717
 20
113.1654
 30
0.0
  0
VERTEX
  5
811
  8
LAYER_1
 62
   250
 10
-30.178
 20
113.0792
 30
0.0
  0
VERTEX
  5
812
  8
LAYER_1
 62
   250
 10
-30.0924
 20
112.9849
 30
0.0
  0
VERTEX
  5
813
  8
LAYER_1
 62
   250
 10
-30.0181
 20
112.8861
 30
0.0
  0
VERTEX
  5
814
  8
LAYER_1
 62
   250
 10
-29.9553
 20
112.7828
 30
0.0
  0
VERTEX
  5
815
  8
LAYER_1
 62
   250
 10
-29.9039
 20
112.6749
 30
0.0
  0
VERTEX
  5
816
  8
LAYER_1
 62
   250
 10
-29.8639
 20
112.5624
 30
0.0
  0
VERTEX
  5
817
  8
LAYER_1
 62
   250
 10
-29.8354
 20
112.4454
 30
0.0
  0
VERTEX
  5
818
  8
LAYER_1
 62
   250
 10
-29.8182
 20
112.3238
 30
0.0
  0
VERTEX
  5
819
  8
LAYER_1
 62
   250
 10
-29.8125
 20
112.1977
 30
0.0
  0
VERTEX
  5
81A
  8
LAYER_1
 62
   250
 10
-29.8183
 20
112.0701
 30
0.0
  0
VERTEX
  5
81B
  8
LAYER_1
 62
   250
 10
-29.8357
 20
111.9472
 30
0.0
  0
VERTEX
  5
81C
  8
LAYER_1
 62
   250
 10
-29.8646
 20
111.8291
 30
0.0
  0
VERTEX
  5
81D
  8
LAYER_1
 62
   250
 10
-29.9051
 20
111.7157
 30
0.0
  0
VERTEX
  5
81E
  8
LAYER_1
 62
   250
 10
-29.9572
 20
111.6071
 30
0.0
  0
VERTEX
  5
81F
  8
LAYER_1
 62
   250
 10
-30.0209
 20
111.5034
 30
0.0
  0
VERTEX
  5
820
  8
LAYER_1
 62
   250
 10
-30.0962
 20
111.4044
 30
0.0
  0
VERTEX
  5
821
  8
LAYER_1
 62
   250
 10
-30.183
 20
111.3103
 30
0.0
  0
VERTEX
  5
822
  8
LAYER_1
 62
   250
 10
-30.2777
 20
111.2244
 30
0.0
  0
VERTEX
  5
823
  8
LAYER_1
 62
   250
 10
-30.3773
 20
111.15
 30
0.0
  0
VERTEX
  5
824
  8
LAYER_1
 62
   250
 10
-30.4817
 20
111.087
 30
0.0
  0
VERTEX
  5
825
  8
LAYER_1
 62
   250
 10
-30.591
 20
111.0355
 30
0.0
  0
VERTEX
  5
826
  8
LAYER_1
 62
   250
 10
-30.705
 20
110.9955
 30
0.0
  0
VERTEX
  5
827
  8
LAYER_1
 62
   250
 10
-30.8239
 20
110.9669
 30
0.0
  0
VERTEX
  5
828
  8
LAYER_1
 62
   250
 10
-30.9476
 20
110.9497
 30
0.0
  0
VERTEX
  5
829
  8
LAYER_1
 62
   250
 10
-31.0761
 20
110.944
 30
0.0
  0
VERTEX
  5
82A
  8
LAYER_1
 62
   250
 10
-31.2046
 20
110.9498
 30
0.0
  0
VERTEX
  5
82B
  8
LAYER_1
 62
   250
 10
-31.3283
 20
110.967
 30
0.0
  0
VERTEX
  5
82C
  8
LAYER_1
 62
   250
 10
-31.4472
 20
110.9958
 30
0.0
  0
VERTEX
  5
82D
  8
LAYER_1
 62
   250
 10
-31.5614
 20
111.036
 30
0.0
  0
VERTEX
  5
82E
  8
LAYER_1
 62
   250
 10
-31.6708
 20
111.0878
 30
0.0
  0
VERTEX
  5
82F
  8
LAYER_1
 62
   250
 10
-31.7755
 20
111.151
 30
0.0
  0
VERTEX
  5
830
  8
LAYER_1
 62
   250
 10
-31.8755
 20
111.2258
 30
0.0
  0
VERTEX
  5
831
  8
LAYER_1
 62
   250
 10
-31.9708
 20
111.312
 30
0.0
  0
VERTEX
  5
832
  8
LAYER_1
 62
   250
 10
-32.0579
 20
111.4063
 30
0.0
  0
VERTEX
  5
833
  8
LAYER_1
 62
   250
 10
-32.1333
 20
111.5054
 30
0.0
  0
VERTEX
  5
834
  8
LAYER_1
 62
   250
 10
-32.1971
 20
111.6091
 30
0.0
  0
VERTEX
  5
835
  8
LAYER_1
 62
   250
 10
-32.2493
 20
111.7175
 30
0.0
  0
VERTEX
  5
836
  8
LAYER_1
 62
   250
 10
-32.2899
 20
111.8306
 30
0.0
  0
VERTEX
  5
837
  8
LAYER_1
 62
   250
 10
-32.3188
 20
111.9483
 30
0.0
  0
VERTEX
  5
838
  8
LAYER_1
 62
   250
 10
-32.3362
 20
112.0707
 30
0.0
  0
VERTEX
  5
839
  8
LAYER_1
 62
   250
 10
-32.342
 20
112.1977
 30
0.0
  0
VERTEX
  5
83A
  8
LAYER_1
 62
   250
 10
-32.3362
 20
112.3272
 30
0.0
  0
VERTEX
  5
83B
  8
LAYER_1
 62
   250
 10
-32.3188
 20
112.4514
 30
0.0
  0
VERTEX
  5
83C
  8
LAYER_1
 62
   250
 10
-32.2899
 20
112.5704
 30
0.0
  0
VERTEX
  5
83D
  8
LAYER_1
 62
   250
 10
-32.2493
 20
112.6842
 30
0.0
  0
VERTEX
  5
83E
  8
LAYER_1
 62
   250
 10
-32.1971
 20
112.7927
 30
0.0
  0
VERTEX
  5
83F
  8
LAYER_1
 62
   250
 10
-32.1333
 20
112.8959
 30
0.0
  0
VERTEX
  5
840
  8
LAYER_1
 62
   250
 10
-32.0579
 20
112.9939
 30
0.0
  0
VERTEX
  5
841
  8
LAYER_1
 62
   250
 10
-31.9708
 20
113.0867
 30
0.0
  0
VERTEX
  5
842
  8
LAYER_1
 62
   250
 10
-31.8752
 20
113.1712
 30
0.0
  0
VERTEX
  5
843
  8
LAYER_1
 62
   250
 10
-31.7742
 20
113.2444
 30
0.0
  0
VERTEX
  5
844
  8
LAYER_1
 62
   250
 10
-31.6678
 20
113.3064
 30
0.0
  0
VERTEX
  5
845
  8
LAYER_1
 62
   250
 10
-31.556
 20
113.3571
 30
0.0
  0
VERTEX
  5
846
  8
LAYER_1
 62
   250
 10
-31.4387
 20
113.3965
 30
0.0
  0
VERTEX
  5
847
  8
LAYER_1
 62
   250
 10
-31.3161
 20
113.4247
 30
0.0
  0
VERTEX
  5
848
  8
LAYER_1
 62
   250
 10
-31.1881
 20
113.4416
 30
0.0
  0
VERTEX
  5
849
  8
LAYER_1
 62
   250
 10
-31.0547
 20
113.4472
 30
0.0
  0
SEQEND
  5
84A
  8
LAYER_1
 62
   250
  0
POLYLINE
  5
89
  8
LAYER_1
 62
   250
 66
     1
 10
0.0
 20
0.0
 30
0.0
 70
     1
  0
VERTEX
  5
84B
  8
LAYER_1
 62
   250
 10
-31.0785
 20
112.5574
 30
0.0
  0
VERTEX
  5
84C
  8
LAYER_1
 62
   250
 10
-31.1481
 20
112.5509
 30
0.0
  0
VERTEX
  5
84D
  8
LAYER_1
 62
   250
 10
-31.2124
 20
112.5314
 30
0.0
  0
VERTEX
  5
84E
  8
LAYER_1
 62
   250
 10
-31.2712
 20
112.4987
 30
0.0
  0
VERTEX
  5
84F
  8
LAYER_1
 62
   250
 10
-31.3246
 20
112.4528
 30
0.0
  0
VERTEX
  5
850
  8
LAYER_1
 62
   250
 10
-31.3689
 20
112.3974
 30
0.0
  0
VERTEX
  5
851
  8
LAYER_1
 62
   250
 10
-31.4006
 20
112.3362
 30
0.0
  0
VERTEX
  5
852
  8
LAYER_1
 62
   250
 10
-31.4196
 20
112.269
 30
0.0
  0
VERTEX
  5
853
  8
LAYER_1
 62
   250
 10
-31.4259
 20
112.196
 30
0.0
  0
VERTEX
  5
854
  8
LAYER_1
 62
   250
 10
-31.4194
 20
112.1236
 30
0.0
  0
VERTEX
  5
855
  8
LAYER_1
 62
   250
 10
-31.4001
 20
112.0569
 30
0.0
  0
VERTEX
  5
856
  8
LAYER_1
 62
   250
 10
-31.3679
 20
111.9958
 30
0.0
  0
VERTEX
  5
857
  8
LAYER_1
 62
   250
 10
-31.323
 20
111.94
 30
0.0
  0
VERTEX
  5
858
  8
LAYER_1
 62
   250
 10
-31.2693
 20
111.8935
 30
0.0
  0
VERTEX
  5
859
  8
LAYER_1
 62
   250
 10
-31.2107
 20
111.8604
 30
0.0
  0
VERTEX
  5
85A
  8
LAYER_1
 62
   250
 10
-31.1471
 20
111.8404
 30
0.0
  0
VERTEX
  5
85B
  8
LAYER_1
 62
   250
 10
-31.0785
 20
111.8338
 30
0.0
  0
VERTEX
  5
85C
  8
LAYER_1
 62
   250
 10
-31.0089
 20
111.8404
 30
0.0
  0
VERTEX
  5
85D
  8
LAYER_1
 62
   250
 10
-30.9446
 20
111.8604
 30
0.0
  0
VERTEX
  5
85E
  8
LAYER_1
 62
   250
 10
-30.8855
 20
111.8935
 30
0.0
  0
VERTEX
  5
85F
  8
LAYER_1
 62
   250
 10
-30.8316
 20
111.94
 30
0.0
  0
VERTEX
  5
860
  8
LAYER_1
 62
   250
 10
-30.7867
 20
111.9958
 30
0.0
  0
VERTEX
  5
861
  8
LAYER_1
 62
   250
 10
-30.7545
 20
112.0569
 30
0.0
  0
VERTEX
  5
862
  8
LAYER_1
 62
   250
 10
-30.7352
 20
112.1236
 30
0.0
  0
VERTEX
  5
863
  8
LAYER_1
 62
   250
 10
-30.7287
 20
112.196
 30
0.0
  0
VERTEX
  5
864
  8
LAYER_1
 62
   250
 10
-30.735
 20
112.269
 30
0.0
  0
VERTEX
  5
865
  8
LAYER_1
 62
   250
 10
-30.754
 20
112.3362
 30
0.0
  0
VERTEX
  5
866
  8
LAYER_1
 62
   250
 10
-30.7856
 20
112.3974
 30
0.0
  0
VERTEX
  5
867
  8
LAYER_1
 62
   250
 10
-30.8299
 20
112.4528
 30
0.0
  0
VERTEX
  5
868
  8
LAYER_1
 62
   250
 10
-30.8835
 20
112.4987
 30
0.0
  0
VERTEX
  5
869
  8
LAYER_1
 62
   250
 10
-30.9428
 20
112.5314
 30
0.0
  0
VERTEX
  5
86A
  8
LAYER_1
 62
   250
 10
-31.0078
 20
112.5509
 30
0.0
  0
VERTEX
  5
86B
  8
LAYER_1
 62
   250
 10
-31.0785
 20
112.5574
 30
0.0
  0
SEQEND
  5
86C
  8
LAYER_1
 62
   250
  0
POLYLINE
  5
8A
  8
LAYER_1
 62
   250
 66
     1
 10
0.0
 20
0.0
 30
0.0
 70
     1
  0
VERTEX
  5
86D
  8
LAYER_1
 62
   250
 10
-27.2922
 20
110.9926
 30
0.0
  0
VERTEX
  5
86E
  8
LAYER_1
 62
   250
 10
-28.1943
 20
110.9926
 30
0.0
  0
VERTEX
  5
86F
  8
LAYER_1
 62
   250
 10
-28.1943
 20
112.3499
 30
0.0
  0
VERTEX
  5
870
  8
LAYER_1
 62
   250
 10
-28.205
 20
112.4407
 30
0.0
  0
VERTEX
  5
871
  8
LAYER_1
 62
   250
 10
-28.237
 20
112.5055
 30
0.0
  0
VERTEX
  5
872
  8
LAYER_1
 62
   250
 10
-28.2905
 20
112.5444
 30
0.0
  0
VERTEX
  5
873
  8
LAYER_1
 62
   250
 10
-28.3655
 20
112.5574
 30
0.0
  0
VERTEX
  5
874
  8
LAYER_1
 62
   250
 10
-28.4395
 20
112.5444
 30
0.0
  0
VERTEX
  5
875
  8
LAYER_1
 62
   250
 10
-28.4922
 20
112.5055
 30
0.0
  0
VERTEX
  5
876
  8
LAYER_1
 62
   250
 10
-28.5238
 20
112.4407
 30
0.0
  0
VERTEX
  5
877
  8
LAYER_1
 62
   250
 10
-28.5343
 20
112.3499
 30
0.0
  0
VERTEX
  5
878
  8
LAYER_1
 62
   250
 10
-28.5343
 20
110.9926
 30
0.0
  0
VERTEX
  5
879
  8
LAYER_1
 62
   250
 10
-29.4364
 20
110.9926
 30
0.0
  0
VERTEX
  5
87A
  8
LAYER_1
 62
   250
 10
-29.4364
 20
112.3335
 30
0.0
  0
VERTEX
  5
87B
  8
LAYER_1
 62
   250
 10
-29.4315
 20
112.4488
 30
0.0
  0
VERTEX
  5
87C
  8
LAYER_1
 62
   250
 10
-29.417
 20
112.5593
 30
0.0
  0
VERTEX
  5
87D
  8
LAYER_1
 62
   250
 10
-29.3927
 20
112.6652
 30
0.0
  0
VERTEX
  5
87E
  8
LAYER_1
 62
   250
 10
-29.3586
 20
112.7665
 30
0.0
  0
VERTEX
  5
87F
  8
LAYER_1
 62
   250
 10
-29.3149
 20
112.8631
 30
0.0
  0
VERTEX
  5
880
  8
LAYER_1
 62
   250
 10
-29.2614
 20
112.9551
 30
0.0
  0
VERTEX
  5
881
  8
LAYER_1
 62
   250
 10
-29.1982
 20
113.0425
 30
0.0
  0
VERTEX
  5
882
  8
LAYER_1
 62
   250
 10
-29.1253
 20
113.1253
 30
0.0
  0
VERTEX
  5
883
  8
LAYER_1
 62
   250
 10
-29.0453
 20
113.2008
 30
0.0
  0
VERTEX
  5
884
  8
LAYER_1
 62
   250
 10
-28.9609
 20
113.2663
 30
0.0
  0
VERTEX
  5
885
  8
LAYER_1
 62
   250
 10
-28.8722
 20
113.3216
 30
0.0
  0
VERTEX
  5
886
  8
LAYER_1
 62
   250
 10
-28.779
 20
113.3668
 30
0.0
  0
VERTEX
  5
887
  8
LAYER_1
 62
   250
 10
-28.6816
 20
113.402
 30
0.0
  0
VERTEX
  5
888
  8
LAYER_1
 62
   250
 10
-28.5797
 20
113.4271
 30
0.0
  0
VERTEX
  5
889
  8
LAYER_1
 62
   250
 10
-28.4736
 20
113.4422
 30
0.0
  0
VERTEX
  5
88A
  8
LAYER_1
 62
   250
 10
-28.3631
 20
113.4472
 30
0.0
  0
VERTEX
  5
88B
  8
LAYER_1
 62
   250
 10
-28.2373
 20
113.4414
 30
0.0
  0
VERTEX
  5
88C
  8
LAYER_1
 62
   250
 10
-28.1178
 20
113.4239
 30
0.0
  0
VERTEX
  5
88D
  8
LAYER_1
 62
   250
 10
-28.0048
 20
113.3947
 30
0.0
  0
VERTEX
  5
88E
  8
LAYER_1
 62
   250
 10
-27.8982
 20
113.3539
 30
0.0
  0
VERTEX
  5
88F
  8
LAYER_1
 62
   250
 10
-27.798
 20
113.3013
 30
0.0
  0
VERTEX
  5
890
  8
LAYER_1
 62
   250
 10
-27.7042
 20
113.2371
 30
0.0
  0
VERTEX
  5
891
  8
LAYER_1
 62
   250
 10
-27.6168
 20
113.1612
 30
0.0
  0
VERTEX
  5
892
  8
LAYER_1
 62
   250
 10
-27.5358
 20
113.0735
 30
0.0
  0
VERTEX
  5
893
  8
LAYER_1
 62
   250
 10
-27.4788
 20
112.9971
 30
0.0
  0
VERTEX
  5
894
  8
LAYER_1
 62
   250
 10
-27.4293
 20
112.9134
 30
0.0
  0
VERTEX
  5
895
  8
LAYER_1
 62
   250
 10
-27.3874
 20
112.8226
 30
0.0
  0
VERTEX
  5
896
  8
LAYER_1
 62
   250
 10
-27.3532
 20
112.7247
 30
0.0
  0
VERTEX
  5
897
  8
LAYER_1
 62
   250
 10
-27.3075
 20
112.5072
 30
0.0
  0
VERTEX
  5
898
  8
LAYER_1
 62
   250
 10
-27.2922
 20
112.261
 30
0.0
  0
VERTEX
  5
899
  8
LAYER_1
 62
   250
 10
-27.2922
 20
110.9926
 30
0.0
  0
SEQEND
  5
89A
  8
LAYER_1
 62
   250
  0
POLYLINE
  5
8B
  8
LAYER_1
 62
   250
 66
     1
 10
0.0
 20
0.0
 30
0.0
 70
     1
  0
VERTEX
  5
89B
  8
LAYER_1
 62
   250
 10
-49.323
 20
116.6283
 30
0.0
  0
VERTEX
  5
89C
  8
LAYER_1
 62
   250
 10
-49.323
 20
118.6485
 30
0.0
  0
VERTEX
  5
89D
  8
LAYER_1
 62
   250
 10
-48.6273
 20
118.6485
 30
0.0
  0
VERTEX
  5
89E
  8
LAYER_1
 62
   250
 10
-48.2675
 20
118.6194
 30
0.0
  0
VERTEX
  5
89F
  8
LAYER_1
 62
   250
 10
-48.1839
 20
118.5955
 30
0.0
  0
VERTEX
  5
8A0
  8
LAYER_1
 62
   250
 10
-48.1066
 20
118.5634
 30
0.0
  0
VERTEX
  5
8A1
  8
LAYER_1
 62
   250
 10
-48.0357
 20
118.5232
 30
0.0
  0
VERTEX
  5
8A2
  8
LAYER_1
 62
   250
 10
-47.9712
 20
118.475
 30
0.0
  0
VERTEX
  5
8A3
  8
LAYER_1
 62
   250
 10
-47.8964
 20
118.4026
 30
0.0
  0
VERTEX
  5
8A4
  8
LAYER_1
 62
   250
 10
-47.8316
 20
118.321
 30
0.0
  0
VERTEX
  5
8A5
  8
LAYER_1
 62
   250
 10
-47.7768
 20
118.2301
 30
0.0
  0
VERTEX
  5
8A6
  8
LAYER_1
 62
   250
 10
-47.7322
 20
118.1297
 30
0.0
  0
VERTEX
  5
8A7
  8
LAYER_1
 62
   250
 10
-47.6974
 20
118.0208
 30
0.0
  0
VERTEX
  5
8A8
  8
LAYER_1
 62
   250
 10
-47.6725
 20
117.9046
 30
0.0
  0
VERTEX
  5
8A9
  8
LAYER_1
 62
   250
 10
-47.6577
 20
117.7808
 30
0.0
  0
VERTEX
  5
8AA
  8
LAYER_1
 62
   250
 10
-47.6527
 20
117.6495
 30
0.0
  0
VERTEX
  5
8AB
  8
LAYER_1
 62
   250
 10
-47.6662
 20
117.4325
 30
0.0
  0
VERTEX
  5
8AC
  8
LAYER_1
 62
   250
 10
-47.7068
 20
117.2417
 30
0.0
  0
VERTEX
  5
8AD
  8
LAYER_1
 62
   250
 10
-47.8447
 20
116.9472
 30
0.0
  0
VERTEX
  5
8AE
  8
LAYER_1
 62
   250
 10
-48.0286
 20
116.7642
 30
0.0
  0
VERTEX
  5
8AF
  8
LAYER_1
 62
   250
 10
-48.2694
 20
116.6626
 30
0.0
  0
VERTEX
  5
8B0
  8
LAYER_1
 62
   250
 10
-48.594
 20
116.6283
 30
0.0
  0
VERTEX
  5
8B1
  8
LAYER_1
 62
   250
 10
-49.323
 20
116.6283
 30
0.0
  0
SEQEND
  5
8B2
  8
LAYER_1
 62
   250
  0
POLYLINE
  5
8C
  8
LAYER_1
 62
   250
 66
     1
 10
0.0
 20
0.0
 30
0.0
 70
     1
  0
VERTEX
  5
8B3
  8
LAYER_1
 62
   250
 10
-49.0559
 20
116.8668
 30
0.0
  0
VERTEX
  5
8B4
  8
LAYER_1
 62
   250
 10
-48.6245
 20
116.8668
 30
0.0
  0
VERTEX
  5
8B5
  8
LAYER_1
 62
   250
 10
-48.3108
 20
116.9039
 30
0.0
  0
VERTEX
  5
8B6
  8
LAYER_1
 62
   250
 10
-48.1297
 20
117.0088
 30
0.0
  0
VERTEX
  5
8B7
  8
LAYER_1
 62
   250
 10
-48.045
 20
117.1202
 30
0.0
  0
VERTEX
  5
8B8
  8
LAYER_1
 62
   250
 10
-47.9815
 20
117.2642
 30
0.0
  0
VERTEX
  5
8B9
  8
LAYER_1
 62
   250
 10
-47.9418
 20
117.4419
 30
0.0
  0
VERTEX
  5
8BA
  8
LAYER_1
 62
   250
 10
-47.9284
 20
117.6537
 30
0.0
  0
VERTEX
  5
8BB
  8
LAYER_1
 62
   250
 10
-47.9349
 20
117.8029
 30
0.0
  0
VERTEX
  5
8BC
  8
LAYER_1
 62
   250
 10
-47.9544
 20
117.9338
 30
0.0
  0
VERTEX
  5
8BD
  8
LAYER_1
 62
   250
 10
-47.9869
 20
118.0463
 30
0.0
  0
VERTEX
  5
8BE
  8
LAYER_1
 62
   250
 10
-48.0323
 20
118.1405
 30
0.0
  0
VERTEX
  5
8BF
  8
LAYER_1
 62
   250
 10
-48.0872
 20
118.2188
 30
0.0
  0
VERTEX
  5
8C0
  8
LAYER_1
 62
   250
 10
-48.1477
 20
118.2828
 30
0.0
  0
VERTEX
  5
8C1
  8
LAYER_1
 62
   250
 10
-48.2137
 20
118.3328
 30
0.0
  0
VERTEX
  5
8C2
  8
LAYER_1
 62
   250
 10
-48.2854
 20
118.3687
 30
0.0
  0
VERTEX
  5
8C3
  8
LAYER_1
 62
   250
 10
-48.6311
 20
118.41
 30
0.0
  0
VERTEX
  5
8C4
  8
LAYER_1
 62
   250
 10
-49.0559
 20
118.41
 30
0.0
  0
VERTEX
  5
8C5
  8
LAYER_1
 62
   250
 10
-49.0559
 20
116.8668
 30
0.0
  0
SEQEND
  5
8C6
  8
LAYER_1
 62
   250
  0
POLYLINE
  5
8D
  8
LAYER_1
 62
   250
 66
     1
 10
0.0
 20
0.0
 30
0.0
 70
     1
  0
VERTEX
  5
8C7
  8
LAYER_1
 62
   250
 10
-46.315
 20
117.0996
 30
0.0
  0
VERTEX
  5
8C8
  8
LAYER_1
 62
   250
 10
-46.0587
 20
117.0681
 30
0.0
  0
VERTEX
  5
8C9
  8
LAYER_1
 62
   250
 10
-46.0954
 20
116.9619
 30
0.0
  0
VERTEX
  5
8CA
  8
LAYER_1
 62
   250
 10
-46.1451
 20
116.8684
 30
0.0
  0
VERTEX
  5
8CB
  8
LAYER_1
 62
   250
 10
-46.2076
 20
116.7875
 30
0.0
  0
VERTEX
  5
8CC
  8
LAYER_1
 62
   250
 10
-46.283
 20
116.7191
 30
0.0
  0
VERTEX
  5
8CD
  8
LAYER_1
 62
   250
 10
-46.3708
 20
116.6651
 30
0.0
  0
VERTEX
  5
8CE
  8
LAYER_1
 62
   250
 10
-46.47
 20
116.6264
 30
0.0
  0
VERTEX
  5
8CF
  8
LAYER_1
 62
   250
 10
-46.5804
 20
116.6032
 30
0.0
  0
VERTEX
  5
8D0
  8
LAYER_1
 62
   250
 10
-46.7021
 20
116.5954
 30
0.0
  0
VERTEX
  5
8D1
  8
LAYER_1
 62
   250
 10
-46.8544
 20
116.6077
 30
0.0
  0
VERTEX
  5
8D2
  8
LAYER_1
 62
   250
 10
-46.99
 20
116.6448
 30
0.0
  0
VERTEX
  5
8D3
  8
LAYER_1
 62
   250
 10
-47.1089
 20
116.7065
 30
0.0
  0
VERTEX
  5
8D4
  8
LAYER_1
 62
   250
 10
-47.2111
 20
116.7929
 30
0.0
  0
VERTEX
  5
8D5
  8
LAYER_1
 62
   250
 10
-47.2935
 20
116.9016
 30
0.0
  0
VERTEX
  5
8D6
  8
LAYER_1
 62
   250
 10
-47.3523
 20
117.0303
 30
0.0
  0
VERTEX
  5
8D7
  8
LAYER_1
 62
   250
 10
-47.3875
 20
117.179
 30
0.0
  0
VERTEX
  5
8D8
  8
LAYER_1
 62
   250
 10
-47.3992
 20
117.3475
 30
0.0
  0
VERTEX
  5
8D9
  8
LAYER_1
 62
   250
 10
-47.3873
 20
117.522
 30
0.0
  0
VERTEX
  5
8DA
  8
LAYER_1
 62
   250
 10
-47.3516
 20
117.6756
 30
0.0
  0
VERTEX
  5
8DB
  8
LAYER_1
 62
   250
 10
-47.2923
 20
117.8086
 30
0.0
  0
VERTEX
  5
8DC
  8
LAYER_1
 62
   250
 10
-47.2092
 20
117.9209
 30
0.0
  0
VERTEX
  5
8DD
  8
LAYER_1
 62
   250
 10
-47.107
 20
118.0101
 30
0.0
  0
VERTEX
  5
8DE
  8
LAYER_1
 62
   250
 10
-46.9907
 20
118.0739
 30
0.0
  0
VERTEX
  5
8DF
  8
LAYER_1
 62
   250
 10
-46.8603
 20
118.1122
 30
0.0
  0
VERTEX
  5
8E0
  8
LAYER_1
 62
   250
 10
-46.7158
 20
118.125
 30
0.0
  0
VERTEX
  5
8E1
  8
LAYER_1
 62
   250
 10
-46.5757
 20
118.1125
 30
0.0
  0
VERTEX
  5
8E2
  8
LAYER_1
 62
   250
 10
-46.4492
 20
118.075
 30
0.0
  0
VERTEX
  5
8E3
  8
LAYER_1
 62
   250
 10
-46.3361
 20
118.0125
 30
0.0
  0
VERTEX
  5
8E4
  8
LAYER_1
 62
   250
 10
-46.2365
 20
117.9251
 30
0.0
  0
VERTEX
  5
8E5
  8
LAYER_1
 62
   250
 10
-46.155
 20
117.8151
 30
0.0
  0
VERTEX
  5
8E6
  8
LAYER_1
 62
   250
 10
-46.0968
 20
117.6846
 30
0.0
  0
VERTEX
  5
8E7
  8
LAYER_1
 62
   250
 10
-46.0618
 20
117.5339
 30
0.0
  0
VERTEX
  5
8E8
  8
LAYER_1
 62
   250
 10
-46.0502
 20
117.363
 30
0.0
  0
VERTEX
  5
8E9
  8
LAYER_1
 62
   250
 10
-46.0516
 20
117.2967
 30
0.0
  0
VERTEX
  5
8EA
  8
LAYER_1
 62
   250
 10
-47.1429
 20
117.2967
 30
0.0
  0
VERTEX
  5
8EB
  8
LAYER_1
 62
   250
 10
-47.1293
 20
117.1831
 30
0.0
  0
VERTEX
  5
8EC
  8
LAYER_1
 62
   250
 10
-47.102
 20
117.0837
 30
0.0
  0
VERTEX
  5
8ED
  8
LAYER_1
 62
   250
 10
-47.0611
 20
116.9985
 30
0.0
  0
VERTEX
  5
8EE
  8
LAYER_1
 62
   250
 10
-47.0065
 20
116.9275
 30
0.0
  0
VERTEX
  5
8EF
  8
LAYER_1
 62
   250
 10
-46.9414
 20
116.8713
 30
0.0
  0
VERTEX
  5
8F0
  8
LAYER_1
 62
   250
 10
-46.8688
 20
116.8311
 30
0.0
  0
VERTEX
  5
8F1
  8
LAYER_1
 62
   250
 10
-46.7886
 20
116.807
 30
0.0
  0
VERTEX
  5
8F2
  8
LAYER_1
 62
   250
 10
-46.7007
 20
116.799
 30
0.0
  0
VERTEX
  5
8F3
  8
LAYER_1
 62
   250
 10
-46.6351
 20
116.8035
 30
0.0
  0
VERTEX
  5
8F4
  8
LAYER_1
 62
   250
 10
-46.5744
 20
116.817
 30
0.0
  0
VERTEX
  5
8F5
  8
LAYER_1
 62
   250
 10
-46.5187
 20
116.8395
 30
0.0
  0
VERTEX
  5
8F6
  8
LAYER_1
 62
   250
 10
-46.4679
 20
116.871
 30
0.0
  0
VERTEX
  5
8F7
  8
LAYER_1
 62
   250
 10
-46.4221
 20
116.912
 30
0.0
  0
VERTEX
  5
8F8
  8
LAYER_1
 62
   250
 10
-46.3814
 20
116.9638
 30
0.0
  0
VERTEX
  5
8F9
  8
LAYER_1
 62
   250
 10
-46.3457
 20
117.0263
 30
0.0
  0
VERTEX
  5
8FA
  8
LAYER_1
 62
   250
 10
-46.315
 20
117.0996
 30
0.0
  0
SEQEND
  5
8FB
  8
LAYER_1
 62
   250
  0
POLYLINE
  5
8E
  8
LAYER_1
 62
   250
 66
     1
 10
0.0
 20
0.0
 30
0.0
 70
     1
  0
VERTEX
  5
8FC
  8
LAYER_1
 62
   250
 10
-47.1292
 20
117.5008
 30
0.0
  0
VERTEX
  5
8FD
  8
LAYER_1
 62
   250
 10
-46.3122
 20
117.5008
 30
0.0
  0
VERTEX
  5
8FE
  8
LAYER_1
 62
   250
 10
-46.3242
 20
117.5872
 30
0.0
  0
VERTEX
  5
8FF
  8
LAYER_1
 62
   250
 10
-46.3438
 20
117.6622
 30
0.0
  0
VERTEX
  5
900
  8
LAYER_1
 62
   250
 10
-46.3711
 20
117.7257
 30
0.0
  0
VERTEX
  5
901
  8
LAYER_1
 62
   250
 10
-46.4058
 20
117.7774
 30
0.0
  0
VERTEX
  5
902
  8
LAYER_1
 62
   250
 10
-46.4695
 20
117.8401
 30
0.0
  0
VERTEX
  5
903
  8
LAYER_1
 62
   250
 10
-46.5419
 20
117.885
 30
0.0
  0
VERTEX
  5
904
  8
LAYER_1
 62
   250
 10
-46.6231
 20
117.9119
 30
0.0
  0
VERTEX
  5
905
  8
LAYER_1
 62
   250
 10
-46.713
 20
117.9209
 30
0.0
  0
VERTEX
  5
906
  8
LAYER_1
 62
   250
 10
-46.795
 20
117.9138
 30
0.0
  0
VERTEX
  5
907
  8
LAYER_1
 62
   250
 10
-46.8702
 20
117.8923
 30
0.0
  0
VERTEX
  5
908
  8
LAYER_1
 62
   250
 10
-46.9387
 20
117.8566
 30
0.0
  0
VERTEX
  5
909
  8
LAYER_1
 62
   250
 10
-47.0003
 20
117.8066
 30
0.0
  0
VERTEX
  5
90A
  8
LAYER_1
 62
   250
 10
-47.052
 20
117.7446
 30
0.0
  0
VERTEX
  5
90B
  8
LAYER_1
 62
   250
 10
-47.0907
 20
117.6729
 30
0.0
  0
VERTEX
  5
90C
  8
LAYER_1
 62
   250
 10
-47.1164
 20
117.5917
 30
0.0
  0
VERTEX
  5
90D
  8
LAYER_1
 62
   250
 10
-47.1292
 20
117.5008
 30
0.0
  0
SEQEND
  5
90E
  8
LAYER_1
 62
   250
  0
POLYLINE
  5
8F
  8
LAYER_1
 62
   250
 66
     1
 10
0.0
 20
0.0
 30
0.0
 70
     1
  0
VERTEX
  5
90F
  8
LAYER_1
 62
   250
 10
-45.8461
 20
117.0653
 30
0.0
  0
VERTEX
  5
910
  8
LAYER_1
 62
   250
 10
-45.601
 20
117.1038
 30
0.0
  0
VERTEX
  5
911
  8
LAYER_1
 62
   250
 10
-45.5861
 20
117.0344
 30
0.0
  0
VERTEX
  5
912
  8
LAYER_1
 62
   250
 10
-45.5619
 20
116.9736
 30
0.0
  0
VERTEX
  5
913
  8
LAYER_1
 62
   250
 10
-45.5285
 20
116.9214
 30
0.0
  0
VERTEX
  5
914
  8
LAYER_1
 62
   250
 10
-45.4858
 20
116.8776
 30
0.0
  0
VERTEX
  5
915
  8
LAYER_1
 62
   250
 10
-45.4341
 20
116.8433
 30
0.0
  0
VERTEX
  5
916
  8
LAYER_1
 62
   250
 10
-45.3729
 20
116.8187
 30
0.0
  0
VERTEX
  5
917
  8
LAYER_1
 62
   250
 10
-45.3022
 20
116.8039
 30
0.0
  0
VERTEX
  5
918
  8
LAYER_1
 62
   250
 10
-45.2219
 20
116.799
 30
0.0
  0
VERTEX
  5
919
  8
LAYER_1
 62
   250
 10
-45.142
 20
116.8034
 30
0.0
  0
VERTEX
  5
91A
  8
LAYER_1
 62
   250
 10
-45.0731
 20
116.8166
 30
0.0
  0
VERTEX
  5
91B
  8
LAYER_1
 62
   250
 10
-45.0152
 20
116.8384
 30
0.0
  0
VERTEX
  5
91C
  8
LAYER_1
 62
   250
 10
-44.9684
 20
116.8687
 30
0.0
  0
VERTEX
  5
91D
  8
LAYER_1
 62
   250
 10
-44.9322
 20
116.9051
 30
0.0
  0
VERTEX
  5
91E
  8
LAYER_1
 62
   250
 10
-44.9063
 20
116.9445
 30
0.0
  0
VERTEX
  5
91F
  8
LAYER_1
 62
   250
 10
-44.8908
 20
116.9867
 30
0.0
  0
VERTEX
  5
920
  8
LAYER_1
 62
   250
 10
-44.8856
 20
117.0319
 30
0.0
  0
VERTEX
  5
921
  8
LAYER_1
 62
   250
 10
-44.8902
 20
117.0719
 30
0.0
  0
VERTEX
  5
922
  8
LAYER_1
 62
   250
 10
-44.904
 20
117.1072
 30
0.0
  0
VERTEX
  5
923
  8
LAYER_1
 62
   250
 10
-44.9269
 20
117.138
 30
0.0
  0
VERTEX
  5
924
  8
LAYER_1
 62
   250
 10
-44.959
 20
117.1645
 30
0.0
  0
VERTEX
  5
925
  8
LAYER_1
 62
   250
 10
-45.2125
 20
117.2482
 30
0.0
  0
VERTEX
  5
926
  8
LAYER_1
 62
   250
 10
-45.5907
 20
117.3677
 30
0.0
  0
VERTEX
  5
927
  8
LAYER_1
 62
   250
 10
-45.6834
 20
117.4276
 30
0.0
  0
VERTEX
  5
928
  8
LAYER_1
 62
   250
 10
-45.7506
 20
117.5069
 30
0.0
  0
VERTEX
  5
929
  8
LAYER_1
 62
   250
 10
-45.8052
 20
117.7031
 30
0.0
  0
VERTEX
  5
92A
  8
LAYER_1
 62
   250
 10
-45.76
 20
117.8842
 30
0.0
  0
VERTEX
  5
92B
  8
LAYER_1
 62
   250
 10
-45.6382
 20
118.0229
 30
0.0
  0
VERTEX
  5
92C
  8
LAYER_1
 62
   250
 10
-45.4806
 20
118.0954
 30
0.0
  0
VERTEX
  5
92D
  8
LAYER_1
 62
   250
 10
-45.2661
 20
118.125
 30
0.0
  0
VERTEX
  5
92E
  8
LAYER_1
 62
   250
 10
-44.9637
 20
118.0751
 30
0.0
  0
VERTEX
  5
92F
  8
LAYER_1
 62
   250
 10
-44.8504
 20
118.0169
 30
0.0
  0
VERTEX
  5
930
  8
LAYER_1
 62
   250
 10
-44.7713
 20
117.9411
 30
0.0
  0
VERTEX
  5
931
  8
LAYER_1
 62
   250
 10
-44.6862
 20
117.7144
 30
0.0
  0
VERTEX
  5
932
  8
LAYER_1
 62
   250
 10
-44.9284
 20
117.681
 30
0.0
  0
VERTEX
  5
933
  8
LAYER_1
 62
   250
 10
-44.9609
 20
117.7815
 30
0.0
  0
VERTEX
  5
934
  8
LAYER_1
 62
   250
 10
-45.0244
 20
117.8574
 30
0.0
  0
VERTEX
  5
935
  8
LAYER_1
 62
   250
 10
-45.1199
 20
117.905
 30
0.0
  0
VERTEX
  5
936
  8
LAYER_1
 62
   250
 10
-45.2482
 20
117.9209
 30
0.0
  0
VERTEX
  5
937
  8
LAYER_1
 62
   250
 10
-45.3946
 20
117.9068
 30
0.0
  0
VERTEX
  5
938
  8
LAYER_1
 62
   250
 10
-45.4919
 20
117.8644
 30
0.0
  0
VERTEX
  5
939
  8
LAYER_1
 62
   250
 10
-45.5469
 20
117.8031
 30
0.0
  0
VERTEX
  5
93A
  8
LAYER_1
 62
   250
 10
-45.5653
 20
117.7323
 30
0.0
  0
VERTEX
  5
93B
  8
LAYER_1
 62
   250
 10
-45.5347
 20
117.6452
 30
0.0
  0
VERTEX
  5
93C
  8
LAYER_1
 62
   250
 10
-45.4397
 20
117.5789
 30
0.0
  0
VERTEX
  5
93D
  8
LAYER_1
 62
   250
 10
-45.2205
 20
117.5159
 30
0.0
  0
VERTEX
  5
93E
  8
LAYER_1
 62
   250
 10
-44.8536
 20
117.4006
 30
0.0
  0
VERTEX
  5
93F
  8
LAYER_1
 62
   250
 10
-44.7605
 20
117.3457
 30
0.0
  0
VERTEX
  5
940
  8
LAYER_1
 62
   250
 10
-44.6899
 20
117.2704
 30
0.0
  0
VERTEX
  5
941
  8
LAYER_1
 62
   250
 10
-44.6455
 20
117.1747
 30
0.0
  0
VERTEX
  5
942
  8
LAYER_1
 62
   250
 10
-44.6307
 20
117.0582
 30
0.0
  0
VERTEX
  5
943
  8
LAYER_1
 62
   250
 10
-44.6489
 20
116.9378
 30
0.0
  0
VERTEX
  5
944
  8
LAYER_1
 62
   250
 10
-44.7031
 20
116.8244
 30
0.0
  0
VERTEX
  5
945
  8
LAYER_1
 62
   250
 10
-44.7916
 20
116.7274
 30
0.0
  0
VERTEX
  5
946
  8
LAYER_1
 62
   250
 10
-44.9119
 20
116.6551
 30
0.0
  0
VERTEX
  5
947
  8
LAYER_1
 62
   250
 10
-45.0572
 20
116.6103
 30
0.0
  0
VERTEX
  5
948
  8
LAYER_1
 62
   250
 10
-45.2205
 20
116.5954
 30
0.0
  0
VERTEX
  5
949
  8
LAYER_1
 62
   250
 10
-45.3548
 20
116.6028
 30
0.0
  0
VERTEX
  5
94A
  8
LAYER_1
 62
   250
 10
-45.4721
 20
116.625
 30
0.0
  0
VERTEX
  5
94B
  8
LAYER_1
 62
   250
 10
-45.5723
 20
116.6621
 30
0.0
  0
VERTEX
  5
94C
  8
LAYER_1
 62
   250
 10
-45.6556
 20
116.7139
 30
0.0
  0
VERTEX
  5
94D
  8
LAYER_1
 62
   250
 10
-45.7236
 20
116.7803
 30
0.0
  0
VERTEX
  5
94E
  8
LAYER_1
 62
   250
 10
-45.778
 20
116.861
 30
0.0
  0
VERTEX
  5
94F
  8
LAYER_1
 62
   250
 10
-45.8188
 20
116.956
 30
0.0
  0
VERTEX
  5
950
  8
LAYER_1
 62
   250
 10
-45.8461
 20
117.0653
 30
0.0
  0
SEQEND
  5
951
  8
LAYER_1
 62
   250
  0
POLYLINE
  5
90
  8
LAYER_1
 62
   250
 66
     1
 10
0.0
 20
0.0
 30
0.0
 70
     1
  0
VERTEX
  5
952
  8
LAYER_1
 62
   250
 10
-44.3348
 20
118.363
 30
0.0
  0
VERTEX
  5
953
  8
LAYER_1
 62
   250
 10
-44.3348
 20
118.6485
 30
0.0
  0
VERTEX
  5
954
  8
LAYER_1
 62
   250
 10
-44.0864
 20
118.6485
 30
0.0
  0
VERTEX
  5
955
  8
LAYER_1
 62
   250
 10
-44.0864
 20
118.363
 30
0.0
  0
VERTEX
  5
956
  8
LAYER_1
 62
   250
 10
-44.3348
 20
118.363
 30
0.0
  0
SEQEND
  5
957
  8
LAYER_1
 62
   250
  0
POLYLINE
  5
91
  8
LAYER_1
 62
   250
 66
     1
 10
0.0
 20
0.0
 30
0.0
 70
     1
  0
VERTEX
  5
958
  8
LAYER_1
 62
   250
 10
-44.3348
 20
116.6283
 30
0.0
  0
VERTEX
  5
959
  8
LAYER_1
 62
   250
 10
-44.3348
 20
118.0916
 30
0.0
  0
VERTEX
  5
95A
  8
LAYER_1
 62
   250
 10
-44.0864
 20
118.0916
 30
0.0
  0
VERTEX
  5
95B
  8
LAYER_1
 62
   250
 10
-44.0864
 20
116.6283
 30
0.0
  0
VERTEX
  5
95C
  8
LAYER_1
 62
   250
 10
-44.3348
 20
116.6283
 30
0.0
  0
SEQEND
  5
95D
  8
LAYER_1
 62
   250
  0
POLYLINE
  5
92
  8
LAYER_1
 62
   250
 66
     1
 10
0.0
 20
0.0
 30
0.0
 70
     1
  0
VERTEX
  5
95E
  8
LAYER_1
 62
   250
 10
-43.7544
 20
116.5069
 30
0.0
  0
VERTEX
  5
95F
  8
LAYER_1
 62
   250
 10
-43.5131
 20
116.4712
 30
0.0
  0
VERTEX
  5
960
  8
LAYER_1
 62
   250
 10
-43.4846
 20
116.3749
 30
0.0
  0
VERTEX
  5
961
  8
LAYER_1
 62
   250
 10
-43.4293
 20
116.3085
 30
0.0
  0
VERTEX
  5
962
  8
LAYER_1
 62
   250
 10
-43.3789
 20
116.2785
 30
0.0
  0
VERTEX
  5
963
  8
LAYER_1
 62
   250
 10
-43.32
 20
116.257
 30
0.0
  0
VERTEX
  5
964
  8
LAYER_1
 62
   250
 10
-43.2528
 20
116.2441
 30
0.0
  0
VERTEX
  5
965
  8
LAYER_1
 62
   250
 10
-43.1772
 20
116.2398
 30
0.0
  0
VERTEX
  5
966
  8
LAYER_1
 62
   250
 10
-43.0958
 20
116.2441
 30
0.0
  0
VERTEX
  5
967
  8
LAYER_1
 62
   250
 10
-43.0244
 20
116.257
 30
0.0
  0
VERTEX
  5
968
  8
LAYER_1
 62
   250
 10
-42.9628
 20
116.2785
 30
0.0
  0
VERTEX
  5
969
  8
LAYER_1
 62
   250
 10
-42.911
 20
116.3085
 30
0.0
  0
VERTEX
  5
96A
  8
LAYER_1
 62
   250
 10
-42.8679
 20
116.3465
 30
0.0
  0
VERTEX
  5
96B
  8
LAYER_1
 62
   250
 10
-42.8326
 20
116.3913
 30
0.0
  0
VERTEX
  5
96C
  8
LAYER_1
 62
   250
 10
-42.8048
 20
116.4429
 30
0.0
  0
VERTEX
  5
96D
  8
LAYER_1
 62
   250
 10
-42.7845
 20
116.5013
 30
0.0
  0
VERTEX
  5
96E
  8
LAYER_1
 62
   250
 10
-42.7666
 20
116.8197
 30
0.0
  0
VERTEX
  5
96F
  8
LAYER_1
 62
   250
 10
-42.8528
 20
116.736
 30
0.0
  0
VERTEX
  5
970
  8
LAYER_1
 62
   250
 10
-42.949
 20
116.6762
 30
0.0
  0
VERTEX
  5
971
  8
LAYER_1
 62
   250
 10
-43.0553
 20
116.6403
 30
0.0
  0
VERTEX
  5
972
  8
LAYER_1
 62
   250
 10
-43.1716
 20
116.6283
 30
0.0
  0
VERTEX
  5
973
  8
LAYER_1
 62
   250
 10
-43.314
 20
116.6419
 30
0.0
  0
VERTEX
  5
974
  8
LAYER_1
 62
   250
 10
-43.4394
 20
116.6827
 30
0.0
  0
VERTEX
  5
975
  8
LAYER_1
 62
   250
 10
-43.5476
 20
116.7507
 30
0.0
  0
VERTEX
  5
976
  8
LAYER_1
 62
   250
 10
-43.6387
 20
116.8461
 30
0.0
  0
VERTEX
  5
977
  8
LAYER_1
 62
   250
 10
-43.711
 20
116.9603
 30
0.0
  0
VERTEX
  5
978
  8
LAYER_1
 62
   250
 10
-43.7627
 20
117.0855
 30
0.0
  0
VERTEX
  5
979
  8
LAYER_1
 62
   250
 10
-43.7938
 20
117.2215
 30
0.0
  0
VERTEX
  5
97A
  8
LAYER_1
 62
   250
 10
-43.8042
 20
117.3682
 30
0.0
  0
VERTEX
  5
97B
  8
LAYER_1
 62
   250
 10
-43.7994
 20
117.4709
 30
0.0
  0
VERTEX
  5
97C
  8
LAYER_1
 62
   250
 10
-43.7852
 20
117.5696
 30
0.0
  0
VERTEX
  5
97D
  8
LAYER_1
 62
   250
 10
-43.7615
 20
117.6643
 30
0.0
  0
VERTEX
  5
97E
  8
LAYER_1
 62
   250
 10
-43.7285
 20
117.7548
 30
0.0
  0
VERTEX
  5
97F
  8
LAYER_1
 62
   250
 10
-43.6862
 20
117.8383
 30
0.0
  0
VERTEX
  5
980
  8
LAYER_1
 62
   250
 10
-43.6354
 20
117.9118
 30
0.0
  0
VERTEX
  5
981
  8
LAYER_1
 62
   250
 10
-43.5761
 20
117.9752
 30
0.0
  0
VERTEX
  5
982
  8
LAYER_1
 62
   250
 10
-43.5084
 20
118.0286
 30
0.0
  0
VERTEX
  5
983
  8
LAYER_1
 62
   250
 10
-43.4332
 20
118.0707
 30
0.0
  0
VERTEX
  5
984
  8
LAYER_1
 62
   250
 10
-43.3518
 20
118.1008
 30
0.0
  0
VERTEX
  5
985
  8
LAYER_1
 62
   250
 10
-43.2641
 20
118.1189
 30
0.0
  0
VERTEX
  5
986
  8
LAYER_1
 62
   250
 10
-43.1702
 20
118.125
 30
0.0
  0
VERTEX
  5
987
  8
LAYER_1
 62
   250
 10
-43.0463
 20
118.1119
 30
0.0
  0
VERTEX
  5
988
  8
LAYER_1
 62
   250
 10
-42.9339
 20
118.0725
 30
0.0
  0
VERTEX
  5
989
  8
LAYER_1
 62
   250
 10
-42.8328
 20
118.0069
 30
0.0
  0
VERTEX
  5
98A
  8
LAYER_1
 62
   250
 10
-42.7431
 20
117.9152
 30
0.0
  0
VERTEX
  5
98B
  8
LAYER_1
 62
   250
 10
-42.7431
 20
118.0916
 30
0.0
  0
VERTEX
  5
98C
  8
LAYER_1
 62
   250
 10
-42.514
 20
118.0916
 30
0.0
  0
VERTEX
  5
98D
  8
LAYER_1
 62
   250
 10
-42.514
 20
116.8268
 30
0.0
  0
VERTEX
  5
98E
  8
LAYER_1
 62
   250
 10
-42.5184
 20
116.6684
 30
0.0
  0
VERTEX
  5
98F
  8
LAYER_1
 62
   250
 10
-42.5315
 20
116.5348
 30
0.0
  0
VERTEX
  5
990
  8
LAYER_1
 62
   250
 10
-42.5533
 20
116.4261
 30
0.0
  0
VERTEX
  5
991
  8
LAYER_1
 62
   250
 10
-42.5836
 20
116.3423
 30
0.0
  0
VERTEX
  5
992
  8
LAYER_1
 62
   250
 10
-42.6236
 20
116.2748
 30
0.0
  0
VERTEX
  5
993
  8
LAYER_1
 62
   250
 10
-42.6737
 20
116.2147
 30
0.0
  0
VERTEX
  5
994
  8
LAYER_1
 62
   250
 10
-42.7338
 20
116.162
 30
0.0
  0
VERTEX
  5
995
  8
LAYER_1
 62
   250
 10
-42.8042
 20
116.117
 30
0.0
  0
VERTEX
  5
996
  8
LAYER_1
 62
   250
 10
-42.884
 20
116.0809
 30
0.0
  0
VERTEX
  5
997
  8
LAYER_1
 62
   250
 10
-42.9726
 20
116.055
 30
0.0
  0
VERTEX
  5
998
  8
LAYER_1
 62
   250
 10
-43.0698
 20
116.0394
 30
0.0
  0
VERTEX
  5
999
  8
LAYER_1
 62
   250
 10
-43.1758
 20
116.0342
 30
0.0
  0
VERTEX
  5
99A
  8
LAYER_1
 62
   250
 10
-43.3004
 20
116.0416
 30
0.0
  0
VERTEX
  5
99B
  8
LAYER_1
 62
   250
 10
-43.4125
 20
116.0638
 30
0.0
  0
VERTEX
  5
99C
  8
LAYER_1
 62
   250
 10
-43.5119
 20
116.1007
 30
0.0
  0
VERTEX
  5
99D
  8
LAYER_1
 62
   250
 10
-43.5987
 20
116.1523
 30
0.0
  0
VERTEX
  5
99E
  8
LAYER_1
 62
   250
 10
-43.669
 20
116.2186
 30
0.0
  0
VERTEX
  5
99F
  8
LAYER_1
 62
   250
 10
-43.7183
 20
116.2998
 30
0.0
  0
VERTEX
  5
9A0
  8
LAYER_1
 62
   250
 10
-43.7468
 20
116.3959
 30
0.0
  0
VERTEX
  5
9A1
  8
LAYER_1
 62
   250
 10
-43.7544
 20
116.5069
 30
0.0
  0
SEQEND
  5
9A2
  8
LAYER_1
 62
   250
  0
POLYLINE
  5
93
  8
LAYER_1
 62
   250
 66
     1
 10
0.0
 20
0.0
 30
0.0
 70
     1
  0
VERTEX
  5
9A3
  8
LAYER_1
 62
   250
 10
-43.5493
 20
117.3861
 30
0.0
  0
VERTEX
  5
9A4
  8
LAYER_1
 62
   250
 10
-43.5421
 20
117.2519
 30
0.0
  0
VERTEX
  5
9A5
  8
LAYER_1
 62
   250
 10
-43.5207
 20
117.1371
 30
0.0
  0
VERTEX
  5
9A6
  8
LAYER_1
 62
   250
 10
-43.4848
 20
117.0418
 30
0.0
  0
VERTEX
  5
9A7
  8
LAYER_1
 62
   250
 10
-43.4345
 20
116.966
 30
0.0
  0
VERTEX
  5
9A8
  8
LAYER_1
 62
   250
 10
-43.3737
 20
116.9081
 30
0.0
  0
VERTEX
  5
9A9
  8
LAYER_1
 62
   250
 10
-43.3057
 20
116.8668
 30
0.0
  0
VERTEX
  5
9AA
  8
LAYER_1
 62
   250
 10
-43.2305
 20
116.8421
 30
0.0
  0
VERTEX
  5
9AB
  8
LAYER_1
 62
   250
 10
-43.1481
 20
116.8339
 30
0.0
  0
VERTEX
  5
9AC
  8
LAYER_1
 62
   250
 10
-43.0661
 20
116.8421
 30
0.0
  0
VERTEX
  5
9AD
  8
LAYER_1
 62
   250
 10
-42.9911
 20
116.8667
 30
0.0
  0
VERTEX
  5
9AE
  8
LAYER_1
 62
   250
 10
-42.9229
 20
116.9077
 30
0.0
  0
VERTEX
  5
9AF
  8
LAYER_1
 62
   250
 10
-42.8616
 20
116.9651
 30
0.0
  0
VERTEX
  5
9B0
  8
LAYER_1
 62
   250
 10
-42.811
 20
117.0403
 30
0.0
  0
VERTEX
  5
9B1
  8
LAYER_1
 62
   250
 10
-42.7748
 20
117.1342
 30
0.0
  0
VERTEX
  5
9B2
  8
LAYER_1
 62
   250
 10
-42.7531
 20
117.2467
 30
0.0
  0
VERTEX
  5
9B3
  8
LAYER_1
 62
   250
 10
-42.7459
 20
117.3781
 30
0.0
  0
VERTEX
  5
9B4
  8
LAYER_1
 62
   250
 10
-42.7533
 20
117.5042
 30
0.0
  0
VERTEX
  5
9B5
  8
LAYER_1
 62
   250
 10
-42.7756
 20
117.6138
 30
0.0
  0
VERTEX
  5
9B6
  8
LAYER_1
 62
   250
 10
-42.8128
 20
117.7067
 30
0.0
  0
VERTEX
  5
9B7
  8
LAYER_1
 62
   250
 10
-42.8649
 20
117.7831
 30
0.0
  0
VERTEX
  5
9B8
  8
LAYER_1
 62
   250
 10
-42.9276
 20
117.8427
 30
0.0
  0
VERTEX
  5
9B9
  8
LAYER_1
 62
   250
 10
-42.9964
 20
117.8853
 30
0.0
  0
VERTEX
  5
9BA
  8
LAYER_1
 62
   250
 10
-43.0713
 20
117.9109
 30
0.0
  0
VERTEX
  5
9BB
  8
LAYER_1
 62
   250
 10
-43.1523
 20
117.9195
 30
0.0
  0
VERTEX
  5
9BC
  8
LAYER_1
 62
   250
 10
-43.2318
 20
117.9111
 30
0.0
  0
VERTEX
  5
9BD
  8
LAYER_1
 62
   250
 10
-43.3051
 20
117.8859
 30
0.0
  0
VERTEX
  5
9BE
  8
LAYER_1
 62
   250
 10
-43.3724
 20
117.8439
 30
0.0
  0
VERTEX
  5
9BF
  8
LAYER_1
 62
   250
 10
-43.4336
 20
117.7849
 30
0.0
  0
VERTEX
  5
9C0
  8
LAYER_1
 62
   250
 10
-43.4842
 20
117.7097
 30
0.0
  0
VERTEX
  5
9C1
  8
LAYER_1
 62
   250
 10
-43.5204
 20
117.6181
 30
0.0
  0
VERTEX
  5
9C2
  8
LAYER_1
 62
   250
 10
-43.5421
 20
117.5102
 30
0.0
  0
VERTEX
  5
9C3
  8
LAYER_1
 62
   250
 10
-43.5493
 20
117.3861
 30
0.0
  0
SEQEND
  5
9C4
  8
LAYER_1
 62
   250
  0
POLYLINE
  5
94
  8
LAYER_1
 62
   250
 66
     1
 10
0.0
 20
0.0
 30
0.0
 70
     1
  0
VERTEX
  5
9C5
  8
LAYER_1
 62
   250
 10
-42.1391
 20
116.6283
 30
0.0
  0
VERTEX
  5
9C6
  8
LAYER_1
 62
   250
 10
-42.1391
 20
118.0916
 30
0.0
  0
VERTEX
  5
9C7
  8
LAYER_1
 62
   250
 10
-41.9162
 20
118.0916
 30
0.0
  0
VERTEX
  5
9C8
  8
LAYER_1
 62
   250
 10
-41.9162
 20
117.8837
 30
0.0
  0
VERTEX
  5
9C9
  8
LAYER_1
 62
   250
 10
-41.8265
 20
117.9893
 30
0.0
  0
VERTEX
  5
9CA
  8
LAYER_1
 62
   250
 10
-41.719
 20
118.0647
 30
0.0
  0
VERTEX
  5
9CB
  8
LAYER_1
 62
   250
 10
-41.5936
 20
118.1099
 30
0.0
  0
VERTEX
  5
9CC
  8
LAYER_1
 62
   250
 10
-41.4505
 20
118.125
 30
0.0
  0
VERTEX
  5
9CD
  8
LAYER_1
 62
   250
 10
-41.2073
 20
118.0775
 30
0.0
  0
VERTEX
  5
9CE
  8
LAYER_1
 62
   250
 10
-41.0413
 20
117.9524
 30
0.0
  0
VERTEX
  5
9CF
  8
LAYER_1
 62
   250
 10
-40.9637
 20
117.7694
 30
0.0
  0
VERTEX
  5
9D0
  8
LAYER_1
 62
   250
 10
-40.95
 20
117.5281
 30
0.0
  0
VERTEX
  5
9D1
  8
LAYER_1
 62
   250
 10
-40.95
 20
116.6283
 30
0.0
  0
VERTEX
  5
9D2
  8
LAYER_1
 62
   250
 10
-41.1984
 20
116.6283
 30
0.0
  0
VERTEX
  5
9D3
  8
LAYER_1
 62
   250
 10
-41.1984
 20
117.5187
 30
0.0
  0
VERTEX
  5
9D4
  8
LAYER_1
 62
   250
 10
-41.2271
 20
117.7454
 30
0.0
  0
VERTEX
  5
9D5
  8
LAYER_1
 62
   250
 10
-41.3296
 20
117.8649
 30
0.0
  0
VERTEX
  5
9D6
  8
LAYER_1
 62
   250
 10
-41.5027
 20
117.91
 30
0.0
  0
VERTEX
  5
9D7
  8
LAYER_1
 62
   250
 10
-41.5793
 20
117.9037
 30
0.0
  0
VERTEX
  5
9D8
  8
LAYER_1
 62
   250
 10
-41.6504
 20
117.8848
 30
0.0
  0
VERTEX
  5
9D9
  8
LAYER_1
 62
   250
 10
-41.716
 20
117.8533
 30
0.0
  0
VERTEX
  5
9DA
  8
LAYER_1
 62
   250
 10
-41.7765
 20
117.8094
 30
0.0
  0
VERTEX
  5
9DB
  8
LAYER_1
 62
   250
 10
-41.8268
 20
117.7477
 30
0.0
  0
VERTEX
  5
9DC
  8
LAYER_1
 62
   250
 10
-41.8627
 20
117.6636
 30
0.0
  0
VERTEX
  5
9DD
  8
LAYER_1
 62
   250
 10
-41.8841
 20
117.5569
 30
0.0
  0
VERTEX
  5
9DE
  8
LAYER_1
 62
   250
 10
-41.8913
 20
117.4275
 30
0.0
  0
VERTEX
  5
9DF
  8
LAYER_1
 62
   250
 10
-41.8913
 20
116.6283
 30
0.0
  0
VERTEX
  5
9E0
  8
LAYER_1
 62
   250
 10
-42.1391
 20
116.6283
 30
0.0
  0
SEQEND
  5
9E1
  8
LAYER_1
 62
   250
  0
POLYLINE
  5
95
  8
LAYER_1
 62
   250
 66
     1
 10
0.0
 20
0.0
 30
0.0
 70
     1
  0
VERTEX
  5
9E2
  8
LAYER_1
 62
   250
 10
-39.5681
 20
117.0996
 30
0.0
  0
VERTEX
  5
9E3
  8
LAYER_1
 62
   250
 10
-39.3118
 20
117.0681
 30
0.0
  0
VERTEX
  5
9E4
  8
LAYER_1
 62
   250
 10
-39.3485
 20
116.9619
 30
0.0
  0
VERTEX
  5
9E5
  8
LAYER_1
 62
   250
 10
-39.3982
 20
116.8684
 30
0.0
  0
VERTEX
  5
9E6
  8
LAYER_1
 62
   250
 10
-39.4607
 20
116.7875
 30
0.0
  0
VERTEX
  5
9E7
  8
LAYER_1
 62
   250
 10
-39.5361
 20
116.7191
 30
0.0
  0
VERTEX
  5
9E8
  8
LAYER_1
 62
   250
 10
-39.6239
 20
116.6651
 30
0.0
  0
VERTEX
  5
9E9
  8
LAYER_1
 62
   250
 10
-39.7231
 20
116.6264
 30
0.0
  0
VERTEX
  5
9EA
  8
LAYER_1
 62
   250
 10
-39.8335
 20
116.6032
 30
0.0
  0
VERTEX
  5
9EB
  8
LAYER_1
 62
   250
 10
-39.9552
 20
116.5954
 30
0.0
  0
VERTEX
  5
9EC
  8
LAYER_1
 62
   250
 10
-40.1075
 20
116.6077
 30
0.0
  0
VERTEX
  5
9ED
  8
LAYER_1
 62
   250
 10
-40.2431
 20
116.6448
 30
0.0
  0
VERTEX
  5
9EE
  8
LAYER_1
 62
   250
 10
-40.362
 20
116.7065
 30
0.0
  0
VERTEX
  5
9EF
  8
LAYER_1
 62
   250
 10
-40.4642
 20
116.7929
 30
0.0
  0
VERTEX
  5
9F0
  8
LAYER_1
 62
   250
 10
-40.5466
 20
116.9016
 30
0.0
  0
VERTEX
  5
9F1
  8
LAYER_1
 62
   250
 10
-40.6054
 20
117.0303
 30
0.0
  0
VERTEX
  5
9F2
  8
LAYER_1
 62
   250
 10
-40.6406
 20
117.179
 30
0.0
  0
VERTEX
  5
9F3
  8
LAYER_1
 62
   250
 10
-40.6523
 20
117.3475
 30
0.0
  0
VERTEX
  5
9F4
  8
LAYER_1
 62
   250
 10
-40.6404
 20
117.522
 30
0.0
  0
VERTEX
  5
9F5
  8
LAYER_1
 62
   250
 10
-40.6047
 20
117.6756
 30
0.0
  0
VERTEX
  5
9F6
  8
LAYER_1
 62
   250
 10
-40.5454
 20
117.8086
 30
0.0
  0
VERTEX
  5
9F7
  8
LAYER_1
 62
   250
 10
-40.4623
 20
117.9209
 30
0.0
  0
VERTEX
  5
9F8
  8
LAYER_1
 62
   250
 10
-40.3601
 20
118.0101
 30
0.0
  0
VERTEX
  5
9F9
  8
LAYER_1
 62
   250
 10
-40.2438
 20
118.0739
 30
0.0
  0
VERTEX
  5
9FA
  8
LAYER_1
 62
   250
 10
-40.1134
 20
118.1122
 30
0.0
  0
VERTEX
  5
9FB
  8
LAYER_1
 62
   250
 10
-39.9689
 20
118.125
 30
0.0
  0
VERTEX
  5
9FC
  8
LAYER_1
 62
   250
 10
-39.8288
 20
118.1125
 30
0.0
  0
VERTEX
  5
9FD
  8
LAYER_1
 62
   250
 10
-39.7023
 20
118.075
 30
0.0
  0
VERTEX
  5
9FE
  8
LAYER_1
 62
   250
 10
-39.5892
 20
118.0125
 30
0.0
  0
VERTEX
  5
9FF
  8
LAYER_1
 62
   250
 10
-39.4896
 20
117.9251
 30
0.0
  0
VERTEX
  5
A00
  8
LAYER_1
 62
   250
 10
-39.4081
 20
117.8151
 30
0.0
  0
VERTEX
  5
A01
  8
LAYER_1
 62
   250
 10
-39.3499
 20
117.6846
 30
0.0
  0
VERTEX
  5
A02
  8
LAYER_1
 62
   250
 10
-39.3149
 20
117.5339
 30
0.0
  0
VERTEX
  5
A03
  8
LAYER_1
 62
   250
 10
-39.3033
 20
117.363
 30
0.0
  0
VERTEX
  5
A04
  8
LAYER_1
 62
   250
 10
-39.3047
 20
117.2967
 30
0.0
  0
VERTEX
  5
A05
  8
LAYER_1
 62
   250
 10
-40.396
 20
117.2967
 30
0.0
  0
VERTEX
  5
A06
  8
LAYER_1
 62
   250
 10
-40.3824
 20
117.1831
 30
0.0
  0
VERTEX
  5
A07
  8
LAYER_1
 62
   250
 10
-40.3551
 20
117.0837
 30
0.0
  0
VERTEX
  5
A08
  8
LAYER_1
 62
   250
 10
-40.3142
 20
116.9985
 30
0.0
  0
VERTEX
  5
A09
  8
LAYER_1
 62
   250
 10
-40.2596
 20
116.9275
 30
0.0
  0
VERTEX
  5
A0A
  8
LAYER_1
 62
   250
 10
-40.1945
 20
116.8713
 30
0.0
  0
VERTEX
  5
A0B
  8
LAYER_1
 62
   250
 10
-40.1219
 20
116.8311
 30
0.0
  0
VERTEX
  5
A0C
  8
LAYER_1
 62
   250
 10
-40.0417
 20
116.807
 30
0.0
  0
VERTEX
  5
A0D
  8
LAYER_1
 62
   250
 10
-39.9538
 20
116.799
 30
0.0
  0
VERTEX
  5
A0E
  8
LAYER_1
 62
   250
 10
-39.8882
 20
116.8035
 30
0.0
  0
VERTEX
  5
A0F
  8
LAYER_1
 62
   250
 10
-39.8275
 20
116.817
 30
0.0
  0
VERTEX
  5
A10
  8
LAYER_1
 62
   250
 10
-39.7718
 20
116.8395
 30
0.0
  0
VERTEX
  5
A11
  8
LAYER_1
 62
   250
 10
-39.721
 20
116.871
 30
0.0
  0
VERTEX
  5
A12
  8
LAYER_1
 62
   250
 10
-39.6752
 20
116.912
 30
0.0
  0
VERTEX
  5
A13
  8
LAYER_1
 62
   250
 10
-39.6345
 20
116.9638
 30
0.0
  0
VERTEX
  5
A14
  8
LAYER_1
 62
   250
 10
-39.5988
 20
117.0263
 30
0.0
  0
VERTEX
  5
A15
  8
LAYER_1
 62
   250
 10
-39.5681
 20
117.0996
 30
0.0
  0
SEQEND
  5
A16
  8
LAYER_1
 62
   250
  0
POLYLINE
  5
96
  8
LAYER_1
 62
   250
 66
     1
 10
0.0
 20
0.0
 30
0.0
 70
     1
  0
VERTEX
  5
A17
  8
LAYER_1
 62
   250
 10
-40.3823
 20
117.5008
 30
0.0
  0
VERTEX
  5
A18
  8
LAYER_1
 62
   250
 10
-39.5653
 20
117.5008
 30
0.0
  0
VERTEX
  5
A19
  8
LAYER_1
 62
   250
 10
-39.5773
 20
117.5872
 30
0.0
  0
VERTEX
  5
A1A
  8
LAYER_1
 62
   250
 10
-39.5969
 20
117.6622
 30
0.0
  0
VERTEX
  5
A1B
  8
LAYER_1
 62
   250
 10
-39.6242
 20
117.7257
 30
0.0
  0
VERTEX
  5
A1C
  8
LAYER_1
 62
   250
 10
-39.6589
 20
117.7774
 30
0.0
  0
VERTEX
  5
A1D
  8
LAYER_1
 62
   250
 10
-39.7226
 20
117.8401
 30
0.0
  0
VERTEX
  5
A1E
  8
LAYER_1
 62
   250
 10
-39.795
 20
117.885
 30
0.0
  0
VERTEX
  5
A1F
  8
LAYER_1
 62
   250
 10
-39.8762
 20
117.9119
 30
0.0
  0
VERTEX
  5
A20
  8
LAYER_1
 62
   250
 10
-39.9661
 20
117.9209
 30
0.0
  0
VERTEX
  5
A21
  8
LAYER_1
 62
   250
 10
-40.0481
 20
117.9138
 30
0.0
  0
VERTEX
  5
A22
  8
LAYER_1
 62
   250
 10
-40.1233
 20
117.8923
 30
0.0
  0
VERTEX
  5
A23
  8
LAYER_1
 62
   250
 10
-40.1918
 20
117.8566
 30
0.0
  0
VERTEX
  5
A24
  8
LAYER_1
 62
   250
 10
-40.2534
 20
117.8066
 30
0.0
  0
VERTEX
  5
A25
  8
LAYER_1
 62
   250
 10
-40.3051
 20
117.7446
 30
0.0
  0
VERTEX
  5
A26
  8
LAYER_1
 62
   250
 10
-40.3438
 20
117.6729
 30
0.0
  0
VERTEX
  5
A27
  8
LAYER_1
 62
   250
 10
-40.3695
 20
117.5917
 30
0.0
  0
VERTEX
  5
A28
  8
LAYER_1
 62
   250
 10
-40.3823
 20
117.5008
 30
0.0
  0
SEQEND
  5
A29
  8
LAYER_1
 62
   250
  0
POLYLINE
  5
97
  8
LAYER_1
 62
   250
 66
     1
 10
0.0
 20
0.0
 30
0.0
 70
     1
  0
VERTEX
  5
A2A
  8
LAYER_1
 62
   250
 10
-38.0507
 20
116.6283
 30
0.0
  0
VERTEX
  5
A2B
  8
LAYER_1
 62
   250
 10
-38.0507
 20
116.8132
 30
0.0
  0
VERTEX
  5
A2C
  8
LAYER_1
 62
   250
 10
-38.1284
 20
116.7178
 30
0.0
  0
VERTEX
  5
A2D
  8
LAYER_1
 62
   250
 10
-38.2225
 20
116.6498
 30
0.0
  0
VERTEX
  5
A2E
  8
LAYER_1
 62
   250
 10
-38.3331
 20
116.609
 30
0.0
  0
VERTEX
  5
A2F
  8
LAYER_1
 62
   250
 10
-38.46
 20
116.5954
 30
0.0
  0
VERTEX
  5
A30
  8
LAYER_1
 62
   250
 10
-38.5457
 20
116.6014
 30
0.0
  0
VERTEX
  5
A31
  8
LAYER_1
 62
   250
 10
-38.6279
 20
116.6195
 30
0.0
  0
VERTEX
  5
A32
  8
LAYER_1
 62
   250
 10
-38.7065
 20
116.6496
 30
0.0
  0
VERTEX
  5
A33
  8
LAYER_1
 62
   250
 10
-38.7817
 20
116.6918
 30
0.0
  0
VERTEX
  5
A34
  8
LAYER_1
 62
   250
 10
-38.8509
 20
116.7446
 30
0.0
  0
VERTEX
  5
A35
  8
LAYER_1
 62
   250
 10
-38.9119
 20
116.8072
 30
0.0
  0
VERTEX
  5
A36
  8
LAYER_1
 62
   250
 10
-38.9647
 20
116.8794
 30
0.0
  0
VERTEX
  5
A37
  8
LAYER_1
 62
   250
 10
-39.0093
 20
116.9613
 30
0.0
  0
VERTEX
  5
A38
  8
LAYER_1
 62
   250
 10
-39.0445
 20
117.0509
 30
0.0
  0
VERTEX
  5
A39
  8
LAYER_1
 62
   250
 10
-39.0697
 20
117.147
 30
0.0
  0
VERTEX
  5
A3A
  8
LAYER_1
 62
   250
 10
-39.0848
 20
117.2496
 30
0.0
  0
VERTEX
  5
A3B
  8
LAYER_1
 62
   250
 10
-39.0898
 20
117.3588
 30
0.0
  0
VERTEX
  5
A3C
  8
LAYER_1
 62
   250
 10
-39.0715
 20
117.5676
 30
0.0
  0
VERTEX
  5
A3D
  8
LAYER_1
 62
   250
 10
-39.0169
 20
117.7562
 30
0.0
  0
VERTEX
  5
A3E
  8
LAYER_1
 62
   250
 10
-38.9757
 20
117.8402
 30
0.0
  0
VERTEX
  5
A3F
  8
LAYER_1
 62
   250
 10
-38.9254
 20
117.9139
 30
0.0
  0
VERTEX
  5
A40
  8
LAYER_1
 62
   250
 10
-38.8661
 20
117.977
 30
0.0
  0
VERTEX
  5
A41
  8
LAYER_1
 62
   250
 10
-38.7977
 20
118.0295
 30
0.0
  0
VERTEX
  5
A42
  8
LAYER_1
 62
   250
 10
-38.7225
 20
118.0712
 30
0.0
  0
VERTEX
  5
A43
  8
LAYER_1
 62
   250
 10
-38.6429
 20
118.1011
 30
0.0
  0
VERTEX
  5
A44
  8
LAYER_1
 62
   250
 10
-38.559
 20
118.119
 30
0.0
  0
VERTEX
  5
A45
  8
LAYER_1
 62
   250
 10
-38.4708
 20
118.125
 30
0.0
  0
VERTEX
  5
A46
  8
LAYER_1
 62
   250
 10
-38.346
 20
118.111
 30
0.0
  0
VERTEX
  5
A47
  8
LAYER_1
 62
   250
 10
-38.2356
 20
118.069
 30
0.0
  0
VERTEX
  5
A48
  8
LAYER_1
 62
   250
 10
-38.0672
 20
117.9237
 30
0.0
  0
VERTEX
  5
A49
  8
LAYER_1
 62
   250
 10
-38.0672
 20
118.6485
 30
0.0
  0
VERTEX
  5
A4A
  8
LAYER_1
 62
   250
 10
-37.8207
 20
118.6485
 30
0.0
  0
VERTEX
  5
A4B
  8
LAYER_1
 62
   250
 10
-37.8207
 20
116.6283
 30
0.0
  0
VERTEX
  5
A4C
  8
LAYER_1
 62
   250
 10
-38.0507
 20
116.6283
 30
0.0
  0
SEQEND
  5
A4D
  8
LAYER_1
 62
   250
  0
POLYLINE
  5
98
  8
LAYER_1
 62
   250
 66
     1
 10
0.0
 20
0.0
 30
0.0
 70
     1
  0
VERTEX
  5
A4E
  8
LAYER_1
 62
   250
 10
-38.8348
 20
117.3588
 30
0.0
  0
VERTEX
  5
A4F
  8
LAYER_1
 62
   250
 10
-38.8274
 20
117.2269
 30
0.0
  0
VERTEX
  5
A50
  8
LAYER_1
 62
   250
 10
-38.8052
 20
117.1129
 30
0.0
  0
VERTEX
  5
A51
  8
LAYER_1
 62
   250
 10
-38.7681
 20
117.0167
 30
0.0
  0
VERTEX
  5
A52
  8
LAYER_1
 62
   250
 10
-38.7163
 20
116.9383
 30
0.0
  0
VERTEX
  5
A53
  8
LAYER_1
 62
   250
 10
-38.6544
 20
116.8774
 30
0.0
  0
VERTEX
  5
A54
  8
LAYER_1
 62
   250
 10
-38.5871
 20
116.8339
 30
0.0
  0
VERTEX
  5
A55
  8
LAYER_1
 62
   250
 10
-38.5145
 20
116.8077
 30
0.0
  0
VERTEX
  5
A56
  8
LAYER_1
 62
   250
 10
-38.4364
 20
116.799
 30
0.0
  0
VERTEX
  5
A57
  8
LAYER_1
 62
   250
 10
-38.3583
 20
116.8074
 30
0.0
  0
VERTEX
  5
A58
  8
LAYER_1
 62
   250
 10
-38.2862
 20
116.8324
 30
0.0
  0
VERTEX
  5
A59
  8
LAYER_1
 62
   250
 10
-38.2202
 20
116.8741
 30
0.0
  0
VERTEX
  5
A5A
  8
LAYER_1
 62
   250
 10
-38.1603
 20
116.9322
 30
0.0
  0
VERTEX
  5
A5B
  8
LAYER_1
 62
   250
 10
-38.1106
 20
117.0073
 30
0.0
  0
VERTEX
  5
A5C
  8
LAYER_1
 62
   250
 10
-38.075
 20
117.1001
 30
0.0
  0
VERTEX
  5
A5D
  8
LAYER_1
 62
   250
 10
-38.0536
 20
117.2103
 30
0.0
  0
VERTEX
  5
A5E
  8
LAYER_1
 62
   250
 10
-38.0465
 20
117.3381
 30
0.0
  0
VERTEX
  5
A5F
  8
LAYER_1
 62
   250
 10
-38.0537
 20
117.4783
 30
0.0
  0
VERTEX
  5
A60
  8
LAYER_1
 62
   250
 10
-38.0754
 20
117.5985
 30
0.0
  0
VERTEX
  5
A61
  8
LAYER_1
 62
   250
 10
-38.1116
 20
117.6986
 30
0.0
  0
VERTEX
  5
A62
  8
LAYER_1
 62
   250
 10
-38.1622
 20
117.7788
 30
0.0
  0
VERTEX
  5
A63
  8
LAYER_1
 62
   250
 10
-38.2234
 20
117.8405
 30
0.0
  0
VERTEX
  5
A64
  8
LAYER_1
 62
   250
 10
-38.2914
 20
117.8844
 30
0.0
  0
VERTEX
  5
A65
  8
LAYER_1
 62
   250
 10
-38.3661
 20
117.9107
 30
0.0
  0
VERTEX
  5
A66
  8
LAYER_1
 62
   250
 10
-38.4477
 20
117.9195
 30
0.0
  0
VERTEX
  5
A67
  8
LAYER_1
 62
   250
 10
-38.5269
 20
117.911
 30
0.0
  0
VERTEX
  5
A68
  8
LAYER_1
 62
   250
 10
-38.5994
 20
117.8857
 30
0.0
  0
VERTEX
  5
A69
  8
LAYER_1
 62
   250
 10
-38.665
 20
117.8435
 30
0.0
  0
VERTEX
  5
A6A
  8
LAYER_1
 62
   250
 10
-38.7238
 20
117.7845
 30
0.0
  0
VERTEX
  5
A6B
  8
LAYER_1
 62
   250
 10
-38.7723
 20
117.7073
 30
0.0
  0
VERTEX
  5
A6C
  8
LAYER_1
 62
   250
 10
-38.807
 20
117.6106
 30
0.0
  0
VERTEX
  5
A6D
  8
LAYER_1
 62
   250
 10
-38.8278
 20
117.4944
 30
0.0
  0
VERTEX
  5
A6E
  8
LAYER_1
 62
   250
 10
-38.8348
 20
117.3588
 30
0.0
  0
SEQEND
  5
A6F
  8
LAYER_1
 62
   250
  0
POLYLINE
  5
99
  8
LAYER_1
 62
   250
 66
     1
 10
0.0
 20
0.0
 30
0.0
 70
     1
  0
VERTEX
  5
A70
  8
LAYER_1
 62
   250
 10
-36.4176
 20
116.6283
 30
0.0
  0
VERTEX
  5
A71
  8
LAYER_1
 62
   250
 10
-36.6476
 20
116.6283
 30
0.0
  0
VERTEX
  5
A72
  8
LAYER_1
 62
   250
 10
-36.6476
 20
118.6485
 30
0.0
  0
VERTEX
  5
A73
  8
LAYER_1
 62
   250
 10
-36.3998
 20
118.6485
 30
0.0
  0
VERTEX
  5
A74
  8
LAYER_1
 62
   250
 10
-36.3998
 20
117.9279
 30
0.0
  0
VERTEX
  5
A75
  8
LAYER_1
 62
   250
 10
-36.3157
 20
118.0141
 30
0.0
  0
VERTEX
  5
A76
  8
LAYER_1
 62
   250
 10
-36.2209
 20
118.0757
 30
0.0
  0
VERTEX
  5
A77
  8
LAYER_1
 62
   250
 10
-36.1153
 20
118.1127
 30
0.0
  0
VERTEX
  5
A78
  8
LAYER_1
 62
   250
 10
-35.999
 20
118.125
 30
0.0
  0
VERTEX
  5
A79
  8
LAYER_1
 62
   250
 10
-35.7431
 20
118.0704
 30
0.0
  0
VERTEX
  5
A7A
  8
LAYER_1
 62
   250
 10
-35.6333
 20
118.005
 30
0.0
  0
VERTEX
  5
A7B
  8
LAYER_1
 62
   250
 10
-35.5446
 20
117.9176
 30
0.0
  0
VERTEX
  5
A7C
  8
LAYER_1
 62
   250
 10
-35.4228
 20
117.6796
 30
0.0
  0
VERTEX
  5
A7D
  8
LAYER_1
 62
   250
 10
-35.3786
 20
117.3823
 30
0.0
  0
VERTEX
  5
A7E
  8
LAYER_1
 62
   250
 10
-35.3902
 20
117.2047
 30
0.0
  0
VERTEX
  5
A7F
  8
LAYER_1
 62
   250
 10
-35.4252
 20
117.0485
 30
0.0
  0
VERTEX
  5
A80
  8
LAYER_1
 62
   250
 10
-35.4834
 20
116.9138
 30
0.0
  0
VERTEX
  5
A81
  8
LAYER_1
 62
   250
 10
-35.5649
 20
116.8005
 30
0.0
  0
VERTEX
  5
A82
  8
LAYER_1
 62
   250
 10
-35.6624
 20
116.7107
 30
0.0
  0
VERTEX
  5
A83
  8
LAYER_1
 62
   250
 10
-35.7694
 20
116.6466
 30
0.0
  0
VERTEX
  5
A84
  8
LAYER_1
 62
   250
 10
-35.8857
 20
116.6082
 30
0.0
  0
VERTEX
  5
A85
  8
LAYER_1
 62
   250
 10
-36.0112
 20
116.5954
 30
0.0
  0
VERTEX
  5
A86
  8
LAYER_1
 62
   250
 10
-36.1337
 20
116.6089
 30
0.0
  0
VERTEX
  5
A87
  8
LAYER_1
 62
   250
 10
-36.2423
 20
116.6494
 30
0.0
  0
VERTEX
  5
A88
  8
LAYER_1
 62
   250
 10
-36.3369
 20
116.717
 30
0.0
  0
VERTEX
  5
A89
  8
LAYER_1
 62
   250
 10
-36.4176
 20
116.8117
 30
0.0
  0
VERTEX
  5
A8A
  8
LAYER_1
 62
   250
 10
-36.4176
 20
116.6283
 30
0.0
  0
SEQEND
  5
A8B
  8
LAYER_1
 62
   250
  0
POLYLINE
  5
9A
  8
LAYER_1
 62
   250
 66
     1
 10
0.0
 20
0.0
 30
0.0
 70
     1
  0
VERTEX
  5
A8C
  8
LAYER_1
 62
   250
 10
-36.4205
 20
117.371
 30
0.0
  0
VERTEX
  5
A8D
  8
LAYER_1
 62
   250
 10
-36.416
 20
117.2486
 30
0.0
  0
VERTEX
  5
A8E
  8
LAYER_1
 62
   250
 10
-36.4026
 20
117.1445
 30
0.0
  0
VERTEX
  5
A8F
  8
LAYER_1
 62
   250
 10
-36.3802
 20
117.0586
 30
0.0
  0
VERTEX
  5
A90
  8
LAYER_1
 62
   250
 10
-36.349
 20
116.991
 30
0.0
  0
VERTEX
  5
A91
  8
LAYER_1
 62
   250
 10
-36.2852
 20
116.907
 30
0.0
  0
VERTEX
  5
A92
  8
LAYER_1
 62
   250
 10
-36.2111
 20
116.847
 30
0.0
  0
VERTEX
  5
A93
  8
LAYER_1
 62
   250
 10
-36.1266
 20
116.811
 30
0.0
  0
VERTEX
  5
A94
  8
LAYER_1
 62
   250
 10
-36.0319
 20
116.799
 30
0.0
  0
VERTEX
  5
A95
  8
LAYER_1
 62
   250
 10
-35.9533
 20
116.8078
 30
0.0
  0
VERTEX
  5
A96
  8
LAYER_1
 62
   250
 10
-35.8802
 20
116.8344
 30
0.0
  0
VERTEX
  5
A97
  8
LAYER_1
 62
   250
 10
-35.8127
 20
116.8786
 30
0.0
  0
VERTEX
  5
A98
  8
LAYER_1
 62
   250
 10
-35.7507
 20
116.9406
 30
0.0
  0
VERTEX
  5
A99
  8
LAYER_1
 62
   250
 10
-35.6988
 20
117.0198
 30
0.0
  0
VERTEX
  5
A9A
  8
LAYER_1
 62
   250
 10
-35.6617
 20
117.1164
 30
0.0
  0
VERTEX
  5
A9B
  8
LAYER_1
 62
   250
 10
-35.6395
 20
117.2303
 30
0.0
  0
VERTEX
  5
A9C
  8
LAYER_1
 62
   250
 10
-35.6321
 20
117.3616
 30
0.0
  0
VERTEX
  5
A9D
  8
LAYER_1
 62
   250
 10
-35.6392
 20
117.4955
 30
0.0
  0
VERTEX
  5
A9E
  8
LAYER_1
 62
   250
 10
-35.6606
 20
117.6106
 30
0.0
  0
VERTEX
  5
A9F
  8
LAYER_1
 62
   250
 10
-35.6962
 20
117.707
 30
0.0
  0
VERTEX
  5
AA0
  8
LAYER_1
 62
   250
 10
-35.746
 20
117.7845
 30
0.0
  0
VERTEX
  5
AA1
  8
LAYER_1
 62
   250
 10
-35.8058
 20
117.8441
 30
0.0
  0
VERTEX
  5
AA2
  8
LAYER_1
 62
   250
 10
-35.8715
 20
117.8867
 30
0.0
  0
VERTEX
  5
AA3
  8
LAYER_1
 62
   250
 10
-35.9431
 20
117.9123
 30
0.0
  0
VERTEX
  5
AA4
  8
LAYER_1
 62
   250
 10
-36.0206
 20
117.9209
 30
0.0
  0
VERTEX
  5
AA5
  8
LAYER_1
 62
   250
 10
-36.0993
 20
117.9121
 30
0.0
  0
VERTEX
  5
AA6
  8
LAYER_1
 62
   250
 10
-36.1724
 20
117.8856
 30
0.0
  0
VERTEX
  5
AA7
  8
LAYER_1
 62
   250
 10
-36.2399
 20
117.8415
 30
0.0
  0
VERTEX
  5
AA8
  8
LAYER_1
 62
   250
 10
-36.3019
 20
117.7798
 30
0.0
  0
VERTEX
  5
AA9
  8
LAYER_1
 62
   250
 10
-36.3538
 20
117.7013
 30
0.0
  0
VERTEX
  5
AAA
  8
LAYER_1
 62
   250
 10
-36.3908
 20
117.607
 30
0.0
  0
VERTEX
  5
AAB
  8
LAYER_1
 62
   250
 10
-36.4131
 20
117.4969
 30
0.0
  0
VERTEX
  5
AAC
  8
LAYER_1
 62
   250
 10
-36.4205
 20
117.371
 30
0.0
  0
SEQEND
  5
AAD
  8
LAYER_1
 62
   250
  0
POLYLINE
  5
9B
  8
LAYER_1
 62
   250
 66
     1
 10
0.0
 20
0.0
 30
0.0
 70
     1
  0
VERTEX
  5
AAE
  8
LAYER_1
 62
   250
 10
-35.0879
 20
116.0648
 30
0.0
  0
VERTEX
  5
AAF
  8
LAYER_1
 62
   250
 10
-35.1157
 20
116.2976
 30
0.0
  0
VERTEX
  5
AB0
  8
LAYER_1
 62
   250
 10
-34.9736
 20
116.2755
 30
0.0
  0
VERTEX
  5
AB1
  8
LAYER_1
 62
   250
 10
-34.8415
 20
116.3033
 30
0.0
  0
VERTEX
  5
AB2
  8
LAYER_1
 62
   250
 10
-34.7601
 20
116.3804
 30
0.0
  0
VERTEX
  5
AB3
  8
LAYER_1
 62
   250
 10
-34.6843
 20
116.5648
 30
0.0
  0
VERTEX
  5
AB4
  8
LAYER_1
 62
   250
 10
-34.6622
 20
116.6255
 30
0.0
  0
VERTEX
  5
AB5
  8
LAYER_1
 62
   250
 10
-35.2173
 20
118.0916
 30
0.0
  0
VERTEX
  5
AB6
  8
LAYER_1
 62
   250
 10
-34.9501
 20
118.0916
 30
0.0
  0
VERTEX
  5
AB7
  8
LAYER_1
 62
   250
 10
-34.6453
 20
117.2445
 30
0.0
  0
VERTEX
  5
AB8
  8
LAYER_1
 62
   250
 10
-34.5395
 20
116.9053
 30
0.0
  0
VERTEX
  5
AB9
  8
LAYER_1
 62
   250
 10
-34.4374
 20
117.2388
 30
0.0
  0
VERTEX
  5
ABA
  8
LAYER_1
 62
   250
 10
-34.1246
 20
118.0916
 30
0.0
  0
VERTEX
  5
ABB
  8
LAYER_1
 62
   250
 10
-33.8767
 20
118.0916
 30
0.0
  0
VERTEX
  5
ABC
  8
LAYER_1
 62
   250
 10
-34.4332
 20
116.6034
 30
0.0
  0
VERTEX
  5
ABD
  8
LAYER_1
 62
   250
 10
-34.5724
 20
116.2713
 30
0.0
  0
VERTEX
  5
ABE
  8
LAYER_1
 62
   250
 10
-34.7239
 20
116.0916
 30
0.0
  0
VERTEX
  5
ABF
  8
LAYER_1
 62
   250
 10
-34.8178
 20
116.0486
 30
0.0
  0
VERTEX
  5
AC0
  8
LAYER_1
 62
   250
 10
-34.928
 20
116.0342
 30
0.0
  0
VERTEX
  5
AC1
  8
LAYER_1
 62
   250
 10
-35.0879
 20
116.0648
 30
0.0
  0
SEQEND
  5
AC2
  8
LAYER_1
 62
   250
  0
POLYLINE
  5
9C
  8
LAYER_1
 62
   250
 66
     1
 10
0.0
 20
0.0
 30
0.0
 70
     1
  0
VERTEX
  5
AC3
  8
LAYER_1
 62
   250
 10
-33.5969
 20
117.8094
 30
0.0
  0
VERTEX
  5
AC4
  8
LAYER_1
 62
   250
 10
-33.5969
 20
118.0916
 30
0.0
  0
VERTEX
  5
AC5
  8
LAYER_1
 62
   250
 10
-33.3142
 20
118.0916
 30
0.0
  0
VERTEX
  5
AC6
  8
LAYER_1
 62
   250
 10
-33.3142
 20
117.8094
 30
0.0
  0
VERTEX
  5
AC7
  8
LAYER_1
 62
   250
 10
-33.5969
 20
117.8094
 30
0.0
  0
SEQEND
  5
AC8
  8
LAYER_1
 62
   250
  0
POLYLINE
  5
9D
  8
LAYER_1
 62
   250
 66
     1
 10
0.0
 20
0.0
 30
0.0
 70
     1
  0
VERTEX
  5
AC9
  8
LAYER_1
 62
   250
 10
-33.5969
 20
116.6283
 30
0.0
  0
VERTEX
  5
ACA
  8
LAYER_1
 62
   250
 10
-33.5969
 20
116.911
 30
0.0
  0
VERTEX
  5
ACB
  8
LAYER_1
 62
   250
 10
-33.3142
 20
116.911
 30
0.0
  0
VERTEX
  5
ACC
  8
LAYER_1
 62
   250
 10
-33.3142
 20
116.6283
 30
0.0
  0
VERTEX
  5
ACD
  8
LAYER_1
 62
   250
 10
-33.5969
 20
116.6283
 30
0.0
  0
SEQEND
  5
ACE
  8
LAYER_1
 62
   250
  0
POLYLINE
  5
9E
  8
LAYER_1
 62
   250
 66
     1
 10
0.0
 20
0.0
 30
0.0
 70
     1
  0
VERTEX
  5
ACF
  8
LAYER_1
 62
   250
 10
-24.972
 20
16.4228
 30
0.0
  0
VERTEX
  5
AD0
  8
LAYER_1
 62
   250
 10
-19.172
 20
16.4228
 30
0.0
  0
VERTEX
  5
AD1
  8
LAYER_1
 62
   250
 10
-19.172
 20
26.6228
 30
0.0
  0
VERTEX
  5
AD2
  8
LAYER_1
 62
   250
 10
-24.972
 20
26.6228
 30
0.0
  0
VERTEX
  5
AD3
  8
LAYER_1
 62
   250
 10
-24.972
 20
16.4228
 30
0.0
  0
SEQEND
  5
AD4
  8
LAYER_1
 62
   250
  0
POLYLINE
  5
9F
  8
LAYER_1
 62
   250
 66
     1
 10
0.0
 20
0.0
 30
0.0
 70
     1
  0
VERTEX
  5
AD5
  8
LAYER_1
 62
   250
 10
-24.163
 20
-15.6882
 30
0.0
  0
VERTEX
  5
AD6
  8
LAYER_1
 62
   250
 10
-19.163
 20
-15.6882
 30
0.0
  0
VERTEX
  5
AD7
  8
LAYER_1
 62
   250
 10
-19.163
 20
-7.6882
 30
0.0
  0
VERTEX
  5
AD8
  8
LAYER_1
 62
   250
 10
-24.163
 20
-7.6882
 30
0.0
  0
VERTEX
  5
AD9
  8
LAYER_1
 62
   250
 10
-24.163
 20
-15.6882
 30
0.0
  0
SEQEND
  5
ADA
  8
LAYER_1
 62
   250
  0
POLYLINE
  5
A0
  8
LAYER_1
 62
     7
 66
     1
 10
0.0
 20
0.0
 30
0.0
 70
     1
  0
VERTEX
  5
ADB
  8
LAYER_1
 62
     7
 10
-22.0721
 20
30.3728
 30
0.0
  0
VERTEX
  5
ADC
  8
LAYER_1
 62
     7
 10
-22.31596290252016
 20
30.34878160050404
 30
0.0
  0
VERTEX
  5
ADD
  8
LAYER_1
 62
     7
 10
-22.55045429045636
 20
30.27764941563911
 30
0.0
  0
VERTEX
  5
ADE
  8
LAYER_1
 62
     7
 10
-22.7665627912745
 20
30.16213701537818
 30
0.0
  0
VERTEX
  5
ADF
  8
LAYER_1
 62
     7
 10
-22.95598347648318
 20
30.00668347648319
 30
0.0
  0
VERTEX
  5
AE0
  8
LAYER_1
 62
     7
 10
-23.11143701537818
 20
29.8172627912745
 30
0.0
  0
VERTEX
  5
AE1
  8
LAYER_1
 62
     7
 10
-23.22694941563911
 20
29.60115429045636
 30
0.0
  0
VERTEX
  5
AE2
  8
LAYER_1
 62
     7
 10
-23.29808160050404
 20
29.36666290252016
 30
0.0
  0
VERTEX
  5
AE3
  8
LAYER_1
 62
     7
 10
-23.3221
 20
29.1228
 30
0.0
  0
VERTEX
  5
AE4
  8
LAYER_1
 62
     7
 10
-23.29808160050404
 20
28.87893709747984
 30
0.0
  0
VERTEX
  5
AE5
  8
LAYER_1
 62
     7
 10
-23.22694941563911
 20
28.64444570954364
 30
0.0
  0
VERTEX
  5
AE6
  8
LAYER_1
 62
     7
 10
-23.11143701537818
 20
28.4283372087255
 30
0.0
  0
VERTEX
  5
AE7
  8
LAYER_1
 62
     7
 10
-22.95598347648318
 20
28.23891652351682
 30
0.0
  0
VERTEX
  5
AE8
  8
LAYER_1
 62
     7
 10
-22.7665627912745
 20
28.08346298462182
 30
0.0
  0
VERTEX
  5
AE9
  8
LAYER_1
 62
     7
 10
-22.55045429045636
 20
27.96795058436089
 30
0.0
  0
VERTEX
  5
AEA
  8
LAYER_1
 62
     7
 10
-22.31596290252016
 20
27.89681839949596
 30
0.0
  0
VERTEX
  5
AEB
  8
LAYER_1
 62
     7
 10
-22.0721
 20
27.8728
 30
0.0
  0
VERTEX
  5
AEC
  8
LAYER_1
 62
     7
 10
-21.82823709747984
 20
27.89681839949596
 30
0.0
  0
VERTEX
  5
AED
  8
LAYER_1
 62
     7
 10
-21.59374570954364
 20
27.96795058436089
 30
0.0
  0
VERTEX
  5
AEE
  8
LAYER_1
 62
     7
 10
-21.3776372087255
 20
28.08346298462182
 30
0.0
  0
VERTEX
  5
AEF
  8
LAYER_1
 62
     7
 10
-21.18821652351681
 20
28.23891652351682
 30
0.0
  0
VERTEX
  5
AF0
  8
LAYER_1
 62
     7
 10
-21.03276298462182
 20
28.4283372087255
 30
0.0
  0
VERTEX
  5
AF1
  8
LAYER_1
 62
     7
 10
-20.91725058436089
 20
28.64444570954364
 30
0.0
  0
VERTEX
  5
AF2
  8
LAYER_1
 62
     7
 10
-20.84611839949596
 20
28.87893709747985
 30
0.0
  0
VERTEX
  5
AF3
  8
LAYER_1
 62
     7
 10
-20.8221
 20
29.12280000000001
 30
0.0
  0
VERTEX
  5
AF4
  8
LAYER_1
 62
     7
 10
-20.84611839949596
 20
29.36666290252017
 30
0.0
  0
VERTEX
  5
AF5
  8
LAYER_1
 62
     7
 10
-20.91725058436089
 20
29.60115429045637
 30
0.0
  0
VERTEX
  5
AF6
  8
LAYER_1
 62
     7
 10
-21.03276298462182
 20
29.81726279127451
 30
0.0
  0
VERTEX
  5
AF7
  8
LAYER_1
 62
     7
 10
-21.18821652351682
 20
30.00668347648319
 30
0.0
  0
VERTEX
  5
AF8
  8
LAYER_1
 62
     7
 10
-21.3776372087255
 20
30.16213701537819
 30
0.0
  0
VERTEX
  5
AF9
  8
LAYER_1
 62
     7
 10
-21.59374570954364
 20
30.27764941563911
 30
0.0
  0
VERTEX
  5
AFA
  8
LAYER_1
 62
     7
 10
-21.82823709747984
 20
30.34878160050404
 30
0.0
  0
SEQEND
  5
AFB
  8
LAYER_1
 62
     7
  0
POLYLINE
  5
A1
  8
LAYER_1
 62
   250
 66
     1
 10
0.0
 20
0.0
 30
0.0
 70
     1
  0
VERTEX
  5
AFC
  8
LAYER_1
 62
   250
 10
-24.5721
 20
11.4228
 30
0.0
  0
VERTEX
  5
AFD
  8
LAYER_1
 62
   250
 10
-19.5721
 20
11.4228
 30
0.0
  0
VERTEX
  5
AFE
  8
LAYER_1
 62
   250
 10
-19.5721
 20
16.4228
 30
0.0
  0
VERTEX
  5
AFF
  8
LAYER_1
 62
   250
 10
-24.5721
 20
16.4228
 30
0.0
  0
VERTEX
  5
B00
  8
LAYER_1
 62
   250
 10
-24.5721
 20
11.4228
 30
0.0
  0
SEQEND
  5
B01
  8
LAYER_1
 62
   250
  0
POLYLINE
  5
A2
  8
LAYER_1
 62
     7
 66
     1
 10
0.0
 20
0.0
 30
0.0
 70
     1
  0
VERTEX
  5
B02
  8
LAYER_1
 62
     7
 10
-22.0721
 20
15.1728
 30
0.0
  0
VERTEX
  5
B03
  8
LAYER_1
 62
     7
 10
-22.31596290252016
 20
15.14878160050404
 30
0.0
  0
VERTEX
  5
B04
  8
LAYER_1
 62
     7
 10
-22.55045429045636
 20
15.07764941563911
 30
0.0
  0
VERTEX
  5
B05
  8
LAYER_1
 62
     7
 10
-22.7665627912745
 20
14.96213701537818
 30
0.0
  0
VERTEX
  5
B06
  8
LAYER_1
 62
     7
 10
-22.95598347648318
 20
14.80668347648318
 30
0.0
  0
VERTEX
  5
B07
  8
LAYER_1
 62
     7
 10
-23.11143701537818
 20
14.6172627912745
 30
0.0
  0
VERTEX
  5
B08
  8
LAYER_1
 62
     7
 10
-23.22694941563911
 20
14.40115429045636
 30
0.0
  0
VERTEX
  5
B09
  8
LAYER_1
 62
     7
 10
-23.29808160050404
 20
14.16666290252016
 30
0.0
  0
VERTEX
  5
B0A
  8
LAYER_1
 62
     7
 10
-23.3221
 20
13.9228
 30
0.0
  0
VERTEX
  5
B0B
  8
LAYER_1
 62
     7
 10
-23.29808160050404
 20
13.67893709747984
 30
0.0
  0
VERTEX
  5
B0C
  8
LAYER_1
 62
     7
 10
-23.22694941563911
 20
13.44444570954364
 30
0.0
  0
VERTEX
  5
B0D
  8
LAYER_1
 62
     7
 10
-23.11143701537818
 20
13.2283372087255
 30
0.0
  0
VERTEX
  5
B0E
  8
LAYER_1
 62
     7
 10
-22.95598347648318
 20
13.03891652351682
 30
0.0
  0
VERTEX
  5
B0F
  8
LAYER_1
 62
     7
 10
-22.7665627912745
 20
12.88346298462182
 30
0.0
  0
VERTEX
  5
B10
  8
LAYER_1
 62
     7
 10
-22.55045429045636
 20
12.76795058436089
 30
0.0
  0
VERTEX
  5
B11
  8
LAYER_1
 62
     7
 10
-22.31596290252016
 20
12.69681839949596
 30
0.0
  0
VERTEX
  5
B12
  8
LAYER_1
 62
     7
 10
-22.0721
 20
12.6728
 30
0.0
  0
VERTEX
  5
B13
  8
LAYER_1
 62
     7
 10
-21.82823709747984
 20
12.69681839949596
 30
0.0
  0
VERTEX
  5
B14
  8
LAYER_1
 62
     7
 10
-21.59374570954364
 20
12.76795058436089
 30
0.0
  0
VERTEX
  5
B15
  8
LAYER_1
 62
     7
 10
-21.3776372087255
 20
12.88346298462182
 30
0.0
  0
VERTEX
  5
B16
  8
LAYER_1
 62
     7
 10
-21.18821652351681
 20
13.03891652351682
 30
0.0
  0
VERTEX
  5
B17
  8
LAYER_1
 62
     7
 10
-21.03276298462182
 20
13.2283372087255
 30
0.0
  0
VERTEX
  5
B18
  8
LAYER_1
 62
     7
 10
-20.91725058436089
 20
13.44444570954364
 30
0.0
  0
VERTEX
  5
B19
  8
LAYER_1
 62
     7
 10
-20.84611839949596
 20
13.67893709747984
 30
0.0
  0
VERTEX
  5
B1A
  8
LAYER_1
 62
     7
 10
-20.8221
 20
13.9228
 30
0.0
  0
VERTEX
  5
B1B
  8
LAYER_1
 62
     7
 10
-20.84611839949596
 20
14.16666290252016
 30
0.0
  0
VERTEX
  5
B1C
  8
LAYER_1
 62
     7
 10
-20.91725058436089
 20
14.40115429045637
 30
0.0
  0
VERTEX
  5
B1D
  8
LAYER_1
 62
     7
 10
-21.03276298462182
 20
14.61726279127451
 30
0.0
  0
VERTEX
  5
B1E
  8
LAYER_1
 62
     7
 10
-21.18821652351682
 20
14.80668347648319
 30
0.0
  0
VERTEX
  5
B1F
  8
LAYER_1
 62
     7
 10
-21.3776372087255
 20
14.96213701537818
 30
0.0
  0
VERTEX
  5
B20
  8
LAYER_1
 62
     7
 10
-21.59374570954364
 20
15.07764941563911
 30
0.0
  0
VERTEX
  5
B21
  8
LAYER_1
 62
     7
 10
-21.82823709747984
 20
15.14878160050404
 30
0.0
  0
SEQEND
  5
B22
  8
LAYER_1
 62
     7
  0
POLYLINE
  5
A3
  8
LAYER_1
 62
   250
 66
     1
 10
0.0
 20
0.0
 30
0.0
 70
     1
  0
VERTEX
  5
B23
  8
LAYER_1
 62
   250
 10
-14.0443
 20
93.8566
 30
0.0
  0
VERTEX
  5
B24
  8
LAYER_1
 62
   250
 10
-14.0443
 20
93.3169
 30
0.0
  0
VERTEX
  5
B25
  8
LAYER_1
 62
   250
 10
-16.0805
 20
93.3169
 30
0.0
  0
VERTEX
  5
B26
  8
LAYER_1
 62
   250
 10
-16.0555
 20
93.4678
 30
0.0
  0
VERTEX
  5
B27
  8
LAYER_1
 62
   250
 10
-16.0141
 20
93.6148
 30
0.0
  0
VERTEX
  5
B28
  8
LAYER_1
 62
   250
 10
-15.9562
 20
93.7578
 30
0.0
  0
VERTEX
  5
B29
  8
LAYER_1
 62
   250
 10
-15.8815
 20
93.8969
 30
0.0
  0
VERTEX
  5
B2A
  8
LAYER_1
 62
   250
 10
-15.7787
 20
94.0451
 30
0.0
  0
VERTEX
  5
B2B
  8
LAYER_1
 62
   250
 10
-15.6356
 20
94.2155
 30
0.0
  0
VERTEX
  5
B2C
  8
LAYER_1
 62
   250
 10
-15.4523
 20
94.4083
 30
0.0
  0
VERTEX
  5
B2D
  8
LAYER_1
 62
   250
 10
-15.2289
 20
94.6236
 30
0.0
  0
VERTEX
  5
B2E
  8
LAYER_1
 62
   250
 10
-14.747
 20
95.1196
 30
0.0
  0
VERTEX
  5
B2F
  8
LAYER_1
 62
   250
 10
-14.6946
 20
95.2093
 30
0.0
  0
VERTEX
  5
B30
  8
LAYER_1
 62
   250
 10
-14.6571
 20
95.2985
 30
0.0
  0
VERTEX
  5
B31
  8
LAYER_1
 62
   250
 10
-14.6345
 20
95.3871
 30
0.0
  0
VERTEX
  5
B32
  8
LAYER_1
 62
   250
 10
-14.627
 20
95.4752
 30
0.0
  0
VERTEX
  5
B33
  8
LAYER_1
 62
   250
 10
-14.6335
 20
95.5665
 30
0.0
  0
VERTEX
  5
B34
  8
LAYER_1
 62
   250
 10
-14.653
 20
95.6466
 30
0.0
  0
VERTEX
  5
B35
  8
LAYER_1
 62
   250
 10
-14.6857
 20
95.7157
 30
0.0
  0
VERTEX
  5
B36
  8
LAYER_1
 62
   250
 10
-14.7315
 20
95.7736
 30
0.0
  0
VERTEX
  5
B37
  8
LAYER_1
 62
   250
 10
-14.7888
 20
95.8194
 30
0.0
  0
VERTEX
  5
B38
  8
LAYER_1
 62
   250
 10
-14.8559
 20
95.852
 30
0.0
  0
VERTEX
  5
B39
  8
LAYER_1
 62
   250
 10
-14.933
 20
95.8715
 30
0.0
  0
VERTEX
  5
B3A
  8
LAYER_1
 62
   250
 10
-15.02
 20
95.878
 30
0.0
  0
VERTEX
  5
B3B
  8
LAYER_1
 62
   250
 10
-15.1063
 20
95.8711
 30
0.0
  0
VERTEX
  5
B3C
  8
LAYER_1
 62
   250
 10
-15.1832
 20
95.8506
 30
0.0
  0
VERTEX
  5
B3D
  8
LAYER_1
 62
   250
 10
-15.2508
 20
95.8164
 30
0.0
  0
VERTEX
  5
B3E
  8
LAYER_1
 62
   250
 10
-15.3093
 20
95.7687
 30
0.0
  0
VERTEX
  5
B3F
  8
LAYER_1
 62
   250
 10
-15.3572
 20
95.7047
 30
0.0
  0
VERTEX
  5
B40
  8
LAYER_1
 62
   250
 10
-15.3939
 20
95.6227
 30
0.0
  0
VERTEX
  5
B41
  8
LAYER_1
 62
   250
 10
-15.4194
 20
95.5226
 30
0.0
  0
VERTEX
  5
B42
  8
LAYER_1
 62
   250
 10
-15.4335
 20
95.4046
 30
0.0
  0
VERTEX
  5
B43
  8
LAYER_1
 62
   250
 10
-16.012
 20
95.4625
 30
0.0
  0
VERTEX
  5
B44
  8
LAYER_1
 62
   250
 10
-15.9723
 20
95.6853
 30
0.0
  0
VERTEX
  5
B45
  8
LAYER_1
 62
   250
 10
-15.9051
 20
95.8743
 30
0.0
  0
VERTEX
  5
B46
  8
LAYER_1
 62
   250
 10
-15.8611
 20
95.9561
 30
0.0
  0
VERTEX
  5
B47
  8
LAYER_1
 62
   250
 10
-15.8101
 20
96.0295
 30
0.0
  0
VERTEX
  5
B48
  8
LAYER_1
 62
   250
 10
-15.7523
 20
96.0945
 30
0.0
  0
VERTEX
  5
B49
  8
LAYER_1
 62
   250
 10
-15.6875
 20
96.1511
 30
0.0
  0
VERTEX
  5
B4A
  8
LAYER_1
 62
   250
 10
-15.5425
 20
96.2424
 30
0.0
  0
VERTEX
  5
B4B
  8
LAYER_1
 62
   250
 10
-15.3805
 20
96.3076
 30
0.0
  0
VERTEX
  5
B4C
  8
LAYER_1
 62
   250
 10
-15.2014
 20
96.3468
 30
0.0
  0
VERTEX
  5
B4D
  8
LAYER_1
 62
   250
 10
-15.0052
 20
96.3599
 30
0.0
  0
VERTEX
  5
B4E
  8
LAYER_1
 62
   250
 10
-14.7929
 20
96.3447
 30
0.0
  0
VERTEX
  5
B4F
  8
LAYER_1
 62
   250
 10
-14.6047
 20
96.2992
 30
0.0
  0
VERTEX
  5
B50
  8
LAYER_1
 62
   250
 10
-14.4405
 20
96.2236
 30
0.0
  0
VERTEX
  5
B51
  8
LAYER_1
 62
   250
 10
-14.3004
 20
96.1179
 30
0.0
  0
VERTEX
  5
B52
  8
LAYER_1
 62
   250
 10
-14.1883
 20
95.9895
 30
0.0
  0
VERTEX
  5
B53
  8
LAYER_1
 62
   250
 10
-14.1083
 20
95.8464
 30
0.0
  0
VERTEX
  5
B54
  8
LAYER_1
 62
   250
 10
-14.0603
 20
95.6886
 30
0.0
  0
VERTEX
  5
B55
  8
LAYER_1
 62
   250
 10
-14.0443
 20
95.5161
 30
0.0
  0
VERTEX
  5
B56
  8
LAYER_1
 62
   250
 10
-14.0627
 20
95.3166
 30
0.0
  0
VERTEX
  5
B57
  8
LAYER_1
 62
   250
 10
-14.1176
 20
95.1266
 30
0.0
  0
VERTEX
  5
B58
  8
LAYER_1
 62
   250
 10
-14.2123
 20
94.9372
 30
0.0
  0
VERTEX
  5
B59
  8
LAYER_1
 62
   250
 10
-14.3498
 20
94.7393
 30
0.0
  0
VERTEX
  5
B5A
  8
LAYER_1
 62
   250
 10
-14.7301
 20
94.3526
 30
0.0
  0
VERTEX
  5
B5B
  8
LAYER_1
 62
   250
 10
-15.0786
 20
94.0175
 30
0.0
  0
VERTEX
  5
B5C
  8
LAYER_1
 62
   250
 10
-15.1978
 20
93.8566
 30
0.0
  0
VERTEX
  5
B5D
  8
LAYER_1
 62
   250
 10
-14.0443
 20
93.8566
 30
0.0
  0
SEQEND
  5
B5E
  8
LAYER_1
 62
   250
  0
POLYLINE
  5
A4
  8
LAYER_1
 62
   250
 66
     1
 10
0.0
 20
0.0
 30
0.0
 70
     1
  0
VERTEX
  5
B5F
  8
LAYER_1
 62
   250
 10
-16.7447
 20
58.7021
 30
0.0
  0
VERTEX
  5
B60
  8
LAYER_1
 62
   250
 10
-16.1831
 20
58.7699
 30
0.0
  0
VERTEX
  5
B61
  8
LAYER_1
 62
   250
 10
-16.1638
 20
58.6688
 30
0.0
  0
VERTEX
  5
B62
  8
LAYER_1
 62
   250
 10
-16.1332
 20
58.5804
 30
0.0
  0
VERTEX
  5
B63
  8
LAYER_1
 62
   250
 10
-16.0913
 20
58.5048
 30
0.0
  0
VERTEX
  5
B64
  8
LAYER_1
 62
   250
 10
-16.0378
 20
58.4418
 30
0.0
  0
VERTEX
  5
B65
  8
LAYER_1
 62
   250
 10
-15.9759
 20
58.3918
 30
0.0
  0
VERTEX
  5
B66
  8
LAYER_1
 62
   250
 10
-15.9077
 20
58.3561
 30
0.0
  0
VERTEX
  5
B67
  8
LAYER_1
 62
   250
 10
-15.8333
 20
58.3346
 30
0.0
  0
VERTEX
  5
B68
  8
LAYER_1
 62
   250
 10
-15.7527
 20
58.3275
 30
0.0
  0
VERTEX
  5
B69
  8
LAYER_1
 62
   250
 10
-15.6663
 20
58.3361
 30
0.0
  0
VERTEX
  5
B6A
  8
LAYER_1
 62
   250
 10
-15.5871
 20
58.3618
 30
0.0
  0
VERTEX
  5
B6B
  8
LAYER_1
 62
   250
 10
-15.515
 20
58.4046
 30
0.0
  0
VERTEX
  5
B6C
  8
LAYER_1
 62
   250
 10
-15.4501
 20
58.4644
 30
0.0
  0
VERTEX
  5
B6D
  8
LAYER_1
 62
   250
 10
-15.3964
 20
58.5385
 30
0.0
  0
VERTEX
  5
B6E
  8
LAYER_1
 62
   250
 10
-15.358
 20
58.6243
 30
0.0
  0
VERTEX
  5
B6F
  8
LAYER_1
 62
   250
 10
-15.335
 20
58.7221
 30
0.0
  0
VERTEX
  5
B70
  8
LAYER_1
 62
   250
 10
-15.3273
 20
58.8319
 30
0.0
  0
VERTEX
  5
B71
  8
LAYER_1
 62
   250
 10
-15.3346
 20
58.9358
 30
0.0
  0
VERTEX
  5
B72
  8
LAYER_1
 62
   250
 10
-15.3566
 20
59.0283
 30
0.0
  0
VERTEX
  5
B73
  8
LAYER_1
 62
   250
 10
-15.3934
 20
59.1094
 30
0.0
  0
VERTEX
  5
B74
  8
LAYER_1
 62
   250
 10
-15.4451
 20
59.1791
 30
0.0
  0
VERTEX
  5
B75
  8
LAYER_1
 62
   250
 10
-15.5071
 20
59.2355
 30
0.0
  0
VERTEX
  5
B76
  8
LAYER_1
 62
   250
 10
-15.5757
 20
59.2756
 30
0.0
  0
VERTEX
  5
B77
  8
LAYER_1
 62
   250
 10
-15.6508
 20
59.2995
 30
0.0
  0
VERTEX
  5
B78
  8
LAYER_1
 62
   250
 10
-15.7323
 20
59.3075
 30
0.0
  0
VERTEX
  5
B79
  8
LAYER_1
 62
   250
 10
-15.999
 20
59.2645
 30
0.0
  0
VERTEX
  5
B7A
  8
LAYER_1
 62
   250
 10
-15.9348
 20
59.7372
 30
0.0
  0
VERTEX
  5
B7B
  8
LAYER_1
 62
   250
 10
-15.8238
 20
59.7415
 30
0.0
  0
VERTEX
  5
B7C
  8
LAYER_1
 62
   250
 10
-15.7268
 20
59.76
 30
0.0
  0
VERTEX
  5
B7D
  8
LAYER_1
 62
   250
 10
-15.6438
 20
59.7926
 30
0.0
  0
VERTEX
  5
B7E
  8
LAYER_1
 62
   250
 10
-15.5749
 20
59.8395
 30
0.0
  0
VERTEX
  5
B7F
  8
LAYER_1
 62
   250
 10
-15.5207
 20
59.8983
 30
0.0
  0
VERTEX
  5
B80
  8
LAYER_1
 62
   250
 10
-15.4819
 20
59.966
 30
0.0
  0
VERTEX
  5
B81
  8
LAYER_1
 62
   250
 10
-15.4586
 20
60.0425
 30
0.0
  0
VERTEX
  5
B82
  8
LAYER_1
 62
   250
 10
-15.4508
 20
60.128
 30
0.0
  0
VERTEX
  5
B83
  8
LAYER_1
 62
   250
 10
-15.4565
 20
60.2008
 30
0.0
  0
VERTEX
  5
B84
  8
LAYER_1
 62
   250
 10
-15.4735
 20
60.2657
 30
0.0
  0
VERTEX
  5
B85
  8
LAYER_1
 62
   250
 10
-15.502
 20
60.3228
 30
0.0
  0
VERTEX
  5
B86
  8
LAYER_1
 62
   250
 10
-15.5418
 20
60.3722
 30
0.0
  0
VERTEX
  5
B87
  8
LAYER_1
 62
   250
 10
-15.5911
 20
60.412
 30
0.0
  0
VERTEX
  5
B88
  8
LAYER_1
 62
   250
 10
-15.648
 20
60.4404
 30
0.0
  0
VERTEX
  5
B89
  8
LAYER_1
 62
   250
 10
-15.7123
 20
60.4575
 30
0.0
  0
VERTEX
  5
B8A
  8
LAYER_1
 62
   250
 10
-15.7838
 20
60.4632
 30
0.0
  0
VERTEX
  5
B8B
  8
LAYER_1
 62
   250
 10
-15.8556
 20
60.4567
 30
0.0
  0
VERTEX
  5
B8C
  8
LAYER_1
 62
   250
 10
-15.9219
 20
60.4373
 30
0.0
  0
VERTEX
  5
B8D
  8
LAYER_1
 62
   250
 10
-15.9826
 20
60.4049
 30
0.0
  0
VERTEX
  5
B8E
  8
LAYER_1
 62
   250
 10
-16.0378
 20
60.3595
 30
0.0
  0
VERTEX
  5
B8F
  8
LAYER_1
 62
   250
 10
-16.0855
 20
60.3021
 30
0.0
  0
VERTEX
  5
B90
  8
LAYER_1
 62
   250
 10
-16.1229
 20
60.2326
 30
0.0
  0
VERTEX
  5
B91
  8
LAYER_1
 62
   250
 10
-16.1498
 20
60.1513
 30
0.0
  0
VERTEX
  5
B92
  8
LAYER_1
 62
   250
 10
-16.1662
 20
60.0582
 30
0.0
  0
VERTEX
  5
B93
  8
LAYER_1
 62
   250
 10
-16.7017
 20
60.1485
 30
0.0
  0
VERTEX
  5
B94
  8
LAYER_1
 62
   250
 10
-16.6702
 20
60.2792
 30
0.0
  0
VERTEX
  5
B95
  8
LAYER_1
 62
   250
 10
-16.6317
 20
60.3961
 30
0.0
  0
VERTEX
  5
B96
  8
LAYER_1
 62
   250
 10
-16.586
 20
60.4991
 30
0.0
  0
VERTEX
  5
B97
  8
LAYER_1
 62
   250
 10
-16.5331
 20
60.5881
 30
0.0
  0
VERTEX
  5
B98
  8
LAYER_1
 62
   250
 10
-16.4713
 20
60.6657
 30
0.0
  0
VERTEX
  5
B99
  8
LAYER_1
 62
   250
 10
-16.3983
 20
60.7346
 30
0.0
  0
VERTEX
  5
B9A
  8
LAYER_1
 62
   250
 10
-16.3142
 20
60.7948
 30
0.0
  0
VERTEX
  5
B9B
  8
LAYER_1
 62
   250
 10
-16.2191
 20
60.8463
 30
0.0
  0
VERTEX
  5
B9C
  8
LAYER_1
 62
   250
 10
-16.1151
 20
60.8876
 30
0.0
  0
VERTEX
  5
B9D
  8
LAYER_1
 62
   250
 10
-16.0053
 20
60.9171
 30
0.0
  0
VERTEX
  5
B9E
  8
LAYER_1
 62
   250
 10
-15.8894
 20
60.9349
 30
0.0
  0
VERTEX
  5
B9F
  8
LAYER_1
 62
   250
 10
-15.7676
 20
60.9408
 30
0.0
  0
VERTEX
  5
BA0
  8
LAYER_1
 62
   250
 10
-15.564
 20
60.9237
 30
0.0
  0
VERTEX
  5
BA1
  8
LAYER_1
 62
   250
 10
-15.3817
 20
60.8726
 30
0.0
  0
VERTEX
  5
BA2
  8
LAYER_1
 62
   250
 10
-15.2986
 20
60.8342
 30
0.0
  0
VERTEX
  5
BA3
  8
LAYER_1
 62
   250
 10
-15.2208
 20
60.7872
 30
0.0
  0
VERTEX
  5
BA4
  8
LAYER_1
 62
   250
 10
-15.1483
 20
60.7318
 30
0.0
  0
VERTEX
  5
BA5
  8
LAYER_1
 62
   250
 10
-15.0811
 20
60.6678
 30
0.0
  0
VERTEX
  5
BA6
  8
LAYER_1
 62
   250
 10
-14.9879
 20
60.5526
 30
0.0
  0
VERTEX
  5
BA7
  8
LAYER_1
 62
   250
 10
-14.9213
 20
60.4301
 30
0.0
  0
VERTEX
  5
BA8
  8
LAYER_1
 62
   250
 10
-14.8813
 20
60.3004
 30
0.0
  0
VERTEX
  5
BA9
  8
LAYER_1
 62
   250
 10
-14.868
 20
60.1633
 30
0.0
  0
VERTEX
  5
BAA
  8
LAYER_1
 62
   250
 10
-14.8748
 20
60.0661
 30
0.0
  0
VERTEX
  5
BAB
  8
LAYER_1
 62
   250
 10
-14.8952
 20
59.9739
 30
0.0
  0
VERTEX
  5
BAC
  8
LAYER_1
 62
   250
 10
-14.9293
 20
59.8867
 30
0.0
  0
VERTEX
  5
BAD
  8
LAYER_1
 62
   250
 10
-14.977
 20
59.8046
 30
0.0
  0
VERTEX
  5
BAE
  8
LAYER_1
 62
   250
 10
-15.0383
 20
59.7276
 30
0.0
  0
VERTEX
  5
BAF
  8
LAYER_1
 62
   250
 10
-15.1132
 20
59.6556
 30
0.0
  0
VERTEX
  5
BB0
  8
LAYER_1
 62
   250
 10
-15.2018
 20
59.5887
 30
0.0
  0
VERTEX
  5
BB1
  8
LAYER_1
 62
   250
 10
-15.304
 20
59.5269
 30
0.0
  0
VERTEX
  5
BB2
  8
LAYER_1
 62
   250
 10
-15.1804
 20
59.4902
 30
0.0
  0
VERTEX
  5
BB3
  8
LAYER_1
 62
   250
 10
-15.0699
 20
59.4363
 30
0.0
  0
VERTEX
  5
BB4
  8
LAYER_1
 62
   250
 10
-14.9724
 20
59.3651
 30
0.0
  0
VERTEX
  5
BB5
  8
LAYER_1
 62
   250
 10
-14.8877
 20
59.2764
 30
0.0
  0
VERTEX
  5
BB6
  8
LAYER_1
 62
   250
 10
-14.8196
 20
59.1744
 30
0.0
  0
VERTEX
  5
BB7
  8
LAYER_1
 62
   250
 10
-14.7709
 20
59.0622
 30
0.0
  0
VERTEX
  5
BB8
  8
LAYER_1
 62
   250
 10
-14.7416
 20
58.9398
 30
0.0
  0
VERTEX
  5
BB9
  8
LAYER_1
 62
   250
 10
-14.7318
 20
58.8073
 30
0.0
  0
VERTEX
  5
BBA
  8
LAYER_1
 62
   250
 10
-14.7501
 20
58.6152
 30
0.0
  0
VERTEX
  5
BBB
  8
LAYER_1
 62
   250
 10
-14.8048
 20
58.4378
 30
0.0
  0
VERTEX
  5
BBC
  8
LAYER_1
 62
   250
 10
-14.8958
 20
58.2752
 30
0.0
  0
VERTEX
  5
BBD
  8
LAYER_1
 62
   250
 10
-15.0232
 20
58.1271
 30
0.0
  0
VERTEX
  5
BBE
  8
LAYER_1
 62
   250
 10
-15.1777
 20
58.0043
 30
0.0
  0
VERTEX
  5
BBF
  8
LAYER_1
 62
   250
 10
-15.3501
 20
57.9166
 30
0.0
  0
VERTEX
  5
BC0
  8
LAYER_1
 62
   250
 10
-15.5404
 20
57.8639
 30
0.0
  0
VERTEX
  5
BC1
  8
LAYER_1
 62
   250
 10
-15.7485
 20
57.8463
 30
0.0
  0
VERTEX
  5
BC2
  8
LAYER_1
 62
   250
 10
-15.9455
 20
57.8611
 30
0.0
  0
VERTEX
  5
BC3
  8
LAYER_1
 62
   250
 10
-16.1249
 20
57.9055
 30
0.0
  0
VERTEX
  5
BC4
  8
LAYER_1
 62
   250
 10
-16.2866
 20
57.9794
 30
0.0
  0
VERTEX
  5
BC5
  8
LAYER_1
 62
   250
 10
-16.4308
 20
58.0827
 30
0.0
  0
VERTEX
  5
BC6
  8
LAYER_1
 62
   250
 10
-16.552
 20
58.2102
 30
0.0
  0
VERTEX
  5
BC7
  8
LAYER_1
 62
   250
 10
-16.6446
 20
58.3559
 30
0.0
  0
VERTEX
  5
BC8
  8
LAYER_1
 62
   250
 10
-16.7089
 20
58.5198
 30
0.0
  0
VERTEX
  5
BC9
  8
LAYER_1
 62
   250
 10
-16.7447
 20
58.7021
 30
0.0
  0
SEQEND
  5
BCA
  8
LAYER_1
 62
   250
  0
POLYLINE
  5
A5
  8
LAYER_1
 62
   250
 66
     1
 10
0.0
 20
0.0
 30
0.0
 70
     1
  0
VERTEX
  5
BCB
  8
LAYER_1
 62
   250
 10
-14.2954
 20
25.6341
 30
0.0
  0
VERTEX
  5
BCC
  8
LAYER_1
 62
   250
 10
-14.2954
 20
26.2437
 30
0.0
  0
VERTEX
  5
BCD
  8
LAYER_1
 62
   250
 10
-15.5358
 20
26.2437
 30
0.0
  0
VERTEX
  5
BCE
  8
LAYER_1
 62
   250
 10
-15.5358
 20
26.7524
 30
0.0
  0
VERTEX
  5
BCF
  8
LAYER_1
 62
   250
 10
-14.2206
 20
28.6771
 30
0.0
  0
VERTEX
  5
BD0
  8
LAYER_1
 62
   250
 10
-13.7331
 20
28.6771
 30
0.0
  0
VERTEX
  5
BD1
  8
LAYER_1
 62
   250
 10
-13.7331
 20
26.7545
 30
0.0
  0
VERTEX
  5
BD2
  8
LAYER_1
 62
   250
 10
-13.357
 20
26.7545
 30
0.0
  0
VERTEX
  5
BD3
  8
LAYER_1
 62
   250
 10
-13.357
 20
26.2437
 30
0.0
  0
VERTEX
  5
BD4
  8
LAYER_1
 62
   250
 10
-13.7331
 20
26.2437
 30
0.0
  0
VERTEX
  5
BD5
  8
LAYER_1
 62
   250
 10
-13.7331
 20
25.6341
 30
0.0
  0
VERTEX
  5
BD6
  8
LAYER_1
 62
   250
 10
-14.2954
 20
25.6341
 30
0.0
  0
SEQEND
  5
BD7
  8
LAYER_1
 62
   250
  0
POLYLINE
  5
A6
  8
LAYER_1
 62
   250
 66
     1
 10
0.0
 20
0.0
 30
0.0
 70
     1
  0
VERTEX
  5
BD8
  8
LAYER_1
 62
   250
 10
-14.2954
 20
26.7545
 30
0.0
  0
VERTEX
  5
BD9
  8
LAYER_1
 62
   250
 10
-14.2954
 20
27.7903
 30
0.0
  0
VERTEX
  5
BDA
  8
LAYER_1
 62
   250
 10
-14.9918
 20
26.7545
 30
0.0
  0
VERTEX
  5
BDB
  8
LAYER_1
 62
   250
 10
-14.2954
 20
26.7545
 30
0.0
  0
SEQEND
  5
BDC
  8
LAYER_1
 62
   250
  0
ENDSEC
  0
EOF
