  0
SECTION
  2
HEADER
  9
$ACADVER
  1
AC1015
  9
$ACADMAINTVER
 70
     6
  9
$DWGCODEPAGE
  3
ANSI_1252
  9
$INSBASE
 10
0.0
 20
0.0
 30
0.0
  9
$EXTMIN
 10
0.0
 20
0.0
 30
0.0
  9
$EXTMAX
 10
15.469438
 20
16.327913
 30
2.0
  9
$LIMMIN
 10
0.0
 20
0.0
  9
$LIMMAX
 10
17.0
 20
11.0
  9
$ORTHOMODE
 70
     0
  9
$REGENMODE
 70
     1
  9
$FILLMODE
 70
     1
  9
$QTEXTMODE
 70
     0
  9
$MIRRTEXT
 70
     1
  9
$LTSCALE
 40
1.0
  9
$ATTMODE
 70
     1
  9
$TEXTSIZE
 40
0.2
  9
$TRACEWID
 40
0.05
  9
$TEXTSTYLE
  7
Standard
  9
$CLAYER
  8
0
  9
$CELTYPE
  6
ByLayer
  9
$CECOLOR
 62
   256
  9
$CELTSCALE
 40
1.0
  9
$DISPSILH
 70
     0
  9
$DIMSCALE
 40
1.0
  9
$DIMASZ
 40
0.18
  9
$DIMEXO
 40
0.0625
  9
$DIMDLI
 40
0.38
  9
$DIMRND
 40
0.0
  9
$DIMDLE
 40
0.0
  9
$DIMEXE
 40
0.18
  9
$DIMTP
 40
0.0
  9
$DIMTM
 40
0.0
  9
$DIMTXT
 40
0.18
  9
$DIMCEN
 40
0.09
  9
$DIMTSZ
 40
0.0
  9
$DIMTOL
 70
     0
  9
$DIMLIM
 70
     0
  9
$DIMTIH
 70
     1
  9
$DIMTOH
 70
     1
  9
$DIMSE1
 70
     0
  9
$DIMSE2
 70
     0
  9
$DIMTAD
 70
     0
  9
$DIMZIN
 70
     0
  9
$DIMBLK
  1

  9
$DIMASO
 70
     1
  9
$DIMSHO
 70
     1
  9
$DIMPOST
  1

  9
$DIMAPOST
  1

  9
$DIMALT
 70
     0
  9
$DIMALTD
 70
     2
  9
$DIMALTF
 40
25.4
  9
$DIMLFAC
 40
1.0
  9
$DIMTOFL
 70
     0
  9
$DIMTVP
 40
0.0
  9
$DIMTIX
 70
     0
  9
$DIMSOXD
 70
     0
  9
$DIMSAH
 70
     0
  9
$DIMBLK1
  1

  9
$DIMBLK2
  1

  9
$DIMSTYLE
  2

  9
$DIMCLRD
 70
     0
  9
$DIMCLRE
 70
     0
  9
$DIMCLRT
 70
     0
  9
$DIMTFAC
 40
1.0
  9
$DIMGAP
 40
0.09
  9
$DIMJUST
 70
     0
  9
$DIMSD1
 70
     0
  9
$DIMSD2
 70
     0
  9
$DIMTOLJ
 70
     1
  9
$DIMTZIN
 70
     0
  9
$DIMALTZ
 70
     0
  9
$DIMALTTZ
 70
     0
  9
$DIMUPT
 70
     0
  9
$DIMDEC
 70
     4
  9
$DIMTDEC
 70
     4
  9
$DIMALTU
 70
     2
  9
$DIMALTTD
 70
     2
  9
$DIMTXSTY
  7
Standard
  9
$DIMAUNIT
 70
     0
  9
$DIMADEC
 70
     0
  9
$DIMALTRND
 40
0.0
  9
$DIMAZIN
 70
     0
  9
$DIMDSEP
 70
    46
  9
$DIMATFIT
 70
     0
  9
$DIMFRAC
 70
     0
  9
$DIMLDRBLK
  1

  9
$DIMLUNIT
 70
     2
  9
$DIMLWD
 70
    -2
  9
$DIMLWE
 70
    -2
  9
$DIMTMOVE
 70
     0
  9
$LUNITS
 70
     2
  9
$LUPREC
 70
     4
  9
$SKETCHINC
 40
0.1
  9
$FILLETRAD
 40
0.125
  9
$AUNITS
 70
     0
  9
$AUPREC
 70
     0
  9
$MENU
  1
.
  9
$ELEVATION
 40
0.0
  9
$PELEVATION
 40
0.0
  9
$THICKNESS
 40
0.0
  9
$LIMCHECK
 70
     0
  9
$CHAMFERA
 40
0.125
  9
$CHAMFERB
 40
0.125
  9
$CHAMFERC
 40
0.0
  9
$CHAMFERD
 40
0.0
  9
$SKPOLY
 70
     0
  9
$TDCREATE
 40
0.000000000
  9
$TDUCREATE
 40
0.000000000
  9
$TDUPDATE
 40
0.000000000
  9
$TDUUPDATE
 40
0.000000000
  9
$TDINDWG
 40
0.0000000000
  9
$TDUSRTIMER
 40
0.0000000000
  9
$USRTIMER
 70
     1
  9
$ANGBASE
 50
0.0
  9
$ANGDIR
 70
     0
  9
$PDMODE
 70
     0
  9
$PDSIZE
 40
0.0
  9
$PLINEWID
 40
0.0
  9
$SPLFRAME
 70
     0
  9
$SPLINETYPE
 70
     6
  9
$SPLINESEGS
 70
     8
  9
$HANDSEED
  5
22B
  9
$SURFTAB1
 70
     6
  9
$SURFTAB2
 70
     6
  9
$SURFTYPE
 70
     6
  9
$SURFU
 70
     6
  9
$SURFV
 70
     6
  9
$UCSBASE
  2

  9
$UCSNAME
  2

  9
$UCSORG
 10
0.0
 20
0.0
 30
0.0
  9
$UCSXDIR
 10
1.0
 20
0.0
 30
0.0
  9
$UCSYDIR
 10
0.0
 20
1.0
 30
0.0
  9
$UCSORTHOREF
  2

  9
$UCSORTHOVIEW
 70
     1
  9
$UCSORGTOP
 10
0.0
 20
0.0
 30
0.0
  9
$UCSORGBOTTOM
 10
0.0
 20
0.0
 30
0.0
  9
$UCSORGLEFT
 10
0.0
 20
0.0
 30
0.0
  9
$UCSORGRIGHT
 10
0.0
 20
0.0
 30
0.0
  9
$UCSORGFRONT
 10
0.0
 20
0.0
 30
0.0
  9
$UCSORGBACK
 10
0.0
 20
0.0
 30
0.0
  9
$PUCSBASE
  2

  9
$PUCSNAME
  2

  9
$PUCSORG
 10
0.0
 20
0.0
 30
0.0
  9
$PUCSXDIR
 10
1.0
 20
0.0
 30
0.0
  9
$PUCSYDIR
 10
0.0
 20
1.0
 30
0.0
  9
$PUCSORTHOREF
  2

  9
$PUCSORTHOVIEW
 70
     0
  9
$PUCSORGTOP
 10
0.0
 20
0.0
 30
0.0
  9
$PUCSORGBOTTOM
 10
0.0
 20
0.0
 30
0.0
  9
$PUCSORGLEFT
 10
0.0
 20
0.0
 30
0.0
  9
$PUCSORGRIGHT
 10
0.0
 20
0.0
 30
0.0
  9
$PUCSORGFRONT
 10
0.0
 20
0.0
 30
0.0
  9
$PUCSORGBACK
 10
0.0
 20
0.0
 30
0.0
  9
$USERI1
 70
     0
  9
$USERI2
 70
     0
  9
$USERI3
 70
     0
  9
$USERI4
 70
     0
  9
$USERI5
 70
     0
  9
$USERR1
 40
0.0
  9
$USERR2
 40
0.0
  9
$USERR3
 40
0.0
  9
$USERR4
 40
0.0
  9
$USERR5
 40
0.0
  9
$WORLDVIEW
 70
     1
  9
$SHADEDGE
 70
     3
  9
$SHADEDIF
 70
    70
  9
$TILEMODE
 70
     1
  9
$MAXACTVP
 70
    48
  9
$PINSBASE
 10
0.0
 20
0.0
 30
0.0
  9
$PLIMCHECK
 70
     0
  9
$PEXTMIN
 10
0.0
 20
0.0
 30
0.0
  9
$PEXTMAX
 10
15.469438
 20
16.327913
 30
2.0
  9
$PLIMMIN
 10
0.0
 20
0.0
  9
$PLIMMAX
 10
12.0
 20
9.0
  9
$UNITMODE
 70
     0
  9
$VISRETAIN
 70
     0
  9
$PLINEGEN
 70
     0
  9
$PSLTSCALE
 70
     1
  9
$TREEDEPTH
 70
  3020
  9
$CMLSTYLE
  2
Standard
  9
$CMLJUST
 70
     0
  9
$CMLSCALE
 40
1.0
  9
$PROXYGRAPHICS
 70
     1
  9
$MEASUREMENT
 70
     0
  9
$CELWEIGHT
370
    -1
  9
$ENDCAPS
280
     0
  9
$JOINSTYLE
280
     0
  9
$LWDISPLAY
290
     0
  9
$INSUNITS
 70
     0
  9
$HYPERLINKBASE
  1

  9
$STYLESHEET
  1

  9
$XEDIT
290
     1
  9
$CEPSNTYPE
380
     0
  9
$PSTYLEMODE
290
     0
  9
$FINGERPRINTGUID
  2

  9
$VERSIONGUID
  2

  9
$EXTNAMES
290
     0
  9
$PSVPSCALE
 40
0.0
  0
ENDSEC
  0
SECTION
  2
CLASSES
  0
CLASS
  1
LWPOLYLINE
  2
AcDbPolyline
  3
AutoCAD 2000
 90
        0
280
     0
281
     1
  0
CLASS
  1
IMAGE
  2
AcDbRasterImage
  3
ISM
 90
      127
280
     0
281
     1
  0
CLASS
  1
OLE2FRAME
  2
AcDbOle2Frame
  3
AutoCAD 2000
 90
        0
280
     0
281
     1
  0
CLASS
  1
HATCH
  2
AcDbHatch
  3
AutoCAD 2000
 90
        0
280
     0
281
     1
  0
CLASS
  1
DICTIONARYVAR
  2
AcDbDictionaryVar
  3
AutoCAD 2000
 90
        0
280
     0
281
     0
  0
CLASS
  1
RASTERVARIABLES
  2
AcDbRasterVariables
  3
ISM
 90
        0
280
     0
281
     0
  0
CLASS
  1
IMAGEDEF
  2
AcDbRasterImageDef
  3
ISM
 90
        0
280
     0
281
     0
  0
CLASS
  1
IMAGEDEF_REACTOR
  2
AcDbRasterImageDefReactor
  3
ISM
 90
        1
280
     0
281
     0
  0
CLASS
  1
IDBUFFER
  2
AcDbIdBuffer
  3
AutoCAD 2000
 90
        0
280
     0
281
     0
  0
CLASS
  1
SPATIAL_FILTER
  2
AcDbSpatialFilter
  3
AutoCAD 2000
 90
        0
280
     0
281
     0
  0
CLASS
  1
XRECORD
  2
AcDbXrecord
  3
AutoCAD 2000
 90
        0
280
     0
281
     0
  0
CLASS
  1
SORTENTSTABLE
  2
AcDbSortentsTable
  3
AutoCAD 2000
 90
        0
280
     0
281
     0
  0
CLASS
  1
LAYER_INDEX
  2
AcDbLayerIndex
  3
AutoCAD 2000
 90
        0
280
     0
281
     0
  0
CLASS
  1
SPATIAL_INDEX
  2
AcDbSpatialIndex
  3
AutoCAD 2000
 90
        0
280
     0
281
     0
  0
CLASS
  1
OBJECT_PTR
  2
CAseDLPNTableRecord
  3
"ASE-LPNTableRecord"
 90
        1
280
     0
281
     0
  0
CLASS
  1
LAYOUT
  2
AcDbLayout
  3
AutoCAD 2000
 90
        0
280
     0
281
     0
  0
CLASS
  1
PLOTSETTINGS
  2
AcDbPlotSettings
  3
AutoCAD 2000
 90
        0
280
     0
281
     0
  0
CLASS
  1
ACDBDICTIONARYWDFLT
  2
AcDbDictionaryWithDefault
  3
AutoCAD 2000
 90
        0
280
     0
281
     0
  0
CLASS
  1
ACDBPLACEHOLDER
  2
AcDbPlaceHolder
  3
AutoCAD 2000
 90
        0
280
     0
281
     0
  0
CLASS
  1
VBA_PROJECT
  2
AcDbVbaProject
  3
acadvba
 90
        0
280
     0
281
     0
  0
CLASS
  1
WIPEOUT
  2
AcDbWipeout
  3
WipeOut|AutoCAD Express Tool|expresstools@autodesk.com
 90
      127
280
     0
281
     1
  0
CLASS
  1
WIPEOUTVARIABLES
  2
AcDbWipeoutVariables
  3
WipeOut|AutoCAD Express Tool|expresstools@autodesk.com
 90
        0
280
     0
281
     0
  0
CLASS
  1
RTEXT
  2
RText
  3
RText|AutoCAD Express Tool|expresstools@autodesk.com
 90
        0
280
     0
281
     1
  0
CLASS
  1
ARCALIGNEDTEXT
  2
AcDbArcAlignedText
  3
ATEXT|AutoCAD Express Tool|expresstools@autodesk.com
 90
        0
280
     0
281
     1
  0
ENDSEC
  0
SECTION
  2
TABLES
  0
TABLE
  2
VPORT
  5
7
100
AcDbSymbolTable
 70
     1
  0
VPORT
  5
15
100
AcDbSymbolTableRecord
100
AcDbViewportTableRecord
  2
*ACTIVE
 70
     0
 10
0.0
 20
0.0
 11
1.0
 21
1.0
 12
6.591288
 22
4.579184
 13
0.0
 23
0.0
 14
1.0
 24
1.0
 15
0.0
 25
0.0
 16
0.0
 26
0.0
 36
1.0
 17
0.0
 27
0.0
 37
0.0
 40
9.158369
 41
0.688564
 42
50.0
 43
0.0
 44
0.0
 50
0.0
 51
0.0
 71
     0
 72
   100
 73
     1
 74
     1
 75
     0
 76
     0
 77
     0
 78
     0
281
     0
 65
     0
110
0.0
120
0.0
130
0.0
111
1.0
121
0.0
131
0.0
112
0.0
122
1.0
132
0.0
345
0
346
0
 79
     0
146
0.0
  0
ENDTAB
  0
TABLE
  2
LTYPE
  5
4
100
AcDbSymbolTable
 70
     3
  0
LTYPE
  5
11
100
AcDbSymbolTableRecord
100
AcDbLinetypeTableRecord
  2
ByBlock
 70
    64
  3

 72
    65
 73
     0
 40
0.0
  0
LTYPE
  5
12
100
AcDbSymbolTableRecord
100
AcDbLinetypeTableRecord
  2
ByLayer
 70
    64
  3

 72
    65
 73
     0
 40
0.0
  0
LTYPE
  5
13
100
AcDbSymbolTableRecord
100
AcDbLinetypeTableRecord
  2
Continuous
 70
    64
  3
Solid line
 72
    65
 73
     0
 40
0.0
  0
ENDTAB
  0
TABLE
  2
LAYER
  5
2
100
AcDbSymbolTable
 70
     1
  0
LAYER
  5
14
100
AcDbSymbolTableRecord
100
AcDbLayerTableRecord
  2
0
 70
     0
 62
     7
  6
Continuous
290
     1
370
    -3
390
1D
  0
ENDTAB
  0
TABLE
  2
STYLE
  5
3
100
AcDbSymbolTable
 70
     1
  0
STYLE
  5
17
100
AcDbSymbolTableRecord
100
AcDbTextStyleTableRecord
  2
Standard
 70
     0
 40
0.0
 41
1.0
 50
0.0
 71
     0
 42
0.0
  3
txt
  4

  0
ENDTAB
  0
TABLE
  2
VIEW
  5
5
100
AcDbSymbolTable
 70
     0
  0
ENDTAB
  0
TABLE
  2
UCS
  5
6
100
AcDbSymbolTable
 70
     0
  0
ENDTAB
  0
TABLE
  2
APPID
  5
8
100
AcDbSymbolTable
 70
     1
  0
APPID
  5
16
100
AcDbSymbolTableRecord
100
AcDbRegAppTableRecord
  2
ACAD
 70
     0
  0
ENDTAB
  0
TABLE
  2
DIMSTYLE
  5
9
100
AcDbSymbolTable
 70
     1
100
AcDbDimStyleTable
 71
     0
  0
DIMSTYLE
105
18
100
AcDbSymbolTableRecord
100
AcDbDimStyleTableRecord
  2
Standard
 70
     0
  3

  4

 40
1.0
 41
0.18
 42
0.0625
 43
0.38
 44
0.18
 45
0.0
 46
0.0
 47
0.0
 48
0.0
 71
     0
 72
     0
 73
     1
 74
     1
 75
     0
 76
     0
 77
     0
 78
     0
 79
     0
140
0.18
141
0.09
142
0.0
143
25.4
144
1.0
145
0.0
146
1.0
147
0.09
148
0.0
170
     0
171
     2
172
     0
173
     0
174
     0
175
     0
176
     0
177
     0
178
     0
179
     0
271
     4
272
     4
273
     2
274
     2
275
     0
276
     0
277
     2
278
    46
279
     0
280
     0
281
     0
282
     0
283
     1
284
     0
285
     0
286
     0
288
     0
289
     3
340
17
341
0
342
0
343
0
344
0
371
    -2
372
    -2
  0
ENDTAB
  0
TABLE
  2
BLOCK_RECORD
  5
1
100
AcDbSymbolTable
 70
     0
  0
BLOCK_RECORD
  5
A
100
AcDbSymbolTableRecord
100
AcDbBlockTableRecord
  2
*MODEL_SPACE
340
20
  0
BLOCK_RECORD
  5
B
100
AcDbSymbolTableRecord
100
AcDbBlockTableRecord
  2
*PAPER_SPACE
340
21
  0
ENDTAB
  0
ENDSEC
  0
SECTION
  2
BLOCKS
  0
BLOCK
  5
D
100
AcDbEntity
  8
0
390
0
100
AcDbBlockBegin
  2
*MODEL_SPACE
 70
     0
 10
0.0
 20
0.0
 30
0.0
  3
*MODEL_SPACE
  1

  0
ENDBLK
  5
E
100
AcDbEntity
  8
0
390
0
100
AcDbBlockEnd
  0
BLOCK
  5
F
100
AcDbEntity
 67
     1
  8
0
390
0
100
AcDbBlockBegin
  2
*PAPER_SPACE
 70
     0
 10
0.0
 20
0.0
 30
0.0
  3
*PAPER_SPACE
  1

  0
ENDBLK
  5
10
100
AcDbEntity
 67
     1
  8
0
390
0
100
AcDbBlockEnd
  0
ENDSEC
  0
SECTION
  2
ENTITIES
  0
VIEWPORT
  5
22A
100
AcDbEntity
 67
     1
  8
0
370
     0
390
0
 62
     0
 48
0.0
100
AcDbViewport
 10
0.0
 20
0.0
 30
0.0
 40
1000.0
 41
1000.0
 68
     1
 69
     1
 12
0.0
 22
0.0
 13
0.0
 23
0.0
 14
1.0
 24
1.0
 15
1.0
 25
1.0
 16
0.0
 26
0.0
 36
1.0
 17
0.0
 27
0.0
 37
0.0
 42
50.0
 43
0.0
 44
0.0
 45
1000.0
 50
0.0
 51
0.0
 72
   100
 90
        0
340
0
  1

281
     0
 71
     0
 74
     1
110
0.0
120
0.0
130
0.0
111
1.0
121
0.0
131
0.0
112
0.0
122
1.0
132
0.0
345
0
346
0
 79
     0
146
0.0
  0
POINT
  5
24
100
AcDbEntity
  8
0
370
     5
390
0
 62
     7
 48
0.03937
100
AcDbPoint
 10
6.869437
 20
-5.580069
 30
0.0
210
0.0
220
0.0
230
1.0
  0
POINT
  5
25
100
AcDbEntity
  8
0
370
     5
390
0
 62
     7
 48
0.03937
100
AcDbPoint
 10
-2.589421
 20
-5.576955
 30
0.0
210
0.0
220
0.0
230
1.0
  0
POINT
  5
26
100
AcDbEntity
  8
0
370
     5
390
0
 62
     7
 48
0.03937
100
AcDbPoint
 10
-2.730563
 20
14.549786
 30
0.0
210
0.0
220
0.0
230
1.0
  0
LINE
  5
27
100
AcDbEntity
  8
0
370
    35
390
0
 62
     7
 48
0.03937
100
AcDbLine
 10
12.469437
 20
-5.650215
 30
0.0
 11
15.469437
 21
-5.650215
 31
0.0
210
0.0
220
0.0
230
1.0
  0
LINE
  5
28
100
AcDbEntity
  8
0
370
    35
390
0
 62
     7
 48
0.011406
100
AcDbLine
 10
12.469437
 20
16.327914
 30
0.0
 11
12.469437
 21
15.871659
 31
0.0
210
0.0
220
0.0
230
1.0
  0
LINE
  5
29
100
AcDbEntity
  8
0
370
    35
390
0
 62
     7
 48
0.011406
100
AcDbLine
 10
12.469437
 20
15.827913
 30
0.0
 11
12.469437
 21
15.371658
 31
0.0
210
0.0
220
0.0
230
1.0
  0
LINE
  5
2A
100
AcDbEntity
  8
0
370
    35
390
0
 62
     7
 48
0.011406
100
AcDbLine
 10
12.469437
 20
15.327913
 30
0.0
 11
12.469437
 21
14.871658
 31
0.0
210
0.0
220
0.0
230
1.0
  0
LINE
  5
2B
100
AcDbEntity
  8
0
370
    35
390
0
 62
     7
 48
0.011406
100
AcDbLine
 10
12.469437
 20
14.827915
 30
0.0
 11
12.469437
 21
14.371657
 31
0.0
210
0.0
220
0.0
230
1.0
  0
LINE
  5
2C
100
AcDbEntity
  8
0
370
    35
390
0
 62
     7
 48
0.011406
100
AcDbLine
 10
12.469437
 20
14.327914
 30
0.0
 11
12.469437
 21
13.871657
 31
0.0
210
0.0
220
0.0
230
1.0
  0
LINE
  5
2D
100
AcDbEntity
  8
0
370
    35
390
0
 62
     7
 48
0.011406
100
AcDbLine
 10
12.469437
 20
13.827914
 30
0.0
 11
12.469437
 21
13.371657
 31
0.0
210
0.0
220
0.0
230
1.0
  0
LINE
  5
2E
100
AcDbEntity
  8
0
370
    35
390
0
 62
     7
 48
0.011406
100
AcDbLine
 10
12.469437
 20
13.327913
 30
0.0
 11
12.469437
 21
12.871658
 31
0.0
210
0.0
220
0.0
230
1.0
  0
LINE
  5
2F
100
AcDbEntity
  8
0
370
    35
390
0
 62
     7
 48
0.011406
100
AcDbLine
 10
12.469437
 20
12.827913
 30
0.0
 11
12.469437
 21
12.371658
 31
0.0
210
0.0
220
0.0
230
1.0
  0
LINE
  5
30
100
AcDbEntity
  8
0
370
    35
390
0
 62
     7
 48
0.011406
100
AcDbLine
 10
12.469437
 20
12.327912
 30
0.0
 11
12.469437
 21
11.871657
 31
0.0
210
0.0
220
0.0
230
1.0
  0
LINE
  5
31
100
AcDbEntity
  8
0
370
    35
390
0
 62
     7
 48
0.011406
100
AcDbLine
 10
12.469437
 20
11.827914
 30
0.0
 11
12.469437
 21
11.371657
 31
0.0
210
0.0
220
0.0
230
1.0
  0
LINE
  5
32
100
AcDbEntity
  8
0
370
    35
390
0
 62
     7
 48
0.011406
100
AcDbLine
 10
12.469437
 20
11.327914
 30
0.0
 11
12.469437
 21
10.871657
 31
0.0
210
0.0
220
0.0
230
1.0
  0
LINE
  5
33
100
AcDbEntity
  8
0
370
    35
390
0
 62
     7
 48
0.011406
100
AcDbLine
 10
12.469437
 20
10.827913
 30
0.0
 11
12.469437
 21
10.371658
 31
0.0
210
0.0
220
0.0
230
1.0
  0
LINE
  5
34
100
AcDbEntity
  8
0
370
    35
390
0
 62
     7
 48
0.011406
100
AcDbLine
 10
12.469437
 20
10.327913
 30
0.0
 11
12.469437
 21
9.871657
 31
0.0
210
0.0
220
0.0
230
1.0
  0
LINE
  5
35
100
AcDbEntity
  8
0
370
    35
390
0
 62
     7
 48
0.011406
100
AcDbLine
 10
12.469437
 20
9.827913
 30
0.0
 11
12.469437
 21
9.371657
 31
0.0
210
0.0
220
0.0
230
1.0
  0
LINE
  5
36
100
AcDbEntity
  8
0
370
    35
390
0
 62
     7
 48
0.011406
100
AcDbLine
 10
12.469437
 20
9.327913
 30
0.0
 11
12.469437
 21
8.871658
 31
0.0
210
0.0
220
0.0
230
1.0
  0
LINE
  5
37
100
AcDbEntity
  8
0
370
    35
390
0
 62
     7
 48
0.011406
100
AcDbLine
 10
12.469437
 20
8.827913
 30
0.0
 11
12.469437
 21
8.371657
 31
0.0
210
0.0
220
0.0
230
1.0
  0
LINE
  5
38
100
AcDbEntity
  8
0
370
    35
390
0
 62
     7
 48
0.011406
100
AcDbLine
 10
12.469437
 20
8.327912
 30
0.0
 11
12.469437
 21
7.871658
 31
0.0
210
0.0
220
0.0
230
1.0
  0
LINE
  5
39
100
AcDbEntity
  8
0
370
    35
390
0
 62
     7
 48
0.011406
100
AcDbLine
 10
12.469437
 20
7.827913
 30
0.0
 11
12.469437
 21
7.371657
 31
0.0
210
0.0
220
0.0
230
1.0
  0
LINE
  5
3A
100
AcDbEntity
  8
0
370
    35
390
0
 62
     7
 48
0.011406
100
AcDbLine
 10
12.469437
 20
7.327913
 30
0.0
 11
12.469437
 21
6.871657
 31
0.0
210
0.0
220
0.0
230
1.0
  0
LINE
  5
3B
100
AcDbEntity
  8
0
370
    35
390
0
 62
     7
 48
0.011406
100
AcDbLine
 10
12.469437
 20
6.827913
 30
0.0
 11
12.469437
 21
6.371658
 31
0.0
210
0.0
220
0.0
230
1.0
  0
LINE
  5
3C
100
AcDbEntity
  8
0
370
    35
390
0
 62
     7
 48
0.011406
100
AcDbLine
 10
12.469437
 20
6.327913
 30
0.0
 11
12.469437
 21
5.871657
 31
0.0
210
0.0
220
0.0
230
1.0
  0
LINE
  5
3D
100
AcDbEntity
  8
0
370
    35
390
0
 62
     7
 48
0.011406
100
AcDbLine
 10
12.469437
 20
5.827912
 30
0.0
 11
12.469437
 21
5.371658
 31
0.0
210
0.0
220
0.0
230
1.0
  0
LINE
  5
3E
100
AcDbEntity
  8
0
370
    35
390
0
 62
     7
 48
0.011406
100
AcDbLine
 10
12.469437
 20
5.327913
 30
0.0
 11
12.469437
 21
4.871657
 31
0.0
210
0.0
220
0.0
230
1.0
  0
LINE
  5
3F
100
AcDbEntity
  8
0
370
    35
390
0
 62
     7
 48
0.011406
100
AcDbLine
 10
12.469437
 20
4.827913
 30
0.0
 11
12.469437
 21
4.371657
 31
0.0
210
0.0
220
0.0
230
1.0
  0
LINE
  5
40
100
AcDbEntity
  8
0
370
    35
390
0
 62
     7
 48
0.011406
100
AcDbLine
 10
12.469437
 20
4.327913
 30
0.0
 11
12.469437
 21
3.871658
 31
0.0
210
0.0
220
0.0
230
1.0
  0
LINE
  5
41
100
AcDbEntity
  8
0
370
    35
390
0
 62
     7
 48
0.011406
100
AcDbLine
 10
12.469437
 20
3.827913
 30
0.0
 11
12.469437
 21
3.371657
 31
0.0
210
0.0
220
0.0
230
1.0
  0
LINE
  5
42
100
AcDbEntity
  8
0
370
    35
390
0
 62
     7
 48
0.011406
100
AcDbLine
 10
12.469437
 20
3.327913
 30
0.0
 11
12.469437
 21
2.871657
 31
0.0
210
0.0
220
0.0
230
1.0
  0
LINE
  5
43
100
AcDbEntity
  8
0
370
    35
390
0
 62
     7
 48
0.011406
100
AcDbLine
 10
12.469437
 20
2.827913
 30
0.0
 11
12.469437
 21
2.371657
 31
0.0
210
0.0
220
0.0
230
1.0
  0
LINE
  5
44
100
AcDbEntity
  8
0
370
    35
390
0
 62
     7
 48
0.011406
100
AcDbLine
 10
12.469437
 20
2.327913
 30
0.0
 11
12.469437
 21
1.871657
 31
0.0
210
0.0
220
0.0
230
1.0
  0
LINE
  5
45
100
AcDbEntity
  8
0
370
    35
390
0
 62
     7
 48
0.011406
100
AcDbLine
 10
12.469437
 20
1.827913
 30
0.0
 11
12.469437
 21
1.371658
 31
0.0
210
0.0
220
0.0
230
1.0
  0
LINE
  5
46
100
AcDbEntity
  8
0
370
    35
390
0
 62
     7
 48
0.011406
100
AcDbLine
 10
12.469437
 20
1.327913
 30
0.0
 11
12.469437
 21
0.871657
 31
0.0
210
0.0
220
0.0
230
1.0
  0
LINE
  5
47
100
AcDbEntity
  8
0
370
    35
390
0
 62
     7
 48
0.011406
100
AcDbLine
 10
12.469437
 20
0.827913
 30
0.0
 11
12.469437
 21
0.371657
 31
0.0
210
0.0
220
0.0
230
1.0
  0
LINE
  5
48
100
AcDbEntity
  8
0
370
    35
390
0
 62
     7
 48
0.011406
100
AcDbLine
 10
12.469437
 20
0.327913
 30
0.0
 11
12.469437
 21
-0.128343
 31
0.0
210
0.0
220
0.0
230
1.0
  0
LINE
  5
49
100
AcDbEntity
  8
0
370
    35
390
0
 62
     7
 48
0.011406
100
AcDbLine
 10
12.469437
 20
-0.172087
 30
0.0
 11
12.469437
 21
-0.628343
 31
0.0
210
0.0
220
0.0
230
1.0
  0
LINE
  5
4A
100
AcDbEntity
  8
0
370
    35
390
0
 62
     7
 48
0.011406
100
AcDbLine
 10
12.469437
 20
-0.672087
 30
0.0
 11
12.469437
 21
-1.128343
 31
0.0
210
0.0
220
0.0
230
1.0
  0
LINE
  5
4B
100
AcDbEntity
  8
0
370
    35
390
0
 62
     7
 48
0.011406
100
AcDbLine
 10
12.469437
 20
-1.172087
 30
0.0
 11
12.469437
 21
-1.628343
 31
0.0
210
0.0
220
0.0
230
1.0
  0
LINE
  5
4C
100
AcDbEntity
  8
0
370
    35
390
0
 62
     7
 48
0.011406
100
AcDbLine
 10
12.469437
 20
-1.672087
 30
0.0
 11
12.469437
 21
-2.128343
 31
0.0
210
0.0
220
0.0
230
1.0
  0
LINE
  5
4D
100
AcDbEntity
  8
0
370
    35
390
0
 62
     7
 48
0.011406
100
AcDbLine
 10
12.469437
 20
-2.172087
 30
0.0
 11
12.469437
 21
-2.628343
 31
0.0
210
0.0
220
0.0
230
1.0
  0
LINE
  5
4E
100
AcDbEntity
  8
0
370
    35
390
0
 62
     7
 48
0.011406
100
AcDbLine
 10
12.469437
 20
-2.672087
 30
0.0
 11
12.469437
 21
-3.128343
 31
0.0
210
0.0
220
0.0
230
1.0
  0
LINE
  5
4F
100
AcDbEntity
  8
0
370
    35
390
0
 62
     7
 48
0.011406
100
AcDbLine
 10
12.469437
 20
-3.172087
 30
0.0
 11
12.469437
 21
-3.628343
 31
0.0
210
0.0
220
0.0
230
1.0
  0
LINE
  5
50
100
AcDbEntity
  8
0
370
    35
390
0
 62
     7
 48
0.011406
100
AcDbLine
 10
12.469437
 20
-3.672087
 30
0.0
 11
12.469437
 21
-4.128343
 31
0.0
210
0.0
220
0.0
230
1.0
  0
LINE
  5
51
100
AcDbEntity
  8
0
370
    35
390
0
 62
     7
 48
0.011406
100
AcDbLine
 10
12.469437
 20
-4.172087
 30
0.0
 11
12.469437
 21
-4.628343
 31
0.0
210
0.0
220
0.0
230
1.0
  0
LINE
  5
52
100
AcDbEntity
  8
0
370
    35
390
0
 62
     7
 48
0.011406
100
AcDbLine
 10
12.469437
 20
-4.672087
 30
0.0
 11
12.469437
 21
-5.128343
 31
0.0
210
0.0
220
0.0
230
1.0
  0
LINE
  5
53
100
AcDbEntity
  8
0
370
    35
390
0
 62
     7
 48
0.011953
100
AcDbLine
 10
12.469437
 20
-5.172087
 30
0.0
 11
12.469437
 21
-5.650215
 31
0.0
210
0.0
220
0.0
230
1.0
  0
LINE
  5
54
100
AcDbEntity
  8
0
370
    35
390
0
 62
     7
 48
0.011953
100
AcDbLine
 10
15.469437
 20
-5.650215
 30
0.0
 11
15.469437
 21
-5.172087
 31
0.0
210
0.0
220
0.0
230
1.0
  0
LINE
  5
55
100
AcDbEntity
  8
0
370
    35
390
0
 62
     7
 48
0.011406
100
AcDbLine
 10
15.469437
 20
-5.128343
 30
0.0
 11
15.469437
 21
-4.672087
 31
0.0
210
0.0
220
0.0
230
1.0
  0
LINE
  5
56
100
AcDbEntity
  8
0
370
    35
390
0
 62
     7
 48
0.011406
100
AcDbLine
 10
15.469437
 20
-4.628343
 30
0.0
 11
15.469437
 21
-4.172087
 31
0.0
210
0.0
220
0.0
230
1.0
  0
LINE
  5
57
100
AcDbEntity
  8
0
370
    35
390
0
 62
     7
 48
0.011406
100
AcDbLine
 10
15.469437
 20
-4.128343
 30
0.0
 11
15.469437
 21
-3.672087
 31
0.0
210
0.0
220
0.0
230
1.0
  0
LINE
  5
58
100
AcDbEntity
  8
0
370
    35
390
0
 62
     7
 48
0.011406
100
AcDbLine
 10
15.469437
 20
-3.628343
 30
0.0
 11
15.469437
 21
-3.172087
 31
0.0
210
0.0
220
0.0
230
1.0
  0
LINE
  5
59
100
AcDbEntity
  8
0
370
    35
390
0
 62
     7
 48
0.011406
100
AcDbLine
 10
15.469437
 20
-3.128343
 30
0.0
 11
15.469437
 21
-2.672087
 31
0.0
210
0.0
220
0.0
230
1.0
  0
LINE
  5
5A
100
AcDbEntity
  8
0
370
    35
390
0
 62
     7
 48
0.011406
100
AcDbLine
 10
15.469437
 20
-2.628343
 30
0.0
 11
15.469437
 21
-2.172087
 31
0.0
210
0.0
220
0.0
230
1.0
  0
LINE
  5
5B
100
AcDbEntity
  8
0
370
    35
390
0
 62
     7
 48
0.011406
100
AcDbLine
 10
15.469437
 20
-2.128343
 30
0.0
 11
15.469437
 21
-1.672087
 31
0.0
210
0.0
220
0.0
230
1.0
  0
LINE
  5
5C
100
AcDbEntity
  8
0
370
    35
390
0
 62
     7
 48
0.011406
100
AcDbLine
 10
15.469437
 20
-1.628343
 30
0.0
 11
15.469437
 21
-1.172087
 31
0.0
210
0.0
220
0.0
230
1.0
  0
LINE
  5
5D
100
AcDbEntity
  8
0
370
    35
390
0
 62
     7
 48
0.011406
100
AcDbLine
 10
15.469437
 20
-1.128343
 30
0.0
 11
15.469437
 21
-0.672087
 31
0.0
210
0.0
220
0.0
230
1.0
  0
LINE
  5
5E
100
AcDbEntity
  8
0
370
    35
390
0
 62
     7
 48
0.011406
100
AcDbLine
 10
15.469437
 20
-0.628343
 30
0.0
 11
15.469437
 21
-0.172087
 31
0.0
210
0.0
220
0.0
230
1.0
  0
LINE
  5
5F
100
AcDbEntity
  8
0
370
    35
390
0
 62
     7
 48
0.011406
100
AcDbLine
 10
15.469437
 20
-0.128343
 30
0.0
 11
15.469437
 21
0.327913
 31
0.0
210
0.0
220
0.0
230
1.0
  0
LINE
  5
60
100
AcDbEntity
  8
0
370
    35
390
0
 62
     7
 48
0.011406
100
AcDbLine
 10
15.469437
 20
0.371657
 30
0.0
 11
15.469437
 21
0.827913
 31
0.0
210
0.0
220
0.0
230
1.0
  0
LINE
  5
61
100
AcDbEntity
  8
0
370
    35
390
0
 62
     7
 48
0.011406
100
AcDbLine
 10
15.469437
 20
0.871657
 30
0.0
 11
15.469437
 21
1.327913
 31
0.0
210
0.0
220
0.0
230
1.0
  0
LINE
  5
62
100
AcDbEntity
  8
0
370
    35
390
0
 62
     7
 48
0.011406
100
AcDbLine
 10
15.469437
 20
1.371658
 30
0.0
 11
15.469437
 21
1.827913
 31
0.0
210
0.0
220
0.0
230
1.0
  0
LINE
  5
63
100
AcDbEntity
  8
0
370
    35
390
0
 62
     7
 48
0.011406
100
AcDbLine
 10
15.469437
 20
1.871657
 30
0.0
 11
15.469437
 21
2.327913
 31
0.0
210
0.0
220
0.0
230
1.0
  0
LINE
  5
64
100
AcDbEntity
  8
0
370
    35
390
0
 62
     7
 48
0.011406
100
AcDbLine
 10
15.469437
 20
2.371657
 30
0.0
 11
15.469437
 21
2.827913
 31
0.0
210
0.0
220
0.0
230
1.0
  0
LINE
  5
65
100
AcDbEntity
  8
0
370
    35
390
0
 62
     7
 48
0.011406
100
AcDbLine
 10
15.469437
 20
2.871657
 30
0.0
 11
15.469437
 21
3.327913
 31
0.0
210
0.0
220
0.0
230
1.0
  0
LINE
  5
66
100
AcDbEntity
  8
0
370
    35
390
0
 62
     7
 48
0.011406
100
AcDbLine
 10
15.469437
 20
3.371657
 30
0.0
 11
15.469437
 21
3.827913
 31
0.0
210
0.0
220
0.0
230
1.0
  0
LINE
  5
67
100
AcDbEntity
  8
0
370
    35
390
0
 62
     7
 48
0.011406
100
AcDbLine
 10
15.469437
 20
3.871658
 30
0.0
 11
15.469437
 21
4.327913
 31
0.0
210
0.0
220
0.0
230
1.0
  0
LINE
  5
68
100
AcDbEntity
  8
0
370
    35
390
0
 62
     7
 48
0.011406
100
AcDbLine
 10
15.469437
 20
4.371657
 30
0.0
 11
15.469437
 21
4.827913
 31
0.0
210
0.0
220
0.0
230
1.0
  0
LINE
  5
69
100
AcDbEntity
  8
0
370
    35
390
0
 62
     7
 48
0.011406
100
AcDbLine
 10
15.469437
 20
4.871657
 30
0.0
 11
15.469437
 21
5.327913
 31
0.0
210
0.0
220
0.0
230
1.0
  0
LINE
  5
6A
100
AcDbEntity
  8
0
370
    35
390
0
 62
     7
 48
0.011406
100
AcDbLine
 10
15.469437
 20
5.371658
 30
0.0
 11
15.469437
 21
5.827912
 31
0.0
210
0.0
220
0.0
230
1.0
  0
LINE
  5
6B
100
AcDbEntity
  8
0
370
    35
390
0
 62
     7
 48
0.011406
100
AcDbLine
 10
15.469437
 20
5.871657
 30
0.0
 11
15.469437
 21
6.327913
 31
0.0
210
0.0
220
0.0
230
1.0
  0
LINE
  5
6C
100
AcDbEntity
  8
0
370
    35
390
0
 62
     7
 48
0.011406
100
AcDbLine
 10
15.469437
 20
6.371658
 30
0.0
 11
15.469437
 21
6.827913
 31
0.0
210
0.0
220
0.0
230
1.0
  0
LINE
  5
6D
100
AcDbEntity
  8
0
370
    35
390
0
 62
     7
 48
0.011406
100
AcDbLine
 10
15.469437
 20
6.871657
 30
0.0
 11
15.469437
 21
7.327913
 31
0.0
210
0.0
220
0.0
230
1.0
  0
LINE
  5
6E
100
AcDbEntity
  8
0
370
    35
390
0
 62
     7
 48
0.011406
100
AcDbLine
 10
15.469437
 20
7.371657
 30
0.0
 11
15.469437
 21
7.827913
 31
0.0
210
0.0
220
0.0
230
1.0
  0
LINE
  5
6F
100
AcDbEntity
  8
0
370
    35
390
0
 62
     7
 48
0.011406
100
AcDbLine
 10
15.469437
 20
7.871658
 30
0.0
 11
15.469437
 21
8.327912
 31
0.0
210
0.0
220
0.0
230
1.0
  0
LINE
  5
70
100
AcDbEntity
  8
0
370
    35
390
0
 62
     7
 48
0.011406
100
AcDbLine
 10
15.469437
 20
8.371657
 30
0.0
 11
15.469437
 21
8.827913
 31
0.0
210
0.0
220
0.0
230
1.0
  0
LINE
  5
71
100
AcDbEntity
  8
0
370
    35
390
0
 62
     7
 48
0.011406
100
AcDbLine
 10
15.469437
 20
8.871658
 30
0.0
 11
15.469437
 21
9.327913
 31
0.0
210
0.0
220
0.0
230
1.0
  0
LINE
  5
72
100
AcDbEntity
  8
0
370
    35
390
0
 62
     7
 48
0.011406
100
AcDbLine
 10
15.469437
 20
9.371657
 30
0.0
 11
15.469437
 21
9.827913
 31
0.0
210
0.0
220
0.0
230
1.0
  0
LINE
  5
73
100
AcDbEntity
  8
0
370
    35
390
0
 62
     7
 48
0.011406
100
AcDbLine
 10
15.469437
 20
9.871657
 30
0.0
 11
15.469437
 21
10.327913
 31
0.0
210
0.0
220
0.0
230
1.0
  0
LINE
  5
74
100
AcDbEntity
  8
0
370
    35
390
0
 62
     7
 48
0.011406
100
AcDbLine
 10
15.469437
 20
10.371658
 30
0.0
 11
15.469437
 21
10.827913
 31
0.0
210
0.0
220
0.0
230
1.0
  0
LINE
  5
75
100
AcDbEntity
  8
0
370
    35
390
0
 62
     7
 48
0.011406
100
AcDbLine
 10
15.469437
 20
10.871657
 30
0.0
 11
15.469437
 21
11.327914
 31
0.0
210
0.0
220
0.0
230
1.0
  0
LINE
  5
76
100
AcDbEntity
  8
0
370
    35
390
0
 62
     7
 48
0.011406
100
AcDbLine
 10
15.469437
 20
11.371657
 30
0.0
 11
15.469437
 21
11.827914
 31
0.0
210
0.0
220
0.0
230
1.0
  0
LINE
  5
77
100
AcDbEntity
  8
0
370
    35
390
0
 62
     7
 48
0.011406
100
AcDbLine
 10
15.469437
 20
11.871657
 30
0.0
 11
15.469437
 21
12.327912
 31
0.0
210
0.0
220
0.0
230
1.0
  0
LINE
  5
78
100
AcDbEntity
  8
0
370
    35
390
0
 62
     7
 48
0.011406
100
AcDbLine
 10
15.469437
 20
12.371658
 30
0.0
 11
15.469437
 21
12.827913
 31
0.0
210
0.0
220
0.0
230
1.0
  0
LINE
  5
79
100
AcDbEntity
  8
0
370
    35
390
0
 62
     7
 48
0.011406
100
AcDbLine
 10
15.469437
 20
12.871658
 30
0.0
 11
15.469437
 21
13.327913
 31
0.0
210
0.0
220
0.0
230
1.0
  0
LINE
  5
7A
100
AcDbEntity
  8
0
370
    35
390
0
 62
     7
 48
0.011406
100
AcDbLine
 10
15.469437
 20
13.371657
 30
0.0
 11
15.469437
 21
13.827914
 31
0.0
210
0.0
220
0.0
230
1.0
  0
LINE
  5
7B
100
AcDbEntity
  8
0
370
    35
390
0
 62
     7
 48
0.011406
100
AcDbLine
 10
15.469437
 20
13.871657
 30
0.0
 11
15.469437
 21
14.327914
 31
0.0
210
0.0
220
0.0
230
1.0
  0
LINE
  5
7C
100
AcDbEntity
  8
0
370
    35
390
0
 62
     7
 48
0.011406
100
AcDbLine
 10
15.469437
 20
14.371657
 30
0.0
 11
15.469437
 21
14.827915
 31
0.0
210
0.0
220
0.0
230
1.0
  0
LINE
  5
7D
100
AcDbEntity
  8
0
370
    35
390
0
 62
     7
 48
0.011406
100
AcDbLine
 10
15.469437
 20
14.871658
 30
0.0
 11
15.469437
 21
15.327913
 31
0.0
210
0.0
220
0.0
230
1.0
  0
LINE
  5
7E
100
AcDbEntity
  8
0
370
    35
390
0
 62
     7
 48
0.011406
100
AcDbLine
 10
15.469437
 20
15.371658
 30
0.0
 11
15.469437
 21
15.827913
 31
0.0
210
0.0
220
0.0
230
1.0
  0
LINE
  5
7F
100
AcDbEntity
  8
0
370
    35
390
0
 62
     7
 48
0.011406
100
AcDbLine
 10
15.469437
 20
15.871659
 30
0.0
 11
15.469437
 21
16.327914
 31
0.0
210
0.0
220
0.0
230
1.0
  0
LINE
  5
80
100
AcDbEntity
  8
0
370
    35
390
0
 62
     7
 48
0.006274
100
AcDbLine
 10
15.469437
 20
15.871659
 30
0.0
 11
15.219437
 21
15.849785
 31
0.0
210
0.0
220
0.0
230
1.0
  0
LINE
  5
81
100
AcDbEntity
  8
0
370
    35
390
0
 62
     7
 48
0.006274
100
AcDbLine
 10
15.219437
 20
15.849785
 30
0.0
 11
15.469437
 21
15.827913
 31
0.0
210
0.0
220
0.0
230
1.0
  0
LINE
  5
82
100
AcDbEntity
  8
0
370
    35
390
0
 62
     7
 48
0.006274
100
AcDbLine
 10
12.719437
 20
15.849785
 30
0.0
 11
12.469437
 21
15.827913
 31
0.0
210
0.0
220
0.0
230
1.0
  0
LINE
  5
83
100
AcDbEntity
  8
0
370
    35
390
0
 62
     7
 48
0.006274
100
AcDbLine
 10
12.469437
 20
15.871659
 30
0.0
 11
12.719437
 21
15.849785
 31
0.0
210
0.0
220
0.0
230
1.0
  0
LINE
  5
84
100
AcDbEntity
  8
0
370
    35
390
0
 62
     7
 48
0.006274
100
AcDbLine
 10
15.469437
 20
15.371658
 30
0.0
 11
15.219437
 21
15.349787
 31
0.0
210
0.0
220
0.0
230
1.0
  0
LINE
  5
85
100
AcDbEntity
  8
0
370
    35
390
0
 62
     7
 48
0.006274
100
AcDbLine
 10
15.219437
 20
15.349787
 30
0.0
 11
15.469437
 21
15.327913
 31
0.0
210
0.0
220
0.0
230
1.0
  0
LINE
  5
86
100
AcDbEntity
  8
0
370
    35
390
0
 62
     7
 48
0.006274
100
AcDbLine
 10
12.719437
 20
15.349787
 30
0.0
 11
12.469437
 21
15.327913
 31
0.0
210
0.0
220
0.0
230
1.0
  0
LINE
  5
87
100
AcDbEntity
  8
0
370
    35
390
0
 62
     7
 48
0.006274
100
AcDbLine
 10
12.469437
 20
15.371658
 30
0.0
 11
12.719437
 21
15.349787
 31
0.0
210
0.0
220
0.0
230
1.0
  0
LINE
  5
88
100
AcDbEntity
  8
0
370
    35
390
0
 62
     7
 48
0.006274
100
AcDbLine
 10
15.469437
 20
14.871658
 30
0.0
 11
15.219437
 21
14.849786
 31
0.0
210
0.0
220
0.0
230
1.0
  0
LINE
  5
89
100
AcDbEntity
  8
0
370
    35
390
0
 62
     7
 48
0.006274
100
AcDbLine
 10
15.219437
 20
14.849786
 30
0.0
 11
15.469437
 21
14.827915
 31
0.0
210
0.0
220
0.0
230
1.0
  0
LINE
  5
8A
100
AcDbEntity
  8
0
370
    35
390
0
 62
     7
 48
0.006274
100
AcDbLine
 10
12.719437
 20
14.849786
 30
0.0
 11
12.469437
 21
14.827915
 31
0.0
210
0.0
220
0.0
230
1.0
  0
LINE
  5
8B
100
AcDbEntity
  8
0
370
    35
390
0
 62
     7
 48
0.006274
100
AcDbLine
 10
12.469437
 20
14.871658
 30
0.0
 11
12.719437
 21
14.849786
 31
0.0
210
0.0
220
0.0
230
1.0
  0
LINE
  5
8C
100
AcDbEntity
  8
0
370
    35
390
0
 62
     7
 48
0.006274
100
AcDbLine
 10
15.469437
 20
14.371657
 30
0.0
 11
15.219437
 21
14.349786
 31
0.0
210
0.0
220
0.0
230
1.0
  0
LINE
  5
8D
100
AcDbEntity
  8
0
370
    35
390
0
 62
     7
 48
0.006274
100
AcDbLine
 10
15.219437
 20
14.349786
 30
0.0
 11
15.469437
 21
14.327914
 31
0.0
210
0.0
220
0.0
230
1.0
  0
LINE
  5
8E
100
AcDbEntity
  8
0
370
    35
390
0
 62
     7
 48
0.006274
100
AcDbLine
 10
12.719437
 20
14.349786
 30
0.0
 11
12.469437
 21
14.327914
 31
0.0
210
0.0
220
0.0
230
1.0
  0
LINE
  5
8F
100
AcDbEntity
  8
0
370
    35
390
0
 62
     7
 48
0.006274
100
AcDbLine
 10
12.469437
 20
14.371657
 30
0.0
 11
12.719437
 21
14.349786
 31
0.0
210
0.0
220
0.0
230
1.0
  0
LINE
  5
90
100
AcDbEntity
  8
0
370
    35
390
0
 62
     7
 48
0.006274
100
AcDbLine
 10
15.469437
 20
13.871657
 30
0.0
 11
15.219437
 21
13.849785
 31
0.0
210
0.0
220
0.0
230
1.0
  0
LINE
  5
91
100
AcDbEntity
  8
0
370
    35
390
0
 62
     7
 48
0.006274
100
AcDbLine
 10
15.219437
 20
13.849785
 30
0.0
 11
15.469437
 21
13.827914
 31
0.0
210
0.0
220
0.0
230
1.0
  0
LINE
  5
92
100
AcDbEntity
  8
0
370
    35
390
0
 62
     7
 48
0.006274
100
AcDbLine
 10
12.719437
 20
13.849785
 30
0.0
 11
12.469437
 21
13.827914
 31
0.0
210
0.0
220
0.0
230
1.0
  0
LINE
  5
93
100
AcDbEntity
  8
0
370
    35
390
0
 62
     7
 48
0.006274
100
AcDbLine
 10
12.469437
 20
13.871657
 30
0.0
 11
12.719437
 21
13.849785
 31
0.0
210
0.0
220
0.0
230
1.0
  0
LINE
  5
94
100
AcDbEntity
  8
0
370
    35
390
0
 62
     7
 48
0.006274
100
AcDbLine
 10
15.469437
 20
13.371657
 30
0.0
 11
15.219437
 21
13.349785
 31
0.0
210
0.0
220
0.0
230
1.0
  0
LINE
  5
95
100
AcDbEntity
  8
0
370
    35
390
0
 62
     7
 48
0.006274
100
AcDbLine
 10
15.219437
 20
13.349785
 30
0.0
 11
15.469437
 21
13.327913
 31
0.0
210
0.0
220
0.0
230
1.0
  0
LINE
  5
96
100
AcDbEntity
  8
0
370
    35
390
0
 62
     7
 48
0.006274
100
AcDbLine
 10
12.719437
 20
13.349785
 30
0.0
 11
12.469437
 21
13.327913
 31
0.0
210
0.0
220
0.0
230
1.0
  0
LINE
  5
97
100
AcDbEntity
  8
0
370
    35
390
0
 62
     7
 48
0.006274
100
AcDbLine
 10
12.469437
 20
13.371657
 30
0.0
 11
12.719437
 21
13.349785
 31
0.0
210
0.0
220
0.0
230
1.0
  0
LINE
  5
98
100
AcDbEntity
  8
0
370
    35
390
0
 62
     7
 48
0.006274
100
AcDbLine
 10
15.469437
 20
12.871658
 30
0.0
 11
15.219437
 21
12.849784
 31
0.0
210
0.0
220
0.0
230
1.0
  0
LINE
  5
99
100
AcDbEntity
  8
0
370
    35
390
0
 62
     7
 48
0.006274
100
AcDbLine
 10
15.219437
 20
12.849784
 30
0.0
 11
15.469437
 21
12.827913
 31
0.0
210
0.0
220
0.0
230
1.0
  0
LINE
  5
9A
100
AcDbEntity
  8
0
370
    35
390
0
 62
     7
 48
0.006274
100
AcDbLine
 10
12.719437
 20
12.849784
 30
0.0
 11
12.469437
 21
12.827913
 31
0.0
210
0.0
220
0.0
230
1.0
  0
LINE
  5
9B
100
AcDbEntity
  8
0
370
    35
390
0
 62
     7
 48
0.006274
100
AcDbLine
 10
12.469437
 20
12.871658
 30
0.0
 11
12.719437
 21
12.849784
 31
0.0
210
0.0
220
0.0
230
1.0
  0
LINE
  5
9C
100
AcDbEntity
  8
0
370
    35
390
0
 62
     7
 48
0.006274
100
AcDbLine
 10
15.469437
 20
12.371658
 30
0.0
 11
15.219437
 21
12.349786
 31
0.0
210
0.0
220
0.0
230
1.0
  0
LINE
  5
9D
100
AcDbEntity
  8
0
370
    35
390
0
 62
     7
 48
0.006274
100
AcDbLine
 10
15.219437
 20
12.349786
 30
0.0
 11
15.469437
 21
12.327912
 31
0.0
210
0.0
220
0.0
230
1.0
  0
LINE
  5
9E
100
AcDbEntity
  8
0
370
    35
390
0
 62
     7
 48
0.006274
100
AcDbLine
 10
12.719437
 20
12.349786
 30
0.0
 11
12.469437
 21
12.327912
 31
0.0
210
0.0
220
0.0
230
1.0
  0
LINE
  5
9F
100
AcDbEntity
  8
0
370
    35
390
0
 62
     7
 48
0.006274
100
AcDbLine
 10
12.469437
 20
12.371658
 30
0.0
 11
12.719437
 21
12.349786
 31
0.0
210
0.0
220
0.0
230
1.0
  0
LINE
  5
A0
100
AcDbEntity
  8
0
370
    35
390
0
 62
     7
 48
0.006274
100
AcDbLine
 10
15.469437
 20
11.871657
 30
0.0
 11
15.219437
 21
11.849786
 31
0.0
210
0.0
220
0.0
230
1.0
  0
LINE
  5
A1
100
AcDbEntity
  8
0
370
    35
390
0
 62
     7
 48
0.006274
100
AcDbLine
 10
15.219437
 20
11.849786
 30
0.0
 11
15.469437
 21
11.827914
 31
0.0
210
0.0
220
0.0
230
1.0
  0
LINE
  5
A2
100
AcDbEntity
  8
0
370
    35
390
0
 62
     7
 48
0.006274
100
AcDbLine
 10
12.719437
 20
11.849786
 30
0.0
 11
12.469437
 21
11.827914
 31
0.0
210
0.0
220
0.0
230
1.0
  0
LINE
  5
A3
100
AcDbEntity
  8
0
370
    35
390
0
 62
     7
 48
0.006274
100
AcDbLine
 10
12.469437
 20
11.871657
 30
0.0
 11
12.719437
 21
11.849786
 31
0.0
210
0.0
220
0.0
230
1.0
  0
LINE
  5
A4
100
AcDbEntity
  8
0
370
    35
390
0
 62
     7
 48
0.006274
100
AcDbLine
 10
15.469437
 20
11.371657
 30
0.0
 11
15.219437
 21
11.349785
 31
0.0
210
0.0
220
0.0
230
1.0
  0
LINE
  5
A5
100
AcDbEntity
  8
0
370
    35
390
0
 62
     7
 48
0.006274
100
AcDbLine
 10
15.219437
 20
11.349785
 30
0.0
 11
15.469437
 21
11.327914
 31
0.0
210
0.0
220
0.0
230
1.0
  0
LINE
  5
A6
100
AcDbEntity
  8
0
370
    35
390
0
 62
     7
 48
0.006274
100
AcDbLine
 10
12.719437
 20
11.349785
 30
0.0
 11
12.469437
 21
11.327914
 31
0.0
210
0.0
220
0.0
230
1.0
  0
LINE
  5
A7
100
AcDbEntity
  8
0
370
    35
390
0
 62
     7
 48
0.006274
100
AcDbLine
 10
12.469437
 20
11.371657
 30
0.0
 11
12.719437
 21
11.349785
 31
0.0
210
0.0
220
0.0
230
1.0
  0
LINE
  5
A8
100
AcDbEntity
  8
0
370
    35
390
0
 62
     7
 48
0.006274
100
AcDbLine
 10
15.469437
 20
10.871657
 30
0.0
 11
15.219437
 21
10.849785
 31
0.0
210
0.0
220
0.0
230
1.0
  0
LINE
  5
A9
100
AcDbEntity
  8
0
370
    35
390
0
 62
     7
 48
0.006274
100
AcDbLine
 10
15.219437
 20
10.849785
 30
0.0
 11
15.469437
 21
10.827913
 31
0.0
210
0.0
220
0.0
230
1.0
  0
LINE
  5
AA
100
AcDbEntity
  8
0
370
    35
390
0
 62
     7
 48
0.006274
100
AcDbLine
 10
12.719437
 20
10.849785
 30
0.0
 11
12.469437
 21
10.827913
 31
0.0
210
0.0
220
0.0
230
1.0
  0
LINE
  5
AB
100
AcDbEntity
  8
0
370
    35
390
0
 62
     7
 48
0.006274
100
AcDbLine
 10
12.469437
 20
10.871657
 30
0.0
 11
12.719437
 21
10.849785
 31
0.0
210
0.0
220
0.0
230
1.0
  0
LINE
  5
AC
100
AcDbEntity
  8
0
370
    35
390
0
 62
     7
 48
0.006274
100
AcDbLine
 10
15.469437
 20
10.371658
 30
0.0
 11
15.219437
 21
10.349784
 31
0.0
210
0.0
220
0.0
230
1.0
  0
LINE
  5
AD
100
AcDbEntity
  8
0
370
    35
390
0
 62
     7
 48
0.006274
100
AcDbLine
 10
15.219437
 20
10.349784
 30
0.0
 11
15.469437
 21
10.327913
 31
0.0
210
0.0
220
0.0
230
1.0
  0
LINE
  5
AE
100
AcDbEntity
  8
0
370
    35
390
0
 62
     7
 48
0.006274
100
AcDbLine
 10
12.719437
 20
10.349784
 30
0.0
 11
12.469437
 21
10.327913
 31
0.0
210
0.0
220
0.0
230
1.0
  0
LINE
  5
AF
100
AcDbEntity
  8
0
370
    35
390
0
 62
     7
 48
0.006274
100
AcDbLine
 10
12.469437
 20
10.371658
 30
0.0
 11
12.719437
 21
10.349784
 31
0.0
210
0.0
220
0.0
230
1.0
  0
LINE
  5
B0
100
AcDbEntity
  8
0
370
    35
390
0
 62
     7
 48
0.006274
100
AcDbLine
 10
15.469437
 20
9.871657
 30
0.0
 11
15.219437
 21
9.849786
 31
0.0
210
0.0
220
0.0
230
1.0
  0
LINE
  5
B1
100
AcDbEntity
  8
0
370
    35
390
0
 62
     7
 48
0.006274
100
AcDbLine
 10
15.219437
 20
9.849786
 30
0.0
 11
15.469437
 21
9.827913
 31
0.0
210
0.0
220
0.0
230
1.0
  0
LINE
  5
B2
100
AcDbEntity
  8
0
370
    35
390
0
 62
     7
 48
0.006274
100
AcDbLine
 10
12.719437
 20
9.849786
 30
0.0
 11
12.469437
 21
9.827913
 31
0.0
210
0.0
220
0.0
230
1.0
  0
LINE
  5
B3
100
AcDbEntity
  8
0
370
    35
390
0
 62
     7
 48
0.006274
100
AcDbLine
 10
12.469437
 20
9.871657
 30
0.0
 11
12.719437
 21
9.849786
 31
0.0
210
0.0
220
0.0
230
1.0
  0
LINE
  5
B4
100
AcDbEntity
  8
0
370
    35
390
0
 62
     7
 48
0.006274
100
AcDbLine
 10
15.469437
 20
9.371657
 30
0.0
 11
15.219437
 21
9.349785
 31
0.0
210
0.0
220
0.0
230
1.0
  0
LINE
  5
B5
100
AcDbEntity
  8
0
370
    35
390
0
 62
     7
 48
0.006274
100
AcDbLine
 10
15.219437
 20
9.349785
 30
0.0
 11
15.469437
 21
9.327913
 31
0.0
210
0.0
220
0.0
230
1.0
  0
LINE
  5
B6
100
AcDbEntity
  8
0
370
    35
390
0
 62
     7
 48
0.006274
100
AcDbLine
 10
12.719437
 20
9.349785
 30
0.0
 11
12.469437
 21
9.327913
 31
0.0
210
0.0
220
0.0
230
1.0
  0
LINE
  5
B7
100
AcDbEntity
  8
0
370
    35
390
0
 62
     7
 48
0.006274
100
AcDbLine
 10
12.469437
 20
9.371657
 30
0.0
 11
12.719437
 21
9.349785
 31
0.0
210
0.0
220
0.0
230
1.0
  0
LINE
  5
B8
100
AcDbEntity
  8
0
370
    35
390
0
 62
     7
 48
0.006274
100
AcDbLine
 10
15.469437
 20
8.871658
 30
0.0
 11
15.219437
 21
8.849785
 31
0.0
210
0.0
220
0.0
230
1.0
  0
LINE
  5
B9
100
AcDbEntity
  8
0
370
    35
390
0
 62
     7
 48
0.006274
100
AcDbLine
 10
15.219437
 20
8.849785
 30
0.0
 11
15.469437
 21
8.827913
 31
0.0
210
0.0
220
0.0
230
1.0
  0
LINE
  5
BA
100
AcDbEntity
  8
0
370
    35
390
0
 62
     7
 48
0.006274
100
AcDbLine
 10
12.719437
 20
8.849785
 30
0.0
 11
12.469437
 21
8.827913
 31
0.0
210
0.0
220
0.0
230
1.0
  0
LINE
  5
BB
100
AcDbEntity
  8
0
370
    35
390
0
 62
     7
 48
0.006274
100
AcDbLine
 10
12.469437
 20
8.871658
 30
0.0
 11
12.719437
 21
8.849785
 31
0.0
210
0.0
220
0.0
230
1.0
  0
LINE
  5
BC
100
AcDbEntity
  8
0
370
    35
390
0
 62
     7
 48
0.006274
100
AcDbLine
 10
15.469437
 20
8.371657
 30
0.0
 11
15.219437
 21
8.349785
 31
0.0
210
0.0
220
0.0
230
1.0
  0
LINE
  5
BD
100
AcDbEntity
  8
0
370
    35
390
0
 62
     7
 48
0.006274
100
AcDbLine
 10
15.219437
 20
8.349785
 30
0.0
 11
15.469437
 21
8.327912
 31
0.0
210
0.0
220
0.0
230
1.0
  0
LINE
  5
BE
100
AcDbEntity
  8
0
370
    35
390
0
 62
     7
 48
0.006274
100
AcDbLine
 10
12.719437
 20
8.349785
 30
0.0
 11
12.469437
 21
8.327912
 31
0.0
210
0.0
220
0.0
230
1.0
  0
LINE
  5
BF
100
AcDbEntity
  8
0
370
    35
390
0
 62
     7
 48
0.006274
100
AcDbLine
 10
12.469437
 20
8.371657
 30
0.0
 11
12.719437
 21
8.349785
 31
0.0
210
0.0
220
0.0
230
1.0
  0
LINE
  5
C0
100
AcDbEntity
  8
0
370
    35
390
0
 62
     7
 48
0.006274
100
AcDbLine
 10
15.469437
 20
7.871658
 30
0.0
 11
15.219437
 21
7.849785
 31
0.0
210
0.0
220
0.0
230
1.0
  0
LINE
  5
C1
100
AcDbEntity
  8
0
370
    35
390
0
 62
     7
 48
0.006274
100
AcDbLine
 10
15.219437
 20
7.849785
 30
0.0
 11
15.469437
 21
7.827913
 31
0.0
210
0.0
220
0.0
230
1.0
  0
LINE
  5
C2
100
AcDbEntity
  8
0
370
    35
390
0
 62
     7
 48
0.006274
100
AcDbLine
 10
12.719437
 20
7.849785
 30
0.0
 11
12.469437
 21
7.827913
 31
0.0
210
0.0
220
0.0
230
1.0
  0
LINE
  5
C3
100
AcDbEntity
  8
0
370
    35
390
0
 62
     7
 48
0.006274
100
AcDbLine
 10
12.469437
 20
7.871658
 30
0.0
 11
12.719437
 21
7.849785
 31
0.0
210
0.0
220
0.0
230
1.0
  0
LINE
  5
C4
100
AcDbEntity
  8
0
370
    35
390
0
 62
     7
 48
0.006274
100
AcDbLine
 10
15.469437
 20
7.371657
 30
0.0
 11
15.219437
 21
7.349786
 31
0.0
210
0.0
220
0.0
230
1.0
  0
LINE
  5
C5
100
AcDbEntity
  8
0
370
    35
390
0
 62
     7
 48
0.006274
100
AcDbLine
 10
15.219437
 20
7.349786
 30
0.0
 11
15.469437
 21
7.327913
 31
0.0
210
0.0
220
0.0
230
1.0
  0
LINE
  5
C6
100
AcDbEntity
  8
0
370
    35
390
0
 62
     7
 48
0.006274
100
AcDbLine
 10
12.719437
 20
7.349786
 30
0.0
 11
12.469437
 21
7.327913
 31
0.0
210
0.0
220
0.0
230
1.0
  0
LINE
  5
C7
100
AcDbEntity
  8
0
370
    35
390
0
 62
     7
 48
0.006274
100
AcDbLine
 10
12.469437
 20
7.371657
 30
0.0
 11
12.719437
 21
7.349786
 31
0.0
210
0.0
220
0.0
230
1.0
  0
LINE
  5
C8
100
AcDbEntity
  8
0
370
    35
390
0
 62
     7
 48
0.006274
100
AcDbLine
 10
15.469437
 20
6.871657
 30
0.0
 11
15.219437
 21
6.849785
 31
0.0
210
0.0
220
0.0
230
1.0
  0
LINE
  5
C9
100
AcDbEntity
  8
0
370
    35
390
0
 62
     7
 48
0.006274
100
AcDbLine
 10
15.219437
 20
6.849785
 30
0.0
 11
15.469437
 21
6.827913
 31
0.0
210
0.0
220
0.0
230
1.0
  0
LINE
  5
CA
100
AcDbEntity
  8
0
370
    35
390
0
 62
     7
 48
0.006274
100
AcDbLine
 10
12.719437
 20
6.849785
 30
0.0
 11
12.469437
 21
6.827913
 31
0.0
210
0.0
220
0.0
230
1.0
  0
LINE
  5
CB
100
AcDbEntity
  8
0
370
    35
390
0
 62
     7
 48
0.006274
100
AcDbLine
 10
12.469437
 20
6.871657
 30
0.0
 11
12.719437
 21
6.849785
 31
0.0
210
0.0
220
0.0
230
1.0
  0
LINE
  5
CC
100
AcDbEntity
  8
0
370
    35
390
0
 62
     7
 48
0.006274
100
AcDbLine
 10
15.469437
 20
6.371658
 30
0.0
 11
15.219437
 21
6.349785
 31
0.0
210
0.0
220
0.0
230
1.0
  0
LINE
  5
CD
100
AcDbEntity
  8
0
370
    35
390
0
 62
     7
 48
0.006274
100
AcDbLine
 10
15.219437
 20
6.349785
 30
0.0
 11
15.469437
 21
6.327913
 31
0.0
210
0.0
220
0.0
230
1.0
  0
LINE
  5
CE
100
AcDbEntity
  8
0
370
    35
390
0
 62
     7
 48
0.006274
100
AcDbLine
 10
12.719437
 20
6.349785
 30
0.0
 11
12.469437
 21
6.327913
 31
0.0
210
0.0
220
0.0
230
1.0
  0
LINE
  5
CF
100
AcDbEntity
  8
0
370
    35
390
0
 62
     7
 48
0.006274
100
AcDbLine
 10
12.469437
 20
6.371658
 30
0.0
 11
12.719437
 21
6.349785
 31
0.0
210
0.0
220
0.0
230
1.0
  0
LINE
  5
D0
100
AcDbEntity
  8
0
370
    35
390
0
 62
     7
 48
0.006274
100
AcDbLine
 10
15.469437
 20
5.871657
 30
0.0
 11
15.219437
 21
5.849785
 31
0.0
210
0.0
220
0.0
230
1.0
  0
LINE
  5
D1
100
AcDbEntity
  8
0
370
    35
390
0
 62
     7
 48
0.006274
100
AcDbLine
 10
15.219437
 20
5.849785
 30
0.0
 11
15.469437
 21
5.827912
 31
0.0
210
0.0
220
0.0
230
1.0
  0
LINE
  5
D2
100
AcDbEntity
  8
0
370
    35
390
0
 62
     7
 48
0.006274
100
AcDbLine
 10
12.719437
 20
5.849785
 30
0.0
 11
12.469437
 21
5.827912
 31
0.0
210
0.0
220
0.0
230
1.0
  0
LINE
  5
D3
100
AcDbEntity
  8
0
370
    35
390
0
 62
     7
 48
0.006274
100
AcDbLine
 10
12.469437
 20
5.871657
 30
0.0
 11
12.719437
 21
5.849785
 31
0.0
210
0.0
220
0.0
230
1.0
  0
LINE
  5
D4
100
AcDbEntity
  8
0
370
    35
390
0
 62
     7
 48
0.006274
100
AcDbLine
 10
15.469437
 20
5.371658
 30
0.0
 11
15.219437
 21
5.349785
 31
0.0
210
0.0
220
0.0
230
1.0
  0
LINE
  5
D5
100
AcDbEntity
  8
0
370
    35
390
0
 62
     7
 48
0.006274
100
AcDbLine
 10
15.219437
 20
5.349785
 30
0.0
 11
15.469437
 21
5.327913
 31
0.0
210
0.0
220
0.0
230
1.0
  0
LINE
  5
D6
100
AcDbEntity
  8
0
370
    35
390
0
 62
     7
 48
0.006274
100
AcDbLine
 10
12.719437
 20
5.349785
 30
0.0
 11
12.469437
 21
5.327913
 31
0.0
210
0.0
220
0.0
230
1.0
  0
LINE
  5
D7
100
AcDbEntity
  8
0
370
    35
390
0
 62
     7
 48
0.006274
100
AcDbLine
 10
12.469437
 20
5.371658
 30
0.0
 11
12.719437
 21
5.349785
 31
0.0
210
0.0
220
0.0
230
1.0
  0
LINE
  5
D8
100
AcDbEntity
  8
0
370
    35
390
0
 62
     7
 48
0.006274
100
AcDbLine
 10
15.469437
 20
4.871657
 30
0.0
 11
15.219437
 21
4.849786
 31
0.0
210
0.0
220
0.0
230
1.0
  0
LINE
  5
D9
100
AcDbEntity
  8
0
370
    35
390
0
 62
     7
 48
0.006274
100
AcDbLine
 10
15.219437
 20
4.849786
 30
0.0
 11
15.469437
 21
4.827913
 31
0.0
210
0.0
220
0.0
230
1.0
  0
LINE
  5
DA
100
AcDbEntity
  8
0
370
    35
390
0
 62
     7
 48
0.006274
100
AcDbLine
 10
12.719437
 20
4.849786
 30
0.0
 11
12.469437
 21
4.827913
 31
0.0
210
0.0
220
0.0
230
1.0
  0
LINE
  5
DB
100
AcDbEntity
  8
0
370
    35
390
0
 62
     7
 48
0.006274
100
AcDbLine
 10
12.469437
 20
4.871657
 30
0.0
 11
12.719437
 21
4.849786
 31
0.0
210
0.0
220
0.0
230
1.0
  0
LINE
  5
DC
100
AcDbEntity
  8
0
370
    35
390
0
 62
     7
 48
0.006274
100
AcDbLine
 10
15.469437
 20
4.371657
 30
0.0
 11
15.219437
 21
4.349785
 31
0.0
210
0.0
220
0.0
230
1.0
  0
LINE
  5
DD
100
AcDbEntity
  8
0
370
    35
390
0
 62
     7
 48
0.006274
100
AcDbLine
 10
15.219437
 20
4.349785
 30
0.0
 11
15.469437
 21
4.327913
 31
0.0
210
0.0
220
0.0
230
1.0
  0
LINE
  5
DE
100
AcDbEntity
  8
0
370
    35
390
0
 62
     7
 48
0.006274
100
AcDbLine
 10
12.719437
 20
4.349785
 30
0.0
 11
12.469437
 21
4.327913
 31
0.0
210
0.0
220
0.0
230
1.0
  0
LINE
  5
DF
100
AcDbEntity
  8
0
370
    35
390
0
 62
     7
 48
0.006274
100
AcDbLine
 10
12.469437
 20
4.371657
 30
0.0
 11
12.719437
 21
4.349785
 31
0.0
210
0.0
220
0.0
230
1.0
  0
LINE
  5
E0
100
AcDbEntity
  8
0
370
    35
390
0
 62
     7
 48
0.006274
100
AcDbLine
 10
15.469437
 20
3.871658
 30
0.0
 11
15.219437
 21
3.849785
 31
0.0
210
0.0
220
0.0
230
1.0
  0
LINE
  5
E1
100
AcDbEntity
  8
0
370
    35
390
0
 62
     7
 48
0.006274
100
AcDbLine
 10
15.219437
 20
3.849785
 30
0.0
 11
15.469437
 21
3.827913
 31
0.0
210
0.0
220
0.0
230
1.0
  0
LINE
  5
E2
100
AcDbEntity
  8
0
370
    35
390
0
 62
     7
 48
0.006274
100
AcDbLine
 10
12.719437
 20
3.849785
 30
0.0
 11
12.469437
 21
3.827913
 31
0.0
210
0.0
220
0.0
230
1.0
  0
LINE
  5
E3
100
AcDbEntity
  8
0
370
    35
390
0
 62
     7
 48
0.006274
100
AcDbLine
 10
12.469437
 20
3.871658
 30
0.0
 11
12.719437
 21
3.849785
 31
0.0
210
0.0
220
0.0
230
1.0
  0
LINE
  5
E4
100
AcDbEntity
  8
0
370
    35
390
0
 62
     7
 48
0.006274
100
AcDbLine
 10
15.469437
 20
3.371657
 30
0.0
 11
15.219437
 21
3.349785
 31
0.0
210
0.0
220
0.0
230
1.0
  0
LINE
  5
E5
100
AcDbEntity
  8
0
370
    35
390
0
 62
     7
 48
0.006274
100
AcDbLine
 10
15.219437
 20
3.349785
 30
0.0
 11
15.469437
 21
3.327913
 31
0.0
210
0.0
220
0.0
230
1.0
  0
LINE
  5
E6
100
AcDbEntity
  8
0
370
    35
390
0
 62
     7
 48
0.006274
100
AcDbLine
 10
12.719437
 20
3.349785
 30
0.0
 11
12.469437
 21
3.327913
 31
0.0
210
0.0
220
0.0
230
1.0
  0
LINE
  5
E7
100
AcDbEntity
  8
0
370
    35
390
0
 62
     7
 48
0.006274
100
AcDbLine
 10
12.469437
 20
3.371657
 30
0.0
 11
12.719437
 21
3.349785
 31
0.0
210
0.0
220
0.0
230
1.0
  0
LINE
  5
E8
100
AcDbEntity
  8
0
370
    35
390
0
 62
     7
 48
0.006274
100
AcDbLine
 10
15.469437
 20
2.871657
 30
0.0
 11
15.219437
 21
2.849785
 31
0.0
210
0.0
220
0.0
230
1.0
  0
LINE
  5
E9
100
AcDbEntity
  8
0
370
    35
390
0
 62
     7
 48
0.006274
100
AcDbLine
 10
15.219437
 20
2.849785
 30
0.0
 11
15.469437
 21
2.827913
 31
0.0
210
0.0
220
0.0
230
1.0
  0
LINE
  5
EA
100
AcDbEntity
  8
0
370
    35
390
0
 62
     7
 48
0.006274
100
AcDbLine
 10
12.719437
 20
2.849785
 30
0.0
 11
12.469437
 21
2.827913
 31
0.0
210
0.0
220
0.0
230
1.0
  0
LINE
  5
EB
100
AcDbEntity
  8
0
370
    35
390
0
 62
     7
 48
0.006274
100
AcDbLine
 10
12.469437
 20
2.871657
 30
0.0
 11
12.719437
 21
2.849785
 31
0.0
210
0.0
220
0.0
230
1.0
  0
LINE
  5
EC
100
AcDbEntity
  8
0
370
    35
390
0
 62
     7
 48
0.006274
100
AcDbLine
 10
15.469437
 20
2.371657
 30
0.0
 11
15.219437
 21
2.349785
 31
0.0
210
0.0
220
0.0
230
1.0
  0
LINE
  5
ED
100
AcDbEntity
  8
0
370
    35
390
0
 62
     7
 48
0.006274
100
AcDbLine
 10
15.219437
 20
2.349785
 30
0.0
 11
15.469437
 21
2.327913
 31
0.0
210
0.0
220
0.0
230
1.0
  0
LINE
  5
EE
100
AcDbEntity
  8
0
370
    35
390
0
 62
     7
 48
0.006274
100
AcDbLine
 10
12.719437
 20
2.349785
 30
0.0
 11
12.469437
 21
2.327913
 31
0.0
210
0.0
220
0.0
230
1.0
  0
LINE
  5
EF
100
AcDbEntity
  8
0
370
    35
390
0
 62
     7
 48
0.006274
100
AcDbLine
 10
12.469437
 20
2.371657
 30
0.0
 11
12.719437
 21
2.349785
 31
0.0
210
0.0
220
0.0
230
1.0
  0
LINE
  5
F0
100
AcDbEntity
  8
0
370
    35
390
0
 62
     7
 48
0.006274
100
AcDbLine
 10
15.469437
 20
1.871657
 30
0.0
 11
15.219437
 21
1.849785
 31
0.0
210
0.0
220
0.0
230
1.0
  0
LINE
  5
F1
100
AcDbEntity
  8
0
370
    35
390
0
 62
     7
 48
0.006274
100
AcDbLine
 10
15.219437
 20
1.849785
 30
0.0
 11
15.469437
 21
1.827913
 31
0.0
210
0.0
220
0.0
230
1.0
  0
LINE
  5
F2
100
AcDbEntity
  8
0
370
    35
390
0
 62
     7
 48
0.006274
100
AcDbLine
 10
12.719437
 20
1.849785
 30
0.0
 11
12.469437
 21
1.827913
 31
0.0
210
0.0
220
0.0
230
1.0
  0
LINE
  5
F3
100
AcDbEntity
  8
0
370
    35
390
0
 62
     7
 48
0.006274
100
AcDbLine
 10
12.469437
 20
1.871657
 30
0.0
 11
12.719437
 21
1.849785
 31
0.0
210
0.0
220
0.0
230
1.0
  0
LINE
  5
F4
100
AcDbEntity
  8
0
370
    35
390
0
 62
     7
 48
0.006274
100
AcDbLine
 10
15.469437
 20
1.371658
 30
0.0
 11
15.219437
 21
1.349785
 31
0.0
210
0.0
220
0.0
230
1.0
  0
LINE
  5
F5
100
AcDbEntity
  8
0
370
    35
390
0
 62
     7
 48
0.006274
100
AcDbLine
 10
15.219437
 20
1.349785
 30
0.0
 11
15.469437
 21
1.327913
 31
0.0
210
0.0
220
0.0
230
1.0
  0
LINE
  5
F6
100
AcDbEntity
  8
0
370
    35
390
0
 62
     7
 48
0.006274
100
AcDbLine
 10
12.719437
 20
1.349785
 30
0.0
 11
12.469437
 21
1.327913
 31
0.0
210
0.0
220
0.0
230
1.0
  0
LINE
  5
F7
100
AcDbEntity
  8
0
370
    35
390
0
 62
     7
 48
0.006274
100
AcDbLine
 10
12.469437
 20
1.371658
 30
0.0
 11
12.719437
 21
1.349785
 31
0.0
210
0.0
220
0.0
230
1.0
  0
LINE
  5
F8
100
AcDbEntity
  8
0
370
    35
390
0
 62
     7
 48
0.006274
100
AcDbLine
 10
15.469437
 20
0.871657
 30
0.0
 11
15.219437
 21
0.849785
 31
0.0
210
0.0
220
0.0
230
1.0
  0
LINE
  5
F9
100
AcDbEntity
  8
0
370
    35
390
0
 62
     7
 48
0.006274
100
AcDbLine
 10
15.219437
 20
0.849785
 30
0.0
 11
15.469437
 21
0.827913
 31
0.0
210
0.0
220
0.0
230
1.0
  0
LINE
  5
FA
100
AcDbEntity
  8
0
370
    35
390
0
 62
     7
 48
0.006274
100
AcDbLine
 10
12.719437
 20
0.849785
 30
0.0
 11
12.469437
 21
0.827913
 31
0.0
210
0.0
220
0.0
230
1.0
  0
LINE
  5
FB
100
AcDbEntity
  8
0
370
    35
390
0
 62
     7
 48
0.006274
100
AcDbLine
 10
12.469437
 20
0.871657
 30
0.0
 11
12.719437
 21
0.849785
 31
0.0
210
0.0
220
0.0
230
1.0
  0
LINE
  5
FC
100
AcDbEntity
  8
0
370
    35
390
0
 62
     7
 48
0.006274
100
AcDbLine
 10
15.469437
 20
0.371657
 30
0.0
 11
15.219437
 21
0.349785
 31
0.0
210
0.0
220
0.0
230
1.0
  0
LINE
  5
FD
100
AcDbEntity
  8
0
370
    35
390
0
 62
     7
 48
0.006274
100
AcDbLine
 10
15.219437
 20
0.349785
 30
0.0
 11
15.469437
 21
0.327913
 31
0.0
210
0.0
220
0.0
230
1.0
  0
LINE
  5
FE
100
AcDbEntity
  8
0
370
    35
390
0
 62
     7
 48
0.006274
100
AcDbLine
 10
12.719437
 20
0.349785
 30
0.0
 11
12.469437
 21
0.327913
 31
0.0
210
0.0
220
0.0
230
1.0
  0
LINE
  5
FF
100
AcDbEntity
  8
0
370
    35
390
0
 62
     7
 48
0.006274
100
AcDbLine
 10
12.469437
 20
0.371657
 30
0.0
 11
12.719437
 21
0.349785
 31
0.0
210
0.0
220
0.0
230
1.0
  0
LINE
  5
100
100
AcDbEntity
  8
0
370
    35
390
0
 62
     7
 48
0.006274
100
AcDbLine
 10
15.469437
 20
-0.128343
 30
0.0
 11
15.219437
 21
-0.150215
 31
0.0
210
0.0
220
0.0
230
1.0
  0
LINE
  5
101
100
AcDbEntity
  8
0
370
    35
390
0
 62
     7
 48
0.006274
100
AcDbLine
 10
15.219437
 20
-0.150215
 30
0.0
 11
15.469437
 21
-0.172087
 31
0.0
210
0.0
220
0.0
230
1.0
  0
LINE
  5
102
100
AcDbEntity
  8
0
370
    35
390
0
 62
     7
 48
0.006274
100
AcDbLine
 10
12.719437
 20
-0.150215
 30
0.0
 11
12.469437
 21
-0.172087
 31
0.0
210
0.0
220
0.0
230
1.0
  0
LINE
  5
103
100
AcDbEntity
  8
0
370
    35
390
0
 62
     7
 48
0.006274
100
AcDbLine
 10
12.469437
 20
-0.128343
 30
0.0
 11
12.719437
 21
-0.150215
 31
0.0
210
0.0
220
0.0
230
1.0
  0
LINE
  5
104
100
AcDbEntity
  8
0
370
    35
390
0
 62
     7
 48
0.006274
100
AcDbLine
 10
15.469437
 20
-0.628343
 30
0.0
 11
15.219437
 21
-0.650215
 31
0.0
210
0.0
220
0.0
230
1.0
  0
LINE
  5
105
100
AcDbEntity
  8
0
370
    35
390
0
 62
     7
 48
0.006274
100
AcDbLine
 10
15.219437
 20
-0.650215
 30
0.0
 11
15.469437
 21
-0.672087
 31
0.0
210
0.0
220
0.0
230
1.0
  0
LINE
  5
106
100
AcDbEntity
  8
0
370
    35
390
0
 62
     7
 48
0.006274
100
AcDbLine
 10
12.719437
 20
-0.650215
 30
0.0
 11
12.469437
 21
-0.672087
 31
0.0
210
0.0
220
0.0
230
1.0
  0
LINE
  5
107
100
AcDbEntity
  8
0
370
    35
390
0
 62
     7
 48
0.006274
100
AcDbLine
 10
12.469437
 20
-0.628343
 30
0.0
 11
12.719437
 21
-0.650215
 31
0.0
210
0.0
220
0.0
230
1.0
  0
LINE
  5
108
100
AcDbEntity
  8
0
370
    35
390
0
 62
     7
 48
0.006274
100
AcDbLine
 10
15.469437
 20
-1.128343
 30
0.0
 11
15.219437
 21
-1.150215
 31
0.0
210
0.0
220
0.0
230
1.0
  0
LINE
  5
109
100
AcDbEntity
  8
0
370
    35
390
0
 62
     7
 48
0.006274
100
AcDbLine
 10
15.219437
 20
-1.150215
 30
0.0
 11
15.469437
 21
-1.172087
 31
0.0
210
0.0
220
0.0
230
1.0
  0
LINE
  5
10A
100
AcDbEntity
  8
0
370
    35
390
0
 62
     7
 48
0.006274
100
AcDbLine
 10
12.719437
 20
-1.150215
 30
0.0
 11
12.469437
 21
-1.172087
 31
0.0
210
0.0
220
0.0
230
1.0
  0
LINE
  5
10B
100
AcDbEntity
  8
0
370
    35
390
0
 62
     7
 48
0.006274
100
AcDbLine
 10
12.469437
 20
-1.128343
 30
0.0
 11
12.719437
 21
-1.150215
 31
0.0
210
0.0
220
0.0
230
1.0
  0
LINE
  5
10C
100
AcDbEntity
  8
0
370
    35
390
0
 62
     7
 48
0.006274
100
AcDbLine
 10
15.469437
 20
-1.628343
 30
0.0
 11
15.219437
 21
-1.650215
 31
0.0
210
0.0
220
0.0
230
1.0
  0
LINE
  5
10D
100
AcDbEntity
  8
0
370
    35
390
0
 62
     7
 48
0.006274
100
AcDbLine
 10
15.219437
 20
-1.650215
 30
0.0
 11
15.469437
 21
-1.672087
 31
0.0
210
0.0
220
0.0
230
1.0
  0
LINE
  5
10E
100
AcDbEntity
  8
0
370
    35
390
0
 62
     7
 48
0.006274
100
AcDbLine
 10
12.719437
 20
-1.650215
 30
0.0
 11
12.469437
 21
-1.672087
 31
0.0
210
0.0
220
0.0
230
1.0
  0
LINE
  5
10F
100
AcDbEntity
  8
0
370
    35
390
0
 62
     7
 48
0.006274
100
AcDbLine
 10
12.469437
 20
-1.628343
 30
0.0
 11
12.719437
 21
-1.650215
 31
0.0
210
0.0
220
0.0
230
1.0
  0
LINE
  5
110
100
AcDbEntity
  8
0
370
    35
390
0
 62
     7
 48
0.006274
100
AcDbLine
 10
15.469437
 20
-2.128343
 30
0.0
 11
15.219437
 21
-2.150215
 31
0.0
210
0.0
220
0.0
230
1.0
  0
LINE
  5
111
100
AcDbEntity
  8
0
370
    35
390
0
 62
     7
 48
0.006274
100
AcDbLine
 10
15.219437
 20
-2.150215
 30
0.0
 11
15.469437
 21
-2.172087
 31
0.0
210
0.0
220
0.0
230
1.0
  0
LINE
  5
112
100
AcDbEntity
  8
0
370
    35
390
0
 62
     7
 48
0.006274
100
AcDbLine
 10
12.719437
 20
-2.150215
 30
0.0
 11
12.469437
 21
-2.172087
 31
0.0
210
0.0
220
0.0
230
1.0
  0
LINE
  5
113
100
AcDbEntity
  8
0
370
    35
390
0
 62
     7
 48
0.006274
100
AcDbLine
 10
12.469437
 20
-2.128343
 30
0.0
 11
12.719437
 21
-2.150215
 31
0.0
210
0.0
220
0.0
230
1.0
  0
LINE
  5
114
100
AcDbEntity
  8
0
370
    35
390
0
 62
     7
 48
0.006274
100
AcDbLine
 10
15.469437
 20
-2.628343
 30
0.0
 11
15.219437
 21
-2.650215
 31
0.0
210
0.0
220
0.0
230
1.0
  0
LINE
  5
115
100
AcDbEntity
  8
0
370
    35
390
0
 62
     7
 48
0.006274
100
AcDbLine
 10
15.219437
 20
-2.650215
 30
0.0
 11
15.469437
 21
-2.672087
 31
0.0
210
0.0
220
0.0
230
1.0
  0
LINE
  5
116
100
AcDbEntity
  8
0
370
    35
390
0
 62
     7
 48
0.006274
100
AcDbLine
 10
12.719437
 20
-2.650215
 30
0.0
 11
12.469437
 21
-2.672087
 31
0.0
210
0.0
220
0.0
230
1.0
  0
LINE
  5
117
100
AcDbEntity
  8
0
370
    35
390
0
 62
     7
 48
0.006274
100
AcDbLine
 10
12.469437
 20
-2.628343
 30
0.0
 11
12.719437
 21
-2.650215
 31
0.0
210
0.0
220
0.0
230
1.0
  0
LINE
  5
118
100
AcDbEntity
  8
0
370
    35
390
0
 62
     7
 48
0.006274
100
AcDbLine
 10
15.469437
 20
-3.128343
 30
0.0
 11
15.219437
 21
-3.150215
 31
0.0
210
0.0
220
0.0
230
1.0
  0
LINE
  5
119
100
AcDbEntity
  8
0
370
    35
390
0
 62
     7
 48
0.006274
100
AcDbLine
 10
15.219437
 20
-3.150215
 30
0.0
 11
15.469437
 21
-3.172087
 31
0.0
210
0.0
220
0.0
230
1.0
  0
LINE
  5
11A
100
AcDbEntity
  8
0
370
    35
390
0
 62
     7
 48
0.006274
100
AcDbLine
 10
12.719437
 20
-3.150215
 30
0.0
 11
12.469437
 21
-3.172087
 31
0.0
210
0.0
220
0.0
230
1.0
  0
LINE
  5
11B
100
AcDbEntity
  8
0
370
    35
390
0
 62
     7
 48
0.006274
100
AcDbLine
 10
12.469437
 20
-3.128343
 30
0.0
 11
12.719437
 21
-3.150215
 31
0.0
210
0.0
220
0.0
230
1.0
  0
LINE
  5
11C
100
AcDbEntity
  8
0
370
    35
390
0
 62
     7
 48
0.006274
100
AcDbLine
 10
15.469437
 20
-3.628343
 30
0.0
 11
15.219437
 21
-3.650215
 31
0.0
210
0.0
220
0.0
230
1.0
  0
LINE
  5
11D
100
AcDbEntity
  8
0
370
    35
390
0
 62
     7
 48
0.006274
100
AcDbLine
 10
15.219437
 20
-3.650215
 30
0.0
 11
15.469437
 21
-3.672087
 31
0.0
210
0.0
220
0.0
230
1.0
  0
LINE
  5
11E
100
AcDbEntity
  8
0
370
    35
390
0
 62
     7
 48
0.006274
100
AcDbLine
 10
12.719437
 20
-3.650215
 30
0.0
 11
12.469437
 21
-3.672087
 31
0.0
210
0.0
220
0.0
230
1.0
  0
LINE
  5
11F
100
AcDbEntity
  8
0
370
    35
390
0
 62
     7
 48
0.006274
100
AcDbLine
 10
12.469437
 20
-3.628343
 30
0.0
 11
12.719437
 21
-3.650215
 31
0.0
210
0.0
220
0.0
230
1.0
  0
LINE
  5
120
100
AcDbEntity
  8
0
370
    35
390
0
 62
     7
 48
0.006274
100
AcDbLine
 10
15.469437
 20
-4.128343
 30
0.0
 11
15.219437
 21
-4.150215
 31
0.0
210
0.0
220
0.0
230
1.0
  0
LINE
  5
121
100
AcDbEntity
  8
0
370
    35
390
0
 62
     7
 48
0.006274
100
AcDbLine
 10
15.219437
 20
-4.150215
 30
0.0
 11
15.469437
 21
-4.172087
 31
0.0
210
0.0
220
0.0
230
1.0
  0
LINE
  5
122
100
AcDbEntity
  8
0
370
    35
390
0
 62
     7
 48
0.006274
100
AcDbLine
 10
12.719437
 20
-4.150215
 30
0.0
 11
12.469437
 21
-4.172087
 31
0.0
210
0.0
220
0.0
230
1.0
  0
LINE
  5
123
100
AcDbEntity
  8
0
370
    35
390
0
 62
     7
 48
0.006274
100
AcDbLine
 10
12.469437
 20
-4.128343
 30
0.0
 11
12.719437
 21
-4.150215
 31
0.0
210
0.0
220
0.0
230
1.0
  0
LINE
  5
124
100
AcDbEntity
  8
0
370
    35
390
0
 62
     7
 48
0.006274
100
AcDbLine
 10
15.469437
 20
-4.628343
 30
0.0
 11
15.219437
 21
-4.650215
 31
0.0
210
0.0
220
0.0
230
1.0
  0
LINE
  5
125
100
AcDbEntity
  8
0
370
    35
390
0
 62
     7
 48
0.006274
100
AcDbLine
 10
15.219437
 20
-4.650215
 30
0.0
 11
15.469437
 21
-4.672087
 31
0.0
210
0.0
220
0.0
230
1.0
  0
LINE
  5
126
100
AcDbEntity
  8
0
370
    35
390
0
 62
     7
 48
0.006274
100
AcDbLine
 10
12.719437
 20
-4.650215
 30
0.0
 11
12.469437
 21
-4.672087
 31
0.0
210
0.0
220
0.0
230
1.0
  0
LINE
  5
127
100
AcDbEntity
  8
0
370
    35
390
0
 62
     7
 48
0.006274
100
AcDbLine
 10
12.469437
 20
-4.628343
 30
0.0
 11
12.719437
 21
-4.650215
 31
0.0
210
0.0
220
0.0
230
1.0
  0
LINE
  5
128
100
AcDbEntity
  8
0
370
    35
390
0
 62
     7
 48
0.006274
100
AcDbLine
 10
15.469437
 20
-5.128343
 30
0.0
 11
15.219437
 21
-5.150215
 31
0.0
210
0.0
220
0.0
230
1.0
  0
LINE
  5
129
100
AcDbEntity
  8
0
370
    35
390
0
 62
     7
 48
0.006274
100
AcDbLine
 10
15.219437
 20
-5.150215
 30
0.0
 11
15.469437
 21
-5.172087
 31
0.0
210
0.0
220
0.0
230
1.0
  0
LINE
  5
12A
100
AcDbEntity
  8
0
370
    35
390
0
 62
     7
 48
0.006274
100
AcDbLine
 10
12.719437
 20
-5.150215
 30
0.0
 11
12.469437
 21
-5.172087
 31
0.0
210
0.0
220
0.0
230
1.0
  0
LINE
  5
12B
100
AcDbEntity
  8
0
370
    35
390
0
 62
     7
 48
0.006274
100
AcDbLine
 10
12.469437
 20
-5.128343
 30
0.0
 11
12.719437
 21
-5.150215
 31
0.0
210
0.0
220
0.0
230
1.0
  0
CIRCLE
  5
12C
100
AcDbEntity
  8
0
370
    35
390
0
 62
     7
 48
0.03937
100
AcDbCircle
 10
13.813187
 20
15.093535
 30
0.0
 40
0.05
210
0.0
220
0.0
230
1.0
  0
CIRCLE
  5
12D
100
AcDbEntity
  8
0
370
    35
390
0
 62
     7
 48
0.03937
100
AcDbCircle
 10
13.813187
 20
-4.206465
 30
0.0
 40
0.05
210
0.0
220
0.0
230
1.0
  0
CIRCLE
  5
12E
100
AcDbEntity
  8
0
370
    35
390
0
 62
     7
 48
0.03937
100
AcDbCircle
 10
14.125687
 20
15.406035
 30
0.0
 40
0.05
210
0.0
220
0.0
230
1.0
  0
CIRCLE
  5
12F
100
AcDbEntity
  8
0
370
    35
390
0
 62
     7
 48
0.03937
100
AcDbCircle
 10
14.125687
 20
-4.206465
 30
0.0
 40
0.05
210
0.0
220
0.0
230
1.0
  0
CIRCLE
  5
130
100
AcDbEntity
  8
0
370
    35
390
0
 62
     7
 48
0.03937
100
AcDbCircle
 10
13.813187
 20
15.406035
 30
0.0
 40
0.05
210
0.0
220
0.0
230
1.0
  0
CIRCLE
  5
131
100
AcDbEntity
  8
0
370
    35
390
0
 62
     7
 48
0.03937
100
AcDbCircle
 10
14.125687
 20
-3.893965
 30
0.0
 40
0.05
210
0.0
220
0.0
230
1.0
  0
CIRCLE
  5
132
100
AcDbEntity
  8
0
370
    35
390
0
 62
     7
 48
0.03937
100
AcDbCircle
 10
14.125687
 20
15.093535
 30
0.0
 40
0.05
210
0.0
220
0.0
230
1.0
  0
CIRCLE
  5
133
100
AcDbEntity
  8
0
370
    35
390
0
 62
     7
 48
0.03937
100
AcDbCircle
 10
13.813187
 20
-3.893965
 30
0.0
 40
0.05
210
0.0
220
0.0
230
1.0
  0
CIRCLE
  5
134
100
AcDbEntity
  8
0
370
    35
390
0
 62
     7
 48
0.03937
100
AcDbCircle
 10
12.719437
 20
16.099786
 30
0.0
 40
0.05
210
0.0
220
0.0
230
1.0
  0
CIRCLE
  5
135
100
AcDbEntity
  8
0
370
    35
390
0
 62
     7
 48
0.03937
100
AcDbCircle
 10
12.719437
 20
15.599786
 30
0.0
 40
0.05
210
0.0
220
0.0
230
1.0
  0
CIRCLE
  5
136
100
AcDbEntity
  8
0
370
    35
390
0
 62
     7
 48
0.03937
100
AcDbCircle
 10
12.719437
 20
15.099785
 30
0.0
 40
0.05
210
0.0
220
0.0
230
1.0
  0
CIRCLE
  5
137
100
AcDbEntity
  8
0
370
    35
390
0
 62
     7
 48
0.03937
100
AcDbCircle
 10
12.719437
 20
14.599785
 30
0.0
 40
0.05
210
0.0
220
0.0
230
1.0
  0
CIRCLE
  5
138
100
AcDbEntity
  8
0
370
    35
390
0
 62
     7
 48
0.03937
100
AcDbCircle
 10
12.719437
 20
14.099784
 30
0.0
 40
0.05
210
0.0
220
0.0
230
1.0
  0
CIRCLE
  5
139
100
AcDbEntity
  8
0
370
    35
390
0
 62
     7
 48
0.03937
100
AcDbCircle
 10
12.719437
 20
13.599786
 30
0.0
 40
0.05
210
0.0
220
0.0
230
1.0
  0
CIRCLE
  5
13A
100
AcDbEntity
  8
0
370
    35
390
0
 62
     7
 48
0.03937
100
AcDbCircle
 10
12.719437
 20
13.099786
 30
0.0
 40
0.05
210
0.0
220
0.0
230
1.0
  0
CIRCLE
  5
13B
100
AcDbEntity
  8
0
370
    35
390
0
 62
     7
 48
0.03937
100
AcDbCircle
 10
12.719437
 20
12.599785
 30
0.0
 40
0.05
210
0.0
220
0.0
230
1.0
  0
CIRCLE
  5
13C
100
AcDbEntity
  8
0
370
    35
390
0
 62
     7
 48
0.03937
100
AcDbCircle
 10
12.719437
 20
12.099785
 30
0.0
 40
0.05
210
0.0
220
0.0
230
1.0
  0
CIRCLE
  5
13D
100
AcDbEntity
  8
0
370
    35
390
0
 62
     7
 48
0.03937
100
AcDbCircle
 10
12.719437
 20
11.599784
 30
0.0
 40
0.05
210
0.0
220
0.0
230
1.0
  0
CIRCLE
  5
13E
100
AcDbEntity
  8
0
370
    35
390
0
 62
     7
 48
0.03937
100
AcDbCircle
 10
12.719437
 20
11.099786
 30
0.0
 40
0.05
210
0.0
220
0.0
230
1.0
  0
CIRCLE
  5
13F
100
AcDbEntity
  8
0
370
    35
390
0
 62
     7
 48
0.03937
100
AcDbCircle
 10
12.719437
 20
10.599786
 30
0.0
 40
0.05
210
0.0
220
0.0
230
1.0
  0
CIRCLE
  5
140
100
AcDbEntity
  8
0
370
    35
390
0
 62
     7
 48
0.03937
100
AcDbCircle
 10
12.719437
 20
10.099785
 30
0.0
 40
0.05
210
0.0
220
0.0
230
1.0
  0
CIRCLE
  5
141
100
AcDbEntity
  8
0
370
    35
390
0
 62
     7
 48
0.03937
100
AcDbCircle
 10
12.719437
 20
9.599785
 30
0.0
 40
0.05
210
0.0
220
0.0
230
1.0
  0
CIRCLE
  5
142
100
AcDbEntity
  8
0
370
    35
390
0
 62
     7
 48
0.03937
100
AcDbCircle
 10
12.719437
 20
9.099785
 30
0.0
 40
0.05
210
0.0
220
0.0
230
1.0
  0
CIRCLE
  5
143
100
AcDbEntity
  8
0
370
    35
390
0
 62
     7
 48
0.03937
100
AcDbCircle
 10
12.719437
 20
8.599786
 30
0.0
 40
0.05
210
0.0
220
0.0
230
1.0
  0
CIRCLE
  5
144
100
AcDbEntity
  8
0
370
    35
390
0
 62
     7
 48
0.03937
100
AcDbCircle
 10
12.719437
 20
8.099785
 30
0.0
 40
0.05
210
0.0
220
0.0
230
1.0
  0
CIRCLE
  5
145
100
AcDbEntity
  8
0
370
    35
390
0
 62
     7
 48
0.03937
100
AcDbCircle
 10
12.719437
 20
7.599785
 30
0.0
 40
0.05
210
0.0
220
0.0
230
1.0
  0
CIRCLE
  5
146
100
AcDbEntity
  8
0
370
    35
390
0
 62
     7
 48
0.03937
100
AcDbCircle
 10
12.719437
 20
7.099785
 30
0.0
 40
0.05
210
0.0
220
0.0
230
1.0
  0
CIRCLE
  5
147
100
AcDbEntity
  8
0
370
    35
390
0
 62
     7
 48
0.03937
100
AcDbCircle
 10
12.719437
 20
6.599785
 30
0.0
 40
0.05
210
0.0
220
0.0
230
1.0
  0
CIRCLE
  5
148
100
AcDbEntity
  8
0
370
    35
390
0
 62
     7
 48
0.03937
100
AcDbCircle
 10
12.719437
 20
6.099786
 30
0.0
 40
0.05
210
0.0
220
0.0
230
1.0
  0
CIRCLE
  5
149
100
AcDbEntity
  8
0
370
    35
390
0
 62
     7
 48
0.03937
100
AcDbCircle
 10
12.719437
 20
5.599785
 30
0.0
 40
0.05
210
0.0
220
0.0
230
1.0
  0
CIRCLE
  5
14A
100
AcDbEntity
  8
0
370
    35
390
0
 62
     7
 48
0.03937
100
AcDbCircle
 10
12.719437
 20
5.099785
 30
0.0
 40
0.05
210
0.0
220
0.0
230
1.0
  0
CIRCLE
  5
14B
100
AcDbEntity
  8
0
370
    35
390
0
 62
     7
 48
0.03937
100
AcDbCircle
 10
12.719437
 20
4.599785
 30
0.0
 40
0.05
210
0.0
220
0.0
230
1.0
  0
CIRCLE
  5
14C
100
AcDbEntity
  8
0
370
    35
390
0
 62
     7
 48
0.03937
100
AcDbCircle
 10
12.719437
 20
4.099785
 30
0.0
 40
0.05
210
0.0
220
0.0
230
1.0
  0
CIRCLE
  5
14D
100
AcDbEntity
  8
0
370
    35
390
0
 62
     7
 48
0.03937
100
AcDbCircle
 10
12.719437
 20
3.599785
 30
0.0
 40
0.05
210
0.0
220
0.0
230
1.0
  0
CIRCLE
  5
14E
100
AcDbEntity
  8
0
370
    35
390
0
 62
     7
 48
0.03937
100
AcDbCircle
 10
12.719437
 20
3.099785
 30
0.0
 40
0.05
210
0.0
220
0.0
230
1.0
  0
CIRCLE
  5
14F
100
AcDbEntity
  8
0
370
    35
390
0
 62
     7
 48
0.03937
100
AcDbCircle
 10
12.719437
 20
2.599785
 30
0.0
 40
0.05
210
0.0
220
0.0
230
1.0
  0
CIRCLE
  5
150
100
AcDbEntity
  8
0
370
    35
390
0
 62
     7
 48
0.03937
100
AcDbCircle
 10
12.719437
 20
2.099785
 30
0.0
 40
0.05
210
0.0
220
0.0
230
1.0
  0
CIRCLE
  5
151
100
AcDbEntity
  8
0
370
    35
390
0
 62
     7
 48
0.03937
100
AcDbCircle
 10
12.719437
 20
1.599785
 30
0.0
 40
0.05
210
0.0
220
0.0
230
1.0
  0
CIRCLE
  5
152
100
AcDbEntity
  8
0
370
    35
390
0
 62
     7
 48
0.03937
100
AcDbCircle
 10
12.719437
 20
1.099785
 30
0.0
 40
0.05
210
0.0
220
0.0
230
1.0
  0
CIRCLE
  5
153
100
AcDbEntity
  8
0
370
    35
390
0
 62
     7
 48
0.03937
100
AcDbCircle
 10
12.719437
 20
0.599785
 30
0.0
 40
0.05
210
0.0
220
0.0
230
1.0
  0
CIRCLE
  5
154
100
AcDbEntity
  8
0
370
    35
390
0
 62
     7
 48
0.03937
100
AcDbCircle
 10
12.719437
 20
0.099785
 30
0.0
 40
0.05
210
0.0
220
0.0
230
1.0
  0
CIRCLE
  5
155
100
AcDbEntity
  8
0
370
    35
390
0
 62
     7
 48
0.03937
100
AcDbCircle
 10
12.719437
 20
-0.400215
 30
0.0
 40
0.05
210
0.0
220
0.0
230
1.0
  0
CIRCLE
  5
156
100
AcDbEntity
  8
0
370
    35
390
0
 62
     7
 48
0.03937
100
AcDbCircle
 10
12.719437
 20
-0.900215
 30
0.0
 40
0.05
210
0.0
220
0.0
230
1.0
  0
CIRCLE
  5
157
100
AcDbEntity
  8
0
370
    35
390
0
 62
     7
 48
0.03937
100
AcDbCircle
 10
12.719437
 20
-1.400215
 30
0.0
 40
0.05
210
0.0
220
0.0
230
1.0
  0
CIRCLE
  5
158
100
AcDbEntity
  8
0
370
    35
390
0
 62
     7
 48
0.03937
100
AcDbCircle
 10
12.719437
 20
-1.900215
 30
0.0
 40
0.05
210
0.0
220
0.0
230
1.0
  0
CIRCLE
  5
159
100
AcDbEntity
  8
0
370
    35
390
0
 62
     7
 48
0.03937
100
AcDbCircle
 10
12.719437
 20
-2.400215
 30
0.0
 40
0.05
210
0.0
220
0.0
230
1.0
  0
CIRCLE
  5
15A
100
AcDbEntity
  8
0
370
    35
390
0
 62
     7
 48
0.03937
100
AcDbCircle
 10
12.719437
 20
-2.900215
 30
0.0
 40
0.05
210
0.0
220
0.0
230
1.0
  0
CIRCLE
  5
15B
100
AcDbEntity
  8
0
370
    35
390
0
 62
     7
 48
0.03937
100
AcDbCircle
 10
12.719437
 20
-3.400215
 30
0.0
 40
0.05
210
0.0
220
0.0
230
1.0
  0
CIRCLE
  5
15C
100
AcDbEntity
  8
0
370
    35
390
0
 62
     7
 48
0.03937
100
AcDbCircle
 10
12.719437
 20
-3.900215
 30
0.0
 40
0.05
210
0.0
220
0.0
230
1.0
  0
CIRCLE
  5
15D
100
AcDbEntity
  8
0
370
    35
390
0
 62
     7
 48
0.03937
100
AcDbCircle
 10
12.719437
 20
-4.400215
 30
0.0
 40
0.05
210
0.0
220
0.0
230
1.0
  0
CIRCLE
  5
15E
100
AcDbEntity
  8
0
370
    35
390
0
 62
     7
 48
0.03937
100
AcDbCircle
 10
12.719437
 20
-4.900215
 30
0.0
 40
0.05
210
0.0
220
0.0
230
1.0
  0
CIRCLE
  5
15F
100
AcDbEntity
  8
0
370
    35
390
0
 62
     7
 48
0.03937
100
AcDbCircle
 10
12.719437
 20
-5.400215
 30
0.0
 40
0.05
210
0.0
220
0.0
230
1.0
  0
CIRCLE
  5
160
100
AcDbEntity
  8
0
370
    35
390
0
 62
     7
 48
0.03937
100
AcDbCircle
 10
15.219437
 20
16.099786
 30
0.0
 40
0.05
210
0.0
220
0.0
230
1.0
  0
CIRCLE
  5
161
100
AcDbEntity
  8
0
370
    35
390
0
 62
     7
 48
0.03937
100
AcDbCircle
 10
15.219437
 20
15.599786
 30
0.0
 40
0.05
210
0.0
220
0.0
230
1.0
  0
CIRCLE
  5
162
100
AcDbEntity
  8
0
370
    35
390
0
 62
     7
 48
0.03937
100
AcDbCircle
 10
15.219437
 20
15.099785
 30
0.0
 40
0.05
210
0.0
220
0.0
230
1.0
  0
CIRCLE
  5
163
100
AcDbEntity
  8
0
370
    35
390
0
 62
     7
 48
0.03937
100
AcDbCircle
 10
15.219437
 20
14.599785
 30
0.0
 40
0.05
210
0.0
220
0.0
230
1.0
  0
CIRCLE
  5
164
100
AcDbEntity
  8
0
370
    35
390
0
 62
     7
 48
0.03937
100
AcDbCircle
 10
15.219437
 20
14.099784
 30
0.0
 40
0.05
210
0.0
220
0.0
230
1.0
  0
CIRCLE
  5
165
100
AcDbEntity
  8
0
370
    35
390
0
 62
     7
 48
0.03937
100
AcDbCircle
 10
15.219437
 20
13.599786
 30
0.0
 40
0.05
210
0.0
220
0.0
230
1.0
  0
CIRCLE
  5
166
100
AcDbEntity
  8
0
370
    35
390
0
 62
     7
 48
0.03937
100
AcDbCircle
 10
15.219437
 20
13.099786
 30
0.0
 40
0.05
210
0.0
220
0.0
230
1.0
  0
CIRCLE
  5
167
100
AcDbEntity
  8
0
370
    35
390
0
 62
     7
 48
0.03937
100
AcDbCircle
 10
15.219437
 20
12.599785
 30
0.0
 40
0.05
210
0.0
220
0.0
230
1.0
  0
CIRCLE
  5
168
100
AcDbEntity
  8
0
370
    35
390
0
 62
     7
 48
0.03937
100
AcDbCircle
 10
15.219437
 20
12.099785
 30
0.0
 40
0.05
210
0.0
220
0.0
230
1.0
  0
CIRCLE
  5
169
100
AcDbEntity
  8
0
370
    35
390
0
 62
     7
 48
0.03937
100
AcDbCircle
 10
15.219437
 20
11.599784
 30
0.0
 40
0.05
210
0.0
220
0.0
230
1.0
  0
CIRCLE
  5
16A
100
AcDbEntity
  8
0
370
    35
390
0
 62
     7
 48
0.03937
100
AcDbCircle
 10
15.219437
 20
11.099786
 30
0.0
 40
0.05
210
0.0
220
0.0
230
1.0
  0
CIRCLE
  5
16B
100
AcDbEntity
  8
0
370
    35
390
0
 62
     7
 48
0.03937
100
AcDbCircle
 10
15.219437
 20
10.599786
 30
0.0
 40
0.05
210
0.0
220
0.0
230
1.0
  0
CIRCLE
  5
16C
100
AcDbEntity
  8
0
370
    35
390
0
 62
     7
 48
0.03937
100
AcDbCircle
 10
15.219437
 20
10.099785
 30
0.0
 40
0.05
210
0.0
220
0.0
230
1.0
  0
CIRCLE
  5
16D
100
AcDbEntity
  8
0
370
    35
390
0
 62
     7
 48
0.03937
100
AcDbCircle
 10
15.219437
 20
9.599785
 30
0.0
 40
0.05
210
0.0
220
0.0
230
1.0
  0
CIRCLE
  5
16E
100
AcDbEntity
  8
0
370
    35
390
0
 62
     7
 48
0.03937
100
AcDbCircle
 10
15.219437
 20
9.099785
 30
0.0
 40
0.05
210
0.0
220
0.0
230
1.0
  0
CIRCLE
  5
16F
100
AcDbEntity
  8
0
370
    35
390
0
 62
     7
 48
0.03937
100
AcDbCircle
 10
15.219437
 20
8.599786
 30
0.0
 40
0.05
210
0.0
220
0.0
230
1.0
  0
CIRCLE
  5
170
100
AcDbEntity
  8
0
370
    35
390
0
 62
     7
 48
0.03937
100
AcDbCircle
 10
15.219437
 20
8.099785
 30
0.0
 40
0.05
210
0.0
220
0.0
230
1.0
  0
CIRCLE
  5
171
100
AcDbEntity
  8
0
370
    35
390
0
 62
     7
 48
0.03937
100
AcDbCircle
 10
15.219437
 20
7.599785
 30
0.0
 40
0.05
210
0.0
220
0.0
230
1.0
  0
CIRCLE
  5
172
100
AcDbEntity
  8
0
370
    35
390
0
 62
     7
 48
0.03937
100
AcDbCircle
 10
15.219437
 20
7.099785
 30
0.0
 40
0.05
210
0.0
220
0.0
230
1.0
  0
CIRCLE
  5
173
100
AcDbEntity
  8
0
370
    35
390
0
 62
     7
 48
0.03937
100
AcDbCircle
 10
15.219437
 20
6.599785
 30
0.0
 40
0.05
210
0.0
220
0.0
230
1.0
  0
CIRCLE
  5
174
100
AcDbEntity
  8
0
370
    35
390
0
 62
     7
 48
0.03937
100
AcDbCircle
 10
15.219437
 20
6.099786
 30
0.0
 40
0.05
210
0.0
220
0.0
230
1.0
  0
CIRCLE
  5
175
100
AcDbEntity
  8
0
370
    35
390
0
 62
     7
 48
0.03937
100
AcDbCircle
 10
15.219437
 20
5.599785
 30
0.0
 40
0.05
210
0.0
220
0.0
230
1.0
  0
CIRCLE
  5
176
100
AcDbEntity
  8
0
370
    35
390
0
 62
     7
 48
0.03937
100
AcDbCircle
 10
15.219437
 20
5.099785
 30
0.0
 40
0.05
210
0.0
220
0.0
230
1.0
  0
CIRCLE
  5
177
100
AcDbEntity
  8
0
370
    35
390
0
 62
     7
 48
0.03937
100
AcDbCircle
 10
15.219437
 20
4.599785
 30
0.0
 40
0.05
210
0.0
220
0.0
230
1.0
  0
CIRCLE
  5
178
100
AcDbEntity
  8
0
370
    35
390
0
 62
     7
 48
0.03937
100
AcDbCircle
 10
15.219437
 20
4.099785
 30
0.0
 40
0.05
210
0.0
220
0.0
230
1.0
  0
CIRCLE
  5
179
100
AcDbEntity
  8
0
370
    35
390
0
 62
     7
 48
0.03937
100
AcDbCircle
 10
15.219437
 20
3.599785
 30
0.0
 40
0.05
210
0.0
220
0.0
230
1.0
  0
CIRCLE
  5
17A
100
AcDbEntity
  8
0
370
    35
390
0
 62
     7
 48
0.03937
100
AcDbCircle
 10
15.219437
 20
3.099785
 30
0.0
 40
0.05
210
0.0
220
0.0
230
1.0
  0
CIRCLE
  5
17B
100
AcDbEntity
  8
0
370
    35
390
0
 62
     7
 48
0.03937
100
AcDbCircle
 10
15.219437
 20
2.599785
 30
0.0
 40
0.05
210
0.0
220
0.0
230
1.0
  0
CIRCLE
  5
17C
100
AcDbEntity
  8
0
370
    35
390
0
 62
     7
 48
0.03937
100
AcDbCircle
 10
15.219437
 20
2.099785
 30
0.0
 40
0.05
210
0.0
220
0.0
230
1.0
  0
CIRCLE
  5
17D
100
AcDbEntity
  8
0
370
    35
390
0
 62
     7
 48
0.03937
100
AcDbCircle
 10
15.219437
 20
1.599785
 30
0.0
 40
0.05
210
0.0
220
0.0
230
1.0
  0
CIRCLE
  5
17E
100
AcDbEntity
  8
0
370
    35
390
0
 62
     7
 48
0.03937
100
AcDbCircle
 10
15.219437
 20
1.099785
 30
0.0
 40
0.05
210
0.0
220
0.0
230
1.0
  0
CIRCLE
  5
17F
100
AcDbEntity
  8
0
370
    35
390
0
 62
     7
 48
0.03937
100
AcDbCircle
 10
15.219437
 20
0.599785
 30
0.0
 40
0.05
210
0.0
220
0.0
230
1.0
  0
CIRCLE
  5
180
100
AcDbEntity
  8
0
370
    35
390
0
 62
     7
 48
0.03937
100
AcDbCircle
 10
15.219437
 20
0.099785
 30
0.0
 40
0.05
210
0.0
220
0.0
230
1.0
  0
CIRCLE
  5
181
100
AcDbEntity
  8
0
370
    35
390
0
 62
     7
 48
0.03937
100
AcDbCircle
 10
15.219437
 20
-0.400215
 30
0.0
 40
0.05
210
0.0
220
0.0
230
1.0
  0
CIRCLE
  5
182
100
AcDbEntity
  8
0
370
    35
390
0
 62
     7
 48
0.03937
100
AcDbCircle
 10
15.219437
 20
-0.900215
 30
0.0
 40
0.05
210
0.0
220
0.0
230
1.0
  0
CIRCLE
  5
183
100
AcDbEntity
  8
0
370
    35
390
0
 62
     7
 48
0.03937
100
AcDbCircle
 10
15.219437
 20
-1.400215
 30
0.0
 40
0.05
210
0.0
220
0.0
230
1.0
  0
CIRCLE
  5
184
100
AcDbEntity
  8
0
370
    35
390
0
 62
     7
 48
0.03937
100
AcDbCircle
 10
15.219437
 20
-1.900215
 30
0.0
 40
0.05
210
0.0
220
0.0
230
1.0
  0
CIRCLE
  5
185
100
AcDbEntity
  8
0
370
    35
390
0
 62
     7
 48
0.03937
100
AcDbCircle
 10
15.219437
 20
-2.400215
 30
0.0
 40
0.05
210
0.0
220
0.0
230
1.0
  0
CIRCLE
  5
186
100
AcDbEntity
  8
0
370
    35
390
0
 62
     7
 48
0.03937
100
AcDbCircle
 10
15.219437
 20
-2.900215
 30
0.0
 40
0.05
210
0.0
220
0.0
230
1.0
  0
CIRCLE
  5
187
100
AcDbEntity
  8
0
370
    35
390
0
 62
     7
 48
0.03937
100
AcDbCircle
 10
15.219437
 20
-3.400215
 30
0.0
 40
0.05
210
0.0
220
0.0
230
1.0
  0
CIRCLE
  5
188
100
AcDbEntity
  8
0
370
    35
390
0
 62
     7
 48
0.03937
100
AcDbCircle
 10
15.219437
 20
-3.900215
 30
0.0
 40
0.05
210
0.0
220
0.0
230
1.0
  0
CIRCLE
  5
189
100
AcDbEntity
  8
0
370
    35
390
0
 62
     7
 48
0.03937
100
AcDbCircle
 10
15.219437
 20
-4.400215
 30
0.0
 40
0.05
210
0.0
220
0.0
230
1.0
  0
CIRCLE
  5
18A
100
AcDbEntity
  8
0
370
    35
390
0
 62
     7
 48
0.03937
100
AcDbCircle
 10
15.219437
 20
-4.900215
 30
0.0
 40
0.05
210
0.0
220
0.0
230
1.0
  0
CIRCLE
  5
18B
100
AcDbEntity
  8
0
370
    35
390
0
 62
     7
 48
0.03937
100
AcDbCircle
 10
15.219437
 20
-5.400215
 30
0.0
 40
0.05
210
0.0
220
0.0
230
1.0
  0
LINE
  5
18C
100
AcDbEntity
  8
0
370
    35
390
0
 62
     7
 48
0.03937
100
AcDbLine
 10
15.469437
 20
16.327914
 30
0.0
 11
12.469437
 21
16.327914
 31
0.0
210
0.0
220
0.0
230
1.0
  0
LINE
  5
18D
100
AcDbEntity
  8
0
370
    35
390
0
 62
     7
 48
0.03937
100
AcDbLine
 10
10.469437
 20
3.149785
 30
0.0
 11
3.269437
 21
3.149785
 31
0.0
210
0.0
220
0.0
230
1.0
  0
LINE
  5
18E
100
AcDbEntity
  8
0
370
    35
390
0
 62
     7
 48
0.03937
100
AcDbLine
 10
10.469437
 20
3.149785
 30
0.0
 11
10.469437
 21
1.105341
 31
0.0
210
0.0
220
0.0
230
1.0
  0
LINE
  5
18F
100
AcDbEntity
  8
0
370
    35
390
0
 62
     7
 48
0.03937
100
AcDbLine
 10
10.547485
 20
0.402902
 30
0.0
 11
11.1391
 21
-2.226493
 31
0.0
210
0.0
220
0.0
230
1.0
  0
ARC
  5
190
100
AcDbEntity
  8
0
370
    35
390
0
 62
     7
 48
0.03937
100
AcDbCircle
 10
13.669437
 20
1.105341
 30
0.0
 40
3.2
210
0.0
220
0.0
230
1.0
100
AcDbArc
 50
179.999995
 51
192.680378
  0
LINE
  5
191
100
AcDbEntity
  8
0
370
    35
390
0
 62
     7
 48
0.03937
100
AcDbLine
 10
3.269437
 20
3.149785
 30
0.0
 11
3.269437
 21
1.105341
 31
0.0
210
0.0
220
0.0
230
1.0
  0
LINE
  5
192
100
AcDbEntity
  8
0
370
    35
390
0
 62
     7
 48
0.03937
100
AcDbLine
 10
3.191388
 20
0.402902
 30
0.0
 11
2.599774
 21
-2.226493
 31
0.0
210
0.0
220
0.0
230
1.0
  0
ARC
  5
193
100
AcDbEntity
  8
0
370
    35
390
0
 62
     7
 48
0.03937
100
AcDbCircle
 10
0.069437
 20
1.105341
 30
0.0
 40
3.2
210
0.0
220
0.0
230
1.0
100
AcDbArc
 50
347.319617
 51
0.0
  0
ARC
  5
194
100
AcDbEntity
  8
0
370
    35
390
0
 62
     7
 48
0.03937
100
AcDbCircle
 10
6.869437
 20
-2.38007
 30
0.0
 40
3.2
210
0.0
220
0.0
230
1.0
100
AcDbArc
 50
258.111343
 51
281.888659
  0
ARC
  5
195
100
AcDbEntity
  8
0
370
    35
390
0
 62
     7
 48
0.03937
100
AcDbCircle
 10
5.721726
 20
-2.928932
 30
0.0
 40
3.2
210
0.0
220
0.0
230
1.0
100
AcDbArc
 50
167.319622
 51
199.212047
  0
LINE
  5
196
100
AcDbEntity
  8
0
370
    35
390
0
 62
     7
 48
0.03937
100
AcDbLine
 10
6.210203
 20
-5.511429
 30
0.0
 11
3.881217
 21
-5.021116
 31
0.0
210
0.0
220
0.0
230
1.0
  0
ARC
  5
197
100
AcDbEntity
  8
0
370
    35
390
0
 62
     7
 48
0.03937
100
AcDbCircle
 10
4.210834
 20
-3.455436
 30
0.0
 40
1.6
210
0.0
220
0.0
230
1.0
100
AcDbArc
 50
199.212047
 51
258.111343
  0
ARC
  5
198
100
AcDbEntity
  8
0
370
    35
390
0
 62
     7
 48
0.03937
100
AcDbCircle
 10
8.017149
 20
-2.928932
 30
0.0
 40
3.2
210
0.0
220
0.0
230
1.0
100
AcDbArc
 50
340.787957
 51
12.680383
  0
LINE
  5
199
100
AcDbEntity
  8
0
370
    35
390
0
 62
     7
 48
0.03937
100
AcDbLine
 10
9.857657
 20
-5.021116
 30
0.0
 11
7.528671
 21
-5.511429
 31
0.0
210
0.0
220
0.0
230
1.0
  0
ARC
  5
19A
100
AcDbEntity
  8
0
370
    35
390
0
 62
     7
 48
0.03937
100
AcDbCircle
 10
9.52804
 20
-3.455436
 30
0.0
 40
1.6
210
0.0
220
0.0
230
1.0
100
AcDbArc
 50
281.888659
 51
340.787957
  0
CIRCLE
  5
19B
100
AcDbEntity
  8
0
370
    35
390
0
 62
     7
 48
0.03937
100
AcDbCircle
 10
9.225687
 20
-2.306465
 30
0.0
 40
0.05
210
0.0
220
0.0
230
1.0
  0
CIRCLE
  5
19C
100
AcDbEntity
  8
0
370
    35
390
0
 62
     7
 48
0.03937
100
AcDbCircle
 10
4.513187
 20
-2.306465
 30
0.0
 40
0.05
210
0.0
220
0.0
230
1.0
  0
CIRCLE
  5
19D
100
AcDbEntity
  8
0
370
    35
390
0
 62
     7
 48
0.03937
100
AcDbCircle
 10
8.913187
 20
-1.993965
 30
0.0
 40
0.05
210
0.0
220
0.0
230
1.0
  0
CIRCLE
  5
19E
100
AcDbEntity
  8
0
370
    35
390
0
 62
     7
 48
0.03937
100
AcDbCircle
 10
4.825687
 20
-2.306465
 30
0.0
 40
0.05
210
0.0
220
0.0
230
1.0
  0
CIRCLE
  5
19F
100
AcDbEntity
  8
0
370
    35
390
0
 62
     7
 48
0.03937
100
AcDbCircle
 10
8.913187
 20
-2.306465
 30
0.0
 40
0.05
210
0.0
220
0.0
230
1.0
  0
CIRCLE
  5
1A0
100
AcDbEntity
  8
0
370
    35
390
0
 62
     7
 48
0.03937
100
AcDbCircle
 10
4.825687
 20
-1.993965
 30
0.0
 40
0.05
210
0.0
220
0.0
230
1.0
  0
CIRCLE
  5
1A1
100
AcDbEntity
  8
0
370
    35
390
0
 62
     7
 48
0.03937
100
AcDbCircle
 10
9.225687
 20
-1.993965
 30
0.0
 40
0.05
210
0.0
220
0.0
230
1.0
  0
CIRCLE
  5
1A2
100
AcDbEntity
  8
0
370
    35
390
0
 62
     7
 48
0.03937
100
AcDbCircle
 10
4.513187
 20
-1.993965
 30
0.0
 40
0.05
210
0.0
220
0.0
230
1.0
  0
CIRCLE
  5
1A3
100
AcDbEntity
  8
0
370
    35
390
0
 62
     7
 48
0.03937
100
AcDbCircle
 10
3.494449
 20
2.399938
 30
0.0
 40
0.05
210
0.0
220
0.0
230
1.0
  0
CIRCLE
  5
1A4
100
AcDbEntity
  8
0
370
    35
390
0
 62
     7
 48
0.03937
100
AcDbCircle
 10
3.503443
 20
2.899785
 30
0.0
 40
0.05
210
0.0
220
0.0
230
1.0
  0
CIRCLE
  5
1A5
100
AcDbEntity
  8
0
370
    35
390
0
 62
     7
 48
0.03937
100
AcDbCircle
 10
2.807085
 20
-3.027039
 30
0.0
 40
0.05
210
0.0
220
0.0
230
1.0
  0
CIRCLE
  5
1A6
100
AcDbEntity
  8
0
370
    35
390
0
 62
     7
 48
0.03937
100
AcDbCircle
 10
3.036609
 20
-3.989942
 30
0.0
 40
0.05
210
0.0
220
0.0
230
1.0
  0
CIRCLE
  5
1A7
100
AcDbEntity
  8
0
370
    35
390
0
 62
     7
 48
0.03937
100
AcDbCircle
 10
5.22194
 20
-5.033929
 30
0.0
 40
0.05
210
0.0
220
0.0
230
1.0
  0
CIRCLE
  5
1A8
100
AcDbEntity
  8
0
370
    35
390
0
 62
     7
 48
0.03937
100
AcDbCircle
 10
10.953468
 20
-2.994798
 30
0.0
 40
0.05
210
0.0
220
0.0
230
1.0
  0
CIRCLE
  5
1A9
100
AcDbEntity
  8
0
370
    35
390
0
 62
     7
 48
0.03937
100
AcDbCircle
 10
10.209611
 20
2.927351
 30
0.0
 40
0.05
210
0.0
220
0.0
230
1.0
  0
CIRCLE
  5
1AA
100
AcDbEntity
  8
0
370
    35
390
0
 62
     7
 48
0.03937
100
AcDbCircle
 10
3.510018
 20
1.900208
 30
0.0
 40
0.05
210
0.0
220
0.0
230
1.0
  0
CIRCLE
  5
1AB
100
AcDbEntity
  8
0
370
    35
390
0
 62
     7
 48
0.03937
100
AcDbCircle
 10
3.530432
 20
1.400638
 30
0.0
 40
0.05
210
0.0
220
0.0
230
1.0
  0
CIRCLE
  5
1AC
100
AcDbEntity
  8
0
370
    35
390
0
 62
     7
 48
0.03937
100
AcDbCircle
 10
3.518922
 20
0.900995
 30
0.0
 40
0.05
210
0.0
220
0.0
230
1.0
  0
CIRCLE
  5
1AD
100
AcDbEntity
  8
0
370
    35
390
0
 62
     7
 48
0.03937
100
AcDbCircle
 10
3.449995
 20
0.406028
 30
0.0
 40
0.05
210
0.0
220
0.0
230
1.0
  0
CIRCLE
  5
1AE
100
AcDbEntity
  8
0
370
    35
390
0
 62
     7
 48
0.03937
100
AcDbCircle
 10
3.34279
 20
-0.082304
 30
0.0
 40
0.05
210
0.0
220
0.0
230
1.0
  0
CIRCLE
  5
1AF
100
AcDbEntity
  8
0
370
    35
390
0
 62
     7
 48
0.03937
100
AcDbCircle
 10
3.227606
 20
-0.568848
 30
0.0
 40
0.05
210
0.0
220
0.0
230
1.0
  0
CIRCLE
  5
1B0
100
AcDbEntity
  8
0
370
    35
390
0
 62
     7
 48
0.03937
100
AcDbCircle
 10
3.114987
 20
-1.055997
 30
0.0
 40
0.05
210
0.0
220
0.0
230
1.0
  0
CIRCLE
  5
1B1
100
AcDbEntity
  8
0
370
    35
390
0
 62
     7
 48
0.03937
100
AcDbCircle
 10
3.005036
 20
-1.543768
 30
0.0
 40
0.05
210
0.0
220
0.0
230
1.0
  0
CIRCLE
  5
1B2
100
AcDbEntity
  8
0
370
    35
390
0
 62
     7
 48
0.03937
100
AcDbCircle
 10
2.904372
 20
-2.033506
 30
0.0
 40
0.05
210
0.0
220
0.0
230
1.0
  0
CIRCLE
  5
1B3
100
AcDbEntity
  8
0
370
    35
390
0
 62
     7
 48
0.03937
100
AcDbCircle
 10
2.830785
 20
-2.527952
 30
0.0
 40
0.05
210
0.0
220
0.0
230
1.0
  0
CIRCLE
  5
1B4
100
AcDbEntity
  8
0
370
    35
390
0
 62
     7
 48
0.03937
100
AcDbCircle
 10
2.862651
 20
-3.523133
 30
0.0
 40
0.05
210
0.0
220
0.0
230
1.0
  0
CIRCLE
  5
1B5
100
AcDbEntity
  8
0
370
    35
390
0
 62
     7
 48
0.03937
100
AcDbCircle
 10
3.353758
 20
-4.373017
 30
0.0
 40
0.05
210
0.0
220
0.0
230
1.0
  0
CIRCLE
  5
1B6
100
AcDbEntity
  8
0
370
    35
390
0
 62
     7
 48
0.03937
100
AcDbCircle
 10
3.778389
 20
-4.633849
 30
0.0
 40
0.05
210
0.0
220
0.0
230
1.0
  0
CIRCLE
  5
1B7
100
AcDbEntity
  8
0
370
    35
390
0
 62
     7
 48
0.03937
100
AcDbCircle
 10
4.250627
 20
-4.796557
 30
0.0
 40
0.05
210
0.0
220
0.0
230
1.0
  0
CIRCLE
  5
1B8
100
AcDbEntity
  8
0
370
    35
390
0
 62
     7
 48
0.03937
100
AcDbCircle
 10
4.736905
 20
-4.91274
 30
0.0
 40
0.05
210
0.0
220
0.0
230
1.0
  0
CIRCLE
  5
1B9
100
AcDbEntity
  8
0
370
    35
390
0
 62
     7
 48
0.03937
100
AcDbCircle
 10
5.699877
 20
-5.180701
 30
0.0
 40
0.05
210
0.0
220
0.0
230
1.0
  0
CIRCLE
  5
1BA
100
AcDbEntity
  8
0
370
    35
390
0
 62
     7
 48
0.03937
100
AcDbCircle
 10
6.179224
 20
-5.322574
 30
0.0
 40
0.05
210
0.0
220
0.0
230
1.0
  0
CIRCLE
  5
1BB
100
AcDbEntity
  8
0
370
    35
390
0
 62
     7
 48
0.03937
100
AcDbCircle
 10
6.672392
 20
-5.399953
 30
0.0
 40
0.05
210
0.0
220
0.0
230
1.0
  0
CIRCLE
  5
1BC
100
AcDbEntity
  8
0
370
    35
390
0
 62
     7
 48
0.03937
100
AcDbCircle
 10
7.170023
 20
-5.364935
 30
0.0
 40
0.05
210
0.0
220
0.0
230
1.0
  0
CIRCLE
  5
1BD
100
AcDbEntity
  8
0
370
    35
390
0
 62
     7
 48
0.03937
100
AcDbCircle
 10
7.654071
 20
-5.240787
 30
0.0
 40
0.05
210
0.0
220
0.0
230
1.0
  0
CIRCLE
  5
1BE
100
AcDbEntity
  8
0
370
    35
390
0
 62
     7
 48
0.03937
100
AcDbCircle
 10
8.13234
 20
-5.095031
 30
0.0
 40
0.05
210
0.0
220
0.0
230
1.0
  0
CIRCLE
  5
1BF
100
AcDbEntity
  8
0
370
    35
390
0
 62
     7
 48
0.03937
100
AcDbCircle
 10
8.618628
 20
-4.979509
 30
0.0
 40
0.05
210
0.0
220
0.0
230
1.0
  0
CIRCLE
  5
1C0
100
AcDbEntity
  8
0
370
    35
390
0
 62
     7
 48
0.03937
100
AcDbCircle
 10
9.112998
 20
-4.90522
 30
0.0
 40
0.05
210
0.0
220
0.0
230
1.0
  0
CIRCLE
  5
1C1
100
AcDbEntity
  8
0
370
    35
390
0
 62
     7
 48
0.03937
100
AcDbCircle
 10
9.607311
 20
-4.830843
 30
0.0
 40
0.05
210
0.0
220
0.0
230
1.0
  0
CIRCLE
  5
1C2
100
AcDbEntity
  8
0
370
    35
390
0
 62
     7
 48
0.03937
100
AcDbCircle
 10
10.081323
 20
-4.676224
 30
0.0
 40
0.05
210
0.0
220
0.0
230
1.0
  0
CIRCLE
  5
1C3
100
AcDbEntity
  8
0
370
    35
390
0
 62
     7
 48
0.03937
100
AcDbCircle
 10
10.481613
 20
-4.381069
 30
0.0
 40
0.05
210
0.0
220
0.0
230
1.0
  0
CIRCLE
  5
1C4
100
AcDbEntity
  8
0
370
    35
390
0
 62
     7
 48
0.03937
100
AcDbCircle
 10
10.75976
 20
-3.968148
 30
0.0
 40
0.05
210
0.0
220
0.0
230
1.0
  0
CIRCLE
  5
1C5
100
AcDbEntity
  8
0
370
    35
390
0
 62
     7
 48
0.03937
100
AcDbCircle
 10
10.908352
 20
-3.492176
 30
0.0
 40
0.05
210
0.0
220
0.0
230
1.0
  0
CIRCLE
  5
1C6
100
AcDbEntity
  8
0
370
    35
390
0
 62
     7
 48
0.03937
100
AcDbCircle
 10
10.931891
 20
-2.495512
 30
0.0
 40
0.05
210
0.0
220
0.0
230
1.0
  0
CIRCLE
  5
1C7
100
AcDbEntity
  8
0
370
    35
390
0
 62
     7
 48
0.03937
100
AcDbCircle
 10
10.860912
 20
-2.00075
 30
0.0
 40
0.05
210
0.0
220
0.0
230
1.0
  0
CIRCLE
  5
1C8
100
AcDbEntity
  8
0
370
    35
390
0
 62
     7
 48
0.03937
100
AcDbCircle
 10
10.75167
 20
-1.512912
 30
0.0
 40
0.05
210
0.0
220
0.0
230
1.0
  0
CIRCLE
  5
1C9
100
AcDbEntity
  8
0
370
    35
390
0
 62
     7
 48
0.03937
100
AcDbCircle
 10
10.622233
 20
-1.029966
 30
0.0
 40
0.05
210
0.0
220
0.0
230
1.0
  0
CIRCLE
  5
1CA
100
AcDbEntity
  8
0
370
    35
390
0
 62
     7
 48
0.03937
100
AcDbCircle
 10
10.492456
 20
-0.547109
 30
0.0
 40
0.05
210
0.0
220
0.0
230
1.0
  0
CIRCLE
  5
1CB
100
AcDbEntity
  8
0
370
    35
390
0
 62
     7
 48
0.03937
100
AcDbCircle
 10
10.378754
 20
-0.060281
 30
0.0
 40
0.05
210
0.0
220
0.0
230
1.0
  0
CIRCLE
  5
1CC
100
AcDbEntity
  8
0
370
    35
390
0
 62
     7
 48
0.03937
100
AcDbCircle
 10
10.291845
 20
0.432055
 30
0.0
 40
0.05
210
0.0
220
0.0
230
1.0
  0
CIRCLE
  5
1CD
100
AcDbEntity
  8
0
370
    35
390
0
 62
     7
 48
0.03937
100
AcDbCircle
 10
10.234893
 20
0.928729
 30
0.0
 40
0.05
210
0.0
220
0.0
230
1.0
  0
CIRCLE
  5
1CE
100
AcDbEntity
  8
0
370
    35
390
0
 62
     7
 48
0.03937
100
AcDbCircle
 10
10.204076
 20
1.42774
 30
0.0
 40
0.05
210
0.0
220
0.0
230
1.0
  0
CIRCLE
  5
1CF
100
AcDbEntity
  8
0
370
    35
390
0
 62
     7
 48
0.03937
100
AcDbCircle
 10
10.192706
 20
1.927583
 30
0.0
 40
0.05
210
0.0
220
0.0
230
1.0
  0
CIRCLE
  5
1D0
100
AcDbEntity
  8
0
370
    35
390
0
 62
     7
 48
0.03937
100
AcDbCircle
 10
10.195398
 20
2.427563
 30
0.0
 40
0.05
210
0.0
220
0.0
230
1.0
  0
ARC
  5
1D1
100
AcDbEntity
  8
0
370
    35
390
0
 62
     7
 48
0.03937
100
AcDbCircle
 10
9.204969
 20
4.48252
 30
0.0
 40
0.9
210
0.0
220
0.0
230
1.0
100
AcDbArc
 50
231.057558
 51
128.942442
  0
LINE
  5
1D2
100
AcDbEntity
  8
0
370
    35
390
0
 62
     7
 48
0.03937
100
AcDbLine
 10
8.639284
 20
3.782519
 30
0.0
 11
5.370655
 21
3.782519
 31
0.0
210
0.0
220
0.0
230
1.0
  0
ARC
  5
1D3
100
AcDbEntity
  8
0
370
    35
390
0
 62
     7
 48
0.03937
100
AcDbCircle
 10
4.804969
 20
4.48252
 30
0.0
 40
0.9
210
0.0
220
0.0
230
1.0
100
AcDbArc
 50
51.057559
 51
308.942441
  0
LINE
  5
1D4
100
AcDbEntity
  8
0
370
    35
390
0
 62
     7
 48
0.03937
100
AcDbLine
 10
8.639284
 20
5.18252
 30
0.0
 11
5.370655
 21
5.18252
 31
0.0
210
0.0
220
0.0
230
1.0
  0
CIRCLE
  5
1D5
100
AcDbEntity
  8
0
370
    35
390
0
 62
     7
 48
0.03937
100
AcDbCircle
 10
4.648719
 20
4.63877
 30
0.0
 40
0.05
210
0.0
220
0.0
230
1.0
  0
CIRCLE
  5
1D6
100
AcDbEntity
  8
0
370
    35
390
0
 62
     7
 48
0.03937
100
AcDbCircle
 10
4.648719
 20
4.326269
 30
0.0
 40
0.05
210
0.0
220
0.0
230
1.0
  0
CIRCLE
  5
1D7
100
AcDbEntity
  8
0
370
    35
390
0
 62
     7
 48
0.03937
100
AcDbCircle
 10
4.961219
 20
4.326269
 30
0.0
 40
0.05
210
0.0
220
0.0
230
1.0
  0
CIRCLE
  5
1D8
100
AcDbEntity
  8
0
370
    35
390
0
 62
     7
 48
0.03937
100
AcDbCircle
 10
4.961219
 20
4.63877
 30
0.0
 40
0.05
210
0.0
220
0.0
230
1.0
  0
CIRCLE
  5
1D9
100
AcDbEntity
  8
0
370
    35
390
0
 62
     7
 48
0.03937
100
AcDbCircle
 10
9.361219
 20
4.326269
 30
0.0
 40
0.05
210
0.0
220
0.0
230
1.0
  0
CIRCLE
  5
1DA
100
AcDbEntity
  8
0
370
    35
390
0
 62
     7
 48
0.03937
100
AcDbCircle
 10
9.048719
 20
4.326269
 30
0.0
 40
0.05
210
0.0
220
0.0
230
1.0
  0
CIRCLE
  5
1DB
100
AcDbEntity
  8
0
370
    35
390
0
 62
     7
 48
0.03937
100
AcDbCircle
 10
9.048719
 20
4.63877
 30
0.0
 40
0.05
210
0.0
220
0.0
230
1.0
  0
CIRCLE
  5
1DC
100
AcDbEntity
  8
0
370
    35
390
0
 62
     7
 48
0.03937
100
AcDbCircle
 10
9.361219
 20
4.63877
 30
0.0
 40
0.05
210
0.0
220
0.0
230
1.0
  0
LINE
  5
1DD
100
AcDbEntity
  8
0
370
    35
390
0
 62
     7
 48
0.014142
100
AcDbLine
 10
-6.130563
 20
11.349785
 30
0.0
 11
-5.730563
 21
11.749784
 31
0.0
210
0.0
220
0.0
230
1.0
  0
LINE
  5
1DE
100
AcDbEntity
  8
0
370
    35
390
0
 62
     7
 48
0.03937
100
AcDbLine
 10
-3.730562
 20
13.749786
 30
0.0
 11
-2.730563
 21
14.549786
 31
0.0
210
0.0
220
0.0
230
1.0
  0
LINE
  5
1DF
100
AcDbEntity
  8
0
370
    35
390
0
 62
     7
 48
0.03937
100
AcDbLine
 10
-1.730563
 20
13.749786
 30
0.0
 11
-2.730563
 21
14.549786
 31
0.0
210
0.0
220
0.0
230
1.0
  0
LINE
  5
1E0
100
AcDbEntity
  8
0
370
    35
390
0
 62
     7
 48
0.014142
100
AcDbLine
 10
0.669437
 20
11.349785
 30
0.0
 11
0.269437
 21
11.749784
 31
0.0
210
0.0
220
0.0
230
1.0
  0
LINE
  5
1E1
100
AcDbEntity
  8
0
370
    35
390
0
 62
     7
 48
0.03937
100
AcDbLine
 10
0.257657
 20
-5.021116
 30
0.0
 11
-2.07133
 21
-5.511429
 31
0.0
210
0.0
220
0.0
230
1.0
  0
ARC
  5
1E2
100
AcDbEntity
  8
0
370
    35
390
0
 62
     7
 48
0.03937
100
AcDbCircle
 10
-2.730563
 20
-2.38007
 30
0.0
 40
3.2
210
0.0
220
0.0
230
1.0
100
AcDbArc
 50
258.111343
 51
281.888659
  0
LINE
  5
1E3
100
AcDbEntity
  8
0
370
    35
390
0
 62
     7
 48
0.03937
100
AcDbLine
 10
-3.389796
 20
-5.511429
 30
0.0
 11
-5.718783
 21
-5.021116
 31
0.0
210
0.0
220
0.0
230
1.0
  0
ARC
  5
1E4
100
AcDbEntity
  8
0
370
    35
390
0
 62
     7
 48
0.03937
100
AcDbCircle
 10
-5.389165
 20
-3.455436
 30
0.0
 40
1.6
210
0.0
220
0.0
230
1.0
100
AcDbArc
 50
199.212047
 51
258.111343
  0
ARC
  5
1E5
100
AcDbEntity
  8
0
370
    35
390
0
 62
     7
 48
0.03937
100
AcDbCircle
 10
-3.878275
 20
-2.928932
 30
0.0
 40
3.2
210
0.0
220
0.0
230
1.0
100
AcDbArc
 50
167.319622
 51
199.212047
  0
LINE
  5
1E6
100
AcDbEntity
  8
0
370
    35
390
0
 62
     7
 48
0.03937
100
AcDbLine
 10
-6.408612
 20
0.402902
 30
0.0
 11
-7.000225
 21
-2.226493
 31
0.0
210
0.0
220
0.0
230
1.0
  0
LINE
  5
1E7
100
AcDbEntity
  8
0
370
    35
390
0
 62
     7
 48
0.03937
100
AcDbLine
 10
0.947486
 20
0.402902
 30
0.0
 11
1.5391
 21
-2.226493
 31
0.0
210
0.0
220
0.0
230
1.0
  0
ARC
  5
1E8
100
AcDbEntity
  8
0
370
    35
390
0
 62
     7
 48
0.03937
100
AcDbCircle
 10
-1.582851
 20
-2.928932
 30
0.0
 40
3.2
210
0.0
220
0.0
230
1.0
100
AcDbArc
 50
340.787957
 51
12.680383
  0
ARC
  5
1E9
100
AcDbEntity
  8
0
370
    35
390
0
 62
     7
 48
0.03937
100
AcDbCircle
 10
-0.07196
 20
-3.455436
 30
0.0
 40
1.6
210
0.0
220
0.0
230
1.0
100
AcDbArc
 50
281.888659
 51
340.787957
  0
ARC
  5
1EA
100
AcDbEntity
  8
0
370
    35
390
0
 62
     7
 48
0.03937
100
AcDbCircle
 10
4.069437
 20
1.105341
 30
0.0
 40
3.2
210
0.0
220
0.0
230
1.0
100
AcDbArc
 50
179.999995
 51
192.680378
  0
ARC
  5
1EB
100
AcDbEntity
  8
0
370
    35
390
0
 62
     7
 48
0.03937
100
AcDbCircle
 10
-9.530563
 20
1.105341
 30
0.0
 40
3.2
210
0.0
220
0.0
230
1.0
100
AcDbArc
 50
347.319617
 51
0.0
  0
LINE
  5
1EC
100
AcDbEntity
  8
0
370
    35
390
0
 62
     7
 48
0.03937
100
AcDbLine
 10
0.869437
 20
5.457559
 30
0.0
 11
0.869437
 21
1.105341
 31
0.0
210
0.0
220
0.0
230
1.0
  0
ARC
  5
1ED
100
AcDbEntity
  8
0
370
    35
390
0
 62
     7
 48
0.03937
100
AcDbCircle
 10
-8.730562
 20
5.457559
 30
0.0
 40
9.6
210
0.0
220
0.0
230
1.0
100
AcDbArc
 50
0.0
 51
10.619655
  0
LINE
  5
1EE
100
AcDbEntity
  8
0
370
    35
390
0
 62
     7
 48
0.03937
100
AcDbLine
 10
-6.330563
 20
5.457559
 30
0.0
 11
-6.330563
 21
1.105341
 31
0.0
210
0.0
220
0.0
230
1.0
  0
ARC
  5
1EF
100
AcDbEntity
  8
0
370
    35
390
0
 62
     7
 48
0.03937
100
AcDbCircle
 10
3.269437
 20
5.457559
 30
0.0
 40
9.6
210
0.0
220
0.0
230
1.0
100
AcDbArc
 50
169.380345
 51
180.000005
  0
LINE
  5
1F0
100
AcDbEntity
  8
0
370
    35
390
0
 62
     7
 48
0.03937
100
AcDbLine
 10
-6.130563
 20
11.349785
 30
0.0
 11
-5.872732
 21
10.189545
 31
0.0
210
0.0
220
0.0
230
1.0
  0
LINE
  5
1F1
100
AcDbEntity
  8
0
370
    35
390
0
 62
     7
 48
0.03937
100
AcDbLine
 10
-5.85134
 20
8.905644
 30
0.0
 11
-6.166136
 21
7.226729
 31
0.0
210
0.0
220
0.0
230
1.0
  0
ARC
  5
1F2
100
AcDbEntity
  8
0
370
    35
390
0
 62
     7
 48
0.03937
100
AcDbCircle
 10
-8.99653
 20
9.495367
 30
0.0
 40
3.2
210
0.0
220
0.0
230
1.0
100
AcDbArc
 50
349.380345
 51
12.528808
  0
LINE
  5
1F3
100
AcDbEntity
  8
0
370
    35
390
0
 62
     7
 48
0.03937
100
AcDbLine
 10
0.669437
 20
11.349785
 30
0.0
 11
0.411606
 21
10.189545
 31
0.0
210
0.0
220
0.0
230
1.0
  0
LINE
  5
1F4
100
AcDbEntity
  8
0
370
    35
390
0
 62
     7
 48
0.03937
100
AcDbLine
 10
0.390213
 20
8.905644
 30
0.0
 11
0.70501
 21
7.226729
 31
0.0
210
0.0
220
0.0
230
1.0
  0
ARC
  5
1F5
100
AcDbEntity
  8
0
370
    35
390
0
 62
     7
 48
0.03937
100
AcDbCircle
 10
3.535405
 20
9.495367
 30
0.0
 40
3.2
210
0.0
220
0.0
230
1.0
100
AcDbArc
 50
167.471198
 51
190.619655
  0
ARC
  5
1F6
100
AcDbEntity
  8
0
370
    35
390
0
 62
     7
 48
0.03937
100
AcDbCircle
 10
-4.730563
 20
13.573628
 30
0.0
 40
2.08
210
0.0
220
0.0
230
1.0
100
AcDbArc
 50
241.264347
 51
278.989298
  0
LINE
  5
1F7
100
AcDbEntity
  8
0
370
    35
390
0
 62
     7
 48
0.03937
100
AcDbLine
 10
-3.730562
 20
13.749786
 30
0.0
 11
-3.730562
 21
12.309349
 31
0.0
210
0.0
220
0.0
230
1.0
  0
ARC
  5
1F8
100
AcDbEntity
  8
0
370
    35
390
0
 62
     7
 48
0.03937
100
AcDbCircle
 10
-4.530563
 20
12.309349
 30
0.0
 40
0.8
210
0.0
220
0.0
230
1.0
100
AcDbArc
 50
278.989298
 51
360.0
  0
ARC
  5
1F9
100
AcDbEntity
  8
0
370
    35
390
0
 62
     7
 48
0.03937
100
AcDbCircle
 10
-0.930563
 20
12.309349
 30
0.0
 40
0.8
210
0.0
220
0.0
230
1.0
100
AcDbArc
 50
180.000005
 51
261.010704
  0
ARC
  5
1FA
100
AcDbEntity
  8
0
370
    35
390
0
 62
     7
 48
0.03937
100
AcDbCircle
 10
-0.730563
 20
13.573628
 30
0.0
 40
2.08
210
0.0
220
0.0
230
1.0
100
AcDbArc
 50
261.010704
 51
298.735655
  0
LINE
  5
1FB
100
AcDbEntity
  8
0
370
    35
390
0
 62
     7
 48
0.03937
100
AcDbLine
 10
-1.730563
 20
12.309349
 30
0.0
 11
-1.730563
 21
13.749786
 31
0.0
210
0.0
220
0.0
230
1.0
  0
CIRCLE
  5
1FC
100
AcDbEntity
  8
0
370
    35
390
0
 62
     7
 48
0.03937
100
AcDbCircle
 10
-6.097073
 20
2.902219
 30
0.0
 40
0.05
210
0.0
220
0.0
230
1.0
  0
CIRCLE
  5
1FD
100
AcDbEntity
  8
0
370
    35
390
0
 62
     7
 48
0.03937
100
AcDbCircle
 10
-6.793432
 20
-3.024606
 30
0.0
 40
0.05
210
0.0
220
0.0
230
1.0
  0
CIRCLE
  5
1FE
100
AcDbEntity
  8
0
370
    35
390
0
 62
     7
 48
0.03937
100
AcDbCircle
 10
-6.563907
 20
-3.987509
 30
0.0
 40
0.05
210
0.0
220
0.0
230
1.0
  0
CIRCLE
  5
1FF
100
AcDbEntity
  8
0
370
    35
390
0
 62
     7
 48
0.03937
100
AcDbCircle
 10
-4.378576
 20
-5.031495
 30
0.0
 40
0.05
210
0.0
220
0.0
230
1.0
  0
CIRCLE
  5
200
100
AcDbEntity
  8
0
370
    35
390
0
 62
     7
 48
0.03937
100
AcDbCircle
 10
1.352952
 20
-2.992365
 30
0.0
 40
0.05
210
0.0
220
0.0
230
1.0
  0
CIRCLE
  5
201
100
AcDbEntity
  8
0
370
    35
390
0
 62
     7
 48
0.03937
100
AcDbCircle
 10
0.609095
 20
2.929785
 30
0.0
 40
0.05
210
0.0
220
0.0
230
1.0
  0
CIRCLE
  5
202
100
AcDbEntity
  8
0
370
    35
390
0
 62
     7
 48
0.03937
100
AcDbCircle
 10
-6.106066
 20
2.402372
 30
0.0
 40
0.05
210
0.0
220
0.0
230
1.0
  0
CIRCLE
  5
203
100
AcDbEntity
  8
0
370
    35
390
0
 62
     7
 48
0.03937
100
AcDbCircle
 10
-6.090499
 20
1.902641
 30
0.0
 40
0.05
210
0.0
220
0.0
230
1.0
  0
CIRCLE
  5
204
100
AcDbEntity
  8
0
370
    35
390
0
 62
     7
 48
0.03937
100
AcDbCircle
 10
-6.070084
 20
1.403071
 30
0.0
 40
0.05
210
0.0
220
0.0
230
1.0
  0
CIRCLE
  5
205
100
AcDbEntity
  8
0
370
    35
390
0
 62
     7
 48
0.03937
100
AcDbCircle
 10
-6.081593
 20
0.903428
 30
0.0
 40
0.05
210
0.0
220
0.0
230
1.0
  0
CIRCLE
  5
206
100
AcDbEntity
  8
0
370
    35
390
0
 62
     7
 48
0.03937
100
AcDbCircle
 10
-6.150521
 20
0.408462
 30
0.0
 40
0.05
210
0.0
220
0.0
230
1.0
  0
CIRCLE
  5
207
100
AcDbEntity
  8
0
370
    35
390
0
 62
     7
 48
0.03937
100
AcDbCircle
 10
-6.257726
 20
-0.079871
 30
0.0
 40
0.05
210
0.0
220
0.0
230
1.0
  0
CIRCLE
  5
208
100
AcDbEntity
  8
0
370
    35
390
0
 62
     7
 48
0.03937
100
AcDbCircle
 10
-6.37291
 20
-0.566414
 30
0.0
 40
0.05
210
0.0
220
0.0
230
1.0
  0
CIRCLE
  5
209
100
AcDbEntity
  8
0
370
    35
390
0
 62
     7
 48
0.03937
100
AcDbCircle
 10
-6.485528
 20
-1.053563
 30
0.0
 40
0.05
210
0.0
220
0.0
230
1.0
  0
CIRCLE
  5
20A
100
AcDbEntity
  8
0
370
    35
390
0
 62
     7
 48
0.03937
100
AcDbCircle
 10
-6.595481
 20
-1.541334
 30
0.0
 40
0.05
210
0.0
220
0.0
230
1.0
  0
CIRCLE
  5
20B
100
AcDbEntity
  8
0
370
    35
390
0
 62
     7
 48
0.03937
100
AcDbCircle
 10
-6.696144
 20
-2.031072
 30
0.0
 40
0.05
210
0.0
220
0.0
230
1.0
  0
CIRCLE
  5
20C
100
AcDbEntity
  8
0
370
    35
390
0
 62
     7
 48
0.03937
100
AcDbCircle
 10
-6.769731
 20
-2.525519
 30
0.0
 40
0.05
210
0.0
220
0.0
230
1.0
  0
CIRCLE
  5
20D
100
AcDbEntity
  8
0
370
    35
390
0
 62
     7
 48
0.03937
100
AcDbCircle
 10
-6.737866
 20
-3.520699
 30
0.0
 40
0.05
210
0.0
220
0.0
230
1.0
  0
CIRCLE
  5
20E
100
AcDbEntity
  8
0
370
    35
390
0
 62
     7
 48
0.03937
100
AcDbCircle
 10
-6.246757
 20
-4.370583
 30
0.0
 40
0.05
210
0.0
220
0.0
230
1.0
  0
CIRCLE
  5
20F
100
AcDbEntity
  8
0
370
    35
390
0
 62
     7
 48
0.03937
100
AcDbCircle
 10
-5.822127
 20
-4.631416
 30
0.0
 40
0.05
210
0.0
220
0.0
230
1.0
  0
CIRCLE
  5
210
100
AcDbEntity
  8
0
370
    35
390
0
 62
     7
 48
0.03937
100
AcDbCircle
 10
-5.349889
 20
-4.794123
 30
0.0
 40
0.05
210
0.0
220
0.0
230
1.0
  0
CIRCLE
  5
211
100
AcDbEntity
  8
0
370
    35
390
0
 62
     7
 48
0.03937
100
AcDbCircle
 10
-4.86361
 20
-4.910306
 30
0.0
 40
0.05
210
0.0
220
0.0
230
1.0
  0
CIRCLE
  5
212
100
AcDbEntity
  8
0
370
    35
390
0
 62
     7
 48
0.03937
100
AcDbCircle
 10
-3.900638
 20
-5.178268
 30
0.0
 40
0.05
210
0.0
220
0.0
230
1.0
  0
CIRCLE
  5
213
100
AcDbEntity
  8
0
370
    35
390
0
 62
     7
 48
0.03937
100
AcDbCircle
 10
-3.421292
 20
-5.320141
 30
0.0
 40
0.05
210
0.0
220
0.0
230
1.0
  0
CIRCLE
  5
214
100
AcDbEntity
  8
0
370
    35
390
0
 62
     7
 48
0.03937
100
AcDbCircle
 10
-2.928124
 20
-5.397519
 30
0.0
 40
0.05
210
0.0
220
0.0
230
1.0
  0
CIRCLE
  5
215
100
AcDbEntity
  8
0
370
    35
390
0
 62
     7
 48
0.03937
100
AcDbCircle
 10
-2.430493
 20
-5.362501
 30
0.0
 40
0.05
210
0.0
220
0.0
230
1.0
  0
CIRCLE
  5
216
100
AcDbEntity
  8
0
370
    35
390
0
 62
     7
 48
0.03937
100
AcDbCircle
 10
-1.946445
 20
-5.238354
 30
0.0
 40
0.05
210
0.0
220
0.0
230
1.0
  0
CIRCLE
  5
217
100
AcDbEntity
  8
0
370
    35
390
0
 62
     7
 48
0.03937
100
AcDbCircle
 10
-1.468176
 20
-5.092597
 30
0.0
 40
0.05
210
0.0
220
0.0
230
1.0
  0
CIRCLE
  5
218
100
AcDbEntity
  8
0
370
    35
390
0
 62
     7
 48
0.03937
100
AcDbCircle
 10
-0.981888
 20
-4.977075
 30
0.0
 40
0.05
210
0.0
220
0.0
230
1.0
  0
CIRCLE
  5
219
100
AcDbEntity
  8
0
370
    35
390
0
 62
     7
 48
0.03937
100
AcDbCircle
 10
-0.487518
 20
-4.902787
 30
0.0
 40
0.05
210
0.0
220
0.0
230
1.0
  0
CIRCLE
  5
21A
100
AcDbEntity
  8
0
370
    35
390
0
 62
     7
 48
0.03937
100
AcDbCircle
 10
0.006796
 20
-4.828409
 30
0.0
 40
0.05
210
0.0
220
0.0
230
1.0
  0
CIRCLE
  5
21B
100
AcDbEntity
  8
0
370
    35
390
0
 62
     7
 48
0.03937
100
AcDbCircle
 10
0.480807
 20
-4.67379
 30
0.0
 40
0.05
210
0.0
220
0.0
230
1.0
  0
CIRCLE
  5
21C
100
AcDbEntity
  8
0
370
    35
390
0
 62
     7
 48
0.03937
100
AcDbCircle
 10
0.881097
 20
-4.378635
 30
0.0
 40
0.05
210
0.0
220
0.0
230
1.0
  0
CIRCLE
  5
21D
100
AcDbEntity
  8
0
370
    35
390
0
 62
     7
 48
0.03937
100
AcDbCircle
 10
1.159245
 20
-3.965714
 30
0.0
 40
0.05
210
0.0
220
0.0
230
1.0
  0
CIRCLE
  5
21E
100
AcDbEntity
  8
0
370
    35
390
0
 62
     7
 48
0.03937
100
AcDbCircle
 10
1.307836
 20
-3.489742
 30
0.0
 40
0.05
210
0.0
220
0.0
230
1.0
  0
CIRCLE
  5
21F
100
AcDbEntity
  8
0
370
    35
390
0
 62
     7
 48
0.03937
100
AcDbCircle
 10
1.331376
 20
-2.493079
 30
0.0
 40
0.05
210
0.0
220
0.0
230
1.0
  0
CIRCLE
  5
220
100
AcDbEntity
  8
0
370
    35
390
0
 62
     7
 48
0.03937
100
AcDbCircle
 10
1.260395
 20
-1.998316
 30
0.0
 40
0.05
210
0.0
220
0.0
230
1.0
  0
CIRCLE
  5
221
100
AcDbEntity
  8
0
370
    35
390
0
 62
     7
 48
0.03937
100
AcDbCircle
 10
1.151154
 20
-1.510478
 30
0.0
 40
0.05
210
0.0
220
0.0
230
1.0
  0
CIRCLE
  5
222
100
AcDbEntity
  8
0
370
    35
390
0
 62
     7
 48
0.03937
100
AcDbCircle
 10
1.021717
 20
-1.027533
 30
0.0
 40
0.05
210
0.0
220
0.0
230
1.0
  0
CIRCLE
  5
223
100
AcDbEntity
  8
0
370
    35
390
0
 62
     7
 48
0.03937
100
AcDbCircle
 10
0.89194
 20
-0.544676
 30
0.0
 40
0.05
210
0.0
220
0.0
230
1.0
  0
CIRCLE
  5
224
100
AcDbEntity
  8
0
370
    35
390
0
 62
     7
 48
0.03937
100
AcDbCircle
 10
0.778238
 20
-0.057847
 30
0.0
 40
0.05
210
0.0
220
0.0
230
1.0
  0
CIRCLE
  5
225
100
AcDbEntity
  8
0
370
    35
390
0
 62
     7
 48
0.03937
100
AcDbCircle
 10
0.691329
 20
0.434489
 30
0.0
 40
0.05
210
0.0
220
0.0
230
1.0
  0
CIRCLE
  5
226
100
AcDbEntity
  8
0
370
    35
390
0
 62
     7
 48
0.03937
100
AcDbCircle
 10
0.634377
 20
0.931163
 30
0.0
 40
0.05
210
0.0
220
0.0
230
1.0
  0
CIRCLE
  5
227
100
AcDbEntity
  8
0
370
    35
390
0
 62
     7
 48
0.03937
100
AcDbCircle
 10
0.60356
 20
1.430173
 30
0.0
 40
0.05
210
0.0
220
0.0
230
1.0
  0
CIRCLE
  5
228
100
AcDbEntity
  8
0
370
    35
390
0
 62
     7
 48
0.03937
100
AcDbCircle
 10
0.59219
 20
1.930017
 30
0.0
 40
0.05
210
0.0
220
0.0
230
1.0
  0
CIRCLE
  5
229
100
AcDbEntity
  8
0
370
    35
390
0
 62
     7
 48
0.03937
100
AcDbCircle
 10
0.594882
 20
2.429997
 30
0.0
 40
0.05
210
0.0
220
0.0
230
1.0
  0
ENDSEC
  0
SECTION
  2
OBJECTS
  0
DICTIONARY
  5
19
100
AcDbDictionary
280
     0
281
     1
  3
ACAD_GROUP
350
1A
  3
ACAD_MLINESTYLE
350
1B
  3
ACAD_LAYOUT
350
1E
  3
ACAD_PLOTSETTINGS
350
22
  3
ACAD_PLOTSTYLENAME
350
1F
  3
ACAD_WIPEOUT_VARS
350
23
  0
DICTIONARY
  5
1A
102
{ACAD_REACTORS
330
19
102
}
100
AcDbDictionary
280
     0
281
     1
  0
DICTIONARY
  5
1B
102
{ACAD_REACTORS
330
19
102
}
100
AcDbDictionary
280
     0
281
     1
  3
Standard
350
1C
  0
MLINESTYLE
  5
1C
102
{ACAD_REACTORS
330
1B
102
}
100
AcDbMlineStyle
  2
Standard
 70
     0
  3

 62
     0
 51
90.0
 52
90.0
 71
     2
 49
0.5
 62
   256
  6
ByLayer
 49
-0.5
 62
   256
  6
ByLayer
  0
ACDBDICTIONARYWDFLT
  5
1F
102
{ACAD_REACTORS
330
19
102
}
100
AcDbDictionary
281
     1
  3
Normal
350
1D
100
AcDbDictionaryWithDefault
340
1D
  0
ACDBPLACEHOLDER
  5
1D
102
{ACAD_REACTORS
330
1F
102
}
  0
LAYOUT
  5
20
102
{ACAD_REACTORS
330
1E
102
}
100
AcDbPlotSettings
  1

  2

  4

  6

 40
0.0
 41
0.0
 42
0.0
 43
0.0
 44
0.0
 45
0.0
 46
0.0
 47
0.0
 48
0.0
 49
0.0
140
0.0
141
0.0
142
1.0
143
1.0
 70
  1024
 72
     0
 73
     0
 74
     0
  7

 75
     0
147
1.0
148
0.0
149
0.0
100
AcDbLayout
  1
Model
 70
     0
 71
     0
 10
0.0
 20
0.0
 11
0.0
 21
0.0
 12
0.0
 22
0.0
 32
0.0
 14
0.0
 24
0.0
 34
0.0
 15
0.0
 25
0.0
 35
0.0
146
0.0
 13
0.0
 23
0.0
 33
0.0
 16
0.0
 26
0.0
 36
0.0
 17
0.0
 27
0.0
 37
0.0
 76
     0
330
A
331
0
345
0
346
0
  0
LAYOUT
  5
21
102
{ACAD_REACTORS
330
1E
102
}
100
AcDbPlotSettings
  1

  2

  4

  6

 40
0.0
 41
0.0
 42
0.0
 43
0.0
 44
0.0
 45
0.0
 46
0.0
 47
0.0
 48
0.0
 49
0.0
140
0.0
141
0.0
142
1.0
143
1.0
 70
     0
 72
     0
 73
     0
 74
     0
  7

 75
     0
147
1.0
148
0.0
149
0.0
100
AcDbLayout
  1
Layout1
 70
     0
 71
     0
 10
0.0
 20
0.0
 11
0.0
 21
0.0
 12
0.0
 22
0.0
 32
0.0
 14
0.0
 24
0.0
 34
0.0
 15
0.0
 25
0.0
 35
0.0
146
0.0
 13
0.0
 23
0.0
 33
0.0
 16
0.0
 26
0.0
 36
0.0
 17
0.0
 27
0.0
 37
0.0
 76
     0
330
B
331
0
345
0
346
0
  0
DICTIONARY
  5
1E
102
{ACAD_REACTORS
330
19
102
}
100
AcDbDictionary
280
     0
281
     1
  3
Layout1
350
21
  3
Model
350
20
  0
DICTIONARY
  5
22
102
{ACAD_REACTORS
330
19
102
}
100
AcDbDictionary
280
     0
281
     1
  0
WIPEOUTVARIABLES
  5
23
100
AcDbWipeoutVariables
 70
     1
  0
ENDSEC
  0
EOF
