  0
SECTION
  2
HEADER
  9
$ACADVER
  1
AC1015
  9
$ACADMAINTVER
 70
     6
  9
$DWGCODEPAGE
  3
ANSI_1252
  9
$INSBASE
 10
0.0
 20
0.0
 30
0.0
  9
$EXTMIN
 10
0.0
 20
0.0
 30
0.0
  9
$EXTMAX
 10
420.0
 20
297.0
 30
0.0
  9
$LIMMIN
 10
0.0
 20
0.0
  9
$LIMMAX
 10
420.0
 20
297.0
  9
$ORTHOMODE
 70
     0
  9
$REGENMODE
 70
     1
  9
$FILLMODE
 70
     1
  9
$QTEXTMODE
 70
     0
  9
$MIRRTEXT
 70
     1
  9
$LTSCALE
 40
1.0
  9
$ATTMODE
 70
     1
  9
$TEXTSIZE
 40
3.5
  9
$TRACEWID
 40
1.0
  9
$TEXTSTYLE
  7
Standard
  9
$CLAYER
  8
0
  9
$CELTYPE
  6
ByLayer
  9
$CECOLOR
 62
   256
  9
$CELTSCALE
 40
1.0
  9
$DISPSILH
 70
     0
  9
$DIMSCALE
 40
1.0
  9
$DIMASZ
 40
3.302
  9
$DIMEXO
 40
1.0
  9
$DIMDLI
 40
3.75
  9
$DIMRND
 40
0.0
  9
$DIMDLE
 40
0.0
  9
$DIMEXE
 40
1.0
  9
$DIMTP
 40
0.0
  9
$DIMTM
 40
0.0
  9
$DIMTXT
 40
3.5
  9
$DIMCEN
 40
2.5
  9
$DIMTSZ
 40
0.0
  9
$DIMTOL
 70
     0
  9
$DIMLIM
 70
     0
  9
$DIMTIH
 70
     1
  9
$DIMTOH
 70
     1
  9
$DIMSE1
 70
     0
  9
$DIMSE2
 70
     0
  9
$DIMTAD
 70
     1
  9
$DIMZIN
 70
     0
  9
$DIMBLK
  1

  9
$DIMASO
 70
     1
  9
$DIMSHO
 70
     1
  9
$DIMPOST
  1

  9
$DIMAPOST
  1

  9
$DIMALT
 70
     0
  9
$DIMALTD
 70
     3
  9
$DIMALTF
 40
0.0393700787
  9
$DIMLFAC
 40
1.0
  9
$DIMTOFL
 70
     1
  9
$DIMTVP
 40
0.0
  9
$DIMTIX
 70
     0
  9
$DIMSOXD
 70
     0
  9
$DIMSAH
 70
     0
  9
$DIMBLK1
  1

  9
$DIMBLK2
  1

  9
$DIMSTYLE
  2
ISO-25
  9
$DIMCLRD
 70
     0
  9
$DIMCLRE
 70
     0
  9
$DIMCLRT
 70
     0
  9
$DIMTFAC
 40
1.0
  9
$DIMGAP
 40
1.524
  9
$DIMJUST
 70
     0
  9
$DIMSD1
 70
     0
  9
$DIMSD2
 70
     0
  9
$DIMTOLJ
 70
     0
  9
$DIMTZIN
 70
     0
  9
$DIMALTZ
 70
     0
  9
$DIMALTTZ
 70
     0
  9
$DIMUPT
 70
     0
  9
$DIMDEC
 70
     2
  9
$DIMTDEC
 70
     2
  9
$DIMALTU
 70
     2
  9
$DIMALTTD
 70
     3
  9
$DIMTXSTY
  7
Standard
  9
$DIMAUNIT
 70
     0
  9
$DIMADEC
 70
     2
  9
$DIMALTRND
 40
0.0
  9
$DIMAZIN
 70
     0
  9
$DIMDSEP
 70
    44
  9
$DIMATFIT
 70
     3
  9
$DIMFRAC
 70
     0
  9
$DIMLDRBLK
  1

  9
$DIMLUNIT
 70
     2
  9
$DIMLWD
 70
    -2
  9
$DIMLWE
 70
    -2
  9
$DIMTMOVE
 70
     0
  9
$LUNITS
 70
     2
  9
$LUPREC
 70
     2
  9
$SKETCHINC
 40
1.0
  9
$FILLETRAD
 40
10.0
  9
$AUNITS
 70
     0
  9
$AUPREC
 70
     2
  9
$MENU
  1
.
  9
$ELEVATION
 40
0.0
  9
$PELEVATION
 40
0.0
  9
$THICKNESS
 40
0.0
  9
$LIMCHECK
 70
     0
  9
$CHAMFERA
 40
0.0
  9
$CHAMFERB
 40
0.0
  9
$CHAMFERC
 40
0.0
  9
$CHAMFERD
 40
0.0
  9
$SKPOLY
 70
     0
  9
$TDCREATE
 40
2457276.481048923
  9
$TDUCREATE
 40
2457276.39771559
  9
$TDUPDATE
 40
2457276.481049537
  9
$TDUUPDATE
 40
2457276.397716204
  9
$TDINDWG
 40
0.0000000116
  9
$TDUSRTIMER
 40
0.0000000116
  9
$USRTIMER
 70
     1
  9
$ANGBASE
 50
0.0
  9
$ANGDIR
 70
     0
  9
$PDMODE
 70
     0
  9
$PDSIZE
 40
-1.0
  9
$PLINEWID
 40
0.0
  9
$SPLFRAME
 70
     0
  9
$SPLINETYPE
 70
     6
  9
$SPLINESEGS
 70
     8
  9
$HANDSEED
  5
298
  9
$SURFTAB1
 70
     6
  9
$SURFTAB2
 70
     6
  9
$SURFTYPE
 70
     6
  9
$SURFU
 70
     6
  9
$SURFV
 70
     6
  9
$UCSBASE
  2

  9
$UCSNAME
  2

  9
$UCSORG
 10
0.0
 20
0.0
 30
0.0
  9
$UCSXDIR
 10
1.0
 20
0.0
 30
0.0
  9
$UCSYDIR
 10
0.0
 20
1.0
 30
0.0
  9
$UCSORTHOREF
  2

  9
$UCSORTHOVIEW
 70
     0
  9
$UCSORGTOP
 10
0.0
 20
0.0
 30
0.0
  9
$UCSORGBOTTOM
 10
0.0
 20
0.0
 30
0.0
  9
$UCSORGLEFT
 10
0.0
 20
0.0
 30
0.0
  9
$UCSORGRIGHT
 10
0.0
 20
0.0
 30
0.0
  9
$UCSORGFRONT
 10
0.0
 20
0.0
 30
0.0
  9
$UCSORGBACK
 10
0.0
 20
0.0
 30
0.0
  9
$PUCSBASE
  2

  9
$PUCSNAME
  2

  9
$PUCSORG
 10
0.0
 20
0.0
 30
0.0
  9
$PUCSXDIR
 10
1.0
 20
0.0
 30
0.0
  9
$PUCSYDIR
 10
0.0
 20
1.0
 30
0.0
  9
$PUCSORTHOREF
  2

  9
$PUCSORTHOVIEW
 70
     0
  9
$PUCSORGTOP
 10
0.0
 20
0.0
 30
0.0
  9
$PUCSORGBOTTOM
 10
0.0
 20
0.0
 30
0.0
  9
$PUCSORGLEFT
 10
0.0
 20
0.0
 30
0.0
  9
$PUCSORGRIGHT
 10
0.0
 20
0.0
 30
0.0
  9
$PUCSORGFRONT
 10
0.0
 20
0.0
 30
0.0
  9
$PUCSORGBACK
 10
0.0
 20
0.0
 30
0.0
  9
$USERI1
 70
     0
  9
$USERI2
 70
     0
  9
$USERI3
 70
     0
  9
$USERI4
 70
     0
  9
$USERI5
 70
     0
  9
$USERR1
 40
0.0
  9
$USERR2
 40
0.0
  9
$USERR3
 40
0.0
  9
$USERR4
 40
0.0
  9
$USERR5
 40
0.0
  9
$WORLDVIEW
 70
     1
  9
$SHADEDGE
 70
     3
  9
$SHADEDIF
 70
    70
  9
$TILEMODE
 70
     1
  9
$MAXACTVP
 70
    64
  9
$PINSBASE
 10
0.0
 20
0.0
 30
0.0
  9
$PLIMCHECK
 70
     0
  9
$PEXTMIN
 10
1.0000000000E+20
 20
1.0000000000E+20
 30
1.0000000000E+20
  9
$PEXTMAX
 10
-1.0000000000E+20
 20
-1.0000000000E+20
 30
-1.0000000000E+20
  9
$PLIMMIN
 10
0.0
 20
0.0
  9
$PLIMMAX
 10
420.0
 20
297.0
  9
$UNITMODE
 70
     0
  9
$VISRETAIN
 70
     1
  9
$PLINEGEN
 70
     0
  9
$PSLTSCALE
 70
     1
  9
$TREEDEPTH
 70
  3020
  9
$CMLSTYLE
  2
Standard
  9
$CMLJUST
 70
     0
  9
$CMLSCALE
 40
20.0
  9
$PROXYGRAPHICS
 70
     1
  9
$MEASUREMENT
 70
     1
  9
$CELWEIGHT
370
    -1
  9
$ENDCAPS
280
     0
  9
$JOINSTYLE
280
     0
  9
$LWDISPLAY
290
     1
  9
$INSUNITS
 70
     4
  9
$HYPERLINKBASE
  1

  9
$STYLESHEET
  1

  9
$XEDIT
290
     1
  9
$CEPSNTYPE
380
     0
  9
$PSTYLEMODE
290
     1
  9
$FINGERPRINTGUID
  2
{F1C2C0AC-A781-4CF6-9C97-9FA083CFF879}
  9
$VERSIONGUID
  2
{FAEB1C32-E019-11D5-929B-00C0DF256EC4}
  9
$EXTNAMES
290
     1
  9
$PSVPSCALE
 40
0.0
  9
$OLESTARTUP
290
     0
  0
ENDSEC
  0
SECTION
  2
CLASSES
  0
CLASS
  1
ACDBDICTIONARYWDFLT
  2
AcDbDictionaryWithDefault
  3
ObjectDBX Classes
 90
        0
280
     0
281
     0
  0
CLASS
  1
VISUALSTYLE
  2
AcDbVisualStyle
  3
ObjectDBX Classes
 90
     4095
280
     0
281
     0
  0
CLASS
  1
MATERIAL
  2
AcDbMaterial
  3
ObjectDBX Classes
 90
     1153
280
     0
281
     0
  0
CLASS
  1
SCALE
  2
AcDbScale
  3
ObjectDBX Classes
 90
     1153
280
     0
281
     0
  0
CLASS
  1
TABLESTYLE
  2
AcDbTableStyle
  3
ObjectDBX Classes
 90
     4095
280
     0
281
     0
  0
CLASS
  1
MLEADERSTYLE
  2
AcDbMLeaderStyle
  3
ACDB_MLEADERSTYLE_CLASS
 90
     4095
280
     0
281
     0
  0
CLASS
  1
SUN
  2
AcDbSun
  3
SCENEOE
 90
     1153
280
     0
281
     0
  0
CLASS
  1
ACDBPLACEHOLDER
  2
AcDbPlaceHolder
  3
ObjectDBX Classes
 90
        0
280
     0
281
     0
  0
CLASS
  1
LAYOUT
  2
AcDbLayout
  3
ObjectDBX Classes
 90
        0
280
     0
281
     0
  0
ENDSEC
  0
SECTION
  2
TABLES
  0
TABLE
  2
VPORT
  5
8
330
0
100
AcDbSymbolTable
 70
     1
  0
VPORT
  5
29
330
8
100
AcDbSymbolTableRecord
100
AcDbViewportTableRecord
  2
*Active
 70
     0
 10
0.0
 20
0.0
 11
1.0
 21
1.0
 12
210.0
 22
148.5
 13
0.0
 23
0.0
 14
10.0
 24
10.0
 15
10.0
 25
10.0
 16
0.0
 26
0.0
 36
1.0
 17
0.0
 27
0.0
 37
0.0
 40
297.0
 41
1.4141414141
 42
50.0
 43
0.0
 44
0.0
 50
0.0
 51
0.0
 71
     0
 72
  2000
 73
     1
 74
     3
 75
     0
 76
     0
 77
     0
 78
     0
281
     0
 65
     1
110
0.0
120
0.0
130
0.0
111
1.0
121
0.0
131
0.0
112
0.0
122
1.0
132
0.0
 79
     0
146
0.0
  0
ENDTAB
  0
TABLE
  2
LTYPE
  5
5
330
0
100
AcDbSymbolTable
 70
     6
  0
LTYPE
  5
14
330
5
100
AcDbSymbolTableRecord
100
AcDbLinetypeTableRecord
  2
ByBlock
 70
     0
  3

 72
    65
 73
     0
 40
0.0
  0
LTYPE
  5
15
330
5
100
AcDbSymbolTableRecord
100
AcDbLinetypeTableRecord
  2
ByLayer
 70
     0
  3

 72
    65
 73
     0
 40
0.0
  0
LTYPE
  5
16
330
5
100
AcDbSymbolTableRecord
100
AcDbLinetypeTableRecord
  2
Continuous
 70
     0
  3
Solid line
 72
    65
 73
     0
 40
0.0
  0
LTYPE
  5
6E
330
5
100
AcDbSymbolTableRecord
100
AcDbLinetypeTableRecord
  2
HIDDEN
 70
     0
  3
Hidden __ __ __ __ __ __ __ __ __ __ __ __ __ __
 72
    65
 73
     2
 40
1.905
 49
1.27
 74
     0
 49
-0.635
 74
     0
  0
LTYPE
  5
6F
330
5
100
AcDbSymbolTableRecord
100
AcDbLinetypeTableRecord
  2
PHANTOM
 70
     0
  3
Phantom ______  __  __  ______  __  __  ______
 72
    65
 73
     6
 40
12.7
 49
6.35
 74
     0
 49
-1.27
 74
     0
 49
1.27
 74
     0
 49
-1.27
 74
     0
 49
1.27
 74
     0
 49
-1.27
 74
     0
  0
LTYPE
  5
70
330
5
100
AcDbSymbolTableRecord
100
AcDbLinetypeTableRecord
  2
CENTER
 70
     0
  3
Center ____ _ ____ _ ____ _ ____ _ ____ _ ____
 72
    65
 73
     4
 40
10.16
 49
6.35
 74
     0
 49
-1.27
 74
     0
 49
1.27
 74
     0
 49
-1.27
 74
     0
  0
LTYPE
  5
71
330
5
100
AcDbSymbolTableRecord
100
AcDbLinetypeTableRecord
  2
CENTERX2
 70
     0
  3
Center (2x) ________  __  ________  __  _____
 72
    65
 73
     4
 40
20.32
 49
12.7
 74
     0
 49
-2.54
 74
     0
 49
2.54
 74
     0
 49
-2.54
 74
     0
  0
LTYPE
  5
72
330
5
100
AcDbSymbolTableRecord
100
AcDbLinetypeTableRecord
  2
DOT2
 70
     0
  3
Dot (.5x) ........................................
 72
    65
 73
     2
 40
0.635
 49
0.0
 74
     0
 49
-0.635
 74
     0
  0
ENDTAB
  0
TABLE
  2
LAYER
  5
2
330
0
100
AcDbSymbolTable
 70
     2
  0
LAYER
  5
10
330
2
100
AcDbSymbolTableRecord
100
AcDbLayerTableRecord
  2
0
 70
     0
 62
     7
  6
Continuous
370
    -3
390
F
  0
LAYER
  5
73
330
2
100
AcDbSymbolTableRecord
100
AcDbLayerTableRecord
  2
FORMAT
 70
     0
 62
     7
  6
Continuous
370
    -3
390
F
  0
ENDTAB
  0
TABLE
  2
STYLE
  5
3
330
0
100
AcDbSymbolTable
 70
     2
  0
STYLE
  5
11
330
3
100
AcDbSymbolTableRecord
100
AcDbTextStyleTableRecord
  2
Standard
 70
     0
 40
0.0
 41
1.0
 50
0.0
 71
     0
 42
3.5
  3
txt
  4

  0
STYLE
  5
295
330
3
100
AcDbSymbolTableRecord
100
AcDbTextStyleTableRecord
  2
SLDTEXTSTYLE0
 70
     0
 40
0.0
 41
0.7
 50
0.0
 71
     0
 42
3.5
  3
TXT
  4

  0
ENDTAB
  0
TABLE
  2
VIEW
  5
6
330
0
100
AcDbSymbolTable
 70
     0
  0
ENDTAB
  0
TABLE
  2
UCS
  5
7
330
0
100
AcDbSymbolTable
 70
     0
  0
ENDTAB
  0
TABLE
  2
APPID
  5
9
330
0
100
AcDbSymbolTable
 70
     1
  0
APPID
  5
12
330
9
100
AcDbSymbolTableRecord
100
AcDbRegAppTableRecord
  2
ACAD
 70
     0
  0
ENDTAB
  0
TABLE
  2
DIMSTYLE
  5
A
330
0
100
AcDbSymbolTable
 70
     1
100
AcDbDimStyleTable
  0
DIMSTYLE
105
27
330
A
100
AcDbSymbolTableRecord
100
AcDbDimStyleTableRecord
  2
ISO-25
 70
     0
 41
2.5
 42
0.625
 43
3.75
 44
1.25
 73
     0
 74
     0
 77
     1
 78
     8
140
2.5
141
2.5
143
0.0393700787
147
0.625
171
     3
172
     1
178
     0
271
     2
272
     2
274
     3
278
    44
283
     0
284
     8
340
11
  0
ENDTAB
  0
TABLE
  2
BLOCK_RECORD
  5
1
330
0
100
AcDbSymbolTable
 70
     1
  0
BLOCK_RECORD
  5
1F
330
1
100
AcDbSymbolTableRecord
100
AcDbBlockTableRecord
  2
*Model_Space
340
22
  0
BLOCK_RECORD
  5
1B
330
1
100
AcDbSymbolTableRecord
100
AcDbBlockTableRecord
  2
*Paper_Space
340
1E
  0
BLOCK_RECORD
  5
23
330
1
100
AcDbSymbolTableRecord
100
AcDbBlockTableRecord
  2
*Paper_Space0
340
26
  0
ENDTAB
  0
ENDSEC
  0
SECTION
  2
BLOCKS
  0
BLOCK
  5
20
330
1F
100
AcDbEntity
  8
0
100
AcDbBlockBegin
  2
*Model_Space
 70
     0
 10
0.0
 20
0.0
 30
0.0
  3
*Model_Space
  1

  0
ENDBLK
  5
21
330
1F
100
AcDbEntity
  8
0
100
AcDbBlockEnd
  0
BLOCK
  5
1C
330
1B
100
AcDbEntity
 67
     1
  8
0
100
AcDbBlockBegin
  2
*Paper_Space
 70
     0
 10
0.0
 20
0.0
 30
0.0
  3
*Paper_Space
  1

  0
ENDBLK
  5
1D
330
1B
100
AcDbEntity
 67
     1
  8
0
100
AcDbBlockEnd
  0
BLOCK
  5
24
330
23
100
AcDbEntity
  8
0
100
AcDbBlockBegin
  2
*Paper_Space0
 70
     0
 10
0.0
 20
0.0
 30
0.0
  3
*Paper_Space0
  1

  0
ENDBLK
  5
25
330
23
100
AcDbEntity
  8
0
100
AcDbBlockEnd
  0
ENDSEC
  0
SECTION
  2
ENTITIES
  0
LINE
  5
74
330
1F
100
AcDbEntity
  8
0
  6
Continuous
 62
     7
370
    15
100
AcDbLine
 10
144.1010146053
 20
259.0678927038
 30
0.0
 11
162.101021281
 21
259.0678927038
 31
0.0
  0
LINE
  5
75
330
1F
100
AcDbEntity
  8
0
  6
Continuous
 62
     7
370
    15
100
AcDbLine
 10
162.101021281
 20
259.0678927038
 30
0.0
 11
162.101021281
 21
280.567893434
 31
0.0
  0
LINE
  5
76
330
1F
100
AcDbEntity
  8
0
  6
Continuous
 62
     7
370
    15
100
AcDbLine
 10
162.101021281
 20
280.567893434
 30
0.0
 11
144.1010146053
 21
280.567893434
 31
0.0
  0
LINE
  5
77
330
1F
100
AcDbEntity
  8
0
  6
Continuous
 62
     7
370
    15
100
AcDbLine
 10
144.1010146053
 20
280.567893434
 30
0.0
 11
144.1010146053
 21
259.0678927038
 31
0.0
  0
LINE
  5
78
330
1F
100
AcDbEntity
  8
0
  6
Continuous
 62
     7
370
    15
100
AcDbLine
 10
7.6010164456
 20
259.0678927038
 30
0.0
 11
19.6010156186
 21
259.0678927038
 31
0.0
  0
LINE
  5
79
330
1F
100
AcDbEntity
  8
0
  6
Continuous
 62
     7
370
    15
100
AcDbLine
 10
19.6010156186
 20
259.0678927038
 30
0.0
 11
19.6010156186
 21
280.567893434
 31
0.0
  0
LINE
  5
7A
330
1F
100
AcDbEntity
  8
0
  6
Continuous
 62
     7
370
    15
100
AcDbLine
 10
19.6010156186
 20
280.567893434
 30
0.0
 11
7.6010164456
 21
280.567893434
 31
0.0
  0
LINE
  5
7B
330
1F
100
AcDbEntity
  8
0
  6
Continuous
 62
     7
370
    15
100
AcDbLine
 10
7.6010164456
 20
280.567893434
 30
0.0
 11
7.6010164456
 21
259.0678927038
 31
0.0
  0
ARC
  5
7C
330
1F
100
AcDbEntity
  8
0
  6
Continuous
 62
     7
370
    15
100
AcDbCircle
 10
4.6010163934
 20
291.5678922717
 30
0.0
 40
3.000000000000003
100
AcDbArc
 50
90.0
 51
180.0
  0
LINE
  5
7D
330
1F
100
AcDbEntity
  8
0
  6
Continuous
 62
     7
370
    15
100
AcDbLine
 10
165.1010124595
 20
294.5678920034
 30
0.0
 11
4.6010164195
 21
294.5678920034
 31
0.0
  0
ARC
  5
7E
330
1F
100
AcDbEntity
  8
0
  6
Continuous
 62
     7
370
    15
100
AcDbCircle
 10
165.1010163934
 20
291.5678922717
 30
0.0
 40
3.0
100
AcDbArc
 50
0.0
 51
90.0
  0
LINE
  5
7F
330
1F
100
AcDbEntity
  8
0
  6
Continuous
 62
     7
370
    15
100
AcDbLine
 10
168.1010185392
 20
248.0678922977
 30
0.0
 11
168.1010185392
 21
291.5678933743
 31
0.0
  0
ARC
  5
80
330
1F
100
AcDbEntity
  8
0
  6
Continuous
 62
     7
370
    15
100
AcDbCircle
 10
165.1010163934
 20
248.0678922717
 30
0.0
 40
3.0
100
AcDbArc
 50
270.0
 51
0.0
  0
LINE
  5
81
330
1F
100
AcDbEntity
  8
0
  6
Continuous
 62
     7
370
    15
100
AcDbLine
 10
4.6010164195
 20
245.0678922717
 30
0.0
 11
165.1010124595
 21
245.0678922717
 31
0.0
  0
ARC
  5
82
330
1F
100
AcDbEntity
  8
0
  6
Continuous
 62
     7
370
    15
100
AcDbCircle
 10
4.6010163934
 20
248.0678922717
 30
0.0
 40
3.000000000000003
100
AcDbArc
 50
180.0
 51
270.0
  0
LINE
  5
83
330
1F
100
AcDbEntity
  8
0
  6
Continuous
 62
     7
370
    15
100
AcDbLine
 10
1.6010163934
 20
291.5678933743
 30
0.0
 11
1.6010163934
 21
248.0678922977
 31
0.0
  0
LINE
  5
84
330
1F
100
AcDbEntity
  8
0
  6
Continuous
 62
     7
370
    15
100
AcDbLine
 10
21.6010159464
 20
259.0678927038
 30
0.0
 11
27.6010169299
 21
259.0678927038
 31
0.0
  0
LINE
  5
85
330
1F
100
AcDbEntity
  8
0
  6
Continuous
 62
     7
370
    15
100
AcDbLine
 10
27.6010169299
 20
259.0678927038
 30
0.0
 11
27.6010169299
 21
280.567893434
 31
0.0
  0
LINE
  5
86
330
1F
100
AcDbEntity
  8
0
  6
Continuous
 62
     7
370
    15
100
AcDbLine
 10
27.6010169299
 20
280.567893434
 30
0.0
 11
21.6010159464
 21
280.567893434
 31
0.0
  0
LINE
  5
87
330
1F
100
AcDbEntity
  8
0
  6
Continuous
 62
     7
370
    15
100
AcDbLine
 10
21.6010159464
 20
280.567893434
 30
0.0
 11
21.6010159464
 21
259.0678927038
 31
0.0
  0
LINE
  5
88
330
1F
100
AcDbEntity
  8
0
  6
Continuous
 62
     7
370
    15
100
AcDbLine
 10
144.5266914203
 20
208.4123517202
 30
0.0
 11
162.526698096
 21
208.4123517202
 31
0.0
  0
LINE
  5
89
330
1F
100
AcDbEntity
  8
0
  6
Continuous
 62
     7
370
    15
100
AcDbLine
 10
162.526698096
 20
208.4123517202
 30
0.0
 11
162.526698096
 21
229.9123524503
 31
0.0
  0
LINE
  5
8A
330
1F
100
AcDbEntity
  8
0
  6
Continuous
 62
     7
370
    15
100
AcDbLine
 10
162.526698096
 20
229.9123524503
 30
0.0
 11
144.5266914203
 21
229.9123524503
 31
0.0
  0
LINE
  5
8B
330
1F
100
AcDbEntity
  8
0
  6
Continuous
 62
     7
370
    15
100
AcDbLine
 10
144.5266914203
 20
229.9123524503
 30
0.0
 11
144.5266914203
 21
208.4123517202
 31
0.0
  0
LINE
  5
8C
330
1F
100
AcDbEntity
  8
0
  6
Continuous
 62
     7
370
    15
100
AcDbLine
 10
8.0266932606
 20
208.4123517202
 30
0.0
 11
20.0266924336
 21
208.4123517202
 31
0.0
  0
LINE
  5
8D
330
1F
100
AcDbEntity
  8
0
  6
Continuous
 62
     7
370
    15
100
AcDbLine
 10
20.0266924336
 20
208.4123517202
 30
0.0
 11
20.0266924336
 21
229.9123524503
 31
0.0
  0
LINE
  5
8E
330
1F
100
AcDbEntity
  8
0
  6
Continuous
 62
     7
370
    15
100
AcDbLine
 10
20.0266924336
 20
229.9123524503
 30
0.0
 11
8.0266932606
 21
229.9123524503
 31
0.0
  0
LINE
  5
8F
330
1F
100
AcDbEntity
  8
0
  6
Continuous
 62
     7
370
    15
100
AcDbLine
 10
8.0266932606
 20
229.9123524503
 30
0.0
 11
8.0266932606
 21
208.4123517202
 31
0.0
  0
ARC
  5
90
330
1F
100
AcDbEntity
  8
0
  6
Continuous
 62
     7
370
    15
100
AcDbCircle
 10
5.0266932084
 20
240.9123512881
 30
0.0
 40
3.000000000000002
100
AcDbArc
 50
90.0
 51
180.0
  0
LINE
  5
91
330
1F
100
AcDbEntity
  8
0
  6
Continuous
 62
     7
370
    15
100
AcDbLine
 10
165.5266892745
 20
243.9123510198
 30
0.0
 11
5.0266932345
 21
243.9123510198
 31
0.0
  0
ARC
  5
92
330
1F
100
AcDbEntity
  8
0
  6
Continuous
 62
     7
370
    15
100
AcDbCircle
 10
165.5266932084
 20
240.9123512881
 30
0.0
 40
3.0
100
AcDbArc
 50
0.0
 51
90.0
  0
LINE
  5
93
330
1F
100
AcDbEntity
  8
0
  6
Continuous
 62
     7
370
    15
100
AcDbLine
 10
168.5266953542
 20
197.4123513141
 30
0.0
 11
168.5266953542
 21
240.9123523907
 31
0.0
  0
ARC
  5
94
330
1F
100
AcDbEntity
  8
0
  6
Continuous
 62
     7
370
    15
100
AcDbCircle
 10
165.5266932084
 20
197.4123512881
 30
0.0
 40
3.0
100
AcDbArc
 50
270.0
 51
0.0
  0
LINE
  5
95
330
1F
100
AcDbEntity
  8
0
  6
Continuous
 62
     7
370
    15
100
AcDbLine
 10
5.0266932345
 20
194.4123512881
 30
0.0
 11
165.5266892745
 21
194.4123512881
 31
0.0
  0
ARC
  5
96
330
1F
100
AcDbEntity
  8
0
  6
Continuous
 62
     7
370
    15
100
AcDbCircle
 10
5.0266932084
 20
197.4123512881
 30
0.0
 40
3.000000000000002
100
AcDbArc
 50
180.0
 51
270.0
  0
LINE
  5
97
330
1F
100
AcDbEntity
  8
0
  6
Continuous
 62
     7
370
    15
100
AcDbLine
 10
2.0266932084
 20
240.9123523907
 30
0.0
 11
2.0266932084
 21
197.4123513141
 31
0.0
  0
LINE
  5
98
330
1F
100
AcDbEntity
  8
0
  6
Continuous
 62
     7
370
    15
100
AcDbLine
 10
22.0266927614
 20
208.4123517202
 30
0.0
 11
28.0266937449
 21
208.4123517202
 31
0.0
  0
LINE
  5
99
330
1F
100
AcDbEntity
  8
0
  6
Continuous
 62
     7
370
    15
100
AcDbLine
 10
28.0266937449
 20
208.4123517202
 30
0.0
 11
28.0266937449
 21
229.9123524503
 31
0.0
  0
LINE
  5
9A
330
1F
100
AcDbEntity
  8
0
  6
Continuous
 62
     7
370
    15
100
AcDbLine
 10
28.0266937449
 20
229.9123524503
 30
0.0
 11
22.0266927614
 21
229.9123524503
 31
0.0
  0
LINE
  5
9B
330
1F
100
AcDbEntity
  8
0
  6
Continuous
 62
     7
370
    15
100
AcDbLine
 10
22.0266927614
 20
229.9123524503
 30
0.0
 11
22.0266927614
 21
208.4123517202
 31
0.0
  0
CIRCLE
  5
9C
330
1F
100
AcDbEntity
  8
0
  6
Continuous
 62
     7
370
    15
100
AcDbCircle
 10
191.2701288098
 20
276.1555637952
 30
0.0
 40
10.82500000000002
  0
LINE
  5
9D
330
1F
100
AcDbEntity
  8
0
  6
Continuous
 62
     7
370
    15
100
AcDbLine
 10
207.2701275879
 20
294.655564272
 30
0.0
 11
175.270128862
 21
294.655564272
 31
0.0
  0
LINE
  5
9E
330
1F
100
AcDbEntity
  8
0
  6
Continuous
 62
     7
370
    15
100
AcDbLine
 10
207.2701275879
 20
286.9055634674
 30
0.0
 11
207.2701275879
 21
294.655564272
 31
0.0
  0
LINE
  5
9F
330
1F
100
AcDbEntity
  8
0
  6
Continuous
 62
     7
370
    15
100
AcDbLine
 10
213.2701285714
 20
286.9055634674
 30
0.0
 11
207.2701275879
 21
286.9055634674
 31
0.0
  0
LINE
  5
A0
330
1F
100
AcDbEntity
  8
0
  6
Continuous
 62
     7
370
    15
100
AcDbLine
 10
213.2701285714
 20
265.4055636685
 30
0.0
 11
213.2701285714
 21
286.9055634674
 31
0.0
  0
LINE
  5
A1
330
1F
100
AcDbEntity
  8
0
  6
Continuous
 62
     7
370
    15
100
AcDbLine
 10
207.2701275879
 20
265.4055636685
 30
0.0
 11
213.2701285714
 21
265.4055636685
 31
0.0
  0
LINE
  5
A2
330
1F
100
AcDbEntity
  8
0
  6
Continuous
 62
     7
370
    15
100
AcDbLine
 10
207.2701275879
 20
257.6555637952
 30
0.0
 11
207.2701275879
 21
265.4055636685
 31
0.0
  0
LINE
  5
A3
330
1F
100
AcDbEntity
  8
0
  6
Continuous
 62
     7
370
    15
100
AcDbLine
 10
175.270128862
 20
257.6555637952
 30
0.0
 11
207.2701275879
 21
257.6555637952
 31
0.0
  0
LINE
  5
A4
330
1F
100
AcDbEntity
  8
0
  6
Continuous
 62
     7
370
    15
100
AcDbLine
 10
175.270128862
 20
265.4055636685
 30
0.0
 11
175.270128862
 21
257.6555637952
 31
0.0
  0
LINE
  5
A5
330
1F
100
AcDbEntity
  8
0
  6
Continuous
 62
     7
370
    15
100
AcDbLine
 10
169.2701288098
 20
265.4055636685
 30
0.0
 11
175.270128862
 21
265.4055636685
 31
0.0
  0
LINE
  5
A6
330
1F
100
AcDbEntity
  8
0
  6
Continuous
 62
     7
370
    15
100
AcDbLine
 10
169.2701288098
 20
286.9055634674
 30
0.0
 11
169.2701288098
 21
265.4055636685
 31
0.0
  0
LINE
  5
A7
330
1F
100
AcDbEntity
  8
0
  6
Continuous
 62
     7
370
    15
100
AcDbLine
 10
175.270128862
 20
286.9055634674
 30
0.0
 11
169.2701288098
 21
286.9055634674
 31
0.0
  0
LINE
  5
A8
330
1F
100
AcDbEntity
  8
0
  6
Continuous
 62
     7
370
    15
100
AcDbLine
 10
175.270128862
 20
294.655564272
 30
0.0
 11
175.270128862
 21
286.9055634674
 31
0.0
  0
CIRCLE
  5
A9
330
1F
100
AcDbEntity
  8
0
  6
Continuous
 62
     7
370
    15
100
AcDbCircle
 10
191.2906120849
 20
238.3203263548
 30
0.0
 40
10.82500000000002
  0
LINE
  5
AA
330
1F
100
AcDbEntity
  8
0
  6
Continuous
 62
     7
370
    15
100
AcDbLine
 10
207.290610863
 20
256.8203268316
 30
0.0
 11
175.2906121371
 21
256.8203268316
 31
0.0
  0
LINE
  5
AB
330
1F
100
AcDbEntity
  8
0
  6
Continuous
 62
     7
370
    15
100
AcDbLine
 10
207.290610863
 20
249.0703260269
 30
0.0
 11
207.290610863
 21
256.8203268316
 31
0.0
  0
LINE
  5
AC
330
1F
100
AcDbEntity
  8
0
  6
Continuous
 62
     7
370
    15
100
AcDbLine
 10
213.2906118465
 20
249.0703260269
 30
0.0
 11
207.290610863
 21
249.0703260269
 31
0.0
  0
LINE
  5
AD
330
1F
100
AcDbEntity
  8
0
  6
Continuous
 62
     7
370
    15
100
AcDbLine
 10
213.2906118465
 20
227.5703262281
 30
0.0
 11
213.2906118465
 21
249.0703260269
 31
0.0
  0
LINE
  5
AE
330
1F
100
AcDbEntity
  8
0
  6
Continuous
 62
     7
370
    15
100
AcDbLine
 10
207.290610863
 20
227.5703262281
 30
0.0
 11
213.2906118465
 21
227.5703262281
 31
0.0
  0
LINE
  5
AF
330
1F
100
AcDbEntity
  8
0
  6
Continuous
 62
     7
370
    15
100
AcDbLine
 10
207.290610863
 20
219.8203263548
 30
0.0
 11
207.290610863
 21
227.5703262281
 31
0.0
  0
LINE
  5
B0
330
1F
100
AcDbEntity
  8
0
  6
Continuous
 62
     7
370
    15
100
AcDbLine
 10
175.2906121371
 20
219.8203263548
 30
0.0
 11
207.290610863
 21
219.8203263548
 31
0.0
  0
LINE
  5
B1
330
1F
100
AcDbEntity
  8
0
  6
Continuous
 62
     7
370
    15
100
AcDbLine
 10
175.2906121371
 20
227.5703262281
 30
0.0
 11
175.2906121371
 21
219.8203263548
 31
0.0
  0
LINE
  5
B2
330
1F
100
AcDbEntity
  8
0
  6
Continuous
 62
     7
370
    15
100
AcDbLine
 10
169.2906120849
 20
227.5703262281
 30
0.0
 11
175.2906121371
 21
227.5703262281
 31
0.0
  0
LINE
  5
B3
330
1F
100
AcDbEntity
  8
0
  6
Continuous
 62
     7
370
    15
100
AcDbLine
 10
169.2906120849
 20
249.0703260269
 30
0.0
 11
169.2906120849
 21
227.5703262281
 31
0.0
  0
LINE
  5
B4
330
1F
100
AcDbEntity
  8
0
  6
Continuous
 62
     7
370
    15
100
AcDbLine
 10
175.2906121371
 20
249.0703260269
 30
0.0
 11
169.2906120849
 21
249.0703260269
 31
0.0
  0
LINE
  5
B5
330
1F
100
AcDbEntity
  8
0
  6
Continuous
 62
     7
370
    15
100
AcDbLine
 10
175.2906121371
 20
256.8203268316
 30
0.0
 11
175.2906121371
 21
249.0703260269
 31
0.0
  0
CIRCLE
  5
B6
330
1F
100
AcDbEntity
  8
0
  6
Continuous
 62
     7
370
    15
100
AcDbCircle
 10
236.4201420158
 20
276.1286271873
 30
0.0
 40
10.82500000000002
  0
LINE
  5
B7
330
1F
100
AcDbEntity
  8
0
  6
Continuous
 62
     7
370
    15
100
AcDbLine
 10
252.4201407939
 20
294.6286276642
 30
0.0
 11
220.420142068
 21
294.6286276642
 31
0.0
  0
LINE
  5
B8
330
1F
100
AcDbEntity
  8
0
  6
Continuous
 62
     7
370
    15
100
AcDbLine
 10
252.4201407939
 20
286.8786268595
 30
0.0
 11
252.4201407939
 21
294.6286276642
 31
0.0
  0
LINE
  5
B9
330
1F
100
AcDbEntity
  8
0
  6
Continuous
 62
     7
370
    15
100
AcDbLine
 10
258.4201417774
 20
286.8786268595
 30
0.0
 11
252.4201407939
 21
286.8786268595
 31
0.0
  0
LINE
  5
BA
330
1F
100
AcDbEntity
  8
0
  6
Continuous
 62
     7
370
    15
100
AcDbLine
 10
258.4201417774
 20
265.3786270607
 30
0.0
 11
258.4201417774
 21
286.8786268595
 31
0.0
  0
LINE
  5
BB
330
1F
100
AcDbEntity
  8
0
  6
Continuous
 62
     7
370
    15
100
AcDbLine
 10
252.4201407939
 20
265.3786270607
 30
0.0
 11
258.4201417774
 21
265.3786270607
 31
0.0
  0
LINE
  5
BC
330
1F
100
AcDbEntity
  8
0
  6
Continuous
 62
     7
370
    15
100
AcDbLine
 10
252.4201407939
 20
257.6286271873
 30
0.0
 11
252.4201407939
 21
265.3786270607
 31
0.0
  0
LINE
  5
BD
330
1F
100
AcDbEntity
  8
0
  6
Continuous
 62
     7
370
    15
100
AcDbLine
 10
220.420142068
 20
257.6286271873
 30
0.0
 11
252.4201407939
 21
257.6286271873
 31
0.0
  0
LINE
  5
BE
330
1F
100
AcDbEntity
  8
0
  6
Continuous
 62
     7
370
    15
100
AcDbLine
 10
220.420142068
 20
265.3786270607
 30
0.0
 11
220.420142068
 21
257.6286271873
 31
0.0
  0
LINE
  5
BF
330
1F
100
AcDbEntity
  8
0
  6
Continuous
 62
     7
370
    15
100
AcDbLine
 10
214.4201420158
 20
265.3786270607
 30
0.0
 11
220.420142068
 21
265.3786270607
 31
0.0
  0
LINE
  5
C0
330
1F
100
AcDbEntity
  8
0
  6
Continuous
 62
     7
370
    15
100
AcDbLine
 10
214.4201420158
 20
286.8786268595
 30
0.0
 11
214.4201420158
 21
265.3786270607
 31
0.0
  0
LINE
  5
C1
330
1F
100
AcDbEntity
  8
0
  6
Continuous
 62
     7
370
    15
100
AcDbLine
 10
220.420142068
 20
286.8786268595
 30
0.0
 11
214.4201420158
 21
286.8786268595
 31
0.0
  0
LINE
  5
C2
330
1F
100
AcDbEntity
  8
0
  6
Continuous
 62
     7
370
    15
100
AcDbLine
 10
220.420142068
 20
294.6286276642
 30
0.0
 11
220.420142068
 21
286.8786268595
 31
0.0
  0
LINE
  5
C3
330
1F
100
AcDbEntity
  8
0
  6
Continuous
 62
     7
370
    15
100
AcDbLine
 10
252.264299859
 20
256.8641176556
 30
0.0
 11
220.264301133
 21
256.8641176556
 31
0.0
  0
LINE
  5
C4
330
1F
100
AcDbEntity
  8
0
  6
Continuous
 62
     7
370
    15
100
AcDbLine
 10
252.264299859
 20
248.8641163443
 30
0.0
 11
252.264299859
 21
256.8641176556
 31
0.0
  0
LINE
  5
C5
330
1F
100
AcDbEntity
  8
0
  6
Continuous
 62
     7
370
    15
100
AcDbLine
 10
258.2643008424
 20
248.8641163443
 30
0.0
 11
252.264299859
 21
248.8641163443
 31
0.0
  0
LINE
  5
C6
330
1F
100
AcDbEntity
  8
0
  6
Continuous
 62
     7
370
    15
100
AcDbLine
 10
252.264299859
 20
227.3641165455
 30
0.0
 11
258.2643008424
 21
227.3641165455
 31
0.0
  0
LINE
  5
C7
330
1F
100
AcDbEntity
  8
0
  6
Continuous
 62
     7
370
    15
100
AcDbLine
 10
252.264299859
 20
219.3641161655
 30
0.0
 11
252.264299859
 21
227.3641165455
 31
0.0
  0
LINE
  5
C8
330
1F
100
AcDbEntity
  8
0
  6
Continuous
 62
     7
370
    15
100
AcDbLine
 10
220.264301133
 20
219.3641161655
 30
0.0
 11
252.264299859
 21
219.3641161655
 31
0.0
  0
LINE
  5
C9
330
1F
100
AcDbEntity
  8
0
  6
Continuous
 62
     7
370
    15
100
AcDbLine
 10
220.264301133
 20
227.3641165455
 30
0.0
 11
220.264301133
 21
219.3641161655
 31
0.0
  0
LINE
  5
CA
330
1F
100
AcDbEntity
  8
0
  6
Continuous
 62
     7
370
    15
100
AcDbLine
 10
214.2643010809
 20
227.3641165455
 30
0.0
 11
220.264301133
 21
227.3641165455
 31
0.0
  0
LINE
  5
CB
330
1F
100
AcDbEntity
  8
0
  6
Continuous
 62
     7
370
    15
100
AcDbLine
 10
214.2643010809
 20
248.8641163443
 30
0.0
 11
214.2643010809
 21
227.3641165455
 31
0.0
  0
LINE
  5
CC
330
1F
100
AcDbEntity
  8
0
  6
Continuous
 62
     7
370
    15
100
AcDbLine
 10
220.264301133
 20
248.8641163443
 30
0.0
 11
214.2643010809
 21
248.8641163443
 31
0.0
  0
LINE
  5
CD
330
1F
100
AcDbEntity
  8
0
  6
Continuous
 62
     7
370
    15
100
AcDbLine
 10
220.264301133
 20
256.8641176556
 30
0.0
 11
220.264301133
 21
248.8641163443
 31
0.0
  0
LINE
  5
CE
330
1F
100
AcDbEntity
  8
0
  6
Continuous
 62
     7
370
    15
100
AcDbLine
 10
236.2643009617
 20
245.6196697538
 30
0.0
 11
229.7643008275
 21
241.8668924009
 31
0.0
  0
LINE
  5
CF
330
1F
100
AcDbEntity
  8
0
  6
Continuous
 62
     7
370
    15
100
AcDbLine
 10
229.7643008275
 20
241.8668924009
 30
0.0
 11
229.7643008275
 21
234.3613395576
 31
0.0
  0
LINE
  5
D0
330
1F
100
AcDbEntity
  8
0
  6
Continuous
 62
     7
370
    15
100
AcDbLine
 10
229.7643008275
 20
234.3613395576
 30
0.0
 11
236.2643009617
 21
230.6085622047
 31
0.0
  0
LINE
  5
D1
330
1F
100
AcDbEntity
  8
0
  6
Continuous
 62
     7
370
    15
100
AcDbLine
 10
236.2643009617
 20
230.6085622047
 30
0.0
 11
242.7643010958
 21
234.3613395576
 31
0.0
  0
LINE
  5
D2
330
1F
100
AcDbEntity
  8
0
  6
Continuous
 62
     7
370
    15
100
AcDbLine
 10
242.7643010958
 20
234.3613395576
 30
0.0
 11
242.7643010958
 21
241.8668924009
 31
0.0
  0
LINE
  5
D3
330
1F
100
AcDbEntity
  8
0
  6
Continuous
 62
     7
370
    15
100
AcDbLine
 10
242.7643010958
 20
241.8668924009
 30
0.0
 11
236.2643009617
 21
245.6196697538
 31
0.0
  0
LINE
  5
D4
330
1F
100
AcDbEntity
  8
0
  6
Continuous
 62
     7
370
    15
100
AcDbLine
 10
258.2643008424
 20
227.3641165455
 30
0.0
 11
258.2643008424
 21
248.8641163443
 31
0.0
  0
CIRCLE
  5
D5
330
1F
100
AcDbEntity
  8
0
  6
Continuous
 62
     7
370
    15
100
AcDbCircle
 10
236.2643010809
 20
238.1141161655
 30
0.0
 40
4.000000000000028
  0
LINE
  5
D6
330
1F
100
AcDbEntity
  8
0
  6
Continuous
 62
     7
370
    15
100
AcDbLine
 10
297.4027481729
 20
294.8879815306
 30
0.0
 11
265.402749447
 21
294.8879815306
 31
0.0
  0
LINE
  5
D7
330
1F
100
AcDbEntity
  8
0
  6
Continuous
 62
     7
370
    15
100
AcDbLine
 10
297.4027481729
 20
286.8879802193
 30
0.0
 11
297.4027481729
 21
294.8879815306
 31
0.0
  0
LINE
  5
D8
330
1F
100
AcDbEntity
  8
0
  6
Continuous
 62
     7
370
    15
100
AcDbLine
 10
303.4027491564
 20
286.8879802193
 30
0.0
 11
297.4027481729
 21
286.8879802193
 31
0.0
  0
LINE
  5
D9
330
1F
100
AcDbEntity
  8
0
  6
Continuous
 62
     7
370
    15
100
AcDbLine
 10
297.4027481729
 20
265.3879804205
 30
0.0
 11
303.4027491564
 21
265.3879804205
 31
0.0
  0
LINE
  5
DA
330
1F
100
AcDbEntity
  8
0
  6
Continuous
 62
     7
370
    15
100
AcDbLine
 10
297.4027481729
 20
257.3879800405
 30
0.0
 11
297.4027481729
 21
265.3879804205
 31
0.0
  0
LINE
  5
DB
330
1F
100
AcDbEntity
  8
0
  6
Continuous
 62
     7
370
    15
100
AcDbLine
 10
265.402749447
 20
257.3879800405
 30
0.0
 11
297.4027481729
 21
257.3879800405
 31
0.0
  0
LINE
  5
DC
330
1F
100
AcDbEntity
  8
0
  6
Continuous
 62
     7
370
    15
100
AcDbLine
 10
265.402749447
 20
265.3879804205
 30
0.0
 11
265.402749447
 21
257.3879800405
 31
0.0
  0
LINE
  5
DD
330
1F
100
AcDbEntity
  8
0
  6
Continuous
 62
     7
370
    15
100
AcDbLine
 10
259.4027493948
 20
265.3879804205
 30
0.0
 11
265.402749447
 21
265.3879804205
 31
0.0
  0
LINE
  5
DE
330
1F
100
AcDbEntity
  8
0
  6
Continuous
 62
     7
370
    15
100
AcDbLine
 10
259.4027493948
 20
286.8879802193
 30
0.0
 11
259.4027493948
 21
265.3879804205
 31
0.0
  0
LINE
  5
DF
330
1F
100
AcDbEntity
  8
0
  6
Continuous
 62
     7
370
    15
100
AcDbLine
 10
265.402749447
 20
286.8879802193
 30
0.0
 11
259.4027493948
 21
286.8879802193
 31
0.0
  0
LINE
  5
E0
330
1F
100
AcDbEntity
  8
0
  6
Continuous
 62
     7
370
    15
100
AcDbLine
 10
265.402749447
 20
294.8879815306
 30
0.0
 11
265.402749447
 21
286.8879802193
 31
0.0
  0
LINE
  5
E1
330
1F
100
AcDbEntity
  8
0
  6
Continuous
 62
     7
370
    15
100
AcDbLine
 10
281.4027492756
 20
283.6435336288
 30
0.0
 11
274.9027491415
 21
279.8907562758
 31
0.0
  0
LINE
  5
E2
330
1F
100
AcDbEntity
  8
0
  6
Continuous
 62
     7
370
    15
100
AcDbLine
 10
274.9027491415
 20
279.8907562758
 30
0.0
 11
274.9027491415
 21
272.3852034326
 31
0.0
  0
LINE
  5
E3
330
1F
100
AcDbEntity
  8
0
  6
Continuous
 62
     7
370
    15
100
AcDbLine
 10
274.9027491415
 20
272.3852034326
 30
0.0
 11
281.4027492756
 21
268.6324260797
 31
0.0
  0
LINE
  5
E4
330
1F
100
AcDbEntity
  8
0
  6
Continuous
 62
     7
370
    15
100
AcDbLine
 10
281.4027492756
 20
268.6324260797
 30
0.0
 11
287.9027494097
 21
272.3852034326
 31
0.0
  0
LINE
  5
E5
330
1F
100
AcDbEntity
  8
0
  6
Continuous
 62
     7
370
    15
100
AcDbLine
 10
287.9027494097
 20
272.3852034326
 30
0.0
 11
287.9027494097
 21
279.8907562758
 31
0.0
  0
LINE
  5
E6
330
1F
100
AcDbEntity
  8
0
  6
Continuous
 62
     7
370
    15
100
AcDbLine
 10
287.9027494097
 20
279.8907562758
 30
0.0
 11
281.4027492756
 21
283.6435336288
 31
0.0
  0
LINE
  5
E7
330
1F
100
AcDbEntity
  8
0
  6
Continuous
 62
     7
370
    15
100
AcDbLine
 10
303.4027491564
 20
265.3879804205
 30
0.0
 11
303.4027491564
 21
286.8879802193
 31
0.0
  0
CIRCLE
  5
E8
330
1F
100
AcDbEntity
  8
0
  6
Continuous
 62
     7
370
    15
100
AcDbCircle
 10
281.4027493948
 20
276.1379800405
 30
0.0
 40
4.000000000000057
  0
CIRCLE
  5
E9
330
1F
100
AcDbEntity
  8
0
  6
Continuous
 62
     7
370
    15
100
AcDbCircle
 10
281.1625206951
 20
238.0057461122
 30
0.0
 40
4.0
  0
LINE
  5
EA
330
1F
100
AcDbEntity
  8
0
  6
Continuous
 62
     7
370
    15
100
AcDbLine
 10
297.1625194732
 20
256.7557476023
 30
0.0
 11
265.1625207472
 21
256.7557476023
 31
0.0
  0
LINE
  5
EB
330
1F
100
AcDbEntity
  8
0
  6
Continuous
 62
     7
370
    15
100
AcDbLine
 10
297.1625194732
 20
248.755746291
 30
0.0
 11
297.1625194732
 21
256.7557476023
 31
0.0
  0
LINE
  5
EC
330
1F
100
AcDbEntity
  8
0
  6
Continuous
 62
     7
370
    15
100
AcDbLine
 10
303.1625204567
 20
248.755746291
 30
0.0
 11
297.1625194732
 21
248.755746291
 31
0.0
  0
LINE
  5
ED
330
1F
100
AcDbEntity
  8
0
  6
Continuous
 62
     7
370
    15
100
AcDbLine
 10
303.1625204567
 20
227.2557464921
 30
0.0
 11
303.1625204567
 21
248.755746291
 31
0.0
  0
LINE
  5
EE
330
1F
100
AcDbEntity
  8
0
  6
Continuous
 62
     7
370
    15
100
AcDbLine
 10
297.1625194732
 20
227.2557464921
 30
0.0
 11
303.1625204567
 21
227.2557464921
 31
0.0
  0
LINE
  5
EF
330
1F
100
AcDbEntity
  8
0
  6
Continuous
 62
     7
370
    15
100
AcDbLine
 10
297.1625194732
 20
219.2557461122
 30
0.0
 11
297.1625194732
 21
227.2557464921
 31
0.0
  0
LINE
  5
F0
330
1F
100
AcDbEntity
  8
0
  6
Continuous
 62
     7
370
    15
100
AcDbLine
 10
265.1625207472
 20
219.2557461122
 30
0.0
 11
297.1625194732
 21
219.2557461122
 31
0.0
  0
LINE
  5
F1
330
1F
100
AcDbEntity
  8
0
  6
Continuous
 62
     7
370
    15
100
AcDbLine
 10
265.1625207472
 20
227.2557464921
 30
0.0
 11
265.1625207472
 21
219.2557461122
 31
0.0
  0
LINE
  5
F2
330
1F
100
AcDbEntity
  8
0
  6
Continuous
 62
     7
370
    15
100
AcDbLine
 10
259.1625206951
 20
227.2557464921
 30
0.0
 11
265.1625207472
 21
227.2557464921
 31
0.0
  0
LINE
  5
F3
330
1F
100
AcDbEntity
  8
0
  6
Continuous
 62
     7
370
    15
100
AcDbLine
 10
259.1625206951
 20
248.755746291
 30
0.0
 11
259.1625206951
 21
227.2557464921
 31
0.0
  0
LINE
  5
F4
330
1F
100
AcDbEntity
  8
0
  6
Continuous
 62
     7
370
    15
100
AcDbLine
 10
265.1625207472
 20
248.755746291
 30
0.0
 11
259.1625206951
 21
248.755746291
 31
0.0
  0
LINE
  5
F5
330
1F
100
AcDbEntity
  8
0
  6
Continuous
 62
     7
370
    15
100
AcDbLine
 10
265.1625207472
 20
256.7557476023
 30
0.0
 11
265.1625207472
 21
248.755746291
 31
0.0
  0
LINE
  5
F6
330
1F
100
AcDbEntity
  8
0
  6
Continuous
 62
     7
370
    15
100
AcDbLine
 10
334.9232014061
 20
268.9894809373
 30
0.0
 11
340.9232005269
 21
268.9894809373
 31
0.0
  0
LINE
  5
F7
330
1F
100
AcDbEntity
  8
0
  6
Continuous
 62
     7
370
    15
100
AcDbLine
 10
340.9232005269
 20
268.9894809373
 30
0.0
 11
340.9232005269
 21
288.9894814215
 31
0.0
  0
LINE
  5
F8
330
1F
100
AcDbEntity
  8
0
  6
Continuous
 62
     7
370
    15
100
AcDbLine
 10
340.9232005269
 20
288.9894814215
 30
0.0
 11
334.9232014061
 21
288.9894814215
 31
0.0
  0
LINE
  5
F9
330
1F
100
AcDbEntity
  8
0
  6
Continuous
 62
     7
370
    15
100
AcDbLine
 10
334.9232014061
 20
288.9894814215
 30
0.0
 11
334.9232014061
 21
268.9894809373
 31
0.0
  0
LINE
  5
FA
330
1F
100
AcDbEntity
  8
0
  6
Continuous
 62
     7
370
    15
100
AcDbLine
 10
308.4232021847
 20
268.9894809373
 30
0.0
 11
314.4232017712
 21
268.9894809373
 31
0.0
  0
LINE
  5
FB
330
1F
100
AcDbEntity
  8
0
  6
Continuous
 62
     7
370
    15
100
AcDbLine
 10
314.4232017712
 20
268.9894809373
 30
0.0
 11
314.4232017712
 21
288.9894814215
 31
0.0
  0
LINE
  5
FC
330
1F
100
AcDbEntity
  8
0
  6
Continuous
 62
     7
370
    15
100
AcDbLine
 10
314.4232017712
 20
288.9894814215
 30
0.0
 11
308.4232021847
 21
288.9894814215
 31
0.0
  0
LINE
  5
FD
330
1F
100
AcDbEntity
  8
0
  6
Continuous
 62
     7
370
    15
100
AcDbLine
 10
308.4232021847
 20
288.9894814215
 30
0.0
 11
308.4232021847
 21
268.9894809373
 31
0.0
  0
ARC
  5
FE
330
1F
100
AcDbEntity
  8
0
  6
Continuous
 62
     7
370
    15
100
AcDbCircle
 10
307.9232020767
 20
291.8894807152
 30
0.0
 40
3.0
100
AcDbArc
 50
90.0
 51
180.0
  0
LINE
  5
FF
330
1F
100
AcDbEntity
  8
0
  6
Continuous
 62
     7
370
    15
100
AcDbLine
 10
341.4232015402
 20
294.8894825749
 30
0.0
 11
307.9232021027
 21
294.8894825749
 31
0.0
  0
ARC
  5
100
330
1F
100
AcDbEntity
  8
0
  6
Continuous
 62
     7
370
    15
100
AcDbCircle
 10
341.4232020767
 20
291.8894807152
 30
0.0
 40
3.0
100
AcDbArc
 50
0.0
 51
90.0
  0
LINE
  5
101
330
1F
100
AcDbEntity
  8
0
  6
Continuous
 62
     7
370
    15
100
AcDbLine
 10
344.4232038946
 20
266.0894807413
 30
0.0
 11
344.4232038946
 21
291.8894802205
 31
0.0
  0
ARC
  5
102
330
1F
100
AcDbEntity
  8
0
  6
Continuous
 62
     7
370
    15
100
AcDbCircle
 10
341.4232020767
 20
266.0894807152
 30
0.0
 40
3.0
100
AcDbArc
 50
270.0
 51
0.0
  0
LINE
  5
103
330
1F
100
AcDbEntity
  8
0
  6
Continuous
 62
     7
370
    15
100
AcDbLine
 10
307.9232021027
 20
263.0894807152
 30
0.0
 11
341.4232015402
 21
263.0894807152
 31
0.0
  0
ARC
  5
104
330
1F
100
AcDbEntity
  8
0
  6
Continuous
 62
     7
370
    15
100
AcDbCircle
 10
307.9232020767
 20
266.0894807152
 30
0.0
 40
3.0
100
AcDbArc
 50
180.0
 51
270.0
  0
LINE
  5
105
330
1F
100
AcDbEntity
  8
0
  6
Continuous
 62
     7
370
    15
100
AcDbLine
 10
304.9232020767
 20
291.8894802205
 30
0.0
 11
304.9232020767
 21
266.0894807413
 31
0.0
  0
LINE
  5
106
330
1F
100
AcDbEntity
  8
0
  6
Continuous
 62
     7
370
    15
100
AcDbLine
 10
327.4232029707
 20
268.9894809373
 30
0.0
 11
333.4232020916
 21
268.9894809373
 31
0.0
  0
LINE
  5
107
330
1F
100
AcDbEntity
  8
0
  6
Continuous
 62
     7
370
    15
100
AcDbLine
 10
333.4232020916
 20
268.9894809373
 30
0.0
 11
333.4232020916
 21
288.9894814215
 31
0.0
  0
LINE
  5
108
330
1F
100
AcDbEntity
  8
0
  6
Continuous
 62
     7
370
    15
100
AcDbLine
 10
333.4232020916
 20
288.9894814215
 30
0.0
 11
327.4232029707
 21
288.9894814215
 31
0.0
  0
LINE
  5
109
330
1F
100
AcDbEntity
  8
0
  6
Continuous
 62
     7
370
    15
100
AcDbLine
 10
327.4232029707
 20
288.9894814215
 30
0.0
 11
327.4232029707
 21
268.9894809373
 31
0.0
  0
LINE
  5
10A
330
1F
100
AcDbEntity
  8
0
  6
Continuous
 62
     7
370
    15
100
AcDbLine
 10
334.6290317555
 20
235.8559980194
 30
0.0
 11
340.6290308764
 21
235.8559980194
 31
0.0
  0
LINE
  5
10B
330
1F
100
AcDbEntity
  8
0
  6
Continuous
 62
     7
370
    15
100
AcDbLine
 10
340.6290308764
 20
235.8559980194
 30
0.0
 11
340.6290308764
 21
255.8559985037
 31
0.0
  0
LINE
  5
10C
330
1F
100
AcDbEntity
  8
0
  6
Continuous
 62
     7
370
    15
100
AcDbLine
 10
340.6290308764
 20
255.8559985037
 30
0.0
 11
334.6290317555
 21
255.8559985037
 31
0.0
  0
LINE
  5
10D
330
1F
100
AcDbEntity
  8
0
  6
Continuous
 62
     7
370
    15
100
AcDbLine
 10
334.6290317555
 20
255.8559985037
 30
0.0
 11
334.6290317555
 21
235.8559980194
 31
0.0
  0
LINE
  5
10E
330
1F
100
AcDbEntity
  8
0
  6
Continuous
 62
     7
370
    15
100
AcDbLine
 10
308.1290325341
 20
235.8559980194
 30
0.0
 11
314.1290321206
 21
235.8559980194
 31
0.0
  0
LINE
  5
10F
330
1F
100
AcDbEntity
  8
0
  6
Continuous
 62
     7
370
    15
100
AcDbLine
 10
314.1290321206
 20
235.8559980194
 30
0.0
 11
314.1290321206
 21
255.8559985037
 31
0.0
  0
LINE
  5
110
330
1F
100
AcDbEntity
  8
0
  6
Continuous
 62
     7
370
    15
100
AcDbLine
 10
314.1290321206
 20
255.8559985037
 30
0.0
 11
308.1290325341
 21
255.8559985037
 31
0.0
  0
LINE
  5
111
330
1F
100
AcDbEntity
  8
0
  6
Continuous
 62
     7
370
    15
100
AcDbLine
 10
308.1290325341
 20
255.8559985037
 30
0.0
 11
308.1290325341
 21
235.8559980194
 31
0.0
  0
ARC
  5
112
330
1F
100
AcDbEntity
  8
0
  6
Continuous
 62
     7
370
    15
100
AcDbCircle
 10
307.6290324261
 20
258.7559977974
 30
0.0
 40
3.0
100
AcDbArc
 50
90.0
 51
180.0
  0
LINE
  5
113
330
1F
100
AcDbEntity
  8
0
  6
Continuous
 62
     7
370
    15
100
AcDbLine
 10
341.1290318896
 20
261.7559996571
 30
0.0
 11
307.6290324522
 21
261.7559996571
 31
0.0
  0
ARC
  5
114
330
1F
100
AcDbEntity
  8
0
  6
Continuous
 62
     7
370
    15
100
AcDbCircle
 10
341.1290324261
 20
258.7559977974
 30
0.0
 40
3.0
100
AcDbArc
 50
0.0
 51
90.0
  0
LINE
  5
115
330
1F
100
AcDbEntity
  8
0
  6
Continuous
 62
     7
370
    15
100
AcDbLine
 10
344.129034244
 20
232.9559978235
 30
0.0
 11
344.129034244
 21
258.7559973027
 31
0.0
  0
ARC
  5
116
330
1F
100
AcDbEntity
  8
0
  6
Continuous
 62
     7
370
    15
100
AcDbCircle
 10
341.1290324261
 20
232.9559977974
 30
0.0
 40
3.0
100
AcDbArc
 50
270.0
 51
0.0
  0
LINE
  5
117
330
1F
100
AcDbEntity
  8
0
  6
Continuous
 62
     7
370
    15
100
AcDbLine
 10
307.6290324522
 20
229.9559977974
 30
0.0
 11
341.1290318896
 21
229.9559977974
 31
0.0
  0
ARC
  5
118
330
1F
100
AcDbEntity
  8
0
  6
Continuous
 62
     7
370
    15
100
AcDbCircle
 10
307.6290324261
 20
232.9559977974
 30
0.0
 40
3.0
100
AcDbArc
 50
180.0
 51
270.0
  0
LINE
  5
119
330
1F
100
AcDbEntity
  8
0
  6
Continuous
 62
     7
370
    15
100
AcDbLine
 10
304.6290324261
 20
258.7559973027
 30
0.0
 11
304.6290324261
 21
232.9559978235
 31
0.0
  0
LINE
  5
11A
330
1F
100
AcDbEntity
  8
0
  6
Continuous
 62
     7
370
    15
100
AcDbLine
 10
327.1290333202
 20
235.8559980194
 30
0.0
 11
333.129032441
 21
235.8559980194
 31
0.0
  0
LINE
  5
11B
330
1F
100
AcDbEntity
  8
0
  6
Continuous
 62
     7
370
    15
100
AcDbLine
 10
333.129032441
 20
235.8559980194
 30
0.0
 11
333.129032441
 21
255.8559985037
 31
0.0
  0
LINE
  5
11C
330
1F
100
AcDbEntity
  8
0
  6
Continuous
 62
     7
370
    15
100
AcDbLine
 10
333.129032441
 20
255.8559985037
 30
0.0
 11
327.1290333202
 21
255.8559985037
 31
0.0
  0
LINE
  5
11D
330
1F
100
AcDbEntity
  8
0
  6
Continuous
 62
     7
370
    15
100
AcDbLine
 10
327.1290333202
 20
255.8559985037
 30
0.0
 11
327.1290333202
 21
235.8559980194
 31
0.0
  0
CIRCLE
  5
11E
330
1F
100
AcDbEntity
  8
0
  6
Continuous
 62
     7
370
    15
100
AcDbCircle
 10
361.8684162517
 20
270.6019238575
 30
0.0
 40
4.0
  0
LINE
  5
11F
330
1F
100
AcDbEntity
  8
0
  6
Continuous
 62
     7
370
    15
100
AcDbLine
 10
371.8684160281
 20
283.3519237532
 30
0.0
 11
371.8684160281
 21
295.3519238575
 31
0.0
  0
LINE
  5
120
330
1F
100
AcDbEntity
  8
0
  6
Continuous
 62
     7
370
    15
100
AcDbLine
 10
377.7684171815
 20
283.3519237532
 30
0.0
 11
371.8684160281
 21
283.3519237532
 31
0.0
  0
LINE
  5
121
330
1F
100
AcDbEntity
  8
0
  6
Continuous
 62
     7
370
    15
100
AcDbLine
 10
377.7684171815
 20
257.8519223673
 30
0.0
 11
377.7684171815
 21
283.3519237532
 31
0.0
  0
LINE
  5
122
330
1F
100
AcDbEntity
  8
0
  6
Continuous
 62
     7
370
    15
100
AcDbLine
 10
371.8684160281
 20
257.8519223673
 30
0.0
 11
377.7684171815
 21
257.8519223673
 31
0.0
  0
LINE
  5
123
330
1F
100
AcDbEntity
  8
0
  6
Continuous
 62
     7
370
    15
100
AcDbLine
 10
371.8684160281
 20
245.8519241257
 30
0.0
 11
371.8684160281
 21
257.8519223673
 31
0.0
  0
LINE
  5
124
330
1F
100
AcDbEntity
  8
0
  6
Continuous
 62
     7
370
    15
100
AcDbLine
 10
351.8684164752
 20
245.8519241257
 30
0.0
 11
371.8684160281
 21
245.8519241257
 31
0.0
  0
LINE
  5
125
330
1F
100
AcDbEntity
  8
0
  6
Continuous
 62
     7
370
    15
100
AcDbLine
 10
351.8684164752
 20
257.8519223673
 30
0.0
 11
351.8684164752
 21
245.8519241257
 31
0.0
  0
LINE
  5
126
330
1F
100
AcDbEntity
  8
0
  6
Continuous
 62
     7
370
    15
100
AcDbLine
 10
345.9684153218
 20
257.8519223673
 30
0.0
 11
351.8684164752
 21
257.8519223673
 31
0.0
  0
LINE
  5
127
330
1F
100
AcDbEntity
  8
0
  6
Continuous
 62
     7
370
    15
100
AcDbLine
 10
345.9684153218
 20
283.3519237532
 30
0.0
 11
345.9684153218
 21
257.8519223673
 31
0.0
  0
LINE
  5
128
330
1F
100
AcDbEntity
  8
0
  6
Continuous
 62
     7
370
    15
100
AcDbLine
 10
351.8684164752
 20
283.3519237532
 30
0.0
 11
345.9684153218
 21
283.3519237532
 31
0.0
  0
LINE
  5
129
330
1F
100
AcDbEntity
  8
0
  6
Continuous
 62
     7
370
    15
100
AcDbLine
 10
351.8684164752
 20
295.3519238575
 30
0.0
 11
351.8684164752
 21
283.3519237532
 31
0.0
  0
LINE
  5
12A
330
1F
100
AcDbEntity
  8
0
  6
Continuous
 62
     7
370
    15
100
AcDbLine
 10
371.8684160281
 20
295.3519238575
 30
0.0
 11
351.8684164752
 21
295.3519238575
 31
0.0
  0
LINE
  5
12B
330
1F
100
AcDbEntity
  8
0
  6
Continuous
 62
     7
370
    15
100
AcDbLine
 10
405.1322149794
 20
283.6913502731
 30
0.0
 11
405.1322149794
 21
295.6913503774
 31
0.0
  0
LINE
  5
12C
330
1F
100
AcDbEntity
  8
0
  6
Continuous
 62
     7
370
    15
100
AcDbLine
 10
411.0322161327
 20
283.6913502731
 30
0.0
 11
405.1322149794
 21
283.6913502731
 31
0.0
  0
LINE
  5
12D
330
1F
100
AcDbEntity
  8
0
  6
Continuous
 62
     7
370
    15
100
AcDbLine
 10
411.0322161327
 20
258.1913488873
 30
0.0
 11
411.0322161327
 21
283.6913502731
 31
0.0
  0
LINE
  5
12E
330
1F
100
AcDbEntity
  8
0
  6
Continuous
 62
     7
370
    15
100
AcDbLine
 10
405.1322149794
 20
258.1913488873
 30
0.0
 11
411.0322161327
 21
258.1913488873
 31
0.0
  0
LINE
  5
12F
330
1F
100
AcDbEntity
  8
0
  6
Continuous
 62
     7
370
    15
100
AcDbLine
 10
405.1322149794
 20
246.1913506456
 30
0.0
 11
405.1322149794
 21
258.1913488873
 31
0.0
  0
LINE
  5
130
330
1F
100
AcDbEntity
  8
0
  6
Continuous
 62
     7
370
    15
100
AcDbLine
 10
385.1322154264
 20
246.1913506456
 30
0.0
 11
405.1322149794
 21
246.1913506456
 31
0.0
  0
LINE
  5
131
330
1F
100
AcDbEntity
  8
0
  6
Continuous
 62
     7
370
    15
100
AcDbLine
 10
385.1322154264
 20
258.1913488873
 30
0.0
 11
385.1322154264
 21
246.1913506456
 31
0.0
  0
LINE
  5
132
330
1F
100
AcDbEntity
  8
0
  6
Continuous
 62
     7
370
    15
100
AcDbLine
 10
379.232214273
 20
258.1913488873
 30
0.0
 11
385.1322154264
 21
258.1913488873
 31
0.0
  0
LINE
  5
133
330
1F
100
AcDbEntity
  8
0
  6
Continuous
 62
     7
370
    15
100
AcDbLine
 10
379.232214273
 20
283.6913502731
 30
0.0
 11
379.232214273
 21
258.1913488873
 31
0.0
  0
LINE
  5
134
330
1F
100
AcDbEntity
  8
0
  6
Continuous
 62
     7
370
    15
100
AcDbLine
 10
385.1322154264
 20
283.6913502731
 30
0.0
 11
379.232214273
 21
283.6913502731
 31
0.0
  0
LINE
  5
135
330
1F
100
AcDbEntity
  8
0
  6
Continuous
 62
     7
370
    15
100
AcDbLine
 10
385.1322154264
 20
295.6913503774
 30
0.0
 11
385.1322154264
 21
283.6913502731
 31
0.0
  0
LINE
  5
136
330
1F
100
AcDbEntity
  8
0
  6
Continuous
 62
     7
370
    15
100
AcDbLine
 10
405.1322149794
 20
295.6913503774
 30
0.0
 11
385.1322154264
 21
295.6913503774
 31
0.0
  0
LINE
  5
137
330
1F
100
AcDbEntity
  8
0
  6
Continuous
 62
     7
370
    15
100
AcDbLine
 10
217.5713108913
 20
189.896159759
 30
0.0
 11
207.5713111148
 21
189.896159759
 31
0.0
  0
LINE
  5
138
330
1F
100
AcDbEntity
  8
0
  6
Continuous
 62
     7
370
    15
100
AcDbLine
 10
217.5713108913
 20
183.8961597068
 30
0.0
 11
217.5713108913
 21
189.896159759
 31
0.0
  0
LINE
  5
139
330
1F
100
AcDbEntity
  8
0
  6
Continuous
 62
     7
370
    15
100
AcDbLine
 10
223.4713120446
 20
183.8961597068
 30
0.0
 11
217.5713108913
 21
183.8961597068
 31
0.0
  0
LINE
  5
13A
330
1F
100
AcDbEntity
  8
0
  6
Continuous
 62
     7
370
    15
100
AcDbLine
 10
223.4713120446
 20
158.3961601837
 30
0.0
 11
223.4713120446
 21
183.8961597068
 31
0.0
  0
LINE
  5
13B
330
1F
100
AcDbEntity
  8
0
  6
Continuous
 62
     7
370
    15
100
AcDbLine
 10
217.5713108913
 20
158.3961601837
 30
0.0
 11
223.4713120446
 21
158.3961601837
 31
0.0
  0
LINE
  5
13C
330
1F
100
AcDbEntity
  8
0
  6
Continuous
 62
     7
370
    15
100
AcDbLine
 10
217.5713108913
 20
152.3961592002
 30
0.0
 11
217.5713108913
 21
158.3961601837
 31
0.0
  0
LINE
  5
13D
330
1F
100
AcDbEntity
  8
0
  6
Continuous
 62
     7
370
    15
100
AcDbLine
 10
207.5713111148
 20
152.3961592002
 30
0.0
 11
217.5713108913
 21
152.3961592002
 31
0.0
  0
LINE
  5
13E
330
1F
100
AcDbEntity
  8
0
  6
Continuous
 62
     7
370
    15
100
AcDbLine
 10
207.5713111148
 20
161.1461601687
 30
0.0
 11
207.5713111148
 21
152.3961592002
 31
0.0
  0
LINE
  5
13F
330
1F
100
AcDbEntity
  8
0
  6
Continuous
 62
     7
370
    15
100
AcDbLine
 10
208.1713111433
 20
161.1461601687
 30
0.0
 11
207.5713111148
 21
161.1461601687
 31
0.0
  0
LINE
  5
140
330
1F
100
AcDbEntity
  8
0
  6
Continuous
 62
     7
370
    15
100
AcDbLine
 10
208.1713111433
 20
170.5461600331
 30
0.0
 11
208.1713111433
 21
161.1461601687
 31
0.0
  0
LINE
  5
141
330
1F
100
AcDbEntity
  8
0
  6
Continuous
 62
     7
370
    15
100
AcDbLine
 10
217.5713108913
 20
170.5461600331
 30
0.0
 11
208.1713111433
 21
170.5461600331
 31
0.0
  0
LINE
  5
142
330
1F
100
AcDbEntity
  8
0
  6
Continuous
 62
     7
370
    15
100
AcDbLine
 10
217.5713108913
 20
171.7461598573
 30
0.0
 11
217.5713108913
 21
170.5461600331
 31
0.0
  0
LINE
  5
143
330
1F
100
AcDbEntity
  8
0
  6
Continuous
 62
     7
370
    15
100
AcDbLine
 10
208.1713111433
 20
171.7461598573
 30
0.0
 11
217.5713108913
 21
171.7461598573
 31
0.0
  0
LINE
  5
144
330
1F
100
AcDbEntity
  8
0
  6
Continuous
 62
     7
370
    15
100
AcDbLine
 10
208.1713111433
 20
181.1461597217
 30
0.0
 11
208.1713111433
 21
171.7461598573
 31
0.0
  0
LINE
  5
145
330
1F
100
AcDbEntity
  8
0
  6
Continuous
 62
     7
370
    15
100
AcDbLine
 10
207.5713111148
 20
181.1461597217
 30
0.0
 11
208.1713111433
 21
181.1461597217
 31
0.0
  0
LINE
  5
146
330
1F
100
AcDbEntity
  8
0
  6
Continuous
 62
     7
370
    15
100
AcDbLine
 10
207.5713111148
 20
189.896159759
 30
0.0
 11
207.5713111148
 21
181.1461597217
 31
0.0
  0
LINE
  5
147
330
1F
100
AcDbEntity
  8
0
  6
Continuous
 62
     7
370
    15
100
AcDbLine
 10
12.1016160519
 20
157.0547662976
 30
0.0
 11
2.1016162754
 21
157.0547662976
 31
0.0
  0
LINE
  5
148
330
1F
100
AcDbEntity
  8
0
  6
Continuous
 62
     7
370
    15
100
AcDbLine
 10
12.1016160519
 20
151.0547662455
 30
0.0
 11
12.1016160519
 21
157.0547662976
 31
0.0
  0
LINE
  5
149
330
1F
100
AcDbEntity
  8
0
  6
Continuous
 62
     7
370
    15
100
AcDbLine
 10
18.0016172052
 20
151.0547662455
 30
0.0
 11
12.1016160519
 21
151.0547662455
 31
0.0
  0
LINE
  5
14A
330
1F
100
AcDbEntity
  8
0
  6
Continuous
 62
     7
370
    15
100
AcDbLine
 10
18.0016172052
 20
125.5547667223
 30
0.0
 11
18.0016172052
 21
151.0547662455
 31
0.0
  0
LINE
  5
14B
330
1F
100
AcDbEntity
  8
0
  6
Continuous
 62
     7
370
    15
100
AcDbLine
 10
12.1016160519
 20
125.5547667223
 30
0.0
 11
18.0016172052
 21
125.5547667223
 31
0.0
  0
LINE
  5
14C
330
1F
100
AcDbEntity
  8
0
  6
Continuous
 62
     7
370
    15
100
AcDbLine
 10
12.1016160519
 20
119.5547657388
 30
0.0
 11
12.1016160519
 21
125.5547667223
 31
0.0
  0
LINE
  5
14D
330
1F
100
AcDbEntity
  8
0
  6
Continuous
 62
     7
370
    15
100
AcDbLine
 10
2.1016162754
 20
119.5547657388
 30
0.0
 11
12.1016160519
 21
119.5547657388
 31
0.0
  0
LINE
  5
14E
330
1F
100
AcDbEntity
  8
0
  6
Continuous
 62
     7
370
    15
100
AcDbLine
 10
2.1016162754
 20
128.3047667074
 30
0.0
 11
2.1016162754
 21
119.5547657388
 31
0.0
  0
LINE
  5
14F
330
1F
100
AcDbEntity
  8
0
  6
Continuous
 62
     7
370
    15
100
AcDbLine
 10
2.7016163039
 20
128.3047667074
 30
0.0
 11
2.1016162754
 21
128.3047667074
 31
0.0
  0
LINE
  5
150
330
1F
100
AcDbEntity
  8
0
  6
Continuous
 62
     7
370
    15
100
AcDbLine
 10
2.7016163039
 20
137.7047665718
 30
0.0
 11
2.7016163039
 21
128.3047667074
 31
0.0
  0
LINE
  5
151
330
1F
100
AcDbEntity
  8
0
  6
Continuous
 62
     7
370
    15
100
AcDbLine
 10
12.1016160519
 20
137.7047665718
 30
0.0
 11
2.7016163039
 21
137.7047665718
 31
0.0
  0
LINE
  5
152
330
1F
100
AcDbEntity
  8
0
  6
Continuous
 62
     7
370
    15
100
AcDbLine
 10
12.1016160519
 20
138.904766396
 30
0.0
 11
12.1016160519
 21
137.7047665718
 31
0.0
  0
LINE
  5
153
330
1F
100
AcDbEntity
  8
0
  6
Continuous
 62
     7
370
    15
100
AcDbLine
 10
2.7016163039
 20
138.904766396
 30
0.0
 11
12.1016160519
 21
138.904766396
 31
0.0
  0
LINE
  5
154
330
1F
100
AcDbEntity
  8
0
  6
Continuous
 62
     7
370
    15
100
AcDbLine
 10
2.7016163039
 20
148.3047662604
 30
0.0
 11
2.7016163039
 21
138.904766396
 31
0.0
  0
LINE
  5
155
330
1F
100
AcDbEntity
  8
0
  6
Continuous
 62
     7
370
    15
100
AcDbLine
 10
2.1016162754
 20
148.3047662604
 30
0.0
 11
2.7016163039
 21
148.3047662604
 31
0.0
  0
LINE
  5
156
330
1F
100
AcDbEntity
  8
0
  6
Continuous
 62
     7
370
    15
100
AcDbLine
 10
2.1016162754
 20
157.0547662976
 30
0.0
 11
2.1016162754
 21
148.3047662604
 31
0.0
  0
LINE
  5
157
330
1F
100
AcDbEntity
  8
0
  6
Continuous
 62
     7
370
    15
100
AcDbLine
 10
209.5587269083
 20
107.1156992666
 30
0.0
 11
209.5587269083
 21
127.1156988196
 31
0.0
  0
LINE
  5
158
330
1F
100
AcDbEntity
  8
0
  6
Continuous
 62
     7
370
    15
100
AcDbLine
 10
209.5587269083
 20
127.1156988196
 30
0.0
 11
203.5587259248
 21
127.1156988196
 31
0.0
  0
LINE
  5
159
330
1F
100
AcDbEntity
  8
0
  6
Continuous
 62
     7
370
    15
100
AcDbLine
 10
203.5587259248
 20
127.1156988196
 30
0.0
 11
203.5587259248
 21
107.1156992666
 31
0.0
  0
LINE
  5
15A
330
1F
100
AcDbEntity
  8
0
  6
Continuous
 62
     7
370
    15
100
AcDbLine
 10
203.5587259248
 20
107.1156992666
 30
0.0
 11
209.5587269083
 21
107.1156992666
 31
0.0
  0
LINE
  5
15B
330
1F
100
AcDbEntity
  8
0
  6
Continuous
 62
     7
370
    15
100
AcDbLine
 10
82.5587303058
 20
107.1156992666
 30
0.0
 11
82.5587303058
 21
127.1156988196
 31
0.0
  0
LINE
  5
15C
330
1F
100
AcDbEntity
  8
0
  6
Continuous
 62
     7
370
    15
100
AcDbLine
 10
82.5587303058
 20
127.1156988196
 30
0.0
 11
76.5587330476
 21
127.1156988196
 31
0.0
  0
LINE
  5
15D
330
1F
100
AcDbEntity
  8
0
  6
Continuous
 62
     7
370
    15
100
AcDbLine
 10
76.5587330476
 20
127.1156988196
 30
0.0
 11
76.5587330476
 21
107.1156992666
 31
0.0
  0
LINE
  5
15E
330
1F
100
AcDbEntity
  8
0
  6
Continuous
 62
     7
370
    15
100
AcDbLine
 10
76.5587330476
 20
107.1156992666
 30
0.0
 11
82.5587303058
 21
107.1156992666
 31
0.0
  0
LINE
  5
15F
330
1F
100
AcDbEntity
  8
0
  6
Continuous
 62
     7
370
    15
100
AcDbLine
 10
28.0587316171
 20
107.1156992666
 30
0.0
 11
28.0587316171
 21
127.1156988196
 31
0.0
  0
LINE
  5
160
330
1F
100
AcDbEntity
  8
0
  6
Continuous
 62
     7
370
    15
100
AcDbLine
 10
28.0587316171
 20
127.1156988196
 30
0.0
 11
22.0587194577
 21
127.1156988196
 31
0.0
  0
LINE
  5
161
330
1F
100
AcDbEntity
  8
0
  6
Continuous
 62
     7
370
    15
100
AcDbLine
 10
22.0587194577
 20
127.1156988196
 30
0.0
 11
22.0587194577
 21
107.1156992666
 31
0.0
  0
LINE
  5
162
330
1F
100
AcDbEntity
  8
0
  6
Continuous
 62
     7
370
    15
100
AcDbLine
 10
22.0587194577
 20
107.1156992666
 30
0.0
 11
28.0587316171
 21
107.1156992666
 31
0.0
  0
ARC
  5
163
330
1F
100
AcDbEntity
  8
0
  6
Continuous
 62
     7
370
    15
100
AcDbCircle
 10
22.5587268487
 20
104.1656991296
 30
0.0
 40
3.000000000000004
100
AcDbArc
 50
180.0
 51
270.0
  0
LINE
  5
164
330
1F
100
AcDbEntity
  8
0
  6
Continuous
 62
     7
370
    15
100
AcDbLine
 10
19.5587218419
 20
148.6156976871
 30
0.0
 11
19.5587218419
 21
104.1656991556
 31
0.0
  0
ARC
  5
165
330
1F
100
AcDbEntity
  8
0
  6
Continuous
 62
     7
370
    15
100
AcDbCircle
 10
29.5587268487
 20
148.6156991296
 30
0.0
 40
10.00000000000001
100
AcDbArc
 50
90.0
 51
180.0
  0
LINE
  5
166
330
1F
100
AcDbEntity
  8
0
  6
Continuous
 62
     7
370
    15
100
AcDbLine
 10
66.5587276832
 20
158.6156993263
 30
0.0
 11
29.5587272063
 21
158.6156993263
 31
0.0
  0
ARC
  5
167
330
1F
100
AcDbEntity
  8
0
  6
Continuous
 62
     7
370
    15
100
AcDbCircle
 10
66.5587268487
 20
148.6156991296
 30
0.0
 40
10.0
100
AcDbArc
 50
0.0
 51
90.0
  0
LINE
  5
168
330
1F
100
AcDbEntity
  8
0
  6
Continuous
 62
     7
370
    15
100
AcDbLine
 10
76.5587330476
 20
133.0656989567
 30
0.0
 11
76.5587330476
 21
148.6156976871
 31
0.0
  0
LINE
  5
169
330
1F
100
AcDbEntity
  8
0
  6
Continuous
 62
     7
370
    15
100
AcDbLine
 10
217.5587268226
 20
133.0656989567
 30
0.0
 11
76.5587330476
 21
133.0656989567
 31
0.0
  0
ARC
  5
16A
330
1F
100
AcDbEntity
  8
0
  6
Continuous
 62
     7
370
    15
100
AcDbCircle
 10
217.5587268487
 20
130.0656991296
 30
0.0
 40
3.0
100
AcDbArc
 50
0.0
 51
90.0
  0
LINE
  5
16B
330
1F
100
AcDbEntity
  8
0
  6
Continuous
 62
     7
370
    15
100
AcDbLine
 10
220.5587268487
 20
104.1656991556
 30
0.0
 11
220.5587268487
 21
130.065698465
 31
0.0
  0
ARC
  5
16C
330
1F
100
AcDbEntity
  8
0
  6
Continuous
 62
     7
370
    15
100
AcDbCircle
 10
217.5587268487
 20
104.1656991296
 30
0.0
 40
3.0
100
AcDbArc
 50
270.0
 51
0.0
  0
LINE
  5
16D
330
1F
100
AcDbEntity
  8
0
  6
Continuous
 62
     7
370
    15
100
AcDbLine
 10
22.5587279216
 20
101.1656991296
 30
0.0
 11
217.5587268226
 21
101.1656991296
 31
0.0
  0
LINE
  5
16E
330
1F
100
AcDbEntity
  8
0
  6
Continuous
 62
     7
370
    15
100
AcDbLine
 10
73.108726801
 20
107.1156992666
 30
0.0
 11
73.108726801
 21
127.1156988196
 31
0.0
  0
LINE
  5
16F
330
1F
100
AcDbEntity
  8
0
  6
Continuous
 62
     7
370
    15
100
AcDbLine
 10
73.108726801
 20
127.1156988196
 30
0.0
 11
67.1087295428
 21
127.1156988196
 31
0.0
  0
LINE
  5
170
330
1F
100
AcDbEntity
  8
0
  6
Continuous
 62
     7
370
    15
100
AcDbLine
 10
67.1087295428
 20
127.1156988196
 30
0.0
 11
67.1087295428
 21
107.1156992666
 31
0.0
  0
LINE
  5
171
330
1F
100
AcDbEntity
  8
0
  6
Continuous
 62
     7
370
    15
100
AcDbLine
 10
67.1087295428
 20
107.1156992666
 30
0.0
 11
73.108726801
 21
107.1156992666
 31
0.0
  0
LINE
  5
172
330
1F
100
AcDbEntity
  8
0
  6
Continuous
 62
     7
370
    15
100
AcDbLine
 10
190.5587275193
 20
107.1156992666
 30
0.0
 11
190.5587275193
 21
127.1156988196
 31
0.0
  0
LINE
  5
173
330
1F
100
AcDbEntity
  8
0
  6
Continuous
 62
     7
370
    15
100
AcDbLine
 10
190.5587275193
 20
127.1156988196
 30
0.0
 11
184.5587283984
 21
127.1156988196
 31
0.0
  0
LINE
  5
174
330
1F
100
AcDbEntity
  8
0
  6
Continuous
 62
     7
370
    15
100
AcDbLine
 10
184.5587283984
 20
127.1156988196
 30
0.0
 11
184.5587283984
 21
107.1156992666
 31
0.0
  0
LINE
  5
175
330
1F
100
AcDbEntity
  8
0
  6
Continuous
 62
     7
370
    15
100
AcDbLine
 10
184.5587283984
 20
107.1156992666
 30
0.0
 11
190.5587275193
 21
107.1156992666
 31
0.0
  0
LINE
  5
176
330
1F
100
AcDbEntity
  8
0
  6
Continuous
 62
     7
370
    15
100
AcDbLine
 10
68.7837243692
 20
130.615698462
 30
0.0
 11
68.7837243692
 21
136.6156994455
 31
0.0
  0
LINE
  5
177
330
1F
100
AcDbEntity
  8
0
  6
Continuous
 62
     7
370
    15
100
AcDbLine
 10
68.7837243692
 20
136.6156994455
 30
0.0
 11
63.4099186078
 21
136.6156994455
 31
0.0
  0
LINE
  5
178
330
1F
100
AcDbEntity
  8
0
  6
Continuous
 62
     7
370
    15
100
AcDbLine
 10
54.5587331668
 20
145.4668848865
 30
0.0
 11
54.5587331668
 21
150.8406980984
 31
0.0
  0
LINE
  5
179
330
1F
100
AcDbEntity
  8
0
  6
Continuous
 62
     7
370
    15
100
AcDbLine
 10
54.5587331668
 20
150.8406980984
 30
0.0
 11
48.5587210075
 21
150.8406980984
 31
0.0
  0
LINE
  5
17A
330
1F
100
AcDbEntity
  8
0
  6
Continuous
 62
     7
370
    15
100
AcDbLine
 10
48.5587210075
 20
150.8406980984
 30
0.0
 11
48.5587210075
 21
145.4668848865
 31
0.0
  0
ARC
  5
17B
330
1F
100
AcDbEntity
  8
0
  6
Continuous
 62
     7
370
    15
100
AcDbCircle
 10
51.5587268487
 20
133.6156991296
 30
0.0
 40
12.22499999999998
100
AcDbArc
 50
104.2054011906
 51
165.7945988094
  0
LINE
  5
17C
330
1F
100
AcDbEntity
  8
0
  6
Continuous
 62
     7
370
    15
100
AcDbLine
 10
39.7075355664
 20
136.6156994455
 30
0.0
 11
34.3337298051
 21
136.6156994455
 31
0.0
  0
LINE
  5
17D
330
1F
100
AcDbEntity
  8
0
  6
Continuous
 62
     7
370
    15
100
AcDbLine
 10
34.3337298051
 20
136.6156994455
 30
0.0
 11
34.3337298051
 21
130.615698462
 31
0.0
  0
LINE
  5
17E
330
1F
100
AcDbEntity
  8
0
  6
Continuous
 62
     7
370
    15
100
AcDbLine
 10
34.3337298051
 20
130.615698462
 30
0.0
 11
39.7075355664
 21
130.615698462
 31
0.0
  0
LINE
  5
17F
330
1F
100
AcDbEntity
  8
0
  6
Continuous
 62
     7
370
    15
100
AcDbLine
 10
63.4099186078
 20
130.615698462
 30
0.0
 11
68.7837243692
 21
130.615698462
 31
0.0
  0
ARC
  5
180
330
1F
100
AcDbEntity
  8
0
  6
Continuous
 62
     7
370
    15
100
AcDbCircle
 10
51.5587268487
 20
133.6156991296
 30
0.0
 40
12.22499999999998
100
AcDbArc
 50
14.2054011906
 51
75.7945988094
  0
ARC
  5
181
330
1F
100
AcDbEntity
  8
0
  6
Continuous
 62
     7
370
    15
100
AcDbCircle
 10
51.5587268487
 20
133.6156991296
 30
0.0
 40
12.22499999999998
100
AcDbArc
 50
194.2054011906
 51
345.7945988094
  0
LINE
  5
182
330
1F
100
AcDbEntity
  8
0
  6
Continuous
 62
     7
370
    15
100
AcDbLine
 10
15.475690876
 20
185.508101131
 30
0.0
 11
15.475690876
 21
165.508101578
 31
0.0
  0
LINE
  5
183
330
1F
100
AcDbEntity
  8
0
  6
Continuous
 62
     7
370
    15
100
AcDbLine
 10
15.475690876
 20
165.508101578
 30
0.0
 11
21.4756918595
 21
165.508101578
 31
0.0
  0
LINE
  5
184
330
1F
100
AcDbEntity
  8
0
  6
Continuous
 62
     7
370
    15
100
AcDbLine
 10
21.4756918595
 20
165.508101578
 30
0.0
 11
21.4756918595
 21
185.508101131
 31
0.0
  0
LINE
  5
185
330
1F
100
AcDbEntity
  8
0
  6
Continuous
 62
     7
370
    15
100
AcDbLine
 10
21.4756918595
 20
185.508101131
 30
0.0
 11
15.475690876
 21
185.508101131
 31
0.0
  0
LINE
  5
186
330
1F
100
AcDbEntity
  8
0
  6
Continuous
 62
     7
370
    15
100
AcDbLine
 10
142.4756874785
 20
185.508101131
 30
0.0
 11
142.4756874785
 21
165.508101578
 31
0.0
  0
LINE
  5
187
330
1F
100
AcDbEntity
  8
0
  6
Continuous
 62
     7
370
    15
100
AcDbLine
 10
142.4756874785
 20
165.508101578
 30
0.0
 11
148.4756847367
 21
165.508101578
 31
0.0
  0
LINE
  5
188
330
1F
100
AcDbEntity
  8
0
  6
Continuous
 62
     7
370
    15
100
AcDbLine
 10
148.4756847367
 20
165.508101578
 30
0.0
 11
148.4756847367
 21
185.508101131
 31
0.0
  0
LINE
  5
189
330
1F
100
AcDbEntity
  8
0
  6
Continuous
 62
     7
370
    15
100
AcDbLine
 10
148.4756847367
 20
185.508101131
 30
0.0
 11
142.4756874785
 21
185.508101131
 31
0.0
  0
LINE
  5
18A
330
1F
100
AcDbEntity
  8
0
  6
Continuous
 62
     7
370
    15
100
AcDbLine
 10
196.9756861672
 20
185.508101131
 30
0.0
 11
196.9756861672
 21
165.508101578
 31
0.0
  0
LINE
  5
18B
330
1F
100
AcDbEntity
  8
0
  6
Continuous
 62
     7
370
    15
100
AcDbLine
 10
196.9756861672
 20
165.508101578
 30
0.0
 11
202.9756983266
 21
165.508101578
 31
0.0
  0
LINE
  5
18C
330
1F
100
AcDbEntity
  8
0
  6
Continuous
 62
     7
370
    15
100
AcDbLine
 10
202.9756983266
 20
165.508101578
 30
0.0
 11
202.9756983266
 21
185.508101131
 31
0.0
  0
LINE
  5
18D
330
1F
100
AcDbEntity
  8
0
  6
Continuous
 62
     7
370
    15
100
AcDbLine
 10
202.9756983266
 20
185.508101131
 30
0.0
 11
196.9756861672
 21
185.508101131
 31
0.0
  0
ARC
  5
18E
330
1F
100
AcDbEntity
  8
0
  6
Continuous
 62
     7
370
    15
100
AcDbCircle
 10
202.4756909356
 20
188.4581012681
 30
0.0
 40
3.0
100
AcDbArc
 50
0.0
 51
90.0
  0
LINE
  5
18F
330
1F
100
AcDbEntity
  8
0
  6
Continuous
 62
     7
370
    15
100
AcDbLine
 10
205.4756959424
 20
144.0081027105
 30
0.0
 11
205.4756959424
 21
188.458101242
 31
0.0
  0
ARC
  5
190
330
1F
100
AcDbEntity
  8
0
  6
Continuous
 62
     7
370
    15
100
AcDbCircle
 10
195.4756909356
 20
144.0081012681
 30
0.0
 40
10.0
100
AcDbArc
 50
270.0
 51
0.0
  0
LINE
  5
191
330
1F
100
AcDbEntity
  8
0
  6
Continuous
 62
     7
370
    15
100
AcDbLine
 10
158.4756901011
 20
134.0081010714
 30
0.0
 11
195.475690578
 21
134.0081010714
 31
0.0
  0
ARC
  5
192
330
1F
100
AcDbEntity
  8
0
  6
Continuous
 62
     7
370
    15
100
AcDbCircle
 10
158.4756909356
 20
144.0081012681
 30
0.0
 40
10.0
100
AcDbArc
 50
180.0
 51
270.0
  0
LINE
  5
193
330
1F
100
AcDbEntity
  8
0
  6
Continuous
 62
     7
370
    15
100
AcDbLine
 10
148.4756847367
 20
159.5581014409
 30
0.0
 11
148.4756847367
 21
144.0081027105
 31
0.0
  0
LINE
  5
194
330
1F
100
AcDbEntity
  8
0
  6
Continuous
 62
     7
370
    15
100
AcDbLine
 10
7.4756909617
 20
159.5581014409
 30
0.0
 11
148.4756847367
 21
159.5581014409
 31
0.0
  0
ARC
  5
195
330
1F
100
AcDbEntity
  8
0
  6
Continuous
 62
     7
370
    15
100
AcDbCircle
 10
7.4756909356
 20
162.5581012681
 30
0.0
 40
3.000000000000003
100
AcDbArc
 50
180.0
 51
270.0
  0
LINE
  5
196
330
1F
100
AcDbEntity
  8
0
  6
Continuous
 62
     7
370
    15
100
AcDbLine
 10
4.4756909356
 20
188.458101242
 30
0.0
 11
4.4756909356
 21
162.5581019327
 31
0.0
  0
ARC
  5
197
330
1F
100
AcDbEntity
  8
0
  6
Continuous
 62
     7
370
    15
100
AcDbCircle
 10
7.4756909356
 20
188.4581012681
 30
0.0
 40
3.000000000000003
100
AcDbArc
 50
90.0
 51
180.0
  0
LINE
  5
198
330
1F
100
AcDbEntity
  8
0
  6
Continuous
 62
     7
370
    15
100
AcDbLine
 10
202.4756898627
 20
191.4581012681
 30
0.0
 11
7.4756909617
 21
191.4581012681
 31
0.0
  0
LINE
  5
199
330
1F
100
AcDbEntity
  8
0
  6
Continuous
 62
     7
370
    15
100
AcDbLine
 10
151.9256909833
 20
185.508101131
 30
0.0
 11
151.9256909833
 21
165.508101578
 31
0.0
  0
LINE
  5
19A
330
1F
100
AcDbEntity
  8
0
  6
Continuous
 62
     7
370
    15
100
AcDbLine
 10
151.9256909833
 20
165.508101578
 30
0.0
 11
157.9256882415
 21
165.508101578
 31
0.0
  0
LINE
  5
19B
330
1F
100
AcDbEntity
  8
0
  6
Continuous
 62
     7
370
    15
100
AcDbLine
 10
157.9256882415
 20
165.508101578
 30
0.0
 11
157.9256882415
 21
185.508101131
 31
0.0
  0
LINE
  5
19C
330
1F
100
AcDbEntity
  8
0
  6
Continuous
 62
     7
370
    15
100
AcDbLine
 10
157.9256882415
 20
185.508101131
 30
0.0
 11
151.9256909833
 21
185.508101131
 31
0.0
  0
LINE
  5
19D
330
1F
100
AcDbEntity
  8
0
  6
Continuous
 62
     7
370
    15
100
AcDbLine
 10
34.475690265
 20
185.508101131
 30
0.0
 11
34.475690265
 21
165.508101578
 31
0.0
  0
LINE
  5
19E
330
1F
100
AcDbEntity
  8
0
  6
Continuous
 62
     7
370
    15
100
AcDbLine
 10
34.475690265
 20
165.508101578
 30
0.0
 11
40.4756893859
 21
165.508101578
 31
0.0
  0
LINE
  5
19F
330
1F
100
AcDbEntity
  8
0
  6
Continuous
 62
     7
370
    15
100
AcDbLine
 10
40.4756893859
 20
165.508101578
 30
0.0
 11
40.4756893859
 21
185.508101131
 31
0.0
  0
LINE
  5
1A0
330
1F
100
AcDbEntity
  8
0
  6
Continuous
 62
     7
370
    15
100
AcDbLine
 10
40.4756893859
 20
185.508101131
 30
0.0
 11
34.475690265
 21
185.508101131
 31
0.0
  0
LINE
  5
1A1
330
1F
100
AcDbEntity
  8
0
  6
Continuous
 62
     7
370
    15
100
AcDbLine
 10
156.2506934151
 20
162.0081019357
 30
0.0
 11
156.2506934151
 21
156.0081009522
 31
0.0
  0
LINE
  5
1A2
330
1F
100
AcDbEntity
  8
0
  6
Continuous
 62
     7
370
    15
100
AcDbLine
 10
156.2506934151
 20
156.0081009522
 30
0.0
 11
161.6244991765
 21
156.0081009522
 31
0.0
  0
ARC
  5
1A3
330
1F
100
AcDbEntity
  8
0
  6
Continuous
 62
     7
370
    15
100
AcDbCircle
 10
173.4756909356
 20
159.0081012681
 30
0.0
 40
12.22499999999998
100
AcDbArc
 50
194.2054011906
 51
255.7945988094
  0
LINE
  5
1A4
330
1F
100
AcDbEntity
  8
0
  6
Continuous
 62
     7
370
    15
100
AcDbLine
 10
170.4756846175
 20
147.1569155112
 30
0.0
 11
170.4756846175
 21
141.7831022992
 31
0.0
  0
LINE
  5
1A5
330
1F
100
AcDbEntity
  8
0
  6
Continuous
 62
     7
370
    15
100
AcDbLine
 10
170.4756846175
 20
141.7831022992
 30
0.0
 11
176.4756967768
 21
141.7831022992
 31
0.0
  0
LINE
  5
1A6
330
1F
100
AcDbEntity
  8
0
  6
Continuous
 62
     7
370
    15
100
AcDbLine
 10
176.4756967768
 20
141.7831022992
 30
0.0
 11
176.4756967768
 21
147.1569155112
 31
0.0
  0
ARC
  5
1A7
330
1F
100
AcDbEntity
  8
0
  6
Continuous
 62
     7
370
    15
100
AcDbCircle
 10
173.4756909356
 20
159.0081012681
 30
0.0
 40
12.22499999999998
100
AcDbArc
 50
284.2054011906
 51
345.7945988094
  0
LINE
  5
1A8
330
1F
100
AcDbEntity
  8
0
  6
Continuous
 62
     7
370
    15
100
AcDbLine
 10
185.3268822179
 20
156.0081009522
 30
0.0
 11
190.7006879792
 21
156.0081009522
 31
0.0
  0
LINE
  5
1A9
330
1F
100
AcDbEntity
  8
0
  6
Continuous
 62
     7
370
    15
100
AcDbLine
 10
190.7006879792
 20
156.0081009522
 30
0.0
 11
190.7006879792
 21
162.0081019357
 31
0.0
  0
LINE
  5
1AA
330
1F
100
AcDbEntity
  8
0
  6
Continuous
 62
     7
370
    15
100
AcDbLine
 10
190.7006879792
 20
162.0081019357
 30
0.0
 11
185.3268822179
 21
162.0081019357
 31
0.0
  0
ARC
  5
1AB
330
1F
100
AcDbEntity
  8
0
  6
Continuous
 62
     7
370
    15
100
AcDbCircle
 10
173.4756909356
 20
159.0081012681
 30
0.0
 40
12.22499999999998
100
AcDbArc
 50
14.2054011906
 51
165.7945988094
  0
LINE
  5
1AC
330
1F
100
AcDbEntity
  8
0
  6
Continuous
 62
     7
370
    15
100
AcDbLine
 10
161.6244991765
 20
162.0081019357
 30
0.0
 11
156.2506934151
 21
162.0081019357
 31
0.0
  0
CIRCLE
  5
1AD
330
1F
100
AcDbEntity
  8
0
  6
Continuous
 62
     7
370
    15
100
AcDbCircle
 10
295.1784067497
 20
205.017946755
 30
0.0
 40
4.0
  0
LINE
  5
1AE
330
1F
100
AcDbEntity
  8
0
  6
Continuous
 62
     7
370
    15
100
AcDbLine
 10
270.4284067497
 20
195.0179468221
 30
0.0
 11
276.4284068019
 21
195.0179468221
 31
0.0
  0
LINE
  5
1AF
330
1F
100
AcDbEntity
  8
0
  6
Continuous
 62
     7
370
    15
100
AcDbLine
 10
270.4284067497
 20
215.0179473064
 30
0.0
 11
270.4284067497
 21
195.0179468221
 31
0.0
  0
LINE
  5
1B0
330
1F
100
AcDbEntity
  8
0
  6
Continuous
 62
     7
370
    15
100
AcDbLine
 10
276.4284068019
 20
215.0179473064
 30
0.0
 11
270.4284067497
 21
215.0179473064
 31
0.0
  0
LINE
  5
1B1
330
1F
100
AcDbEntity
  8
0
  6
Continuous
 62
     7
370
    15
100
AcDbLine
 10
276.4284068019
 20
218.2679464421
 30
0.0
 11
276.4284068019
 21
215.0179473064
 31
0.0
  0
LINE
  5
1B2
330
1F
100
AcDbEntity
  8
0
  6
Continuous
 62
     7
370
    15
100
AcDbLine
 10
313.928405498
 20
218.2679464421
 30
0.0
 11
276.4284068019
 21
218.2679464421
 31
0.0
  0
LINE
  5
1B3
330
1F
100
AcDbEntity
  8
0
  6
Continuous
 62
     7
370
    15
100
AcDbLine
 10
313.928405498
 20
215.0179473064
 30
0.0
 11
313.928405498
 21
218.2679464421
 31
0.0
  0
LINE
  5
1B4
330
1F
100
AcDbEntity
  8
0
  6
Continuous
 62
     7
370
    15
100
AcDbLine
 10
319.9284064815
 20
215.0179473064
 30
0.0
 11
313.928405498
 21
215.0179473064
 31
0.0
  0
LINE
  5
1B5
330
1F
100
AcDbEntity
  8
0
  6
Continuous
 62
     7
370
    15
100
AcDbLine
 10
319.9284064815
 20
195.0179468221
 30
0.0
 11
319.9284064815
 21
215.0179473064
 31
0.0
  0
LINE
  5
1B6
330
1F
100
AcDbEntity
  8
0
  6
Continuous
 62
     7
370
    15
100
AcDbLine
 10
313.928405498
 20
195.0179468221
 30
0.0
 11
319.9284064815
 21
195.0179468221
 31
0.0
  0
LINE
  5
1B7
330
1F
100
AcDbEntity
  8
0
  6
Continuous
 62
     7
370
    15
100
AcDbLine
 10
313.928405498
 20
191.767946755
 30
0.0
 11
313.928405498
 21
195.0179468221
 31
0.0
  0
LINE
  5
1B8
330
1F
100
AcDbEntity
  8
0
  6
Continuous
 62
     7
370
    15
100
AcDbLine
 10
276.4284068019
 20
191.767946755
 30
0.0
 11
313.928405498
 21
191.767946755
 31
0.0
  0
LINE
  5
1B9
330
1F
100
AcDbEntity
  8
0
  6
Continuous
 62
     7
370
    15
100
AcDbLine
 10
276.4284068019
 20
195.0179468221
 30
0.0
 11
276.4284068019
 21
191.767946755
 31
0.0
  0
CIRCLE
  5
1BA
330
1F
100
AcDbEntity
  8
0
  6
Continuous
 62
     7
370
    15
100
AcDbCircle
 10
244.7775551543
 20
205.137567262
 30
0.0
 40
4.0
  0
LINE
  5
1BB
330
1F
100
AcDbEntity
  8
0
  6
Continuous
 62
     7
370
    15
100
AcDbLine
 10
220.0275551543
 20
195.137567329
 30
0.0
 11
226.0275552064
 21
195.137567329
 31
0.0
  0
LINE
  5
1BC
330
1F
100
AcDbEntity
  8
0
  6
Continuous
 62
     7
370
    15
100
AcDbLine
 10
220.0275551543
 20
215.1375678133
 30
0.0
 11
220.0275551543
 21
195.137567329
 31
0.0
  0
LINE
  5
1BD
330
1F
100
AcDbEntity
  8
0
  6
Continuous
 62
     7
370
    15
100
AcDbLine
 10
226.0275552064
 20
215.1375678133
 30
0.0
 11
220.0275551543
 21
215.1375678133
 31
0.0
  0
LINE
  5
1BE
330
1F
100
AcDbEntity
  8
0
  6
Continuous
 62
     7
370
    15
100
AcDbLine
 10
226.0275552064
 20
218.3875669491
 30
0.0
 11
226.0275552064
 21
215.1375678133
 31
0.0
  0
LINE
  5
1BF
330
1F
100
AcDbEntity
  8
0
  6
Continuous
 62
     7
370
    15
100
AcDbLine
 10
263.5275539026
 20
218.3875669491
 30
0.0
 11
226.0275552064
 21
218.3875669491
 31
0.0
  0
LINE
  5
1C0
330
1F
100
AcDbEntity
  8
0
  6
Continuous
 62
     7
370
    15
100
AcDbLine
 10
263.5275539026
 20
215.1375678133
 30
0.0
 11
263.5275539026
 21
218.3875669491
 31
0.0
  0
LINE
  5
1C1
330
1F
100
AcDbEntity
  8
0
  6
Continuous
 62
     7
370
    15
100
AcDbLine
 10
269.5275548861
 20
215.1375678133
 30
0.0
 11
263.5275539026
 21
215.1375678133
 31
0.0
  0
LINE
  5
1C2
330
1F
100
AcDbEntity
  8
0
  6
Continuous
 62
     7
370
    15
100
AcDbLine
 10
269.5275548861
 20
195.137567329
 30
0.0
 11
269.5275548861
 21
215.1375678133
 31
0.0
  0
LINE
  5
1C3
330
1F
100
AcDbEntity
  8
0
  6
Continuous
 62
     7
370
    15
100
AcDbLine
 10
263.5275539026
 20
195.137567329
 30
0.0
 11
269.5275548861
 21
195.137567329
 31
0.0
  0
LINE
  5
1C4
330
1F
100
AcDbEntity
  8
0
  6
Continuous
 62
     7
370
    15
100
AcDbLine
 10
263.5275539026
 20
191.887567262
 30
0.0
 11
263.5275539026
 21
195.137567329
 31
0.0
  0
LINE
  5
1C5
330
1F
100
AcDbEntity
  8
0
  6
Continuous
 62
     7
370
    15
100
AcDbLine
 10
226.0275552064
 20
191.887567262
 30
0.0
 11
263.5275539026
 21
191.887567262
 31
0.0
  0
LINE
  5
1C6
330
1F
100
AcDbEntity
  8
0
  6
Continuous
 62
     7
370
    15
100
AcDbLine
 10
226.0275552064
 20
195.137567329
 30
0.0
 11
226.0275552064
 21
191.887567262
 31
0.0
  0
CIRCLE
  5
1C7
330
1F
100
AcDbEntity
  8
0
  6
Continuous
 62
     7
370
    15
100
AcDbCircle
 10
194.1164687864
 20
205.7531143713
 30
0.0
 40
8.0
  0
LINE
  5
1C8
330
1F
100
AcDbEntity
  8
0
  6
Continuous
 62
     7
370
    15
100
AcDbLine
 10
169.3664687864
 20
195.7531144384
 30
0.0
 11
175.3664688385
 21
195.7531144384
 31
0.0
  0
LINE
  5
1C9
330
1F
100
AcDbEntity
  8
0
  6
Continuous
 62
     7
370
    15
100
AcDbLine
 10
169.3664687864
 20
215.7531149227
 30
0.0
 11
169.3664687864
 21
195.7531144384
 31
0.0
  0
LINE
  5
1CA
330
1F
100
AcDbEntity
  8
0
  6
Continuous
 62
     7
370
    15
100
AcDbLine
 10
175.3664688385
 20
215.7531149227
 30
0.0
 11
169.3664687864
 21
215.7531149227
 31
0.0
  0
LINE
  5
1CB
330
1F
100
AcDbEntity
  8
0
  6
Continuous
 62
     7
370
    15
100
AcDbLine
 10
175.3664688385
 20
219.0031140584
 30
0.0
 11
175.3664688385
 21
215.7531149227
 31
0.0
  0
LINE
  5
1CC
330
1F
100
AcDbEntity
  8
0
  6
Continuous
 62
     7
370
    15
100
AcDbLine
 10
212.8664675347
 20
219.0031140584
 30
0.0
 11
175.3664688385
 21
219.0031140584
 31
0.0
  0
LINE
  5
1CD
330
1F
100
AcDbEntity
  8
0
  6
Continuous
 62
     7
370
    15
100
AcDbLine
 10
212.8664675347
 20
215.7531149227
 30
0.0
 11
212.8664675347
 21
219.0031140584
 31
0.0
  0
LINE
  5
1CE
330
1F
100
AcDbEntity
  8
0
  6
Continuous
 62
     7
370
    15
100
AcDbLine
 10
218.8664685182
 20
215.7531149227
 30
0.0
 11
212.8664675347
 21
215.7531149227
 31
0.0
  0
LINE
  5
1CF
330
1F
100
AcDbEntity
  8
0
  6
Continuous
 62
     7
370
    15
100
AcDbLine
 10
218.8664685182
 20
195.7531144384
 30
0.0
 11
218.8664685182
 21
215.7531149227
 31
0.0
  0
LINE
  5
1D0
330
1F
100
AcDbEntity
  8
0
  6
Continuous
 62
     7
370
    15
100
AcDbLine
 10
212.8664675347
 20
195.7531144384
 30
0.0
 11
218.8664685182
 21
195.7531144384
 31
0.0
  0
LINE
  5
1D1
330
1F
100
AcDbEntity
  8
0
  6
Continuous
 62
     7
370
    15
100
AcDbLine
 10
212.8664675347
 20
192.5031143713
 30
0.0
 11
212.8664675347
 21
195.7531144384
 31
0.0
  0
LINE
  5
1D2
330
1F
100
AcDbEntity
  8
0
  6
Continuous
 62
     7
370
    15
100
AcDbLine
 10
175.3664688385
 20
192.5031143713
 30
0.0
 11
212.8664675347
 21
192.5031143713
 31
0.0
  0
LINE
  5
1D3
330
1F
100
AcDbEntity
  8
0
  6
Continuous
 62
     7
370
    15
100
AcDbLine
 10
175.3664688385
 20
195.7531144384
 30
0.0
 11
175.3664688385
 21
192.5031143713
 31
0.0
  0
LINE
  5
1D4
330
1F
100
AcDbEntity
  8
0
  6
Continuous
 62
     7
370
    15
100
AcDbLine
 10
131.7662148283
 20
153.0074626742
 30
0.0
 11
131.7662148283
 21
155.1074623665
 31
0.0
  0
LINE
  5
1D5
330
1F
100
AcDbEntity
  8
0
  6
Continuous
 62
     7
370
    15
100
AcDbLine
 10
137.7662139491
 20
153.0074626742
 30
0.0
 11
131.7662148283
 21
153.0074626742
 31
0.0
  0
ARC
  5
1D6
330
1F
100
AcDbEntity
  8
0
  6
Continuous
 62
     7
370
    15
100
AcDbCircle
 10
142.8662140832
 20
153.0074624902
 30
0.0
 40
5.099999999999994
100
AcDbArc
 50
270.0
 51
180.0
  0
LINE
  5
1D7
330
1F
100
AcDbEntity
  8
0
  6
Continuous
 62
     7
370
    15
100
AcDbLine
 10
83.1662135676
 20
147.9074624902
 30
0.0
 11
142.8662145988
 21
147.9074624902
 31
0.0
  0
ARC
  5
1D8
330
1F
100
AcDbEntity
  8
0
  6
Continuous
 62
     7
370
    15
100
AcDbCircle
 10
83.1662140832
 20
153.0074624902
 30
0.0
 40
5.100000000000009
100
AcDbArc
 50
0.0
 51
270.0
  0
LINE
  5
1D9
330
1F
100
AcDbEntity
  8
0
  6
Continuous
 62
     7
370
    15
100
AcDbLine
 10
94.2662133381
 20
153.0074626742
 30
0.0
 11
88.2662142173
 21
153.0074626742
 31
0.0
  0
LINE
  5
1DA
330
1F
100
AcDbEntity
  8
0
  6
Continuous
 62
     7
370
    15
100
AcDbLine
 10
94.2662133381
 20
155.1074623665
 30
0.0
 11
94.2662133381
 21
153.0074626742
 31
0.0
  0
ARC
  5
1DB
330
1F
100
AcDbEntity
  8
0
  6
Continuous
 62
     7
370
    15
100
AcDbCircle
 10
97.2662140832
 20
155.1074624902
 30
0.0
 40
3.0
100
AcDbArc
 50
90.0
 51
180.0
  0
LINE
  5
1DC
330
1F
100
AcDbEntity
  8
0
  6
Continuous
 62
     7
370
    15
100
AcDbLine
 10
128.7662143365
 20
158.1074628582
 30
0.0
 11
97.2662138299
 21
158.1074628582
 31
0.0
  0
ARC
  5
1DD
330
1F
100
AcDbEntity
  8
0
  6
Continuous
 62
     7
370
    15
100
AcDbCircle
 10
128.7662140832
 20
155.1074624902
 30
0.0
 40
3.0
100
AcDbArc
 50
0.0
 51
90.0
  0
LINE
  5
1DE
330
1F
100
AcDbEntity
  8
0
  6
Continuous
 62
     7
370
    15
100
AcDbLine
 10
131.4042646739
 20
141.9489006835
 30
0.0
 11
131.4042646739
 21
144.0489003758
 31
0.0
  0
LINE
  5
1DF
330
1F
100
AcDbEntity
  8
0
  6
Continuous
 62
     7
370
    15
100
AcDbLine
 10
137.4042637947
 20
141.9489006835
 30
0.0
 11
131.4042646739
 21
141.9489006835
 31
0.0
  0
ARC
  5
1E0
330
1F
100
AcDbEntity
  8
0
  6
Continuous
 62
     7
370
    15
100
AcDbCircle
 10
142.5042639288
 20
141.9489004995
 30
0.0
 40
5.099999999999994
100
AcDbArc
 50
270.0
 51
180.0
  0
LINE
  5
1E1
330
1F
100
AcDbEntity
  8
0
  6
Continuous
 62
     7
370
    15
100
AcDbLine
 10
82.8042634133
 20
136.8489004995
 30
0.0
 11
142.5042644444
 21
136.8489004995
 31
0.0
  0
ARC
  5
1E2
330
1F
100
AcDbEntity
  8
0
  6
Continuous
 62
     7
370
    15
100
AcDbCircle
 10
82.8042639288
 20
141.9489004995
 30
0.0
 40
5.099999999999994
100
AcDbArc
 50
0.0
 51
270.0
  0
LINE
  5
1E3
330
1F
100
AcDbEntity
  8
0
  6
Continuous
 62
     7
370
    15
100
AcDbLine
 10
93.9042631838
 20
141.9489006835
 30
0.0
 11
87.9042640629
 21
141.9489006835
 31
0.0
  0
LINE
  5
1E4
330
1F
100
AcDbEntity
  8
0
  6
Continuous
 62
     7
370
    15
100
AcDbLine
 10
93.9042631838
 20
144.0489003758
 30
0.0
 11
93.9042631838
 21
141.9489006835
 31
0.0
  0
ARC
  5
1E5
330
1F
100
AcDbEntity
  8
0
  6
Continuous
 62
     7
370
    15
100
AcDbCircle
 10
96.9042639288
 20
144.0489004995
 30
0.0
 40
3.0
100
AcDbArc
 50
90.0
 51
180.0
  0
LINE
  5
1E6
330
1F
100
AcDbEntity
  8
0
  6
Continuous
 62
     7
370
    15
100
AcDbLine
 10
128.4042641822
 20
147.0489008675
 30
0.0
 11
96.9042636755
 21
147.0489008675
 31
0.0
  0
ARC
  5
1E7
330
1F
100
AcDbEntity
  8
0
  6
Continuous
 62
     7
370
    15
100
AcDbCircle
 10
128.4042639288
 20
144.0489004995
 30
0.0
 40
3.0
100
AcDbArc
 50
0.0
 51
90.0
  0
CIRCLE
  5
1E8
330
1F
100
AcDbEntity
  8
0
  6
Continuous
 62
     7
370
    15
100
AcDbCircle
 10
349.2751879106
 20
199.9285359942
 30
0.0
 40
4.0
  0
CIRCLE
  5
1E9
330
1F
100
AcDbEntity
  8
0
  6
Continuous
 62
     7
370
    15
100
AcDbCircle
 10
349.2751879106
 20
199.9285359942
 30
0.0
 40
10.75
  0
CIRCLE
  5
1EA
330
1F
100
AcDbEntity
  8
0
  6
Continuous
 62
     7
370
    15
100
AcDbCircle
 10
408.2362514524
 20
210.7685412766
 30
0.0
 40
4.0
  0
CIRCLE
  5
1EB
330
1F
100
AcDbEntity
  8
0
  6
Continuous
 62
     7
370
    15
100
AcDbCircle
 10
408.2362514524
 20
210.7685412766
 30
0.0
 40
10.74999999999994
  0
CIRCLE
  5
1EC
330
1F
100
AcDbEntity
  8
0
  6
Continuous
 62
     7
370
    15
100
AcDbCircle
 10
408.0743852813
 20
233.4895973806
 30
0.0
 40
4.0
  0
CIRCLE
  5
1ED
330
1F
100
AcDbEntity
  8
0
  6
Continuous
 62
     7
370
    15
100
AcDbCircle
 10
408.0743852813
 20
233.4895973806
 30
0.0
 40
10.75
  0
CIRCLE
  5
1EE
330
1F
100
AcDbEntity
  8
0
  6
Continuous
 62
     7
370
    15
100
AcDbCircle
 10
384.706283508
 20
210.3854164716
 30
0.0
 40
4.0
  0
CIRCLE
  5
1EF
330
1F
100
AcDbEntity
  8
0
  6
Continuous
 62
     7
370
    15
100
AcDbCircle
 10
384.706283508
 20
210.3854164716
 30
0.0
 40
10.75
  0
CIRCLE
  5
1F0
330
1F
100
AcDbEntity
  8
0
  6
Continuous
 62
     7
370
    15
100
AcDbCircle
 10
384.9292154412
 20
233.9948537098
 30
0.0
 40
4.0
  0
CIRCLE
  5
1F1
330
1F
100
AcDbEntity
  8
0
  6
Continuous
 62
     7
370
    15
100
AcDbCircle
 10
384.9292154412
 20
233.9948537098
 30
0.0
 40
10.75
  0
CIRCLE
  5
1F2
330
1F
100
AcDbEntity
  8
0
  6
Continuous
 62
     7
370
    15
100
AcDbCircle
 10
334.1601630268
 20
217.4309807676
 30
0.0
 40
4.0
  0
CIRCLE
  5
1F3
330
1F
100
AcDbEntity
  8
0
  6
Continuous
 62
     7
370
    15
100
AcDbCircle
 10
334.1601630268
 20
217.4309807676
 30
0.0
 40
10.74999999999994
  0
CIRCLE
  5
1F4
330
1F
100
AcDbEntity
  8
0
  6
Continuous
 62
     7
370
    15
100
AcDbCircle
 10
359.629871244
 20
226.626367411
 30
0.0
 40
3.925000000000011
  0
ARC
  5
1F5
330
1F
100
AcDbEntity
  8
0
  6
Continuous
 62
     7
370
    15
100
AcDbCircle
 10
357.8375853847
 20
239.4103691043
 30
0.0
 40
5.495000000000033
100
AcDbArc
 50
355.3604199746
 51
12.5186201191
  0
ARC
  5
1F6
330
1F
100
AcDbEntity
  8
0
  6
Continuous
 62
     7
370
    15
100
AcDbCircle
 10
359.629871244
 20
226.626367411
 30
0.0
 40
12.87792500000002
100
AcDbArc
 50
70.6261629221
 51
73.3738370779
  0
ARC
  5
1F7
330
1F
100
AcDbEntity
  8
0
  6
Continuous
 62
     7
370
    15
100
AcDbCircle
 10
368.5941086236
 20
235.915362841
 30
0.0
 40
5.494999999999985
100
AcDbArc
 50
131.4813798809
 51
148.6395800254
  0
ARC
  5
1F8
330
1F
100
AcDbEntity
  8
0
  6
Continuous
 62
     7
370
    15
100
AcDbCircle
 10
359.629871244
 20
226.626367411
 30
0.0
 40
14.424375
100
AcDbArc
 50
66.6620077485
 51
68.3379922515
  0
ARC
  5
1F9
330
1F
100
AcDbEntity
  8
0
  6
Continuous
 62
     7
370
    15
100
AcDbCircle
 10
359.8595098637
 20
239.5333521092
 30
0.0
 40
5.494999999999998
100
AcDbArc
 50
346.3604199746
 51
3.5186201191
  0
ARC
  5
1FA
330
1F
100
AcDbEntity
  8
0
  6
Continuous
 62
     7
370
    15
100
AcDbCircle
 10
359.629871244
 20
226.626367411
 30
0.0
 40
12.87792499999999
100
AcDbArc
 50
61.6261629221
 51
64.3738370779
  0
ARC
  5
1FB
330
1F
100
AcDbEntity
  8
0
  6
Continuous
 62
     7
370
    15
100
AcDbCircle
 10
369.936863017
 20
234.398684214
 30
0.0
 40
5.494999999999994
100
AcDbArc
 50
122.4813798809
 51
139.6395800254
  0
ARC
  5
1FC
330
1F
100
AcDbEntity
  8
0
  6
Continuous
 62
     7
370
    15
100
AcDbCircle
 10
359.629871244
 20
226.626367411
 30
0.0
 40
14.42437500000004
100
AcDbArc
 50
57.6620077485
 51
59.3379922515
  0
ARC
  5
1FD
330
1F
100
AcDbEntity
  8
0
  6
Continuous
 62
     7
370
    15
100
AcDbCircle
 10
361.8757798778
 20
239.338522315
 30
0.0
 40
5.495000000000015
100
AcDbArc
 50
337.3604199746
 51
354.5186201191
  0
ARC
  5
1FE
330
1F
100
AcDbEntity
  8
0
  6
Continuous
 62
     7
370
    15
100
AcDbCircle
 10
359.629871244
 20
226.626367411
 30
0.0
 40
12.87792499999999
100
AcDbArc
 50
52.6261629221
 51
55.3738370779
  0
ARC
  5
1FF
330
1F
100
AcDbEntity
  8
0
  6
Continuous
 62
     7
370
    15
100
AcDbCircle
 10
371.025825066
 20
232.6906253526
 30
0.0
 40
5.495000000000028
100
AcDbArc
 50
113.4813798809
 51
130.6395800254
  0
ARC
  5
200
330
1F
100
AcDbEntity
  8
0
  6
Continuous
 62
     7
370
    15
100
AcDbCircle
 10
359.629871244
 20
226.626367411
 30
0.0
 40
14.424375
100
AcDbArc
 50
48.6620077485
 51
50.3379922515
  0
ARC
  5
201
330
1F
100
AcDbEntity
  8
0
  6
Continuous
 62
     7
370
    15
100
AcDbCircle
 10
363.8367481676
 20
238.8306770779
 30
0.0
 40
5.495000000000021
100
AcDbArc
 50
328.3604199746
 51
345.5186201191
  0
ARC
  5
202
330
1F
100
AcDbEntity
  8
0
  6
Continuous
 62
     7
370
    15
100
AcDbCircle
 10
359.629871244
 20
226.626367411
 30
0.0
 40
12.87792499999999
100
AcDbArc
 50
43.6261629221
 51
46.3738370779
  0
ARC
  5
203
330
1F
100
AcDbEntity
  8
0
  6
Continuous
 62
     7
370
    15
100
AcDbCircle
 10
371.8341809109
 20
230.8332443345
 30
0.0
 40
5.494999999999995
100
AcDbArc
 50
104.4813798809
 51
121.6395800254
  0
ARC
  5
204
330
1F
100
AcDbEntity
  8
0
  6
Continuous
 62
     7
370
    15
100
AcDbCircle
 10
359.629871244
 20
226.626367411
 30
0.0
 40
14.424375
100
AcDbArc
 50
39.6620077485
 51
41.3379922515
  0
ARC
  5
205
330
1F
100
AcDbEntity
  8
0
  6
Continuous
 62
     7
370
    15
100
AcDbCircle
 10
365.6941291857
 20
238.022321233
 30
0.0
 40
5.495
100
AcDbArc
 50
319.3604199746
 51
336.5186201191
  0
ARC
  5
206
330
1F
100
AcDbEntity
  8
0
  6
Continuous
 62
     7
370
    15
100
AcDbCircle
 10
359.629871244
 20
226.626367411
 30
0.0
 40
12.877925
100
AcDbArc
 50
34.6261629221
 51
37.3738370779
  0
ARC
  5
207
330
1F
100
AcDbEntity
  8
0
  6
Continuous
 62
     7
370
    15
100
AcDbCircle
 10
372.3420261481
 20
228.8722760447
 30
0.0
 40
5.495000000000003
100
AcDbArc
 50
95.4813798809
 51
112.6395800254
  0
ARC
  5
208
330
1F
100
AcDbEntity
  8
0
  6
Continuous
 62
     7
370
    15
100
AcDbCircle
 10
359.629871244
 20
226.626367411
 30
0.0
 40
14.424375
100
AcDbArc
 50
30.6620077485
 51
32.3379922515
  0
ARC
  5
209
330
1F
100
AcDbEntity
  8
0
  6
Continuous
 62
     7
370
    15
100
AcDbCircle
 10
367.4021880471
 20
236.933359184
 30
0.0
 40
5.494999999999997
100
AcDbArc
 50
310.3604199746
 51
327.5186201191
  0
ARC
  5
20A
330
1F
100
AcDbEntity
  8
0
  6
Continuous
 62
     7
370
    15
100
AcDbCircle
 10
359.629871244
 20
226.626367411
 30
0.0
 40
12.87792500000001
100
AcDbArc
 50
25.6261629221
 51
28.3738370779
  0
ARC
  5
20B
330
1F
100
AcDbEntity
  8
0
  6
Continuous
 62
     7
370
    15
100
AcDbCircle
 10
372.5368559423
 20
226.8560060307
 30
0.0
 40
5.495000000000038
100
AcDbArc
 50
86.4813798809
 51
103.6395800254
  0
ARC
  5
20C
330
1F
100
AcDbEntity
  8
0
  6
Continuous
 62
     7
370
    15
100
AcDbCircle
 10
359.629871244
 20
226.626367411
 30
0.0
 40
14.42437500000002
100
AcDbArc
 50
21.6620077485
 51
23.3379922515
  0
ARC
  5
20D
330
1F
100
AcDbEntity
  8
0
  6
Continuous
 62
     7
370
    15
100
AcDbCircle
 10
368.918866674
 20
235.5906047905
 30
0.0
 40
5.495000000000025
100
AcDbArc
 50
301.3604199746
 51
318.5186201191
  0
ARC
  5
20E
330
1F
100
AcDbEntity
  8
0
  6
Continuous
 62
     7
370
    15
100
AcDbCircle
 10
359.629871244
 20
226.626367411
 30
0.0
 40
12.87792500000002
100
AcDbArc
 50
16.6261629221
 51
19.3738370779
  0
ARC
  5
20F
330
1F
100
AcDbEntity
  8
0
  6
Continuous
 62
     7
370
    15
100
AcDbCircle
 10
372.4138729373
 20
224.8340815517
 30
0.0
 40
5.49499999999999
100
AcDbArc
 50
77.4813798809
 51
94.6395800254
  0
ARC
  5
210
330
1F
100
AcDbEntity
  8
0
  6
Continuous
 62
     7
370
    15
100
AcDbCircle
 10
359.629871244
 20
226.626367411
 30
0.0
 40
14.424375
100
AcDbArc
 50
12.6620077485
 51
14.3379922515
  0
ARC
  5
211
330
1F
100
AcDbEntity
  8
0
  6
Continuous
 62
     7
370
    15
100
AcDbCircle
 10
370.206819405
 20
234.0271211223
 30
0.0
 40
5.494999999999982
100
AcDbArc
 50
292.3604199746
 51
309.5186201191
  0
ARC
  5
212
330
1F
100
AcDbEntity
  8
0
  6
Continuous
 62
     7
370
    15
100
AcDbCircle
 10
359.629871244
 20
226.626367411
 30
0.0
 40
12.87792499999999
100
AcDbArc
 50
7.6261629221
 51
10.3738370779
  0
ARC
  5
213
330
1F
100
AcDbEntity
  8
0
  6
Continuous
 62
     7
370
    15
100
AcDbCircle
 10
371.976105383
 20
222.8562890987
 30
0.0
 40
5.495000000000004
100
AcDbArc
 50
68.4813798809
 51
85.6395800254
  0
ARC
  5
214
330
1F
100
AcDbEntity
  8
0
  6
Continuous
 62
     7
370
    15
100
AcDbCircle
 10
359.629871244
 20
226.626367411
 30
0.0
 40
14.42437499999999
100
AcDbArc
 50
3.6620077485
 51
5.3379922515
  0
ARC
  5
215
330
1F
100
AcDbEntity
  8
0
  6
Continuous
 62
     7
370
    15
100
AcDbCircle
 10
371.2343325695
 20
232.2814063359
 30
0.0
 40
5.494999999999993
100
AcDbArc
 50
283.3604199746
 51
300.5186201191
  0
ARC
  5
216
330
1F
100
AcDbEntity
  8
0
  6
Continuous
 62
     7
370
    15
100
AcDbCircle
 10
359.629871244
 20
226.626367411
 30
0.0
 40
12.87792499999998
100
AcDbArc
 50
358.6261629221
 51
1.3738370779
  0
ARC
  5
217
330
1F
100
AcDbEntity
  8
0
  6
Continuous
 62
     7
370
    15
100
AcDbCircle
 10
371.2343325695
 20
220.9713284861
 30
0.0
 40
5.494999999999981
100
AcDbArc
 50
59.4813798809
 51
76.6395800254
  0
ARC
  5
218
330
1F
100
AcDbEntity
  8
0
  6
Continuous
 62
     7
370
    15
100
AcDbCircle
 10
359.629871244
 20
226.626367411
 30
0.0
 40
14.42437499999997
100
AcDbArc
 50
354.6620077485
 51
356.3379922515
  0
ARC
  5
219
330
1F
100
AcDbEntity
  8
0
  6
Continuous
 62
     7
370
    15
100
AcDbCircle
 10
371.976105383
 20
230.3964457232
 30
0.0
 40
5.495000000000012
100
AcDbArc
 50
274.3604199746
 51
291.5186201191
  0
ARC
  5
21A
330
1F
100
AcDbEntity
  8
0
  6
Continuous
 62
     7
370
    15
100
AcDbCircle
 10
359.629871244
 20
226.626367411
 30
0.0
 40
12.87792499999996
100
AcDbArc
 50
349.6261629221
 51
352.3738370779
  0
ARC
  5
21B
330
1F
100
AcDbEntity
  8
0
  6
Continuous
 62
     7
370
    15
100
AcDbCircle
 10
370.206819405
 20
219.2256136997
 30
0.0
 40
5.494999999999954
100
AcDbArc
 50
50.4813798809
 51
67.6395800254
  0
ARC
  5
21C
330
1F
100
AcDbEntity
  8
0
  6
Continuous
 62
     7
370
    15
100
AcDbCircle
 10
359.629871244
 20
226.626367411
 30
0.0
 40
14.42437499999999
100
AcDbArc
 50
345.6620077485
 51
347.3379922515
  0
ARC
  5
21D
330
1F
100
AcDbEntity
  8
0
  6
Continuous
 62
     7
370
    15
100
AcDbCircle
 10
372.4138729373
 20
228.4186532703
 30
0.0
 40
5.495000000000002
100
AcDbArc
 50
265.3604199746
 51
282.5186201191
  0
ARC
  5
21E
330
1F
100
AcDbEntity
  8
0
  6
Continuous
 62
     7
370
    15
100
AcDbCircle
 10
359.629871244
 20
226.626367411
 30
0.0
 40
12.87792499999998
100
AcDbArc
 50
340.6261629221
 51
343.3738370779
  0
ARC
  5
21F
330
1F
100
AcDbEntity
  8
0
  6
Continuous
 62
     7
370
    15
100
AcDbCircle
 10
368.918866674
 20
217.6621300314
 30
0.0
 40
5.495000000000038
100
AcDbArc
 50
41.4813798809
 51
58.6395800254
  0
ARC
  5
220
330
1F
100
AcDbEntity
  8
0
  6
Continuous
 62
     7
370
    15
100
AcDbCircle
 10
359.629871244
 20
226.626367411
 30
0.0
 40
14.42437500000001
100
AcDbArc
 50
336.6620077485
 51
338.3379922515
  0
ARC
  5
221
330
1F
100
AcDbEntity
  8
0
  6
Continuous
 62
     7
370
    15
100
AcDbCircle
 10
372.5368559423
 20
226.3967287913
 30
0.0
 40
5.495000000000012
100
AcDbArc
 50
256.3604199746
 51
273.5186201191
  0
ARC
  5
222
330
1F
100
AcDbEntity
  8
0
  6
Continuous
 62
     7
370
    15
100
AcDbCircle
 10
359.629871244
 20
226.626367411
 30
0.0
 40
12.877925
100
AcDbArc
 50
331.6261629221
 51
334.3738370779
  0
ARC
  5
223
330
1F
100
AcDbEntity
  8
0
  6
Continuous
 62
     7
370
    15
100
AcDbCircle
 10
367.4021880471
 20
216.319375638
 30
0.0
 40
5.494999999999989
100
AcDbArc
 50
32.4813798809
 51
49.6395800254
  0
ARC
  5
224
330
1F
100
AcDbEntity
  8
0
  6
Continuous
 62
     7
370
    15
100
AcDbCircle
 10
359.629871244
 20
226.626367411
 30
0.0
 40
14.42437499999995
100
AcDbArc
 50
327.6620077485
 51
329.3379922515
  0
ARC
  5
225
330
1F
100
AcDbEntity
  8
0
  6
Continuous
 62
     7
370
    15
100
AcDbCircle
 10
372.3420261481
 20
224.3804587772
 30
0.0
 40
5.495000000000035
100
AcDbArc
 50
247.3604199746
 51
264.5186201191
  0
ARC
  5
226
330
1F
100
AcDbEntity
  8
0
  6
Continuous
 62
     7
370
    15
100
AcDbCircle
 10
359.629871244
 20
226.626367411
 30
0.0
 40
12.87792500000002
100
AcDbArc
 50
322.6261629221
 51
325.3738370779
  0
ARC
  5
227
330
1F
100
AcDbEntity
  8
0
  6
Continuous
 62
     7
370
    15
100
AcDbCircle
 10
365.6941291857
 20
215.230413589
 30
0.0
 40
5.494999999999958
100
AcDbArc
 50
23.4813798809
 51
40.6395800254
  0
ARC
  5
228
330
1F
100
AcDbEntity
  8
0
  6
Continuous
 62
     7
370
    15
100
AcDbCircle
 10
359.629871244
 20
226.626367411
 30
0.0
 40
14.42437500000002
100
AcDbArc
 50
318.6620077485
 51
320.3379922515
  0
ARC
  5
229
330
1F
100
AcDbEntity
  8
0
  6
Continuous
 62
     7
370
    15
100
AcDbCircle
 10
371.8341809109
 20
222.4194904874
 30
0.0
 40
5.495000000000025
100
AcDbArc
 50
238.3604199746
 51
255.5186201191
  0
ARC
  5
22A
330
1F
100
AcDbEntity
  8
0
  6
Continuous
 62
     7
370
    15
100
AcDbCircle
 10
359.629871244
 20
226.626367411
 30
0.0
 40
12.87792499999999
100
AcDbArc
 50
313.6261629221
 51
316.3738370779
  0
ARC
  5
22B
330
1F
100
AcDbEntity
  8
0
  6
Continuous
 62
     7
370
    15
100
AcDbCircle
 10
363.8367481676
 20
214.4220577441
 30
0.0
 40
5.494999999999967
100
AcDbArc
 50
14.4813798809
 51
31.6395800254
  0
ARC
  5
22C
330
1F
100
AcDbEntity
  8
0
  6
Continuous
 62
     7
370
    15
100
AcDbCircle
 10
359.629871244
 20
226.626367411
 30
0.0
 40
14.424375
100
AcDbArc
 50
309.6620077485
 51
311.3379922515
  0
ARC
  5
22D
330
1F
100
AcDbEntity
  8
0
  6
Continuous
 62
     7
370
    15
100
AcDbCircle
 10
371.025825066
 20
220.5621094693
 30
0.0
 40
5.494999999999999
100
AcDbArc
 50
229.3604199746
 51
246.5186201191
  0
ARC
  5
22E
330
1F
100
AcDbEntity
  8
0
  6
Continuous
 62
     7
370
    15
100
AcDbCircle
 10
359.629871244
 20
226.626367411
 30
0.0
 40
12.87792499999997
100
AcDbArc
 50
304.6261629221
 51
307.3738370779
  0
ARC
  5
22F
330
1F
100
AcDbEntity
  8
0
  6
Continuous
 62
     7
370
    15
100
AcDbCircle
 10
361.8757798778
 20
213.9142125069
 30
0.0
 40
5.495000000000031
100
AcDbArc
 50
5.4813798809
 51
22.6395800254
  0
ARC
  5
230
330
1F
100
AcDbEntity
  8
0
  6
Continuous
 62
     7
370
    15
100
AcDbCircle
 10
359.629871244
 20
226.626367411
 30
0.0
 40
14.42437499999998
100
AcDbArc
 50
300.6620077485
 51
302.3379922515
  0
ARC
  5
231
330
1F
100
AcDbEntity
  8
0
  6
Continuous
 62
     7
370
    15
100
AcDbCircle
 10
369.936863017
 20
218.8540506079
 30
0.0
 40
5.495000000000005
100
AcDbArc
 50
220.3604199746
 51
237.5186201191
  0
ARC
  5
232
330
1F
100
AcDbEntity
  8
0
  6
Continuous
 62
     7
370
    15
100
AcDbCircle
 10
359.629871244
 20
226.626367411
 30
0.0
 40
12.87792499999999
100
AcDbArc
 50
295.6261629221
 51
298.3738370779
  0
ARC
  5
233
330
1F
100
AcDbEntity
  8
0
  6
Continuous
 62
     7
370
    15
100
AcDbCircle
 10
359.8595098637
 20
213.7193827128
 30
0.0
 40
5.494999999999969
100
AcDbArc
 50
356.4813798809
 51
13.6395800254
  0
ARC
  5
234
330
1F
100
AcDbEntity
  8
0
  6
Continuous
 62
     7
370
    15
100
AcDbCircle
 10
359.629871244
 20
226.626367411
 30
0.0
 40
14.42437499999999
100
AcDbArc
 50
291.6620077485
 51
293.3379922515
  0
ARC
  5
235
330
1F
100
AcDbEntity
  8
0
  6
Continuous
 62
     7
370
    15
100
AcDbCircle
 10
368.5941086236
 20
217.337371981
 30
0.0
 40
5.494999999999995
100
AcDbArc
 50
211.3604199746
 51
228.5186201191
  0
ARC
  5
236
330
1F
100
AcDbEntity
  8
0
  6
Continuous
 62
     7
370
    15
100
AcDbCircle
 10
359.629871244
 20
226.626367411
 30
0.0
 40
12.87792499999999
100
AcDbArc
 50
286.6261629221
 51
289.3738370779
  0
ARC
  5
237
330
1F
100
AcDbEntity
  8
0
  6
Continuous
 62
     7
370
    15
100
AcDbCircle
 10
357.8375853847
 20
213.8423657177
 30
0.0
 40
5.494999999999949
100
AcDbArc
 50
347.4813798809
 51
4.6395800254
  0
ARC
  5
238
330
1F
100
AcDbEntity
  8
0
  6
Continuous
 62
     7
370
    15
100
AcDbCircle
 10
359.629871244
 20
226.626367411
 30
0.0
 40
14.424375
100
AcDbArc
 50
282.6620077485
 51
284.3379922515
  0
ARC
  5
239
330
1F
100
AcDbEntity
  8
0
  6
Continuous
 62
     7
370
    15
100
AcDbCircle
 10
367.0306249553
 20
216.04941925
 30
0.0
 40
5.495000000000005
100
AcDbArc
 50
202.3604199746
 51
219.5186201191
  0
ARC
  5
23A
330
1F
100
AcDbEntity
  8
0
  6
Continuous
 62
     7
370
    15
100
AcDbCircle
 10
359.629871244
 20
226.626367411
 30
0.0
 40
12.877925
100
AcDbArc
 50
277.6261629221
 51
280.3738370779
  0
ARC
  5
23B
330
1F
100
AcDbEntity
  8
0
  6
Continuous
 62
     7
370
    15
100
AcDbCircle
 10
355.8597929318
 20
214.280133272
 30
0.0
 40
5.495000000000008
100
AcDbArc
 50
338.4813798809
 51
355.6395800254
  0
ARC
  5
23C
330
1F
100
AcDbEntity
  8
0
  6
Continuous
 62
     7
370
    15
100
AcDbCircle
 10
359.629871244
 20
226.626367411
 30
0.0
 40
14.42437499999998
100
AcDbArc
 50
273.6620077485
 51
275.3379922515
  0
ARC
  5
23D
330
1F
100
AcDbEntity
  8
0
  6
Continuous
 62
     7
370
    15
100
AcDbCircle
 10
365.284910169
 20
215.0219060856
 30
0.0
 40
5.495000000000048
100
AcDbArc
 50
193.3604199746
 51
210.5186201191
  0
ARC
  5
23E
330
1F
100
AcDbEntity
  8
0
  6
Continuous
 62
     7
370
    15
100
AcDbCircle
 10
359.629871244
 20
226.626367411
 30
0.0
 40
12.87792499999998
100
AcDbArc
 50
268.6261629221
 51
271.3738370779
  0
ARC
  5
23F
330
1F
100
AcDbEntity
  8
0
  6
Continuous
 62
     7
370
    15
100
AcDbCircle
 10
353.9748323191
 20
215.0219060856
 30
0.0
 40
5.495000000000037
100
AcDbArc
 50
329.4813798809
 51
346.6395800254
  0
ARC
  5
240
330
1F
100
AcDbEntity
  8
0
  6
Continuous
 62
     7
370
    15
100
AcDbCircle
 10
359.629871244
 20
226.626367411
 30
0.0
 40
14.42437499999999
100
AcDbArc
 50
264.6620077485
 51
266.3379922515
  0
ARC
  5
241
330
1F
100
AcDbEntity
  8
0
  6
Continuous
 62
     7
370
    15
100
AcDbCircle
 10
363.3999495563
 20
214.280133272
 30
0.0
 40
5.495000000000021
100
AcDbArc
 50
184.3604199746
 51
201.5186201191
  0
ARC
  5
242
330
1F
100
AcDbEntity
  8
0
  6
Continuous
 62
     7
370
    15
100
AcDbCircle
 10
359.629871244
 20
226.626367411
 30
0.0
 40
12.87792500000001
100
AcDbArc
 50
259.6261629221
 51
262.3738370779
  0
ARC
  5
243
330
1F
100
AcDbEntity
  8
0
  6
Continuous
 62
     7
370
    15
100
AcDbCircle
 10
352.2291175328
 20
216.04941925
 30
0.0
 40
5.495000000000013
100
AcDbArc
 50
320.4813798809
 51
337.6395800254
  0
ARC
  5
244
330
1F
100
AcDbEntity
  8
0
  6
Continuous
 62
     7
370
    15
100
AcDbCircle
 10
359.629871244
 20
226.626367411
 30
0.0
 40
14.42437500000001
100
AcDbArc
 50
255.6620077485
 51
257.3379922515
  0
ARC
  5
245
330
1F
100
AcDbEntity
  8
0
  6
Continuous
 62
     7
370
    15
100
AcDbCircle
 10
361.4221571034
 20
213.8423657177
 30
0.0
 40
5.495000000000079
100
AcDbArc
 50
175.3604199746
 51
192.5186201191
  0
ARC
  5
246
330
1F
100
AcDbEntity
  8
0
  6
Continuous
 62
     7
370
    15
100
AcDbCircle
 10
359.629871244
 20
226.626367411
 30
0.0
 40
12.87792500000001
100
AcDbArc
 50
250.6261629221
 51
253.3738370779
  0
ARC
  5
247
330
1F
100
AcDbEntity
  8
0
  6
Continuous
 62
     7
370
    15
100
AcDbCircle
 10
350.6656338645
 20
217.337371981
 30
0.0
 40
5.494999999999952
100
AcDbArc
 50
311.4813798809
 51
328.6395800254
  0
ARC
  5
248
330
1F
100
AcDbEntity
  8
0
  6
Continuous
 62
     7
370
    15
100
AcDbCircle
 10
359.629871244
 20
226.626367411
 30
0.0
 40
14.42437500000002
100
AcDbArc
 50
246.6620077485
 51
248.3379922515
  0
ARC
  5
249
330
1F
100
AcDbEntity
  8
0
  6
Continuous
 62
     7
370
    15
100
AcDbCircle
 10
359.4002326243
 20
213.7193827128
 30
0.0
 40
5.495000000000065
100
AcDbArc
 50
166.3604199746
 51
183.5186201191
  0
ARC
  5
24A
330
1F
100
AcDbEntity
  8
0
  6
Continuous
 62
     7
370
    15
100
AcDbCircle
 10
359.629871244
 20
226.626367411
 30
0.0
 40
12.87792499999999
100
AcDbArc
 50
241.6261629221
 51
244.3738370779
  0
ARC
  5
24B
330
1F
100
AcDbEntity
  8
0
  6
Continuous
 62
     7
370
    15
100
AcDbCircle
 10
349.3228794711
 20
218.8540506079
 30
0.0
 40
5.495000000000047
100
AcDbArc
 50
302.4813798809
 51
319.6395800254
  0
ARC
  5
24C
330
1F
100
AcDbEntity
  8
0
  6
Continuous
 62
     7
370
    15
100
AcDbCircle
 10
359.629871244
 20
226.626367411
 30
0.0
 40
14.42437500000002
100
AcDbArc
 50
237.6620077485
 51
239.3379922515
  0
ARC
  5
24D
330
1F
100
AcDbEntity
  8
0
  6
Continuous
 62
     7
370
    15
100
AcDbCircle
 10
357.3839626103
 20
213.9142125069
 30
0.0
 40
5.494999999999967
100
AcDbArc
 50
157.3604199746
 51
174.5186201191
  0
ARC
  5
24E
330
1F
100
AcDbEntity
  8
0
  6
Continuous
 62
     7
370
    15
100
AcDbCircle
 10
359.629871244
 20
226.626367411
 30
0.0
 40
12.87792499999999
100
AcDbArc
 50
232.6261629221
 51
235.3738370779
  0
ARC
  5
24F
330
1F
100
AcDbEntity
  8
0
  6
Continuous
 62
     7
370
    15
100
AcDbCircle
 10
348.233917422
 20
220.5621094693
 30
0.0
 40
5.494999999999975
100
AcDbArc
 50
293.4813798809
 51
310.6395800254
  0
ARC
  5
250
330
1F
100
AcDbEntity
  8
0
  6
Continuous
 62
     7
370
    15
100
AcDbCircle
 10
359.629871244
 20
226.626367411
 30
0.0
 40
14.42437500000004
100
AcDbArc
 50
228.6620077485
 51
230.3379922515
  0
ARC
  5
251
330
1F
100
AcDbEntity
  8
0
  6
Continuous
 62
     7
370
    15
100
AcDbCircle
 10
355.4229943205
 20
214.4220577441
 30
0.0
 40
5.495000000000049
100
AcDbArc
 50
148.3604199746
 51
165.5186201191
  0
ARC
  5
252
330
1F
100
AcDbEntity
  8
0
  6
Continuous
 62
     7
370
    15
100
AcDbCircle
 10
359.629871244
 20
226.626367411
 30
0.0
 40
12.87792500000003
100
AcDbArc
 50
223.6261629221
 51
226.3738370779
  0
ARC
  5
253
330
1F
100
AcDbEntity
  8
0
  6
Continuous
 62
     7
370
    15
100
AcDbCircle
 10
347.4255615771
 20
222.4194904874
 30
0.0
 40
5.495000000000008
100
AcDbArc
 50
284.4813798809
 51
301.6395800254
  0
ARC
  5
254
330
1F
100
AcDbEntity
  8
0
  6
Continuous
 62
     7
370
    15
100
AcDbCircle
 10
359.629871244
 20
226.626367411
 30
0.0
 40
14.42437500000001
100
AcDbArc
 50
219.6620077485
 51
221.3379922515
  0
ARC
  5
255
330
1F
100
AcDbEntity
  8
0
  6
Continuous
 62
     7
370
    15
100
AcDbCircle
 10
353.5656133024
 20
215.230413589
 30
0.0
 40
5.495000000000018
100
AcDbArc
 50
139.3604199746
 51
156.5186201191
  0
ARC
  5
256
330
1F
100
AcDbEntity
  8
0
  6
Continuous
 62
     7
370
    15
100
AcDbCircle
 10
359.629871244
 20
226.626367411
 30
0.0
 40
12.87792500000002
100
AcDbArc
 50
214.6261629221
 51
217.3738370779
  0
ARC
  5
257
330
1F
100
AcDbEntity
  8
0
  6
Continuous
 62
     7
370
    15
100
AcDbCircle
 10
346.91771634
 20
224.3804587772
 30
0.0
 40
5.494999999999978
100
AcDbArc
 50
275.4813798809
 51
292.6395800254
  0
ARC
  5
258
330
1F
100
AcDbEntity
  8
0
  6
Continuous
 62
     7
370
    15
100
AcDbCircle
 10
359.629871244
 20
226.626367411
 30
0.0
 40
14.42437500000003
100
AcDbArc
 50
210.6620077485
 51
212.3379922515
  0
ARC
  5
259
330
1F
100
AcDbEntity
  8
0
  6
Continuous
 62
     7
370
    15
100
AcDbCircle
 10
351.857554441
 20
216.319375638
 30
0.0
 40
5.495000000000029
100
AcDbArc
 50
130.3604199746
 51
147.5186201191
  0
ARC
  5
25A
330
1F
100
AcDbEntity
  8
0
  6
Continuous
 62
     7
370
    15
100
AcDbCircle
 10
359.629871244
 20
226.626367411
 30
0.0
 40
12.87792500000005
100
AcDbArc
 50
205.6261629221
 51
208.3738370779
  0
ARC
  5
25B
330
1F
100
AcDbEntity
  8
0
  6
Continuous
 62
     7
370
    15
100
AcDbCircle
 10
346.7228865458
 20
226.3967287913
 30
0.0
 40
5.495000000000033
100
AcDbArc
 50
266.4813798809
 51
283.6395800254
  0
ARC
  5
25C
330
1F
100
AcDbEntity
  8
0
  6
Continuous
 62
     7
370
    15
100
AcDbCircle
 10
359.629871244
 20
226.626367411
 30
0.0
 40
14.42437499999999
100
AcDbArc
 50
201.6620077485
 51
203.3379922515
  0
ARC
  5
25D
330
1F
100
AcDbEntity
  8
0
  6
Continuous
 62
     7
370
    15
100
AcDbCircle
 10
350.3408758141
 20
217.6621300314
 30
0.0
 40
5.49500000000002
100
AcDbArc
 50
121.3604199746
 51
138.5186201191
  0
ARC
  5
25E
330
1F
100
AcDbEntity
  8
0
  6
Continuous
 62
     7
370
    15
100
AcDbCircle
 10
359.629871244
 20
226.626367411
 30
0.0
 40
12.87792500000002
100
AcDbArc
 50
196.6261629221
 51
199.3738370779
  0
ARC
  5
25F
330
1F
100
AcDbEntity
  8
0
  6
Continuous
 62
     7
370
    15
100
AcDbCircle
 10
346.8458695508
 20
228.4186532703
 30
0.0
 40
5.495000000000014
100
AcDbArc
 50
257.4813798809
 51
274.6395800254
  0
ARC
  5
260
330
1F
100
AcDbEntity
  8
0
  6
Continuous
 62
     7
370
    15
100
AcDbCircle
 10
359.629871244
 20
226.626367411
 30
0.0
 40
14.42437499999998
100
AcDbArc
 50
192.6620077485
 51
194.3379922515
  0
ARC
  5
261
330
1F
100
AcDbEntity
  8
0
  6
Continuous
 62
     7
370
    15
100
AcDbCircle
 10
349.052923083
 20
219.2256136997
 30
0.0
 40
5.495000000000008
100
AcDbArc
 50
112.3604199746
 51
129.5186201191
  0
ARC
  5
262
330
1F
100
AcDbEntity
  8
0
  6
Continuous
 62
     7
370
    15
100
AcDbCircle
 10
359.629871244
 20
226.626367411
 30
0.0
 40
12.87792500000002
100
AcDbArc
 50
187.6261629221
 51
190.3738370779
  0
ARC
  5
263
330
1F
100
AcDbEntity
  8
0
  6
Continuous
 62
     7
370
    15
100
AcDbCircle
 10
347.283637105
 20
230.3964457232
 30
0.0
 40
5.495000000000011
100
AcDbArc
 50
248.4813798809
 51
265.6395800254
  0
ARC
  5
264
330
1F
100
AcDbEntity
  8
0
  6
Continuous
 62
     7
370
    15
100
AcDbCircle
 10
359.629871244
 20
226.626367411
 30
0.0
 40
14.42437500000003
100
AcDbArc
 50
183.6620077485
 51
185.3379922515
  0
ARC
  5
265
330
1F
100
AcDbEntity
  8
0
  6
Continuous
 62
     7
370
    15
100
AcDbCircle
 10
348.0254099186
 20
220.9713284861
 30
0.0
 40
5.494999999999965
100
AcDbArc
 50
103.3604199746
 51
120.5186201191
  0
ARC
  5
266
330
1F
100
AcDbEntity
  8
0
  6
Continuous
 62
     7
370
    15
100
AcDbCircle
 10
359.629871244
 20
226.626367411
 30
0.0
 40
12.87792500000003
100
AcDbArc
 50
178.6261629221
 51
181.3738370779
  0
ARC
  5
267
330
1F
100
AcDbEntity
  8
0
  6
Continuous
 62
     7
370
    15
100
AcDbCircle
 10
348.0254099186
 20
232.2814063359
 30
0.0
 40
5.495000000000007
100
AcDbArc
 50
239.4813798809
 51
256.6395800254
  0
ARC
  5
268
330
1F
100
AcDbEntity
  8
0
  6
Continuous
 62
     7
370
    15
100
AcDbCircle
 10
359.629871244
 20
226.626367411
 30
0.0
 40
14.42437500000004
100
AcDbArc
 50
174.6620077485
 51
176.3379922515
  0
ARC
  5
269
330
1F
100
AcDbEntity
  8
0
  6
Continuous
 62
     7
370
    15
100
AcDbCircle
 10
347.283637105
 20
222.8562890987
 30
0.0
 40
5.495000000000031
100
AcDbArc
 50
94.3604199746
 51
111.5186201191
  0
ARC
  5
26A
330
1F
100
AcDbEntity
  8
0
  6
Continuous
 62
     7
370
    15
100
AcDbCircle
 10
359.629871244
 20
226.626367411
 30
0.0
 40
12.87792500000003
100
AcDbArc
 50
169.6261629221
 51
172.3738370779
  0
ARC
  5
26B
330
1F
100
AcDbEntity
  8
0
  6
Continuous
 62
     7
370
    15
100
AcDbCircle
 10
349.052923083
 20
234.0271211223
 30
0.0
 40
5.495000000000012
100
AcDbArc
 50
230.4813798809
 51
247.6395800254
  0
ARC
  5
26C
330
1F
100
AcDbEntity
  8
0
  6
Continuous
 62
     7
370
    15
100
AcDbCircle
 10
359.629871244
 20
226.626367411
 30
0.0
 40
14.42437500000002
100
AcDbArc
 50
165.6620077485
 51
167.3379922515
  0
ARC
  5
26D
330
1F
100
AcDbEntity
  8
0
  6
Continuous
 62
     7
370
    15
100
AcDbCircle
 10
346.8458695508
 20
224.8340815517
 30
0.0
 40
5.495000000000017
100
AcDbArc
 50
85.3604199746
 51
102.5186201191
  0
ARC
  5
26E
330
1F
100
AcDbEntity
  8
0
  6
Continuous
 62
     7
370
    15
100
AcDbCircle
 10
359.629871244
 20
226.626367411
 30
0.0
 40
12.87792500000001
100
AcDbArc
 50
160.6261629221
 51
163.3738370779
  0
ARC
  5
26F
330
1F
100
AcDbEntity
  8
0
  6
Continuous
 62
     7
370
    15
100
AcDbCircle
 10
350.3408758141
 20
235.5906047905
 30
0.0
 40
5.495000000000068
100
AcDbArc
 50
221.4813798809
 51
238.6395800254
  0
ARC
  5
270
330
1F
100
AcDbEntity
  8
0
  6
Continuous
 62
     7
370
    15
100
AcDbCircle
 10
359.629871244
 20
226.626367411
 30
0.0
 40
14.424375
100
AcDbArc
 50
156.6620077485
 51
158.3379922515
  0
ARC
  5
271
330
1F
100
AcDbEntity
  8
0
  6
Continuous
 62
     7
370
    15
100
AcDbCircle
 10
346.7228865458
 20
226.8560060307
 30
0.0
 40
5.495000000000008
100
AcDbArc
 50
76.3604199746
 51
93.5186201191
  0
ARC
  5
272
330
1F
100
AcDbEntity
  8
0
  6
Continuous
 62
     7
370
    15
100
AcDbCircle
 10
359.629871244
 20
226.626367411
 30
0.0
 40
12.87792500000003
100
AcDbArc
 50
151.6261629221
 51
154.3738370779
  0
ARC
  5
273
330
1F
100
AcDbEntity
  8
0
  6
Continuous
 62
     7
370
    15
100
AcDbCircle
 10
351.857554441
 20
236.933359184
 30
0.0
 40
5.495000000000011
100
AcDbArc
 50
212.4813798809
 51
229.6395800254
  0
ARC
  5
274
330
1F
100
AcDbEntity
  8
0
  6
Continuous
 62
     7
370
    15
100
AcDbCircle
 10
359.629871244
 20
226.626367411
 30
0.0
 40
14.424375
100
AcDbArc
 50
147.6620077485
 51
149.3379922515
  0
ARC
  5
275
330
1F
100
AcDbEntity
  8
0
  6
Continuous
 62
     7
370
    15
100
AcDbCircle
 10
346.91771634
 20
228.8722760447
 30
0.0
 40
5.495000000000005
100
AcDbArc
 50
67.3604199746
 51
84.5186201191
  0
ARC
  5
276
330
1F
100
AcDbEntity
  8
0
  6
Continuous
 62
     7
370
    15
100
AcDbCircle
 10
359.629871244
 20
226.626367411
 30
0.0
 40
12.87792500000003
100
AcDbArc
 50
142.6261629221
 51
145.3738370779
  0
ARC
  5
277
330
1F
100
AcDbEntity
  8
0
  6
Continuous
 62
     7
370
    15
100
AcDbCircle
 10
353.5656133024
 20
238.022321233
 30
0.0
 40
5.495000000000063
100
AcDbArc
 50
203.4813798809
 51
220.6395800254
  0
ARC
  5
278
330
1F
100
AcDbEntity
  8
0
  6
Continuous
 62
     7
370
    15
100
AcDbCircle
 10
359.629871244
 20
226.626367411
 30
0.0
 40
14.42437500000006
100
AcDbArc
 50
138.6620077485
 51
140.3379922515
  0
ARC
  5
279
330
1F
100
AcDbEntity
  8
0
  6
Continuous
 62
     7
370
    15
100
AcDbCircle
 10
347.4255615771
 20
230.8332443345
 30
0.0
 40
5.495000000000008
100
AcDbArc
 50
58.3604199746
 51
75.5186201191
  0
ARC
  5
27A
330
1F
100
AcDbEntity
  8
0
  6
Continuous
 62
     7
370
    15
100
AcDbCircle
 10
359.629871244
 20
226.626367411
 30
0.0
 40
12.87792500000005
100
AcDbArc
 50
133.6261629221
 51
136.3738370779
  0
ARC
  5
27B
330
1F
100
AcDbEntity
  8
0
  6
Continuous
 62
     7
370
    15
100
AcDbCircle
 10
355.4229943205
 20
238.8306770779
 30
0.0
 40
5.495000000000049
100
AcDbArc
 50
194.4813798809
 51
211.6395800254
  0
ARC
  5
27C
330
1F
100
AcDbEntity
  8
0
  6
Continuous
 62
     7
370
    15
100
AcDbCircle
 10
359.629871244
 20
226.626367411
 30
0.0
 40
14.42437500000001
100
AcDbArc
 50
129.6620077485
 51
131.3379922515
  0
ARC
  5
27D
330
1F
100
AcDbEntity
  8
0
  6
Continuous
 62
     7
370
    15
100
AcDbCircle
 10
348.233917422
 20
232.6906253526
 30
0.0
 40
5.494999999999975
100
AcDbArc
 50
49.3604199746
 51
66.5186201191
  0
ARC
  5
27E
330
1F
100
AcDbEntity
  8
0
  6
Continuous
 62
     7
370
    15
100
AcDbCircle
 10
359.629871244
 20
226.626367411
 30
0.0
 40
12.877925
100
AcDbArc
 50
124.6261629221
 51
127.3738370779
  0
ARC
  5
27F
330
1F
100
AcDbEntity
  8
0
  6
Continuous
 62
     7
370
    15
100
AcDbCircle
 10
357.3839626103
 20
239.338522315
 30
0.0
 40
5.494999999999989
100
AcDbArc
 50
185.4813798809
 51
202.6395800254
  0
ARC
  5
280
330
1F
100
AcDbEntity
  8
0
  6
Continuous
 62
     7
370
    15
100
AcDbCircle
 10
359.629871244
 20
226.626367411
 30
0.0
 40
14.42437500000005
100
AcDbArc
 50
120.6620077485
 51
122.3379922515
  0
ARC
  5
281
330
1F
100
AcDbEntity
  8
0
  6
Continuous
 62
     7
370
    15
100
AcDbCircle
 10
349.3228794711
 20
234.398684214
 30
0.0
 40
5.495000000000047
100
AcDbArc
 50
40.3604199746
 51
57.5186201191
  0
ARC
  5
282
330
1F
100
AcDbEntity
  8
0
  6
Continuous
 62
     7
370
    15
100
AcDbCircle
 10
359.629871244
 20
226.626367411
 30
0.0
 40
12.87792500000001
100
AcDbArc
 50
115.6261629221
 51
118.3738370779
  0
ARC
  5
283
330
1F
100
AcDbEntity
  8
0
  6
Continuous
 62
     7
370
    15
100
AcDbCircle
 10
359.4002326243
 20
239.5333521092
 30
0.0
 40
5.495000000000063
100
AcDbArc
 50
176.4813798809
 51
193.6395800254
  0
ARC
  5
284
330
1F
100
AcDbEntity
  8
0
  6
Continuous
 62
     7
370
    15
100
AcDbCircle
 10
359.629871244
 20
226.626367411
 30
0.0
 40
14.42437500000004
100
AcDbArc
 50
111.6620077485
 51
113.3379922515
  0
ARC
  5
285
330
1F
100
AcDbEntity
  8
0
  6
Continuous
 62
     7
370
    15
100
AcDbCircle
 10
350.6656338645
 20
235.915362841
 30
0.0
 40
5.494999999999981
100
AcDbArc
 50
31.3604199746
 51
48.5186201191
  0
ARC
  5
286
330
1F
100
AcDbEntity
  8
0
  6
Continuous
 62
     7
370
    15
100
AcDbCircle
 10
359.629871244
 20
226.626367411
 30
0.0
 40
12.87792500000002
100
AcDbArc
 50
106.6261629221
 51
109.3738370779
  0
ARC
  5
287
330
1F
100
AcDbEntity
  8
0
  6
Continuous
 62
     7
370
    15
100
AcDbCircle
 10
361.4221571034
 20
239.4103691043
 30
0.0
 40
5.49500000000004
100
AcDbArc
 50
167.4813798809
 51
184.6395800254
  0
ARC
  5
288
330
1F
100
AcDbEntity
  8
0
  6
Continuous
 62
     7
370
    15
100
AcDbCircle
 10
359.629871244
 20
226.626367411
 30
0.0
 40
14.424375
100
AcDbArc
 50
102.6620077485
 51
104.3379922515
  0
ARC
  5
289
330
1F
100
AcDbEntity
  8
0
  6
Continuous
 62
     7
370
    15
100
AcDbCircle
 10
352.2291175328
 20
237.203315572
 30
0.0
 40
5.494999999999971
100
AcDbArc
 50
22.3604199746
 51
39.5186201191
  0
ARC
  5
28A
330
1F
100
AcDbEntity
  8
0
  6
Continuous
 62
     7
370
    15
100
AcDbCircle
 10
359.629871244
 20
226.626367411
 30
0.0
 40
12.87792500000002
100
AcDbArc
 50
97.6261629221
 51
100.3738370779
  0
ARC
  5
28B
330
1F
100
AcDbEntity
  8
0
  6
Continuous
 62
     7
370
    15
100
AcDbCircle
 10
363.3999495563
 20
238.97260155
 30
0.0
 40
5.494999999999955
100
AcDbArc
 50
158.4813798809
 51
175.6395800254
  0
ARC
  5
28C
330
1F
100
AcDbEntity
  8
0
  6
Continuous
 62
     7
370
    15
100
AcDbCircle
 10
359.629871244
 20
226.626367411
 30
0.0
 40
14.42437499999999
100
AcDbArc
 50
93.6620077485
 51
95.3379922515
  0
ARC
  5
28D
330
1F
100
AcDbEntity
  8
0
  6
Continuous
 62
     7
370
    15
100
AcDbCircle
 10
353.9748323191
 20
238.2308287364
 30
0.0
 40
5.495000000000002
100
AcDbArc
 50
13.3604199746
 51
30.5186201191
  0
ARC
  5
28E
330
1F
100
AcDbEntity
  8
0
  6
Continuous
 62
     7
370
    15
100
AcDbCircle
 10
359.629871244
 20
226.626367411
 30
0.0
 40
12.877925
100
AcDbArc
 50
88.6261629221
 51
91.3738370779
  0
ARC
  5
28F
330
1F
100
AcDbEntity
  8
0
  6
Continuous
 62
     7
370
    15
100
AcDbCircle
 10
365.284910169
 20
238.2308287364
 30
0.0
 40
5.495000000000017
100
AcDbArc
 50
149.4813798809
 51
166.6395800254
  0
ARC
  5
290
330
1F
100
AcDbEntity
  8
0
  6
Continuous
 62
     7
370
    15
100
AcDbCircle
 10
359.629871244
 20
226.626367411
 30
0.0
 40
14.42437500000001
100
AcDbArc
 50
84.6620077485
 51
86.3379922515
  0
ARC
  5
291
330
1F
100
AcDbEntity
  8
0
  6
Continuous
 62
     7
370
    15
100
AcDbCircle
 10
355.8597929318
 20
238.97260155
 30
0.0
 40
5.494999999999968
100
AcDbArc
 50
4.3604199746
 51
21.5186201191
  0
ARC
  5
292
330
1F
100
AcDbEntity
  8
0
  6
Continuous
 62
     7
370
    15
100
AcDbCircle
 10
359.629871244
 20
226.626367411
 30
0.0
 40
12.87792499999999
100
AcDbArc
 50
79.6261629221
 51
82.3738370779
  0
ARC
  5
293
330
1F
100
AcDbEntity
  8
0
  6
Continuous
 62
     7
370
    15
100
AcDbCircle
 10
367.0306249553
 20
237.203315572
 30
0.0
 40
5.494999999999976
100
AcDbArc
 50
140.4813798809
 51
157.6395800254
  0
ARC
  5
294
330
1F
100
AcDbEntity
  8
0
  6
Continuous
 62
     7
370
    15
100
AcDbCircle
 10
359.629871244
 20
226.626367411
 30
0.0
 40
14.424375
100
AcDbArc
 50
75.6620077485
 51
77.3379922515
  0
MTEXT
  5
296
330
1F
100
AcDbEntity
  8
0
  6
Continuous
 62
     7
100
AcDbMText
 10
0.0
 20
14.3305089537
 30
0.0
 40
5.1381
 41
0.0
 71
     1
 72
     1
  1
SOLIDWORKS Student Edition.
  7
SLDTEXTSTYLE0
 73
     1
 44
1.0
  0
MTEXT
  5
297
330
1F
100
AcDbEntity
  8
0
  6
Continuous
 62
     7
100
AcDbMText
 10
0.0
 20
6.6233589537
 30
0.0
 40
5.1381
 41
0.0
 71
     1
 72
     1
  1
For Academic Use Only.
  7
SLDTEXTSTYLE0
 73
     1
 44
1.0
  0
ENDSEC
  0
SECTION
  2
OBJECTS
  0
DICTIONARY
  5
C
330
0
100
AcDbDictionary
281
     1
  3
ACAD_GROUP
350
D
  3
ACAD_LAYOUT
350
1A
  3
ACAD_MLINESTYLE
350
17
  3
ACAD_PLOTSETTINGS
350
19
  3
ACAD_PLOTSTYLENAME
350
E
  3
ACAD_SCALELIST
350
47
  0
DICTIONARY
  5
D
102
{ACAD_REACTORS
330
C
102
}
330
C
100
AcDbDictionary
281
     1
  0
DICTIONARY
  5
1A
102
{ACAD_REACTORS
330
C
102
}
330
C
100
AcDbDictionary
281
     1
  3
Layout1
350
1E
  3
Layout2
350
26
  3
Model
350
22
  0
DICTIONARY
  5
17
102
{ACAD_REACTORS
330
C
102
}
330
C
100
AcDbDictionary
281
     1
  3
Standard
350
18
  0
DICTIONARY
  5
19
102
{ACAD_REACTORS
330
C
102
}
330
C
100
AcDbDictionary
281
     1
  0
ACDBDICTIONARYWDFLT
  5
E
102
{ACAD_REACTORS
330
C
102
}
330
C
100
AcDbDictionary
281
     1
  3
Normal
350
F
100
AcDbDictionaryWithDefault
340
F
  0
DICTIONARY
  5
47
102
{ACAD_REACTORS
330
C
102
}
330
C
100
AcDbDictionary
281
     1
  3
A0
350
48
  3
A1
350
49
  3
A2
350
4A
  3
A3
350
4B
  3
A4
350
4C
  3
A5
350
4D
  3
A6
350
4E
  3
A7
350
4F
  3
A8
350
50
  3
A9
350
51
  3
B0
350
52
  3
B1
350
53
  3
B2
350
54
  3
B3
350
55
  3
B4
350
56
  3
B5
350
57
  3
B6
350
58
  3
B7
350
59
  3
B8
350
5A
  3
B9
350
5B
  3
C0
350
5C
  3
C1
350
5D
  3
C2
350
5E
  3
C3
350
5F
  3
C4
350
60
  3
C5
350
61
  3
C6
350
62
  3
C7
350
63
  3
C8
350
64
  3
C9
350
65
  3
D0
350
66
  3
D1
350
67
  3
D2
350
68
  0
LAYOUT
  5
1E
102
{ACAD_REACTORS
330
1A
102
}
330
1A
100
AcDbPlotSettings
  1

  2
none_device
  4

  6

 40
0.0
 41
0.0
 42
0.0
 43
0.0
 44
0.0
 45
0.0
 46
0.0
 47
0.0
 48
0.0
 49
0.0
140
0.0
141
0.0
142
1.0
143
1.0
 70
   688
 72
     1
 73
     0
 74
     5
  7

 75
    16
147
1.0
148
0.0
149
0.0
100
AcDbLayout
  1
Layout1
 70
     1
 71
     1
 10
0.0
 20
0.0
 11
420.0
 21
297.0
 12
0.0
 22
0.0
 32
0.0
 14
1.0000000000E+20
 24
1.0000000000E+20
 34
1.0000000000E+20
 15
-1.0000000000E+20
 25
-1.0000000000E+20
 35
-1.0000000000E+20
146
0.0
 13
0.0
 23
0.0
 33
0.0
 16
1.0
 26
0.0
 36
0.0
 17
0.0
 27
1.0
 37
0.0
 76
     0
330
1B
  0
LAYOUT
  5
26
102
{ACAD_REACTORS
330
1A
102
}
330
1A
100
AcDbPlotSettings
  1

  2
none_device
  4

  6

 40
0.0
 41
0.0
 42
0.0
 43
0.0
 44
0.0
 45
0.0
 46
0.0
 47
0.0
 48
0.0
 49
0.0
140
0.0
141
0.0
142
1.0
143
1.0
 70
   688
 72
     1
 73
     0
 74
     5
  7

 75
    16
147
1.0
148
0.0
149
0.0
100
AcDbLayout
  1
Layout2
 70
     1
 71
     2
 10
0.0
 20
0.0
 11
0.0
 21
0.0
 12
0.0
 22
0.0
 32
0.0
 14
0.0
 24
0.0
 34
0.0
 15
0.0
 25
0.0
 35
0.0
146
0.0
 13
0.0
 23
0.0
 33
0.0
 16
1.0
 26
0.0
 36
0.0
 17
0.0
 27
1.0
 37
0.0
 76
     0
330
23
  0
LAYOUT
  5
22
102
{ACAD_REACTORS
330
1A
102
}
330
1A
100
AcDbPlotSettings
  1

  2
none_device
  4
Letter_(8.50_x_11.00_Inches)
  6

 40
6.35
 41
6.35
 42
6.35000508
 43
6.35000508
 44
215.9
 45
279.4
 46
0.0
 47
0.0
 48
0.0
 49
0.0
140
0.0
141
0.0
142
1.0
143
1.0
 70
  1712
 72
     1
 73
     0
 74
     0
  7

 75
     0
147
1.0
148
0.0
149
0.0
100
AcDbLayout
  1
Model
 70
     1
 71
     0
 10
0.0
 20
0.0
 11
420.0
 21
297.0
 12
0.0
 22
0.0
 32
0.0
 14
0.0
 24
0.0
 34
0.0
 15
420.0
 25
297.0
 35
0.0
146
0.0
 13
0.0
 23
0.0
 33
0.0
 16
1.0
 26
0.0
 36
0.0
 17
0.0
 27
1.0
 37
0.0
 76
     0
330
1F
331
29
  0
MLINESTYLE
  5
18
102
{ACAD_REACTORS
330
17
102
}
330
17
100
AcDbMlineStyle
  2
Standard
 70
     0
  3

 62
   256
 51
90.0
 52
90.0
 71
     2
 49
0.5
 62
   256
  6
BYLAYER
 49
-0.5
 62
   256
  6
BYLAYER
  0
ACDBPLACEHOLDER
  5
F
102
{ACAD_REACTORS
330
E
102
}
330
E
  0
SCALE
  5
48
102
{ACAD_REACTORS
330
47
102
}
330
47
100
AcDbScale
 70
     0
300
1:1
140
1.0
141
1.0
290
     1
  0
SCALE
  5
49
102
{ACAD_REACTORS
330
47
102
}
330
47
100
AcDbScale
 70
     0
300
1:2
140
1.0
141
2.0
290
     0
  0
SCALE
  5
4A
102
{ACAD_REACTORS
330
47
102
}
330
47
100
AcDbScale
 70
     0
300
1:4
140
1.0
141
4.0
290
     0
  0
SCALE
  5
4B
102
{ACAD_REACTORS
330
47
102
}
330
47
100
AcDbScale
 70
     0
300
1:5
140
1.0
141
5.0
290
     0
  0
SCALE
  5
4C
102
{ACAD_REACTORS
330
47
102
}
330
47
100
AcDbScale
 70
     0
300
1:8
140
1.0
141
8.0
290
     0
  0
SCALE
  5
4D
102
{ACAD_REACTORS
330
47
102
}
330
47
100
AcDbScale
 70
     0
300
1:10
140
1.0
141
10.0
290
     0
  0
SCALE
  5
4E
102
{ACAD_REACTORS
330
47
102
}
330
47
100
AcDbScale
 70
     0
300
1:16
140
1.0
141
16.0
290
     0
  0
SCALE
  5
4F
102
{ACAD_REACTORS
330
47
102
}
330
47
100
AcDbScale
 70
     0
300
1:20
140
1.0
141
20.0
290
     0
  0
SCALE
  5
50
102
{ACAD_REACTORS
330
47
102
}
330
47
100
AcDbScale
 70
     0
300
1:30
140
1.0
141
30.0
290
     0
  0
SCALE
  5
51
102
{ACAD_REACTORS
330
47
102
}
330
47
100
AcDbScale
 70
     0
300
1:40
140
1.0
141
40.0
290
     0
  0
SCALE
  5
52
102
{ACAD_REACTORS
330
47
102
}
330
47
100
AcDbScale
 70
     0
300
1:50
140
1.0
141
50.0
290
     0
  0
SCALE
  5
53
102
{ACAD_REACTORS
330
47
102
}
330
47
100
AcDbScale
 70
     0
300
1:100
140
1.0
141
100.0
290
     0
  0
SCALE
  5
54
102
{ACAD_REACTORS
330
47
102
}
330
47
100
AcDbScale
 70
     0
300
2:1
140
2.0
141
1.0
290
     0
  0
SCALE
  5
55
102
{ACAD_REACTORS
330
47
102
}
330
47
100
AcDbScale
 70
     0
300
4:1
140
4.0
141
1.0
290
     0
  0
SCALE
  5
56
102
{ACAD_REACTORS
330
47
102
}
330
47
100
AcDbScale
 70
     0
300
8:1
140
8.0
141
1.0
290
     0
  0
SCALE
  5
57
102
{ACAD_REACTORS
330
47
102
}
330
47
100
AcDbScale
 70
     0
300
10:1
140
10.0
141
1.0
290
     0
  0
SCALE
  5
58
102
{ACAD_REACTORS
330
47
102
}
330
47
100
AcDbScale
 70
     0
300
100:1
140
100.0
141
1.0
290
     0
  0
SCALE
  5
59
102
{ACAD_REACTORS
330
47
102
}
330
47
100
AcDbScale
 70
     0
300
1/128" = 1'-0"
140
0.0078125
141
12.0
290
     0
  0
SCALE
  5
5A
102
{ACAD_REACTORS
330
47
102
}
330
47
100
AcDbScale
 70
     0
300
1/64" = 1'-0"
140
0.015625
141
12.0
290
     0
  0
SCALE
  5
5B
102
{ACAD_REACTORS
330
47
102
}
330
47
100
AcDbScale
 70
     0
300
1/32" = 1'-0"
140
0.03125
141
12.0
290
     0
  0
SCALE
  5
5C
102
{ACAD_REACTORS
330
47
102
}
330
47
100
AcDbScale
 70
     0
300
1/16" = 1'-0"
140
0.0625
141
12.0
290
     0
  0
SCALE
  5
5D
102
{ACAD_REACTORS
330
47
102
}
330
47
100
AcDbScale
 70
     0
300
3/32" = 1'-0"
140
0.09375
141
12.0
290
     0
  0
SCALE
  5
5E
102
{ACAD_REACTORS
330
47
102
}
330
47
100
AcDbScale
 70
     0
300
1/8" = 1'-0"
140
0.125
141
12.0
290
     0
  0
SCALE
  5
5F
102
{ACAD_REACTORS
330
47
102
}
330
47
100
AcDbScale
 70
     0
300
3/16" = 1'-0"
140
0.1875
141
12.0
290
     0
  0
SCALE
  5
60
102
{ACAD_REACTORS
330
47
102
}
330
47
100
AcDbScale
 70
     0
300
1/4" = 1'-0"
140
0.25
141
12.0
290
     0
  0
SCALE
  5
61
102
{ACAD_REACTORS
330
47
102
}
330
47
100
AcDbScale
 70
     0
300
3/8" = 1'-0"
140
0.375
141
12.0
290
     0
  0
SCALE
  5
62
102
{ACAD_REACTORS
330
47
102
}
330
47
100
AcDbScale
 70
     0
300
1/2" = 1'-0"
140
0.5
141
12.0
290
     0
  0
SCALE
  5
63
102
{ACAD_REACTORS
330
47
102
}
330
47
100
AcDbScale
 70
     0
300
3/4" = 1'-0"
140
0.75
141
12.0
290
     0
  0
SCALE
  5
64
102
{ACAD_REACTORS
330
47
102
}
330
47
100
AcDbScale
 70
     0
300
1" = 1'-0"
140
1.0
141
12.0
290
     0
  0
SCALE
  5
65
102
{ACAD_REACTORS
330
47
102
}
330
47
100
AcDbScale
 70
     0
300
1-1/2" = 1'-0"
140
1.5
141
12.0
290
     0
  0
SCALE
  5
66
102
{ACAD_REACTORS
330
47
102
}
330
47
100
AcDbScale
 70
     0
300
3" = 1'-0"
140
3.0
141
12.0
290
     0
  0
SCALE
  5
67
102
{ACAD_REACTORS
330
47
102
}
330
47
100
AcDbScale
 70
     0
300
6" = 1'-0"
140
6.0
141
12.0
290
     0
  0
SCALE
  5
68
102
{ACAD_REACTORS
330
47
102
}
330
47
100
AcDbScale
 70
     0
300
1'-0" = 1'-0"
140
12.0
141
12.0
290
     0
  0
ENDSEC
  0
EOF
