  0
SECTION
  2
HEADER
  9
$ACADVER
  1
AC1014
  9
$ACADMAINTVER
 70
     9
  9
$DWGCODEPAGE
  3
UNDEFINED
  9
$INSBASE
 10
0.0
 20
0.0
 30
0.0
  9
$EXTMIN
 10
1.000000000000000E+20
 20
1.000000000000000E+20
 30
1.000000000000000E+20
  9
$EXTMAX
 10
-1.000000000000000E+20
 20
-1.000000000000000E+20
 30
-1.000000000000000E+20
  9
$LIMMIN
 10
0.0
 20
0.0
  9
$LIMMAX
 10
12.0
 20
9.0
  9
$ORTHOMODE
 70
     0
  9
$REGENMODE
 70
     1
  9
$FILLMODE
 70
     1
  9
$QTEXTMODE
 70
     0
  9
$MIRRTEXT
 70
     1
  9
$DRAGMODE
 70
     2
  9
$LTSCALE
 40
1.0
  9
$OSMODE
 70
    37
  9
$ATTMODE
 70
     1
  9
$TEXTSIZE
 40
0.2
  9
$TRACEWID
 40
0.05
  9
$TEXTSTYLE
  7
STANDARD
  9
$CLAYER
  8
0
  9
$CELTYPE
  6
BYLAYER
  9
$CECOLOR
 62
   256
  9
$CELTSCALE
 40
1.0
  9
$DELOBJ
 70
     1
  9
$DISPSILH
 70
     0
  9
$DIMSCALE
 40
1.0
  9
$DIMASZ
 40
0.18
  9
$DIMEXO
 40
0.0625
  9
$DIMDLI
 40
0.38
  9
$DIMRND
 40
0.0
  9
$DIMDLE
 40
0.0
  9
$DIMEXE
 40
0.18
  9
$DIMTP
 40
0.0
  9
$DIMTM
 40
0.0
  9
$DIMTXT
 40
0.18
  9
$DIMCEN
 40
0.09
  9
$DIMTSZ
 40
0.0
  9
$DIMTOL
 70
     0
  9
$DIMLIM
 70
     0
  9
$DIMTIH
 70
     1
  9
$DIMTOH
 70
     1
  9
$DIMSE1
 70
     0
  9
$DIMSE2
 70
     0
  9
$DIMTAD
 70
     0
  9
$DIMZIN
 70
     0
  9
$DIMBLK
  1

  9
$DIMASO
 70
     1
  9
$DIMSHO
 70
     1
  9
$DIMPOST
  1

  9
$DIMAPOST
  1

  9
$DIMALT
 70
     0
  9
$DIMALTD
 70
     2
  9
$DIMALTF
 40
25.4
  9
$DIMLFAC
 40
1.0
  9
$DIMTOFL
 70
     0
  9
$DIMTVP
 40
0.0
  9
$DIMTIX
 70
     0
  9
$DIMSOXD
 70
     0
  9
$DIMSAH
 70
     0
  9
$DIMBLK1
  1

  9
$DIMBLK2
  1

  9
$DIMSTYLE
  2
STANDARD
  9
$DIMCLRD
 70
     0
  9
$DIMCLRE
 70
     0
  9
$DIMCLRT
 70
     0
  9
$DIMTFAC
 40
1.0
  9
$DIMGAP
 40
0.09
  9
$DIMJUST
 70
     0
  9
$DIMSD1
 70
     0
  9
$DIMSD2
 70
     0
  9
$DIMTOLJ
 70
     1
  9
$DIMTZIN
 70
     0
  9
$DIMALTZ
 70
     0
  9
$DIMALTTZ
 70
     0
  9
$DIMFIT
 70
     3
  9
$DIMUPT
 70
     0
  9
$DIMUNIT
 70
     2
  9
$DIMDEC
 70
     4
  9
$DIMTDEC
 70
     4
  9
$DIMALTU
 70
     2
  9
$DIMALTTD
 70
     2
  9
$DIMTXSTY
  7
STANDARD
  9
$DIMAUNIT
 70
     0
  9
$LUNITS
 70
     2
  9
$LUPREC
 70
     4
  9
$SKETCHINC
 40
0.1
  9
$FILLETRAD
 40
0.5
  9
$AUNITS
 70
     0
  9
$AUPREC
 70
     0
  9
$MENU
  1
.
  9
$ELEVATION
 40
0.0
  9
$PELEVATION
 40
0.0
  9
$THICKNESS
 40
0.0
  9
$LIMCHECK
 70
     0
  9
$CHAMFERA
 40
0.5
  9
$CHAMFERB
 40
0.5
  9
$CHAMFERC
 40
1.0
  9
$CHAMFERD
 40
0.0
  9
$SKPOLY
 70
     0
  9
$TDCREATE
 40
2457492.727152778
  9
$TDUPDATE
 40
2457492.727152778
  9
$TDINDWG
 40
0.0000000116
  9
$TDUSRTIMER
 40
0.0000000116
  9
$USRTIMER
 70
     1
  9
$ANGBASE
 50
0.0
  9
$ANGDIR
 70
     0
  9
$PDMODE
 70
     0
  9
$PDSIZE
 40
0.0
  9
$PLINEWID
 40
0.0
  9
$COORDS
 70
     1
  9
$SPLFRAME
 70
     0
  9
$SPLINETYPE
 70
     6
  9
$SPLINESEGS
 70
     8
  9
$ATTDIA
 70
     0
  9
$ATTREQ
 70
     1
  9
$HANDLING
 70
     1
  9
$HANDSEED
  5
79E
  9
$SURFTAB1
 70
     6
  9
$SURFTAB2
 70
     6
  9
$SURFTYPE
 70
     6
  9
$SURFU
 70
     6
  9
$SURFV
 70
     6
  9
$UCSNAME
  2

  9
$UCSORG
 10
0.0
 20
0.0
 30
0.0
  9
$UCSXDIR
 10
1.0
 20
0.0
 30
0.0
  9
$UCSYDIR
 10
0.0
 20
1.0
 30
0.0
  9
$PUCSNAME
  2

  9
$PUCSORG
 10
0.0
 20
0.0
 30
0.0
  9
$PUCSXDIR
 10
1.0
 20
0.0
 30
0.0
  9
$PUCSYDIR
 10
0.0
 20
1.0
 30
0.0
  9
$USERI1
 70
     0
  9
$USERI2
 70
     0
  9
$USERI3
 70
     0
  9
$USERI4
 70
     0
  9
$USERI5
 70
     0
  9
$USERR1
 40
0.0
  9
$USERR2
 40
0.0
  9
$USERR3
 40
0.0
  9
$USERR4
 40
0.0
  9
$USERR5
 40
0.0
  9
$WORLDVIEW
 70
     1
  9
$SHADEDGE
 70
     3
  9
$SHADEDIF
 70
    70
  9
$TILEMODE
 70
     1
  9
$MAXACTVP
 70
    64
  9
$PINSBASE
 10
0.0
 20
0.0
 30
0.0
  9
$PLIMCHECK
 70
     0
  9
$PEXTMIN
 10
1.000000000000000E+20
 20
1.000000000000000E+20
 30
1.000000000000000E+20
  9
$PEXTMAX
 10
-1.000000000000000E+20
 20
-1.000000000000000E+20
 30
-1.000000000000000E+20
  9
$PLIMMIN
 10
0.0
 20
0.0
  9
$PLIMMAX
 10
12.0
 20
9.0
  9
$UNITMODE
 70
     0
  9
$VISRETAIN
 70
     1
  9
$PLINEGEN
 70
     0
  9
$PSLTSCALE
 70
     1
  9
$TREEDEPTH
 70
  3020
  9
$PICKSTYLE
 70
     1
  9
$CMLSTYLE
  2
STANDARD
  9
$CMLJUST
 70
     0
  9
$CMLSCALE
 40
1.0
  9
$PROXYGRAPHICS
 70
     1
  9
$MEASUREMENT
 70
     0
  0
ENDSEC
  0
SECTION
  2
CLASSES
  0
CLASS
  1
ACDBDICTIONARYWDFLT
  2
AcDbDictionaryWithDefault
  3
ObjectDBX Classes
 90
        0
280
     0
281
     0
  0
CLASS
  1
VISUALSTYLE
  2
AcDbVisualStyle
  3
ObjectDBX Classes
 90
     4095
280
     0
281
     0
  0
CLASS
  1
MATERIAL
  2
AcDbMaterial
  3
ObjectDBX Classes
 90
     1153
280
     0
281
     0
  0
CLASS
  1
SUN
  2
AcDbSun
  3
SCENEOE
 90
     1024
280
     0
281
     0
  0
CLASS
  1
DICTIONARYVAR
  2
AcDbDictionaryVar
  3
ObjectDBX Classes
 90
        0
280
     0
281
     0
  0
CLASS
  1
XRECORD
  2
AcDbXrecord
  3
AutoCAD 2000
 90
        0
280
     0
281
     0
  0
CLASS
  1
LWPOLYLINE
  2
AcDbPolyline
  3
AutoCAD 2000
 90
        0
280
     0
281
     1
  0
CLASS
  1
HATCH
  2
AcDbHatch
  3
AutoCAD 2000
 90
        0
280
     0
281
     1
  0
CLASS
  1
ACDBPLACEHOLDER
  2
AcDbPlaceHolder
  3
ObjectDBX Classes
 90
        0
280
     0
281
     0
  0
CLASS
  1
LAYOUT
  2
AcDbLayout
  3
ObjectDBX Classes
 90
        0
280
     0
281
     0
  0
ENDSEC
  0
SECTION
  2
TABLES
  0
TABLE
  2
VPORT
  5
8
330
0
100
AcDbSymbolTable
 70
     1
  0
VPORT
  5
29
330
8
100
AcDbSymbolTableRecord
100
AcDbViewportTableRecord
  2
*ACTIVE
 70
     0
 10
0.0
 20
0.0
 11
1.0
 21
1.0
 12
0.0
 22
0.0
 13
0.0
 23
0.0
 14
0.5
 24
0.5
 15
0.5
 25
0.5
 16
0.0
 26
0.0
 36
1.0
 17
142.6211449487623
 27
-130.9878387003167
 37
0.0
 40
233.3243224755417
 41
1.494667534792507
 42
50.0
 43
0.0
 44
0.0
 50
0.0
 51
0.0
 71
     0
 72
   100
 73
     1
 74
     3
 75
     0
 76
     0
 77
     0
 78
     0
  0
ENDTAB
  0
TABLE
  2
LTYPE
  5
5
330
0
100
AcDbSymbolTable
 70
     1
  0
LTYPE
  5
14
330
5
100
AcDbSymbolTableRecord
100
AcDbLinetypeTableRecord
  2
BYBLOCK
 70
     0
  3

 72
    65
 73
     0
 40
0.0
  0
LTYPE
  5
15
330
5
100
AcDbSymbolTableRecord
100
AcDbLinetypeTableRecord
  2
BYLAYER
 70
     0
  3

 72
    65
 73
     0
 40
0.0
  0
LTYPE
  5
16
330
5
100
AcDbSymbolTableRecord
100
AcDbLinetypeTableRecord
  2
CONTINUOUS
 70
     0
  3
Solid line
 72
    65
 73
     0
 40
0.0
  0
ENDTAB
  0
TABLE
  2
LAYER
  5
2
330
0
100
AcDbSymbolTable
 70
     2
  0
LAYER
  5
10
330
2
100
AcDbSymbolTableRecord
100
AcDbLayerTableRecord
  2
0
 70
     0
 62
     7
  6
CONTINUOUS
  0
LAYER
  5
40
330
2
100
AcDbSymbolTableRecord
100
AcDbLayerTableRecord
  2
LAYER_1
 70
     0
 62
     7
  6
CONTINUOUS
  0
ENDTAB
  0
TABLE
  2
STYLE
  5
3
330
0
100
AcDbSymbolTable
 70
     1
  0
STYLE
  5
11
330
3
100
AcDbSymbolTableRecord
100
AcDbTextStyleTableRecord
  2
STANDARD
 70
     0
 40
0.0
 41
1.0
 50
0.0
 71
     0
 42
0.2
  3
txt
  4

  0
ENDTAB
  0
TABLE
  2
VIEW
  5
6
330
0
100
AcDbSymbolTable
 70
     0
  0
ENDTAB
  0
TABLE
  2
UCS
  5
7
330
0
100
AcDbSymbolTable
 70
     0
  0
ENDTAB
  0
TABLE
  2
APPID
  5
9
330
0
100
AcDbSymbolTable
 70
     1
  0
APPID
  5
12
330
9
100
AcDbSymbolTableRecord
100
AcDbRegAppTableRecord
  2
ACAD
 70
     0
  0
ENDTAB
  0
TABLE
  2
DIMSTYLE
  5
A
330
0
100
AcDbSymbolTable
 70
     1
  0
DIMSTYLE
105
27
330
A
100
AcDbSymbolTableRecord
100
AcDbDimStyleTableRecord
  2
STANDARD
 70
     0
  3

  4

  5

  6

  7

 40
1.0
 41
0.18
 42
0.0625
 43
0.38
 44
0.18
 45
0.0
 46
0.0
 47
0.0
 48
0.0
140
0.18
141
0.09
142
0.0
143
25.4
144
1.0
145
0.0
146
1.0
147
0.09
 71
     0
 72
     0
 73
     1
 74
     1
 75
     0
 76
     0
 77
     0
 78
     0
170
     0
171
     2
172
     0
173
     0
174
     0
175
     0
176
     0
177
     0
178
     0
270
     2
271
     4
272
     4
273
     2
274
     2
340
11
275
     0
280
     0
281
     0
282
     0
283
     1
284
     0
285
     0
286
     0
287
     3
288
     0
  0
ENDTAB
  0
TABLE
  2
BLOCK_RECORD
  5
1
330
0
100
AcDbSymbolTable
 70
     2
  0
BLOCK_RECORD
  5
1F
330
1
100
AcDbSymbolTableRecord
100
AcDbBlockTableRecord
  2
*MODEL_SPACE
  0
BLOCK_RECORD
  5
1B
330
1
100
AcDbSymbolTableRecord
100
AcDbBlockTableRecord
  2
*PAPER_SPACE
  0
BLOCK_RECORD
  5
1CF
330
1
100
AcDbSymbolTableRecord
100
AcDbBlockTableRecord
  2
BLOCK_2
  0
ENDTAB
  0
ENDSEC
  0
SECTION
  2
BLOCKS
  0
BLOCK
  5
20
330
1F
100
AcDbEntity
  8
0
100
AcDbBlockBegin
  2
*MODEL_SPACE
 70
     0
 10
0.0
 20
0.0
 30
0.0
  3
*MODEL_SPACE
  1

  0
ENDBLK
  5
21
330
1F
100
AcDbEntity
  8
0
100
AcDbBlockEnd
  0
BLOCK
  5
1C
330
1B
100
AcDbEntity
 67
     1
  8
0
100
AcDbBlockBegin
  2
*PAPER_SPACE
 70
     0
 10
0.0
 20
0.0
 30
0.0
  3
*PAPER_SPACE
  1

  0
ENDBLK
  5
1D
330
1B
100
AcDbEntity
 67
     1
  8
0
100
AcDbBlockEnd
  0
BLOCK
  5
1D1
330
1CF
100
AcDbEntity
  8
0
100
AcDbBlockBegin
  2
BLOCK_2
 70
     0
 10
0.0
 20
0.0
 30
0.0
  3
BLOCK_2
  1

  0
POLYLINE
  5
1D3
330
1CF
100
AcDbEntity
  8
LAYER_1
 62
   250
100
AcDb2dPolyline
 66
     1
 10
0.0
 20
0.0
 30
0.0
  0
VERTEX
  5
1D4
330
1D3
100
AcDbEntity
  8
LAYER_1
 62
   250
100
AcDbVertex
100
AcDb2dVertex
 10
1.030465644554804
 20
-23.7437474668852
 30
0.0
  0
VERTEX
  5
1D5
330
1D3
100
AcDbEntity
  8
LAYER_1
 62
   250
100
AcDbVertex
100
AcDb2dVertex
 10
9.813817328625342
 20
-23.74374746649151
 30
0.0
  0
SEQEND
  5
1D6
330
1D3
100
AcDbEntity
  8
LAYER_1
 62
   250
  0
POLYLINE
  5
1D7
330
1CF
100
AcDbEntity
  8
LAYER_1
 62
   250
100
AcDb2dPolyline
 66
     1
 10
0.0
 20
0.0
 30
0.0
  0
VERTEX
  5
1D8
330
1D7
100
AcDbEntity
  8
LAYER_1
 62
   250
100
AcDbVertex
100
AcDb2dVertex
 10
9.813817328767799
 20
-26.91874679282755
 30
0.0
  0
VERTEX
  5
1D9
330
1D7
100
AcDbEntity
  8
LAYER_1
 62
   250
100
AcDbVertex
100
AcDb2dVertex
 10
9.813817328625342
 20
-23.74374746649151
 30
0.0
  0
SEQEND
  5
1DA
330
1D7
100
AcDbEntity
  8
LAYER_1
 62
   250
  0
POLYLINE
  5
1DB
330
1CF
100
AcDbEntity
  8
LAYER_1
 62
   250
100
AcDb2dPolyline
 66
     1
 10
0.0
 20
0.0
 30
0.0
  0
VERTEX
  5
1DC
330
1DB
100
AcDbEntity
  8
LAYER_1
 62
   250
100
AcDbVertex
100
AcDb2dVertex
 10
9.813817328767799
 20
-26.91874679282755
 30
0.0
  0
VERTEX
  5
1DD
330
1DB
100
AcDbEntity
  8
LAYER_1
 62
   250
100
AcDbVertex
100
AcDb2dVertex
 10
18.59714209802922
 20
-26.91874679243259
 30
0.0
  0
SEQEND
  5
1DE
330
1DB
100
AcDbEntity
  8
LAYER_1
 62
   250
  0
POLYLINE
  5
1DF
330
1CF
100
AcDbEntity
  8
LAYER_1
 62
   250
100
AcDb2dPolyline
 66
     1
 10
0.0
 20
0.0
 30
0.0
  0
VERTEX
  5
1E0
330
1DF
100
AcDbEntity
  8
LAYER_1
 62
   250
100
AcDbVertex
100
AcDb2dVertex
 10
18.59714209802922
 20
-26.91874679243259
 30
0.0
  0
VERTEX
  5
1E1
330
1DF
100
AcDbEntity
  8
LAYER_1
 62
   250
100
AcDbVertex
100
AcDb2dVertex
 10
18.59714209788676
 20
-23.74374746609655
 30
0.0
  0
SEQEND
  5
1E2
330
1DF
100
AcDbEntity
  8
LAYER_1
 62
   250
  0
POLYLINE
  5
1E3
330
1CF
100
AcDbEntity
  8
LAYER_1
 62
   250
100
AcDb2dPolyline
 66
     1
 10
0.0
 20
0.0
 30
0.0
  0
VERTEX
  5
1E4
330
1E3
100
AcDbEntity
  8
LAYER_1
 62
   250
100
AcDbVertex
100
AcDb2dVertex
 10
18.59714209788676
 20
-23.74374746609655
 30
0.0
  0
VERTEX
  5
1E5
330
1E3
100
AcDbEntity
  8
LAYER_1
 62
   250
100
AcDbVertex
100
AcDb2dVertex
 10
24.20546148498023
 20
-23.74374746584404
 30
0.0
  0
SEQEND
  5
1E6
330
1E3
100
AcDbEntity
  8
LAYER_1
 62
   250
  0
POLYLINE
  5
1E7
330
1CF
100
AcDbEntity
  8
LAYER_1
 62
   250
100
AcDb2dPolyline
 66
     1
 10
0.0
 20
0.0
 30
0.0
  0
VERTEX
  5
1E8
330
1E7
100
AcDbEntity
  8
LAYER_1
 62
   250
100
AcDbVertex
100
AcDb2dVertex
 10
1.03046564873804
 20
-116.918757684994
 30
0.0
  0
VERTEX
  5
1E9
330
1E7
100
AcDbEntity
  8
LAYER_1
 62
   250
100
AcDbVertex
100
AcDb2dVertex
 10
9.813817332807936
 20
-116.9187576846
 30
0.0
  0
SEQEND
  5
1EA
330
1E7
100
AcDbEntity
  8
LAYER_1
 62
   250
  0
POLYLINE
  5
1EB
330
1CF
100
AcDbEntity
  8
LAYER_1
 62
   250
100
AcDb2dPolyline
 66
     1
 10
0.0
 20
0.0
 30
0.0
  0
VERTEX
  5
1EC
330
1EB
100
AcDbEntity
  8
LAYER_1
 62
   250
100
AcDbVertex
100
AcDb2dVertex
 10
9.813817332807936
 20
-116.9187576846
 30
0.0
  0
VERTEX
  5
1ED
330
1EB
100
AcDbEntity
  8
LAYER_1
 62
   250
100
AcDbVertex
100
AcDb2dVertex
 10
9.81381733266548
 20
-113.7437576853937
 30
0.0
  0
SEQEND
  5
1EE
330
1EB
100
AcDbEntity
  8
LAYER_1
 62
   250
  0
POLYLINE
  5
1EF
330
1CF
100
AcDbEntity
  8
LAYER_1
 62
   250
100
AcDb2dPolyline
 66
     1
 10
0.0
 20
0.0
 30
0.0
  0
VERTEX
  5
1F0
330
1EF
100
AcDbEntity
  8
LAYER_1
 62
   250
100
AcDbVertex
100
AcDb2dVertex
 10
9.81381733266548
 20
-113.7437576853937
 30
0.0
  0
VERTEX
  5
1F1
330
1EF
100
AcDbEntity
  8
LAYER_1
 62
   250
100
AcDbVertex
100
AcDb2dVertex
 10
18.5971421019269
 20
-113.7437576849988
 30
0.0
  0
SEQEND
  5
1F2
330
1EF
100
AcDbEntity
  8
LAYER_1
 62
   250
  0
POLYLINE
  5
1F3
330
1CF
100
AcDbEntity
  8
LAYER_1
 62
   250
100
AcDb2dPolyline
 66
     1
 10
0.0
 20
0.0
 30
0.0
  0
VERTEX
  5
1F4
330
1F3
100
AcDbEntity
  8
LAYER_1
 62
   250
100
AcDbVertex
100
AcDb2dVertex
 10
18.59714210206936
 20
-116.918757684205
 30
0.0
  0
VERTEX
  5
1F5
330
1F3
100
AcDbEntity
  8
LAYER_1
 62
   250
100
AcDbVertex
100
AcDb2dVertex
 10
18.5971421019269
 20
-113.7437576849988
 30
0.0
  0
SEQEND
  5
1F6
330
1F3
100
AcDbEntity
  8
LAYER_1
 62
   250
  0
POLYLINE
  5
1F7
330
1CF
100
AcDbEntity
  8
LAYER_1
 62
   250
100
AcDb2dPolyline
 66
     1
 10
0.0
 20
0.0
 30
0.0
  0
VERTEX
  5
1F8
330
1F7
100
AcDbEntity
  8
LAYER_1
 62
   250
100
AcDbVertex
100
AcDb2dVertex
 10
18.59714210206936
 20
-116.918757684205
 30
0.0
  0
VERTEX
  5
1F9
330
1F7
100
AcDbEntity
  8
LAYER_1
 62
   250
100
AcDbVertex
100
AcDb2dVertex
 10
24.20546148916283
 20
-116.9187576839525
 30
0.0
  0
SEQEND
  5
1FA
330
1F7
100
AcDbEntity
  8
LAYER_1
 62
   250
  0
POLYLINE
  5
1FB
330
1CF
100
AcDbEntity
  8
LAYER_1
 62
   250
100
AcDb2dPolyline
 66
     1
 10
0.0
 20
0.0
 30
0.0
  0
VERTEX
  5
1FC
330
1FB
100
AcDbEntity
  8
LAYER_1
 62
   250
100
AcDbVertex
100
AcDb2dVertex
 10
1.030465644554804
 20
-23.7437474668852
 30
0.0
  0
VERTEX
  5
1FD
330
1FB
100
AcDbEntity
  8
LAYER_1
 62
   250
100
AcDbVertex
100
AcDb2dVertex
 10
1.030465644935332
 20
-32.21419902637749
 30
0.0
  0
SEQEND
  5
1FE
330
1FB
100
AcDbEntity
  8
LAYER_1
 62
   250
  0
POLYLINE
  5
1FF
330
1CF
100
AcDbEntity
  8
LAYER_1
 62
   250
100
AcDb2dPolyline
 66
     1
 10
0.0
 20
0.0
 30
0.0
  0
VERTEX
  5
200
330
1FF
100
AcDbEntity
  8
LAYER_1
 62
   250
100
AcDbVertex
100
AcDb2dVertex
 10
4.205465644141582
 20
-32.21419902623471
 30
0.0
  0
VERTEX
  5
201
330
1FF
100
AcDbEntity
  8
LAYER_1
 62
   250
100
AcDbVertex
100
AcDb2dVertex
 10
1.030465644935332
 20
-32.21419902637749
 30
0.0
  0
SEQEND
  5
202
330
1FF
100
AcDbEntity
  8
LAYER_1
 62
   250
  0
POLYLINE
  5
203
330
1CF
100
AcDbEntity
  8
LAYER_1
 62
   250
100
AcDb2dPolyline
 66
     1
 10
0.0
 20
0.0
 30
0.0
  0
VERTEX
  5
204
330
203
100
AcDbEntity
  8
LAYER_1
 62
   250
100
AcDbVertex
100
AcDb2dVertex
 10
4.205465644141582
 20
-32.21419902623471
 30
0.0
  0
VERTEX
  5
205
330
203
100
AcDbEntity
  8
LAYER_1
 62
   250
100
AcDbVertex
100
AcDb2dVertex
 10
4.205465644521468
 20
-40.68465395007807
 30
0.0
  0
SEQEND
  5
206
330
203
100
AcDbEntity
  8
LAYER_1
 62
   250
  0
POLYLINE
  5
207
330
1CF
100
AcDbEntity
  8
LAYER_1
 62
   250
100
AcDb2dPolyline
 66
     1
 10
0.0
 20
0.0
 30
0.0
  0
VERTEX
  5
208
330
207
100
AcDbEntity
  8
LAYER_1
 62
   250
100
AcDbVertex
100
AcDb2dVertex
 10
4.205465644521468
 20
-40.68465395007807
 30
0.0
  0
VERTEX
  5
209
330
207
100
AcDbEntity
  8
LAYER_1
 62
   250
100
AcDbVertex
100
AcDb2dVertex
 10
1.030465645314897
 20
-40.68465395022084
 30
0.0
  0
SEQEND
  5
20A
330
207
100
AcDbEntity
  8
LAYER_1
 62
   250
  0
POLYLINE
  5
20B
330
1CF
100
AcDbEntity
  8
LAYER_1
 62
   250
100
AcDb2dPolyline
 66
     1
 10
0.0
 20
0.0
 30
0.0
  0
VERTEX
  5
20C
330
20B
100
AcDbEntity
  8
LAYER_1
 62
   250
100
AcDbVertex
100
AcDb2dVertex
 10
1.030465645314897
 20
-40.68465395022084
 30
0.0
  0
VERTEX
  5
20D
330
20B
100
AcDbEntity
  8
LAYER_1
 62
   250
100
AcDbVertex
100
AcDb2dVertex
 10
1.030465645695103
 20
-49.155120985728
 30
0.0
  0
SEQEND
  5
20E
330
20B
100
AcDbEntity
  8
LAYER_1
 62
   250
  0
POLYLINE
  5
20F
330
1CF
100
AcDbEntity
  8
LAYER_1
 62
   250
100
AcDb2dPolyline
 66
     1
 10
0.0
 20
0.0
 30
0.0
  0
VERTEX
  5
210
330
20F
100
AcDbEntity
  8
LAYER_1
 62
   250
100
AcDbVertex
100
AcDb2dVertex
 10
4.205465644901995
 20
-49.15512098558523
 30
0.0
  0
VERTEX
  5
211
330
20F
100
AcDbEntity
  8
LAYER_1
 62
   250
100
AcDbVertex
100
AcDb2dVertex
 10
1.030465645695103
 20
-49.155120985728
 30
0.0
  0
SEQEND
  5
212
330
20F
100
AcDbEntity
  8
LAYER_1
 62
   250
  0
POLYLINE
  5
213
330
1CF
100
AcDbEntity
  8
LAYER_1
 62
   250
100
AcDb2dPolyline
 66
     1
 10
0.0
 20
0.0
 30
0.0
  0
VERTEX
  5
214
330
213
100
AcDbEntity
  8
LAYER_1
 62
   250
100
AcDbVertex
100
AcDb2dVertex
 10
4.205465644901995
 20
-49.15512098558523
 30
0.0
  0
VERTEX
  5
215
330
213
100
AcDbEntity
  8
LAYER_1
 62
   250
100
AcDbVertex
100
AcDb2dVertex
 10
4.205465645282523
 20
-57.62556110628392
 30
0.0
  0
SEQEND
  5
216
330
213
100
AcDbEntity
  8
LAYER_1
 62
   250
  0
POLYLINE
  5
217
330
1CF
100
AcDbEntity
  8
LAYER_1
 62
   250
100
AcDb2dPolyline
 66
     1
 10
0.0
 20
0.0
 30
0.0
  0
VERTEX
  5
218
330
217
100
AcDbEntity
  8
LAYER_1
 62
   250
100
AcDbVertex
100
AcDb2dVertex
 10
4.205465645282523
 20
-57.62556110628392
 30
0.0
  0
VERTEX
  5
219
330
217
100
AcDbEntity
  8
LAYER_1
 62
   250
100
AcDbVertex
100
AcDb2dVertex
 10
1.030465646076273
 20
-57.62556110642637
 30
0.0
  0
SEQEND
  5
21A
330
217
100
AcDbEntity
  8
LAYER_1
 62
   250
  0
POLYLINE
  5
21B
330
1CF
100
AcDbEntity
  8
LAYER_1
 62
   250
100
AcDb2dPolyline
 66
     1
 10
0.0
 20
0.0
 30
0.0
  0
VERTEX
  5
21C
330
21B
100
AcDbEntity
  8
LAYER_1
 62
   250
100
AcDbVertex
100
AcDb2dVertex
 10
1.030465646076273
 20
-57.62556110642637
 30
0.0
  0
VERTEX
  5
21D
330
21B
100
AcDbEntity
  8
LAYER_1
 62
   250
100
AcDbVertex
100
AcDb2dVertex
 10
1.030465646455838
 20
-66.09600391860623
 30
0.0
  0
SEQEND
  5
21E
330
21B
100
AcDbEntity
  8
LAYER_1
 62
   250
  0
POLYLINE
  5
21F
330
1CF
100
AcDbEntity
  8
LAYER_1
 62
   250
100
AcDb2dPolyline
 66
     1
 10
0.0
 20
0.0
 30
0.0
  0
VERTEX
  5
220
330
21F
100
AcDbEntity
  8
LAYER_1
 62
   250
100
AcDbVertex
100
AcDb2dVertex
 10
4.205465645662408
 20
-66.09600391846345
 30
0.0
  0
VERTEX
  5
221
330
21F
100
AcDbEntity
  8
LAYER_1
 62
   250
100
AcDbVertex
100
AcDb2dVertex
 10
1.030465646455838
 20
-66.09600391860623
 30
0.0
  0
SEQEND
  5
222
330
21F
100
AcDbEntity
  8
LAYER_1
 62
   250
  0
POLYLINE
  5
223
330
1CF
100
AcDbEntity
  8
LAYER_1
 62
   250
100
AcDb2dPolyline
 66
     1
 10
0.0
 20
0.0
 30
0.0
  0
VERTEX
  5
224
330
223
100
AcDbEntity
  8
LAYER_1
 62
   250
100
AcDbVertex
100
AcDb2dVertex
 10
4.205465645662408
 20
-66.09600391846345
 30
0.0
  0
VERTEX
  5
225
330
223
100
AcDbEntity
  8
LAYER_1
 62
   250
100
AcDbVertex
100
AcDb2dVertex
 10
4.205465646042936
 20
-74.56648171989401
 30
0.0
  0
SEQEND
  5
226
330
223
100
AcDbEntity
  8
LAYER_1
 62
   250
  0
POLYLINE
  5
227
330
1CF
100
AcDbEntity
  8
LAYER_1
 62
   250
100
AcDb2dPolyline
 66
     1
 10
0.0
 20
0.0
 30
0.0
  0
VERTEX
  5
228
330
227
100
AcDbEntity
  8
LAYER_1
 62
   250
100
AcDbVertex
100
AcDb2dVertex
 10
4.205465646042936
 20
-74.56648171989401
 30
0.0
  0
VERTEX
  5
229
330
227
100
AcDbEntity
  8
LAYER_1
 62
   250
100
AcDbVertex
100
AcDb2dVertex
 10
1.030465646836044
 20
-74.56648172003679
 30
0.0
  0
SEQEND
  5
22A
330
227
100
AcDbEntity
  8
LAYER_1
 62
   250
  0
POLYLINE
  5
22B
330
1CF
100
AcDbEntity
  8
LAYER_1
 62
   250
100
AcDb2dPolyline
 66
     1
 10
0.0
 20
0.0
 30
0.0
  0
VERTEX
  5
22C
330
22B
100
AcDbEntity
  8
LAYER_1
 62
   250
100
AcDbVertex
100
AcDb2dVertex
 10
1.030465646836044
 20
-74.56648172003679
 30
0.0
  0
VERTEX
  5
22D
330
22B
100
AcDbEntity
  8
LAYER_1
 62
   250
100
AcDbVertex
100
AcDb2dVertex
 10
1.030465647216572
 20
-83.03692184073547
 30
0.0
  0
SEQEND
  5
22E
330
22B
100
AcDbEntity
  8
LAYER_1
 62
   250
  0
POLYLINE
  5
22F
330
1CF
100
AcDbEntity
  8
LAYER_1
 62
   250
100
AcDb2dPolyline
 66
     1
 10
0.0
 20
0.0
 30
0.0
  0
VERTEX
  5
230
330
22F
100
AcDbEntity
  8
LAYER_1
 62
   250
100
AcDbVertex
100
AcDb2dVertex
 10
4.205465646422822
 20
-83.0369218405927
 30
0.0
  0
VERTEX
  5
231
330
22F
100
AcDbEntity
  8
LAYER_1
 62
   250
100
AcDbVertex
100
AcDb2dVertex
 10
1.030465647216572
 20
-83.03692184073547
 30
0.0
  0
SEQEND
  5
232
330
22F
100
AcDbEntity
  8
LAYER_1
 62
   250
  0
POLYLINE
  5
233
330
1CF
100
AcDbEntity
  8
LAYER_1
 62
   250
100
AcDb2dPolyline
 66
     1
 10
0.0
 20
0.0
 30
0.0
  0
VERTEX
  5
234
330
233
100
AcDbEntity
  8
LAYER_1
 62
   250
100
AcDbVertex
100
AcDb2dVertex
 10
4.205465646422822
 20
-83.0369218405927
 30
0.0
  0
VERTEX
  5
235
330
233
100
AcDbEntity
  8
LAYER_1
 62
   250
100
AcDbVertex
100
AcDb2dVertex
 10
4.20546564680335
 20
-91.50739964202357
 30
0.0
  0
SEQEND
  5
236
330
233
100
AcDbEntity
  8
LAYER_1
 62
   250
  0
POLYLINE
  5
237
330
1CF
100
AcDbEntity
  8
LAYER_1
 62
   250
100
AcDb2dPolyline
 66
     1
 10
0.0
 20
0.0
 30
0.0
  0
VERTEX
  5
238
330
237
100
AcDbEntity
  8
LAYER_1
 62
   250
100
AcDbVertex
100
AcDb2dVertex
 10
4.20546564680335
 20
-91.50739964202357
 30
0.0
  0
VERTEX
  5
239
330
237
100
AcDbEntity
  8
LAYER_1
 62
   250
100
AcDbVertex
100
AcDb2dVertex
 10
1.03046564759742
 20
-91.50739964216604
 30
0.0
  0
SEQEND
  5
23A
330
237
100
AcDbEntity
  8
LAYER_1
 62
   250
  0
POLYLINE
  5
23B
330
1CF
100
AcDbEntity
  8
LAYER_1
 62
   250
100
AcDb2dPolyline
 66
     1
 10
0.0
 20
0.0
 30
0.0
  0
VERTEX
  5
23C
330
23B
100
AcDbEntity
  8
LAYER_1
 62
   250
100
AcDbVertex
100
AcDb2dVertex
 10
1.03046564759742
 20
-91.50739964216604
 30
0.0
  0
VERTEX
  5
23D
330
23B
100
AcDbEntity
  8
LAYER_1
 62
   250
100
AcDbVertex
100
AcDb2dVertex
 10
1.030465647977627
 20
-99.97783976286472
 30
0.0
  0
SEQEND
  5
23E
330
23B
100
AcDbEntity
  8
LAYER_1
 62
   250
  0
POLYLINE
  5
23F
330
1CF
100
AcDbEntity
  8
LAYER_1
 62
   250
100
AcDb2dPolyline
 66
     1
 10
0.0
 20
0.0
 30
0.0
  0
VERTEX
  5
240
330
23F
100
AcDbEntity
  8
LAYER_1
 62
   250
100
AcDbVertex
100
AcDb2dVertex
 10
4.205465647184519
 20
-99.97783976272227
 30
0.0
  0
VERTEX
  5
241
330
23F
100
AcDbEntity
  8
LAYER_1
 62
   250
100
AcDbVertex
100
AcDb2dVertex
 10
1.030465647977627
 20
-99.97783976286472
 30
0.0
  0
SEQEND
  5
242
330
23F
100
AcDbEntity
  8
LAYER_1
 62
   250
  0
POLYLINE
  5
243
330
1CF
100
AcDbEntity
  8
LAYER_1
 62
   250
100
AcDb2dPolyline
 66
     1
 10
0.0
 20
0.0
 30
0.0
  0
VERTEX
  5
244
330
243
100
AcDbEntity
  8
LAYER_1
 62
   250
100
AcDbVertex
100
AcDb2dVertex
 10
4.205465647184519
 20
-99.97783976272227
 30
0.0
  0
VERTEX
  5
245
330
243
100
AcDbEntity
  8
LAYER_1
 62
   250
100
AcDbVertex
100
AcDb2dVertex
 10
4.205465647564405
 20
-108.448279883421
 30
0.0
  0
SEQEND
  5
246
330
243
100
AcDbEntity
  8
LAYER_1
 62
   250
  0
POLYLINE
  5
247
330
1CF
100
AcDbEntity
  8
LAYER_1
 62
   250
100
AcDb2dPolyline
 66
     1
 10
0.0
 20
0.0
 30
0.0
  0
VERTEX
  5
248
330
247
100
AcDbEntity
  8
LAYER_1
 62
   250
100
AcDbVertex
100
AcDb2dVertex
 10
4.205465647564405
 20
-108.448279883421
 30
0.0
  0
VERTEX
  5
249
330
247
100
AcDbEntity
  8
LAYER_1
 62
   250
100
AcDbVertex
100
AcDb2dVertex
 10
1.030465648357192
 20
-108.4482798835634
 30
0.0
  0
SEQEND
  5
24A
330
247
100
AcDbEntity
  8
LAYER_1
 62
   250
  0
POLYLINE
  5
24B
330
1CF
100
AcDbEntity
  8
LAYER_1
 62
   250
100
AcDb2dPolyline
 66
     1
 10
0.0
 20
0.0
 30
0.0
  0
VERTEX
  5
24C
330
24B
100
AcDbEntity
  8
LAYER_1
 62
   250
100
AcDbVertex
100
AcDb2dVertex
 10
1.030465648357192
 20
-108.4482798835634
 30
0.0
  0
VERTEX
  5
24D
330
24B
100
AcDbEntity
  8
LAYER_1
 62
   250
100
AcDbVertex
100
AcDb2dVertex
 10
1.03046564873804
 20
-116.918757684994
 30
0.0
  0
SEQEND
  5
24E
330
24B
100
AcDbEntity
  8
LAYER_1
 62
   250
  0
POLYLINE
  5
24F
330
1CF
100
AcDbEntity
  8
LAYER_1
 62
   250
100
AcDb2dPolyline
 66
     1
 10
0.0
 20
0.0
 30
0.0
  0
VERTEX
  5
250
330
24F
100
AcDbEntity
  8
LAYER_1
 62
   250
100
AcDbVertex
100
AcDb2dVertex
 10
24.20546148498023
 20
-23.74374746584404
 30
0.0
  0
VERTEX
  5
251
330
24F
100
AcDbEntity
  8
LAYER_1
 62
   250
100
AcDbVertex
100
AcDb2dVertex
 10
24.20546148536012
 20
-32.21419902533601
 30
0.0
  0
SEQEND
  5
252
330
24F
100
AcDbEntity
  8
LAYER_1
 62
   250
  0
POLYLINE
  5
253
330
1CF
100
AcDbEntity
  8
LAYER_1
 62
   250
100
AcDb2dPolyline
 66
     1
 10
0.0
 20
0.0
 30
0.0
  0
VERTEX
  5
254
330
253
100
AcDbEntity
  8
LAYER_1
 62
   250
100
AcDbVertex
100
AcDb2dVertex
 10
27.38046148456637
 20
-32.21419902519388
 30
0.0
  0
VERTEX
  5
255
330
253
100
AcDbEntity
  8
LAYER_1
 62
   250
100
AcDbVertex
100
AcDb2dVertex
 10
24.20546148536012
 20
-32.21419902533601
 30
0.0
  0
SEQEND
  5
256
330
253
100
AcDbEntity
  8
LAYER_1
 62
   250
  0
POLYLINE
  5
257
330
1CF
100
AcDbEntity
  8
LAYER_1
 62
   250
100
AcDb2dPolyline
 66
     1
 10
0.0
 20
0.0
 30
0.0
  0
VERTEX
  5
258
330
257
100
AcDbEntity
  8
LAYER_1
 62
   250
100
AcDbVertex
100
AcDb2dVertex
 10
27.38046148456637
 20
-32.21419902519388
 30
0.0
  0
VERTEX
  5
259
330
257
100
AcDbEntity
  8
LAYER_1
 62
   250
100
AcDbVertex
100
AcDb2dVertex
 10
27.38046148494625
 20
-40.68465394903723
 30
0.0
  0
SEQEND
  5
25A
330
257
100
AcDbEntity
  8
LAYER_1
 62
   250
  0
POLYLINE
  5
25B
330
1CF
100
AcDbEntity
  8
LAYER_1
 62
   250
100
AcDb2dPolyline
 66
     1
 10
0.0
 20
0.0
 30
0.0
  0
VERTEX
  5
25C
330
25B
100
AcDbEntity
  8
LAYER_1
 62
   250
100
AcDbVertex
100
AcDb2dVertex
 10
27.38046148494625
 20
-40.68465394903723
 30
0.0
  0
VERTEX
  5
25D
330
25B
100
AcDbEntity
  8
LAYER_1
 62
   250
100
AcDbVertex
100
AcDb2dVertex
 10
24.20546148574
 20
-40.68465394917968
 30
0.0
  0
SEQEND
  5
25E
330
25B
100
AcDbEntity
  8
LAYER_1
 62
   250
  0
POLYLINE
  5
25F
330
1CF
100
AcDbEntity
  8
LAYER_1
 62
   250
100
AcDb2dPolyline
 66
     1
 10
0.0
 20
0.0
 30
0.0
  0
VERTEX
  5
260
330
25F
100
AcDbEntity
  8
LAYER_1
 62
   250
100
AcDbVertex
100
AcDb2dVertex
 10
24.20546148574
 20
-40.68465394917968
 30
0.0
  0
VERTEX
  5
261
330
25F
100
AcDbEntity
  8
LAYER_1
 62
   250
100
AcDbVertex
100
AcDb2dVertex
 10
24.20546148612053
 20
-49.15512098468685
 30
0.0
  0
SEQEND
  5
262
330
25F
100
AcDbEntity
  8
LAYER_1
 62
   250
  0
POLYLINE
  5
263
330
1CF
100
AcDbEntity
  8
LAYER_1
 62
   250
100
AcDb2dPolyline
 66
     1
 10
0.0
 20
0.0
 30
0.0
  0
VERTEX
  5
264
330
263
100
AcDbEntity
  8
LAYER_1
 62
   250
100
AcDbVertex
100
AcDb2dVertex
 10
27.38046148532678
 20
-49.15512098454472
 30
0.0
  0
VERTEX
  5
265
330
263
100
AcDbEntity
  8
LAYER_1
 62
   250
100
AcDbVertex
100
AcDb2dVertex
 10
24.20546148612053
 20
-49.15512098468685
 30
0.0
  0
SEQEND
  5
266
330
263
100
AcDbEntity
  8
LAYER_1
 62
   250
  0
POLYLINE
  5
267
330
1CF
100
AcDbEntity
  8
LAYER_1
 62
   250
100
AcDb2dPolyline
 66
     1
 10
0.0
 20
0.0
 30
0.0
  0
VERTEX
  5
268
330
267
100
AcDbEntity
  8
LAYER_1
 62
   250
100
AcDbVertex
100
AcDb2dVertex
 10
27.38046148532678
 20
-49.15512098454472
 30
0.0
  0
VERTEX
  5
269
330
267
100
AcDbEntity
  8
LAYER_1
 62
   250
100
AcDbVertex
100
AcDb2dVertex
 10
27.38046148570731
 20
-57.62556110524308
 30
0.0
  0
SEQEND
  5
26A
330
267
100
AcDbEntity
  8
LAYER_1
 62
   250
  0
POLYLINE
  5
26B
330
1CF
100
AcDbEntity
  8
LAYER_1
 62
   250
100
AcDb2dPolyline
 66
     1
 10
0.0
 20
0.0
 30
0.0
  0
VERTEX
  5
26C
330
26B
100
AcDbEntity
  8
LAYER_1
 62
   250
100
AcDbVertex
100
AcDb2dVertex
 10
27.38046148570731
 20
-57.62556110524308
 30
0.0
  0
VERTEX
  5
26D
330
26B
100
AcDbEntity
  8
LAYER_1
 62
   250
100
AcDbVertex
100
AcDb2dVertex
 10
24.20546148650106
 20
-57.62556110538554
 30
0.0
  0
SEQEND
  5
26E
330
26B
100
AcDbEntity
  8
LAYER_1
 62
   250
  0
POLYLINE
  5
26F
330
1CF
100
AcDbEntity
  8
LAYER_1
 62
   250
100
AcDb2dPolyline
 66
     1
 10
0.0
 20
0.0
 30
0.0
  0
VERTEX
  5
270
330
26F
100
AcDbEntity
  8
LAYER_1
 62
   250
100
AcDbVertex
100
AcDb2dVertex
 10
24.20546148650106
 20
-57.62556110538554
 30
0.0
  0
VERTEX
  5
271
330
26F
100
AcDbEntity
  8
LAYER_1
 62
   250
100
AcDbVertex
100
AcDb2dVertex
 10
24.20546148688094
 20
-66.0960039175654
 30
0.0
  0
SEQEND
  5
272
330
26F
100
AcDbEntity
  8
LAYER_1
 62
   250
  0
POLYLINE
  5
273
330
1CF
100
AcDbEntity
  8
LAYER_1
 62
   250
100
AcDb2dPolyline
 66
     1
 10
0.0
 20
0.0
 30
0.0
  0
VERTEX
  5
274
330
273
100
AcDbEntity
  8
LAYER_1
 62
   250
100
AcDbVertex
100
AcDb2dVertex
 10
27.38046148608719
 20
-66.09600391742262
 30
0.0
  0
VERTEX
  5
275
330
273
100
AcDbEntity
  8
LAYER_1
 62
   250
100
AcDbVertex
100
AcDb2dVertex
 10
24.20546148688094
 20
-66.0960039175654
 30
0.0
  0
SEQEND
  5
276
330
273
100
AcDbEntity
  8
LAYER_1
 62
   250
  0
POLYLINE
  5
277
330
1CF
100
AcDbEntity
  8
LAYER_1
 62
   250
100
AcDb2dPolyline
 66
     1
 10
0.0
 20
0.0
 30
0.0
  0
VERTEX
  5
278
330
277
100
AcDbEntity
  8
LAYER_1
 62
   250
100
AcDbVertex
100
AcDb2dVertex
 10
27.38046148608719
 20
-66.09600391742262
 30
0.0
  0
VERTEX
  5
279
330
277
100
AcDbEntity
  8
LAYER_1
 62
   250
100
AcDbVertex
100
AcDb2dVertex
 10
27.38046148646772
 20
-74.56648171885317
 30
0.0
  0
SEQEND
  5
27A
330
277
100
AcDbEntity
  8
LAYER_1
 62
   250
  0
POLYLINE
  5
27B
330
1CF
100
AcDbEntity
  8
LAYER_1
 62
   250
100
AcDb2dPolyline
 66
     1
 10
0.0
 20
0.0
 30
0.0
  0
VERTEX
  5
27C
330
27B
100
AcDbEntity
  8
LAYER_1
 62
   250
100
AcDbVertex
100
AcDb2dVertex
 10
27.38046148646772
 20
-74.56648171885317
 30
0.0
  0
VERTEX
  5
27D
330
27B
100
AcDbEntity
  8
LAYER_1
 62
   250
100
AcDbVertex
100
AcDb2dVertex
 10
24.20546148726147
 20
-74.56648171899563
 30
0.0
  0
SEQEND
  5
27E
330
27B
100
AcDbEntity
  8
LAYER_1
 62
   250
  0
POLYLINE
  5
27F
330
1CF
100
AcDbEntity
  8
LAYER_1
 62
   250
100
AcDb2dPolyline
 66
     1
 10
0.0
 20
0.0
 30
0.0
  0
VERTEX
  5
280
330
27F
100
AcDbEntity
  8
LAYER_1
 62
   250
100
AcDbVertex
100
AcDb2dVertex
 10
24.20546148726147
 20
-74.56648171899563
 30
0.0
  0
VERTEX
  5
281
330
27F
100
AcDbEntity
  8
LAYER_1
 62
   250
100
AcDbVertex
100
AcDb2dVertex
 10
24.205461487642
 20
-83.03692183969432
 30
0.0
  0
SEQEND
  5
282
330
27F
100
AcDbEntity
  8
LAYER_1
 62
   250
  0
POLYLINE
  5
283
330
1CF
100
AcDbEntity
  8
LAYER_1
 62
   250
100
AcDb2dPolyline
 66
     1
 10
0.0
 20
0.0
 30
0.0
  0
VERTEX
  5
284
330
283
100
AcDbEntity
  8
LAYER_1
 62
   250
100
AcDbVertex
100
AcDb2dVertex
 10
27.38046148684825
 20
-83.03692183955187
 30
0.0
  0
VERTEX
  5
285
330
283
100
AcDbEntity
  8
LAYER_1
 62
   250
100
AcDbVertex
100
AcDb2dVertex
 10
24.205461487642
 20
-83.03692183969432
 30
0.0
  0
SEQEND
  5
286
330
283
100
AcDbEntity
  8
LAYER_1
 62
   250
  0
POLYLINE
  5
287
330
1CF
100
AcDbEntity
  8
LAYER_1
 62
   250
100
AcDb2dPolyline
 66
     1
 10
0.0
 20
0.0
 30
0.0
  0
VERTEX
  5
288
330
287
100
AcDbEntity
  8
LAYER_1
 62
   250
100
AcDbVertex
100
AcDb2dVertex
 10
27.38046148684825
 20
-83.03692183955187
 30
0.0
  0
VERTEX
  5
289
330
287
100
AcDbEntity
  8
LAYER_1
 62
   250
100
AcDbVertex
100
AcDb2dVertex
 10
27.38046148722814
 20
-91.5073996409821
 30
0.0
  0
SEQEND
  5
28A
330
287
100
AcDbEntity
  8
LAYER_1
 62
   250
  0
POLYLINE
  5
28B
330
1CF
100
AcDbEntity
  8
LAYER_1
 62
   250
100
AcDb2dPolyline
 66
     1
 10
0.0
 20
0.0
 30
0.0
  0
VERTEX
  5
28C
330
28B
100
AcDbEntity
  8
LAYER_1
 62
   250
100
AcDbVertex
100
AcDb2dVertex
 10
27.38046148722814
 20
-91.5073996409821
 30
0.0
  0
VERTEX
  5
28D
330
28B
100
AcDbEntity
  8
LAYER_1
 62
   250
100
AcDbVertex
100
AcDb2dVertex
 10
24.20546148802189
 20
-91.50739964112455
 30
0.0
  0
SEQEND
  5
28E
330
28B
100
AcDbEntity
  8
LAYER_1
 62
   250
  0
POLYLINE
  5
28F
330
1CF
100
AcDbEntity
  8
LAYER_1
 62
   250
100
AcDb2dPolyline
 66
     1
 10
0.0
 20
0.0
 30
0.0
  0
VERTEX
  5
290
330
28F
100
AcDbEntity
  8
LAYER_1
 62
   250
100
AcDbVertex
100
AcDb2dVertex
 10
24.20546148802189
 20
-91.50739964112455
 30
0.0
  0
VERTEX
  5
291
330
28F
100
AcDbEntity
  8
LAYER_1
 62
   250
100
AcDbVertex
100
AcDb2dVertex
 10
24.20546148840305
 20
-99.97783976182325
 30
0.0
  0
SEQEND
  5
292
330
28F
100
AcDbEntity
  8
LAYER_1
 62
   250
  0
POLYLINE
  5
293
330
1CF
100
AcDbEntity
  8
LAYER_1
 62
   250
100
AcDb2dPolyline
 66
     1
 10
0.0
 20
0.0
 30
0.0
  0
VERTEX
  5
294
330
293
100
AcDbEntity
  8
LAYER_1
 62
   250
100
AcDbVertex
100
AcDb2dVertex
 10
27.3804614876093
 20
-99.97783976168078
 30
0.0
  0
VERTEX
  5
295
330
293
100
AcDbEntity
  8
LAYER_1
 62
   250
100
AcDbVertex
100
AcDb2dVertex
 10
24.20546148840305
 20
-99.97783976182325
 30
0.0
  0
SEQEND
  5
296
330
293
100
AcDbEntity
  8
LAYER_1
 62
   250
  0
POLYLINE
  5
297
330
1CF
100
AcDbEntity
  8
LAYER_1
 62
   250
100
AcDb2dPolyline
 66
     1
 10
0.0
 20
0.0
 30
0.0
  0
VERTEX
  5
298
330
297
100
AcDbEntity
  8
LAYER_1
 62
   250
100
AcDbVertex
100
AcDb2dVertex
 10
27.3804614876093
 20
-99.97783976168078
 30
0.0
  0
VERTEX
  5
299
330
297
100
AcDbEntity
  8
LAYER_1
 62
   250
100
AcDbVertex
100
AcDb2dVertex
 10
27.38046148798919
 20
-108.4482798823795
 30
0.0
  0
SEQEND
  5
29A
330
297
100
AcDbEntity
  8
LAYER_1
 62
   250
  0
POLYLINE
  5
29B
330
1CF
100
AcDbEntity
  8
LAYER_1
 62
   250
100
AcDb2dPolyline
 66
     1
 10
0.0
 20
0.0
 30
0.0
  0
VERTEX
  5
29C
330
29B
100
AcDbEntity
  8
LAYER_1
 62
   250
100
AcDbVertex
100
AcDb2dVertex
 10
27.38046148798919
 20
-108.4482798823795
 30
0.0
  0
VERTEX
  5
29D
330
29B
100
AcDbEntity
  8
LAYER_1
 62
   250
100
AcDbVertex
100
AcDb2dVertex
 10
24.20546148878294
 20
-108.4482798825219
 30
0.0
  0
SEQEND
  5
29E
330
29B
100
AcDbEntity
  8
LAYER_1
 62
   250
  0
POLYLINE
  5
29F
330
1CF
100
AcDbEntity
  8
LAYER_1
 62
   250
100
AcDb2dPolyline
 66
     1
 10
0.0
 20
0.0
 30
0.0
  0
VERTEX
  5
2A0
330
29F
100
AcDbEntity
  8
LAYER_1
 62
   250
100
AcDbVertex
100
AcDb2dVertex
 10
24.20546148878294
 20
-108.4482798825219
 30
0.0
  0
VERTEX
  5
2A1
330
29F
100
AcDbEntity
  8
LAYER_1
 62
   250
100
AcDbVertex
100
AcDb2dVertex
 10
24.20546148916283
 20
-116.9187576839525
 30
0.0
  0
SEQEND
  5
2A2
330
29F
100
AcDbEntity
  8
LAYER_1
 62
   250
  0
POLYLINE
  5
2A3
330
1CF
100
AcDbEntity
  8
LAYER_1
 62
   250
100
AcDb2dPolyline
 66
     1
 10
0.0
 20
0.0
 30
0.0
  0
VERTEX
  5
2A4
330
2A3
100
AcDbEntity
  8
LAYER_1
 62
   250
100
AcDbVertex
100
AcDb2dVertex
 10
-22.13066666876049
 20
-23.74375217801559
 30
0.0
  0
VERTEX
  5
2A5
330
2A3
100
AcDbEntity
  8
LAYER_1
 62
   250
100
AcDbVertex
100
AcDb2dVertex
 10
-13.34734189949907
 20
-23.74375217762223
 30
0.0
  0
SEQEND
  5
2A6
330
2A3
100
AcDbEntity
  8
LAYER_1
 62
   250
  0
POLYLINE
  5
2A7
330
1CF
100
AcDbEntity
  8
LAYER_1
 62
   250
100
AcDb2dPolyline
 66
     1
 10
0.0
 20
0.0
 30
0.0
  0
VERTEX
  5
2A8
330
2A7
100
AcDbEntity
  8
LAYER_1
 62
   250
100
AcDbVertex
100
AcDb2dVertex
 10
-13.34734189935694
 20
-26.91875217682848
 30
0.0
  0
VERTEX
  5
2A9
330
2A7
100
AcDbEntity
  8
LAYER_1
 62
   250
100
AcDbVertex
100
AcDb2dVertex
 10
-13.34734189949907
 20
-23.74375217762223
 30
0.0
  0
SEQEND
  5
2AA
330
2A7
100
AcDbEntity
  8
LAYER_1
 62
   250
  0
POLYLINE
  5
2AB
330
1CF
100
AcDbEntity
  8
LAYER_1
 62
   250
100
AcDb2dPolyline
 66
     1
 10
0.0
 20
0.0
 30
0.0
  0
VERTEX
  5
2AC
330
2AB
100
AcDbEntity
  8
LAYER_1
 62
   250
100
AcDbVertex
100
AcDb2dVertex
 10
-13.34734189935694
 20
-26.91875217682848
 30
0.0
  0
VERTEX
  5
2AD
330
2AB
100
AcDbEntity
  8
LAYER_1
 62
   250
100
AcDbVertex
100
AcDb2dVertex
 10
-4.563995598248736
 20
-26.9187521764348
 30
0.0
  0
SEQEND
  5
2AE
330
2AB
100
AcDbEntity
  8
LAYER_1
 62
   250
  0
POLYLINE
  5
2AF
330
1CF
100
AcDbEntity
  8
LAYER_1
 62
   250
100
AcDb2dPolyline
 66
     1
 10
0.0
 20
0.0
 30
0.0
  0
VERTEX
  5
2B0
330
2AF
100
AcDbEntity
  8
LAYER_1
 62
   250
100
AcDbVertex
100
AcDb2dVertex
 10
-4.563995598248736
 20
-26.9187521764348
 30
0.0
  0
VERTEX
  5
2B1
330
2AF
100
AcDbEntity
  8
LAYER_1
 62
   250
100
AcDbVertex
100
AcDb2dVertex
 10
-4.563995598390873
 20
-23.74375217722855
 30
0.0
  0
SEQEND
  5
2B2
330
2AF
100
AcDbEntity
  8
LAYER_1
 62
   250
  0
POLYLINE
  5
2B3
330
1CF
100
AcDbEntity
  8
LAYER_1
 62
   250
100
AcDb2dPolyline
 66
     1
 10
0.0
 20
0.0
 30
0.0
  0
VERTEX
  5
2B4
330
2B3
100
AcDbEntity
  8
LAYER_1
 62
   250
100
AcDbVertex
100
AcDb2dVertex
 10
-4.563995598390873
 20
-23.74375217722855
 30
0.0
  0
VERTEX
  5
2B5
330
2B3
100
AcDbEntity
  8
LAYER_1
 62
   250
100
AcDbVertex
100
AcDb2dVertex
 10
1.044329171664295
 20
-23.74375217697604
 30
0.0
  0
SEQEND
  5
2B6
330
2B3
100
AcDbEntity
  8
LAYER_1
 62
   250
  0
POLYLINE
  5
2B7
330
1CF
100
AcDbEntity
  8
LAYER_1
 62
   250
100
AcDb2dPolyline
 66
     1
 10
0.0
 20
0.0
 30
0.0
  0
VERTEX
  5
2B8
330
2B7
100
AcDbEntity
  8
LAYER_1
 62
   250
100
AcDbVertex
100
AcDb2dVertex
 10
-22.13066666457789
 20
-116.918738845667
 30
0.0
  0
VERTEX
  5
2B9
330
2B7
100
AcDbEntity
  8
LAYER_1
 62
   250
100
AcDbVertex
100
AcDb2dVertex
 10
-13.34734189531648
 20
-116.9187388452736
 30
0.0
  0
SEQEND
  5
2BA
330
2B7
100
AcDbEntity
  8
LAYER_1
 62
   250
  0
POLYLINE
  5
2BB
330
1CF
100
AcDbEntity
  8
LAYER_1
 62
   250
100
AcDb2dPolyline
 66
     1
 10
0.0
 20
0.0
 30
0.0
  0
VERTEX
  5
2BC
330
2BB
100
AcDbEntity
  8
LAYER_1
 62
   250
100
AcDbVertex
100
AcDb2dVertex
 10
-13.34734189531648
 20
-116.9187388452736
 30
0.0
  0
VERTEX
  5
2BD
330
2BB
100
AcDbEntity
  8
LAYER_1
 62
   250
100
AcDbVertex
100
AcDb2dVertex
 10
-13.34734189545894
 20
-113.7437388460673
 30
0.0
  0
SEQEND
  5
2BE
330
2BB
100
AcDbEntity
  8
LAYER_1
 62
   250
  0
POLYLINE
  5
2BF
330
1CF
100
AcDbEntity
  8
LAYER_1
 62
   250
100
AcDb2dPolyline
 66
     1
 10
0.0
 20
0.0
 30
0.0
  0
VERTEX
  5
2C0
330
2BF
100
AcDbEntity
  8
LAYER_1
 62
   250
100
AcDbVertex
100
AcDb2dVertex
 10
-13.34734189545894
 20
-113.7437388460673
 30
0.0
  0
VERTEX
  5
2C1
330
2BF
100
AcDbEntity
  8
LAYER_1
 62
   250
100
AcDbVertex
100
AcDb2dVertex
 10
-4.563995594350735
 20
-113.7437388456733
 30
0.0
  0
SEQEND
  5
2C2
330
2BF
100
AcDbEntity
  8
LAYER_1
 62
   250
  0
POLYLINE
  5
2C3
330
1CF
100
AcDbEntity
  8
LAYER_1
 62
   250
100
AcDb2dPolyline
 66
     1
 10
0.0
 20
0.0
 30
0.0
  0
VERTEX
  5
2C4
330
2C3
100
AcDbEntity
  8
LAYER_1
 62
   250
100
AcDbVertex
100
AcDb2dVertex
 10
-4.563995594208278
 20
-116.9187388448796
 30
0.0
  0
VERTEX
  5
2C5
330
2C3
100
AcDbEntity
  8
LAYER_1
 62
   250
100
AcDbVertex
100
AcDb2dVertex
 10
-4.563995594350735
 20
-113.7437388456733
 30
0.0
  0
SEQEND
  5
2C6
330
2C3
100
AcDbEntity
  8
LAYER_1
 62
   250
  0
POLYLINE
  5
2C7
330
1CF
100
AcDbEntity
  8
LAYER_1
 62
   250
100
AcDb2dPolyline
 66
     1
 10
0.0
 20
0.0
 30
0.0
  0
VERTEX
  5
2C8
330
2C7
100
AcDbEntity
  8
LAYER_1
 62
   250
100
AcDbVertex
100
AcDb2dVertex
 10
-4.563995594208278
 20
-116.9187388448796
 30
0.0
  0
VERTEX
  5
2C9
330
2C7
100
AcDbEntity
  8
LAYER_1
 62
   250
100
AcDbVertex
100
AcDb2dVertex
 10
1.044329175846889
 20
-116.9187388446271
 30
0.0
  0
SEQEND
  5
2CA
330
2C7
100
AcDbEntity
  8
LAYER_1
 62
   250
  0
POLYLINE
  5
2CB
330
1CF
100
AcDbEntity
  8
LAYER_1
 62
   250
100
AcDb2dPolyline
 66
     1
 10
0.0
 20
0.0
 30
0.0
  0
VERTEX
  5
2CC
330
2CB
100
AcDbEntity
  8
LAYER_1
 62
   250
100
AcDbVertex
100
AcDb2dVertex
 10
-22.13066666876049
 20
-23.74375217801559
 30
0.0
  0
VERTEX
  5
2CD
330
2CB
100
AcDbEntity
  8
LAYER_1
 62
   250
100
AcDbVertex
100
AcDb2dVertex
 10
-22.13066666838061
 20
-32.21422997944647
 30
0.0
  0
SEQEND
  5
2CE
330
2CB
100
AcDbEntity
  8
LAYER_1
 62
   250
  0
POLYLINE
  5
2CF
330
1CF
100
AcDbEntity
  8
LAYER_1
 62
   250
100
AcDb2dPolyline
 66
     1
 10
0.0
 20
0.0
 30
0.0
  0
VERTEX
  5
2D0
330
2CF
100
AcDbEntity
  8
LAYER_1
 62
   250
100
AcDbVertex
100
AcDb2dVertex
 10
-18.95566666917436
 20
-32.21422997930433
 30
0.0
  0
VERTEX
  5
2D1
330
2CF
100
AcDbEntity
  8
LAYER_1
 62
   250
100
AcDbVertex
100
AcDb2dVertex
 10
-22.13066666838061
 20
-32.21422997944647
 30
0.0
  0
SEQEND
  5
2D2
330
2CF
100
AcDbEntity
  8
LAYER_1
 62
   250
  0
POLYLINE
  5
2D3
330
1CF
100
AcDbEntity
  8
LAYER_1
 62
   250
100
AcDb2dPolyline
 66
     1
 10
0.0
 20
0.0
 30
0.0
  0
VERTEX
  5
2D4
330
2D3
100
AcDbEntity
  8
LAYER_1
 62
   250
100
AcDbVertex
100
AcDb2dVertex
 10
-18.95566666917436
 20
-32.21422997930433
 30
0.0
  0
VERTEX
  5
2D5
330
2D3
100
AcDbEntity
  8
LAYER_1
 62
   250
100
AcDbVertex
100
AcDb2dVertex
 10
-18.95566666879479
 20
-40.68466471704133
 30
0.0
  0
SEQEND
  5
2D6
330
2D3
100
AcDbEntity
  8
LAYER_1
 62
   250
  0
POLYLINE
  5
2D7
330
1CF
100
AcDbEntity
  8
LAYER_1
 62
   250
100
AcDb2dPolyline
 66
     1
 10
0.0
 20
0.0
 30
0.0
  0
VERTEX
  5
2D8
330
2D7
100
AcDbEntity
  8
LAYER_1
 62
   250
100
AcDbVertex
100
AcDb2dVertex
 10
-18.95566666879479
 20
-40.68466471704133
 30
0.0
  0
VERTEX
  5
2D9
330
2D7
100
AcDbEntity
  8
LAYER_1
 62
   250
100
AcDbVertex
100
AcDb2dVertex
 10
-22.13066666800104
 20
-40.68466471718314
 30
0.0
  0
SEQEND
  5
2DA
330
2D7
100
AcDbEntity
  8
LAYER_1
 62
   250
  0
POLYLINE
  5
2DB
330
1CF
100
AcDbEntity
  8
LAYER_1
 62
   250
100
AcDb2dPolyline
 66
     1
 10
0.0
 20
0.0
 30
0.0
  0
VERTEX
  5
2DC
330
2DB
100
AcDbEntity
  8
LAYER_1
 62
   250
100
AcDbVertex
100
AcDb2dVertex
 10
-22.13066666800104
 20
-40.68466471718314
 30
0.0
  0
VERTEX
  5
2DD
330
2DB
100
AcDbEntity
  8
LAYER_1
 62
   250
100
AcDbVertex
100
AcDb2dVertex
 10
-22.13066666762019
 20
-49.15511022084385
 30
0.0
  0
SEQEND
  5
2DE
330
2DB
100
AcDbEntity
  8
LAYER_1
 62
   250
  0
POLYLINE
  5
2DF
330
1CF
100
AcDbEntity
  8
LAYER_1
 62
   250
100
AcDb2dPolyline
 66
     1
 10
0.0
 20
0.0
 30
0.0
  0
VERTEX
  5
2E0
330
2DF
100
AcDbEntity
  8
LAYER_1
 62
   250
100
AcDbVertex
100
AcDb2dVertex
 10
-18.95566666841394
 20
-49.15511022070139
 30
0.0
  0
VERTEX
  5
2E1
330
2DF
100
AcDbEntity
  8
LAYER_1
 62
   250
100
AcDbVertex
100
AcDb2dVertex
 10
-22.13066666762019
 20
-49.15511022084385
 30
0.0
  0
SEQEND
  5
2E2
330
2DF
100
AcDbEntity
  8
LAYER_1
 62
   250
  0
POLYLINE
  5
2E3
330
1CF
100
AcDbEntity
  8
LAYER_1
 62
   250
100
AcDb2dPolyline
 66
     1
 10
0.0
 20
0.0
 30
0.0
  0
VERTEX
  5
2E4
330
2E3
100
AcDbEntity
  8
LAYER_1
 62
   250
100
AcDbVertex
100
AcDb2dVertex
 10
-18.95566666841394
 20
-49.15511022070139
 30
0.0
  0
VERTEX
  5
2E5
330
2E3
100
AcDbEntity
  8
LAYER_1
 62
   250
100
AcDbVertex
100
AcDb2dVertex
 10
-18.95566666803341
 20
-57.62558802213227
 30
0.0
  0
SEQEND
  5
2E6
330
2E3
100
AcDbEntity
  8
LAYER_1
 62
   250
  0
POLYLINE
  5
2E7
330
1CF
100
AcDbEntity
  8
LAYER_1
 62
   250
100
AcDb2dPolyline
 66
     1
 10
0.0
 20
0.0
 30
0.0
  0
VERTEX
  5
2E8
330
2E7
100
AcDbEntity
  8
LAYER_1
 62
   250
100
AcDbVertex
100
AcDb2dVertex
 10
-18.95566666803341
 20
-57.62558802213227
 30
0.0
  0
VERTEX
  5
2E9
330
2E7
100
AcDbEntity
  8
LAYER_1
 62
   250
100
AcDbVertex
100
AcDb2dVertex
 10
-22.13066666723966
 20
-57.62558802227441
 30
0.0
  0
SEQEND
  5
2EA
330
2E7
100
AcDbEntity
  8
LAYER_1
 62
   250
  0
POLYLINE
  5
2EB
330
1CF
100
AcDbEntity
  8
LAYER_1
 62
   250
100
AcDb2dPolyline
 66
     1
 10
0.0
 20
0.0
 30
0.0
  0
VERTEX
  5
2EC
330
2EB
100
AcDbEntity
  8
LAYER_1
 62
   250
100
AcDbVertex
100
AcDb2dVertex
 10
-22.13066666723966
 20
-57.62558802227441
 30
0.0
  0
VERTEX
  5
2ED
330
2EB
100
AcDbEntity
  8
LAYER_1
 62
   250
100
AcDbVertex
100
AcDb2dVertex
 10
-22.13066666685946
 20
-66.0960227600114
 30
0.0
  0
SEQEND
  5
2EE
330
2EB
100
AcDbEntity
  8
LAYER_1
 62
   250
  0
POLYLINE
  5
2EF
330
1CF
100
AcDbEntity
  8
LAYER_1
 62
   250
100
AcDb2dPolyline
 66
     1
 10
0.0
 20
0.0
 30
0.0
  0
VERTEX
  5
2F0
330
2EF
100
AcDbEntity
  8
LAYER_1
 62
   250
100
AcDbVertex
100
AcDb2dVertex
 10
-18.95566666765321
 20
-66.09602275986894
 30
0.0
  0
VERTEX
  5
2F1
330
2EF
100
AcDbEntity
  8
LAYER_1
 62
   250
100
AcDbVertex
100
AcDb2dVertex
 10
-22.13066666685946
 20
-66.0960227600114
 30
0.0
  0
SEQEND
  5
2F2
330
2EF
100
AcDbEntity
  8
LAYER_1
 62
   250
  0
POLYLINE
  5
2F3
330
1CF
100
AcDbEntity
  8
LAYER_1
 62
   250
100
AcDb2dPolyline
 66
     1
 10
0.0
 20
0.0
 30
0.0
  0
VERTEX
  5
2F4
330
2F3
100
AcDbEntity
  8
LAYER_1
 62
   250
100
AcDbVertex
100
AcDb2dVertex
 10
-18.95566666765321
 20
-66.09602275986894
 30
0.0
  0
VERTEX
  5
2F5
330
2F3
100
AcDbEntity
  8
LAYER_1
 62
   250
100
AcDbVertex
100
AcDb2dVertex
 10
-18.955666667273
 20
-74.56646826352964
 30
0.0
  0
SEQEND
  5
2F6
330
2F3
100
AcDbEntity
  8
LAYER_1
 62
   250
  0
POLYLINE
  5
2F7
330
1CF
100
AcDbEntity
  8
LAYER_1
 62
   250
100
AcDb2dPolyline
 66
     1
 10
0.0
 20
0.0
 30
0.0
  0
VERTEX
  5
2F8
330
2F7
100
AcDbEntity
  8
LAYER_1
 62
   250
100
AcDbVertex
100
AcDb2dVertex
 10
-18.955666667273
 20
-74.56646826352964
 30
0.0
  0
VERTEX
  5
2F9
330
2F7
100
AcDbEntity
  8
LAYER_1
 62
   250
100
AcDbVertex
100
AcDb2dVertex
 10
-22.13066666647925
 20
-74.56646826367178
 30
0.0
  0
SEQEND
  5
2FA
330
2F7
100
AcDbEntity
  8
LAYER_1
 62
   250
  0
POLYLINE
  5
2FB
330
1CF
100
AcDbEntity
  8
LAYER_1
 62
   250
100
AcDb2dPolyline
 66
     1
 10
0.0
 20
0.0
 30
0.0
  0
VERTEX
  5
2FC
330
2FB
100
AcDbEntity
  8
LAYER_1
 62
   250
100
AcDbVertex
100
AcDb2dVertex
 10
-22.13066666647925
 20
-74.56646826367178
 30
0.0
  0
VERTEX
  5
2FD
330
2FB
100
AcDbEntity
  8
LAYER_1
 62
   250
100
AcDbVertex
100
AcDb2dVertex
 10
-22.13066666609904
 20
-83.03694606510265
 30
0.0
  0
SEQEND
  5
2FE
330
2FB
100
AcDbEntity
  8
LAYER_1
 62
   250
  0
POLYLINE
  5
2FF
330
1CF
100
AcDbEntity
  8
LAYER_1
 62
   250
100
AcDb2dPolyline
 66
     1
 10
0.0
 20
0.0
 30
0.0
  0
VERTEX
  5
300
330
2FF
100
AcDbEntity
  8
LAYER_1
 62
   250
100
AcDbVertex
100
AcDb2dVertex
 10
-18.95566666689279
 20
-83.0369460649602
 30
0.0
  0
VERTEX
  5
301
330
2FF
100
AcDbEntity
  8
LAYER_1
 62
   250
100
AcDbVertex
100
AcDb2dVertex
 10
-22.13066666609904
 20
-83.03694606510265
 30
0.0
  0
SEQEND
  5
302
330
2FF
100
AcDbEntity
  8
LAYER_1
 62
   250
  0
POLYLINE
  5
303
330
1CF
100
AcDbEntity
  8
LAYER_1
 62
   250
100
AcDb2dPolyline
 66
     1
 10
0.0
 20
0.0
 30
0.0
  0
VERTEX
  5
304
330
303
100
AcDbEntity
  8
LAYER_1
 62
   250
100
AcDbVertex
100
AcDb2dVertex
 10
-18.95566666689279
 20
-83.0369460649602
 30
0.0
  0
VERTEX
  5
305
330
303
100
AcDbEntity
  8
LAYER_1
 62
   250
100
AcDbVertex
100
AcDb2dVertex
 10
-18.95566666651226
 20
-91.50739156862026
 30
0.0
  0
SEQEND
  5
306
330
303
100
AcDbEntity
  8
LAYER_1
 62
   250
  0
POLYLINE
  5
307
330
1CF
100
AcDbEntity
  8
LAYER_1
 62
   250
100
AcDb2dPolyline
 66
     1
 10
0.0
 20
0.0
 30
0.0
  0
VERTEX
  5
308
330
307
100
AcDbEntity
  8
LAYER_1
 62
   250
100
AcDbVertex
100
AcDb2dVertex
 10
-18.95566666651226
 20
-91.50739156862026
 30
0.0
  0
VERTEX
  5
309
330
307
100
AcDbEntity
  8
LAYER_1
 62
   250
100
AcDbVertex
100
AcDb2dVertex
 10
-22.13066666571851
 20
-91.50739156876207
 30
0.0
  0
SEQEND
  5
30A
330
307
100
AcDbEntity
  8
LAYER_1
 62
   250
  0
POLYLINE
  5
30B
330
1CF
100
AcDbEntity
  8
LAYER_1
 62
   250
100
AcDb2dPolyline
 66
     1
 10
0.0
 20
0.0
 30
0.0
  0
VERTEX
  5
30C
330
30B
100
AcDbEntity
  8
LAYER_1
 62
   250
100
AcDbVertex
100
AcDb2dVertex
 10
-22.13066666571851
 20
-91.50739156876207
 30
0.0
  0
VERTEX
  5
30D
330
30B
100
AcDbEntity
  8
LAYER_1
 62
   250
100
AcDbVertex
100
AcDb2dVertex
 10
-22.13066666533767
 20
-99.97786937019296
 30
0.0
  0
SEQEND
  5
30E
330
30B
100
AcDbEntity
  8
LAYER_1
 62
   250
  0
POLYLINE
  5
30F
330
1CF
100
AcDbEntity
  8
LAYER_1
 62
   250
100
AcDb2dPolyline
 66
     1
 10
0.0
 20
0.0
 30
0.0
  0
VERTEX
  5
310
330
30F
100
AcDbEntity
  8
LAYER_1
 62
   250
100
AcDbVertex
100
AcDb2dVertex
 10
-18.95566666613142
 20
-99.97786937005114
 30
0.0
  0
VERTEX
  5
311
330
30F
100
AcDbEntity
  8
LAYER_1
 62
   250
100
AcDbVertex
100
AcDb2dVertex
 10
-22.13066666533767
 20
-99.97786937019296
 30
0.0
  0
SEQEND
  5
312
330
30F
100
AcDbEntity
  8
LAYER_1
 62
   250
  0
POLYLINE
  5
313
330
1CF
100
AcDbEntity
  8
LAYER_1
 62
   250
100
AcDb2dPolyline
 66
     1
 10
0.0
 20
0.0
 30
0.0
  0
VERTEX
  5
314
330
313
100
AcDbEntity
  8
LAYER_1
 62
   250
100
AcDbVertex
100
AcDb2dVertex
 10
-18.95566666613142
 20
-99.97786937005114
 30
0.0
  0
VERTEX
  5
315
330
313
100
AcDbEntity
  8
LAYER_1
 62
   250
100
AcDbVertex
100
AcDb2dVertex
 10
-18.95566666575185
 20
-108.4483041077878
 30
0.0
  0
SEQEND
  5
316
330
313
100
AcDbEntity
  8
LAYER_1
 62
   250
  0
POLYLINE
  5
317
330
1CF
100
AcDbEntity
  8
LAYER_1
 62
   250
100
AcDb2dPolyline
 66
     1
 10
0.0
 20
0.0
 30
0.0
  0
VERTEX
  5
318
330
317
100
AcDbEntity
  8
LAYER_1
 62
   250
100
AcDbVertex
100
AcDb2dVertex
 10
-18.95566666575185
 20
-108.4483041077878
 30
0.0
  0
VERTEX
  5
319
330
317
100
AcDbEntity
  8
LAYER_1
 62
   250
100
AcDbVertex
100
AcDb2dVertex
 10
-22.1306666649581
 20
-108.4483041079296
 30
0.0
  0
SEQEND
  5
31A
330
317
100
AcDbEntity
  8
LAYER_1
 62
   250
  0
POLYLINE
  5
31B
330
1CF
100
AcDbEntity
  8
LAYER_1
 62
   250
100
AcDb2dPolyline
 66
     1
 10
0.0
 20
0.0
 30
0.0
  0
VERTEX
  5
31C
330
31B
100
AcDbEntity
  8
LAYER_1
 62
   250
100
AcDbVertex
100
AcDb2dVertex
 10
-22.1306666649581
 20
-108.4483041079296
 30
0.0
  0
VERTEX
  5
31D
330
31B
100
AcDbEntity
  8
LAYER_1
 62
   250
100
AcDbVertex
100
AcDb2dVertex
 10
-22.13066666457789
 20
-116.918738845667
 30
0.0
  0
SEQEND
  5
31E
330
31B
100
AcDbEntity
  8
LAYER_1
 62
   250
  0
SPLINE
  5
31F
330
1CF
100
AcDbEntity
  8
LAYER_1
 62
   250
100
AcDbSpline
210
0.0
220
0.0
230
1.0
 70
    11
 71
     3
 72
    17
 73
    13
 74
     0
 42
0.0000000001
 43
0.0000000001
 12
1.0
 22
0.0
 32
0.0
 13
1.0
 23
0.0
 33
0.0
 40
0.0
 40
0.0
 40
0.0
 40
0.0
 40
1.0
 40
1.0
 40
1.0
 40
2.0
 40
2.0
 40
2.0
 40
3.0
 40
3.0
 40
3.0
 40
4.0
 40
4.0
 40
4.0
 40
4.0
 10
-6.455670291313766
 20
-98.17962219949116
 30
0.0
 10
-6.455670291376332
 20
-96.79891032533634
 30
0.0
 10
-7.574958416645345
 20
-95.67962220016646
 30
0.0
 10
-8.955670290800175
 20
-95.6796222002287
 30
0.0
 10
-10.336382164955
 20
-95.67962220029031
 30
0.0
 10
-11.45567029012584
 20
-96.79891032556029
 30
0.0
 10
-11.45567029006391
 20
-98.17962219971511
 30
0.0
 10
-11.45567029000199
 20
-99.56033407386995
 30
0.0
 10
-10.33638216473105
 20
-100.6796221990405
 30
0.0
 10
-8.95567029057622
 20
-100.6796221989782
 30
0.0
 10
-7.574958416421391
 20
-100.6796221989163
 30
0.0
 10
-6.455670291251842
 20
-99.56033407364599
 30
0.0
 10
-6.455670291313766
 20
-98.17962219949116
 30
0.0
  0
SPLINE
  5
320
330
1CF
100
AcDbEntity
  8
LAYER_1
 62
   250
100
AcDbSpline
210
0.0
220
0.0
230
1.0
 70
    11
 71
     3
 72
    17
 73
    13
 74
     0
 42
0.0000000001
 43
0.0000000001
 12
1.0
 22
0.0
 32
0.0
 13
1.0
 23
0.0
 33
0.0
 40
0.0
 40
0.0
 40
0.0
 40
0.0
 40
1.0
 40
1.0
 40
1.0
 40
2.0
 40
2.0
 40
2.0
 40
3.0
 40
3.0
 40
3.0
 40
4.0
 40
4.0
 40
4.0
 40
4.0
 10
-6.455670292152146
 20
-79.50346485679863
 30
0.0
 10
-6.455670292214069
 20
-78.12275298264349
 30
0.0
 10
-7.574958417485007
 20
-77.00346485747426
 30
0.0
 10
-8.955670291639837
 20
-77.00346485753617
 30
0.0
 10
-10.33638216579467
 20
-77.0034648575981
 30
0.0
 10
-11.45567029096422
 20
-78.1227529828684
 30
0.0
 10
-11.45567029090229
 20
-79.50346485702323
 30
0.0
 10
-11.45567029084037
 20
-80.88417673117806
 30
0.0
 10
-10.33638216557007
 20
-82.00346485634824
 30
0.0
 10
-8.955670291415242
 20
-82.00346485628569
 30
0.0
 10
-7.574958417260413
 20
-82.0034648562244
 30
0.0
 10
-6.455670292090222
 20
-80.88417673095347
 30
0.0
 10
-6.455670292152146
 20
-79.50346485679863
 30
0.0
  0
SPLINE
  5
321
330
1CF
100
AcDbEntity
  8
LAYER_1
 62
   250
100
AcDbSpline
210
0.0
220
0.0
230
1.0
 70
    11
 71
     3
 72
    17
 73
    13
 74
     0
 42
0.0000000001
 43
0.0000000001
 12
1.0
 22
0.0
 32
0.0
 13
1.0
 23
0.0
 33
0.0
 40
0.0
 40
0.0
 40
0.0
 40
0.0
 40
1.0
 40
1.0
 40
1.0
 40
2.0
 40
2.0
 40
2.0
 40
3.0
 40
3.0
 40
3.0
 40
4.0
 40
4.0
 40
4.0
 40
4.0
 10
-6.455670583841257
 20
-58.32732687432004
 30
0.0
 10
-6.455670583903501
 20
-56.94661500016522
 30
0.0
 10
-7.574958709172835
 20
-55.82732687499566
 30
0.0
 10
-8.955670583327665
 20
-55.82732687505759
 30
0.0
 10
-10.33638245748249
 20
-55.82732687511951
 30
0.0
 10
-11.45567058265301
 20
-56.94661500038981
 30
0.0
 10
-11.4556705825914
 20
-58.32732687454464
 30
0.0
 10
-11.45567058252948
 20
-59.70803874869947
 30
0.0
 10
-10.33638245725854
 20
-60.82732687386966
 30
0.0
 10
-8.955670583103712
 20
-60.82732687380742
 30
0.0
 10
-7.574958708948882
 20
-60.82732687374581
 30
0.0
 10
-6.455670583779333
 20
-59.70803874847488
 30
0.0
 10
-6.455670583841257
 20
-58.32732687432004
 30
0.0
  0
SPLINE
  5
322
330
1CF
100
AcDbEntity
  8
LAYER_1
 62
   250
100
AcDbSpline
210
0.0
220
0.0
230
1.0
 70
    11
 71
     3
 72
    17
 73
    13
 74
     0
 42
0.0000000001
 43
0.0000000001
 12
1.0
 22
0.0
 32
0.0
 13
1.0
 23
0.0
 33
0.0
 40
0.0
 40
0.0
 40
0.0
 40
0.0
 40
1.0
 40
1.0
 40
1.0
 40
2.0
 40
2.0
 40
2.0
 40
3.0
 40
3.0
 40
3.0
 40
4.0
 40
4.0
 40
4.0
 40
4.0
 10
16.70546980529495
 20
-89.00739997852244
 30
0.0
 10
16.70546980523271
 20
-87.62668810436762
 30
0.0
 10
15.58618167996273
 20
-86.50739997919678
 30
0.0
 10
14.2054698058079
 20
-86.50739997925935
 30
0.0
 10
12.82475793165307
 20
-86.50739997932128
 30
0.0
 10
11.70546980648256
 20
-87.62668810459157
 30
0.0
 10
11.70546980654416
 20
-89.00739997874639
 30
0.0
 10
11.70546980660641
 20
-90.38811185290123
 30
0.0
 10
12.82475793187767
 20
-91.50739997807175
 30
0.0
 10
14.2054698060325
 20
-91.50739997800949
 30
0.0
 10
15.58618168018732
 20
-91.50739997794724
 30
0.0
 10
16.70546980535655
 20
-90.38811185267727
 30
0.0
 10
16.70546980529495
 20
-89.00739997852244
 30
0.0
  0
SPLINE
  5
323
330
1CF
100
AcDbEntity
  8
LAYER_1
 62
   250
100
AcDbSpline
210
0.0
220
0.0
230
1.0
 70
    11
 71
     3
 72
    17
 73
    13
 74
     0
 42
0.0000000001
 43
0.0000000001
 12
1.0
 22
0.0
 32
0.0
 13
1.0
 23
0.0
 33
0.0
 40
0.0
 40
0.0
 40
0.0
 40
0.0
 40
1.0
 40
1.0
 40
1.0
 40
2.0
 40
2.0
 40
2.0
 40
3.0
 40
3.0
 40
3.0
 40
4.0
 40
4.0
 40
4.0
 40
4.0
 10
16.70546980445561
 20
-70.33124263583024
 30
0.0
 10
16.70546980439401
 20
-68.95053076167541
 30
0.0
 10
15.58618167912403
 20
-67.83124263650457
 30
0.0
 10
14.2054698049692
 20
-67.83124263656714
 30
0.0
 10
12.82475793081373
 20
-67.83124263662906
 30
0.0
 10
11.70546980564322
 20
-68.95053076189936
 30
0.0
 10
11.7054698057061
 20
-70.33124263605418
 30
0.0
 10
11.70546980576771
 20
-71.71195451020901
 30
0.0
 10
12.82475793103832
 20
-72.83124263537921
 30
0.0
 10
14.20546980519315
 20
-72.83124263531728
 30
0.0
 10
15.58618167934798
 20
-72.83124263525536
 30
0.0
 10
16.7054698045185
 20
-71.71195450998506
 30
0.0
 10
16.70546980445561
 20
-70.33124263583024
 30
0.0
  0
SPLINE
  5
324
330
1CF
100
AcDbEntity
  8
LAYER_1
 62
   250
100
AcDbSpline
210
0.0
220
0.0
230
1.0
 70
    11
 71
     3
 72
    17
 73
    13
 74
     0
 42
0.0000000001
 43
0.0000000001
 12
1.0
 22
0.0
 32
0.0
 13
1.0
 23
0.0
 33
0.0
 40
0.0
 40
0.0
 40
0.0
 40
0.0
 40
1.0
 40
1.0
 40
1.0
 40
2.0
 40
2.0
 40
2.0
 40
3.0
 40
3.0
 40
3.0
 40
4.0
 40
4.0
 40
4.0
 40
4.0
 10
16.70546114758584
 20
-49.15510465335164
 30
0.0
 10
16.70546114752295
 20
-47.77439277919682
 30
0.0
 10
15.58617302225426
 20
-46.65510465402598
 30
0.0
 10
14.20546114809943
 20
-46.65510465408855
 30
0.0
 10
12.8247492739446
 20
-46.65510465415047
 30
0.0
 10
11.70546114877409
 20
-47.77439277942077
 30
0.0
 10
11.70546114883698
 20
-49.1551046535756
 30
0.0
 10
11.70546114889858
 20
-50.53581652773043
 30
0.0
 10
12.8247492741692
 20
-51.65510465290062
 30
0.0
 10
14.20546114832403
 20
-51.65510465283869
 30
0.0
 10
15.58617302247886
 20
-51.65510465277677
 30
0.0
 10
16.70546114764809
 20
-50.53581652750648
 30
0.0
 10
16.70546114758584
 20
-49.15510465335164
 30
0.0
  0
ENDBLK
  5
1D2
330
1CF
100
AcDbEntity
  8
0
100
AcDbBlockEnd
  0
ENDSEC
  0
SECTION
  2
ENTITIES
  0
POLYLINE
  5
41
330
1F
100
AcDbEntity
  8
LAYER_1
 62
   250
100
AcDb2dPolyline
 66
     1
 10
0.0
 20
0.0
 30
0.0
  0
VERTEX
  5
42
330
41
100
AcDbEntity
  8
LAYER_1
 62
   250
100
AcDbVertex
100
AcDb2dVertex
 10
-22.08431923147047
 20
-144.3270572545244
 30
0.0
  0
VERTEX
  5
43
330
41
100
AcDbEntity
  8
LAYER_1
 62
   250
100
AcDbVertex
100
AcDb2dVertex
 10
-13.30098840637715
 20
-144.3270572541297
 30
0.0
  0
SEQEND
  5
44
330
41
100
AcDbEntity
  8
LAYER_1
 62
   250
  0
POLYLINE
  5
45
330
1F
100
AcDbEntity
  8
LAYER_1
 62
   250
100
AcDb2dPolyline
 66
     1
 10
0.0
 20
0.0
 30
0.0
  0
VERTEX
  5
46
330
45
100
AcDbEntity
  8
LAYER_1
 62
   250
100
AcDbVertex
100
AcDb2dVertex
 10
-13.30098840623501
 20
-147.502057253336
 30
0.0
  0
VERTEX
  5
47
330
45
100
AcDbEntity
  8
LAYER_1
 62
   250
100
AcDbVertex
100
AcDb2dVertex
 10
-13.30098840637715
 20
-144.3270572541297
 30
0.0
  0
SEQEND
  5
48
330
45
100
AcDbEntity
  8
LAYER_1
 62
   250
  0
POLYLINE
  5
49
330
1F
100
AcDbEntity
  8
LAYER_1
 62
   250
100
AcDb2dPolyline
 66
     1
 10
0.0
 20
0.0
 30
0.0
  0
VERTEX
  5
4A
330
49
100
AcDbEntity
  8
LAYER_1
 62
   250
100
AcDbVertex
100
AcDb2dVertex
 10
-13.30098840623501
 20
-147.502057253336
 30
0.0
  0
VERTEX
  5
4B
330
49
100
AcDbEntity
  8
LAYER_1
 62
   250
100
AcDbVertex
100
AcDb2dVertex
 10
-4.517654216790627
 20
-147.502057252942
 30
0.0
  0
SEQEND
  5
4C
330
49
100
AcDbEntity
  8
LAYER_1
 62
   250
  0
POLYLINE
  5
4D
330
1F
100
AcDbEntity
  8
LAYER_1
 62
   250
100
AcDb2dPolyline
 66
     1
 10
0.0
 20
0.0
 30
0.0
  0
VERTEX
  5
4E
330
4D
100
AcDbEntity
  8
LAYER_1
 62
   250
100
AcDbVertex
100
AcDb2dVertex
 10
-4.517654216790627
 20
-147.502057252942
 30
0.0
  0
VERTEX
  5
4F
330
4D
100
AcDbEntity
  8
LAYER_1
 62
   250
100
AcDbVertex
100
AcDb2dVertex
 10
-4.517654216932763
 20
-144.3270572537357
 30
0.0
  0
SEQEND
  5
50
330
4D
100
AcDbEntity
  8
LAYER_1
 62
   250
  0
POLYLINE
  5
51
330
1F
100
AcDbEntity
  8
LAYER_1
 62
   250
100
AcDb2dPolyline
 66
     1
 10
0.0
 20
0.0
 30
0.0
  0
VERTEX
  5
52
330
51
100
AcDbEntity
  8
LAYER_1
 62
   250
100
AcDbVertex
100
AcDb2dVertex
 10
-4.517654216932763
 20
-144.3270572537357
 30
0.0
  0
VERTEX
  5
53
330
51
100
AcDbEntity
  8
LAYER_1
 62
   250
100
AcDbVertex
100
AcDb2dVertex
 10
1.090678627564948
 20
-144.3270572534842
 30
0.0
  0
SEQEND
  5
54
330
51
100
AcDbEntity
  8
LAYER_1
 62
   250
  0
POLYLINE
  5
55
330
1F
100
AcDbEntity
  8
LAYER_1
 62
   250
100
AcDb2dPolyline
 66
     1
 10
0.0
 20
0.0
 30
0.0
  0
VERTEX
  5
56
330
55
100
AcDbEntity
  8
LAYER_1
 62
   250
100
AcDbVertex
100
AcDb2dVertex
 10
-22.08431922728724
 20
-237.5020439221757
 30
0.0
  0
VERTEX
  5
57
330
55
100
AcDbEntity
  8
LAYER_1
 62
   250
100
AcDbVertex
100
AcDb2dVertex
 10
-13.30098840219327
 20
-237.5020439217817
 30
0.0
  0
SEQEND
  5
58
330
55
100
AcDbEntity
  8
LAYER_1
 62
   250
  0
POLYLINE
  5
59
330
1F
100
AcDbEntity
  8
LAYER_1
 62
   250
100
AcDb2dPolyline
 66
     1
 10
0.0
 20
0.0
 30
0.0
  0
VERTEX
  5
5A
330
59
100
AcDbEntity
  8
LAYER_1
 62
   250
100
AcDbVertex
100
AcDb2dVertex
 10
-13.30098840219327
 20
-237.5020439217817
 30
0.0
  0
VERTEX
  5
5B
330
59
100
AcDbEntity
  8
LAYER_1
 62
   250
100
AcDbVertex
100
AcDb2dVertex
 10
-13.30098840233637
 20
-234.3270439225755
 30
0.0
  0
SEQEND
  5
5C
330
59
100
AcDbEntity
  8
LAYER_1
 62
   250
  0
POLYLINE
  5
5D
330
1F
100
AcDbEntity
  8
LAYER_1
 62
   250
100
AcDb2dPolyline
 66
     1
 10
0.0
 20
0.0
 30
0.0
  0
VERTEX
  5
5E
330
5D
100
AcDbEntity
  8
LAYER_1
 62
   250
100
AcDbVertex
100
AcDb2dVertex
 10
-13.30098840233637
 20
-234.3270439225755
 30
0.0
  0
VERTEX
  5
5F
330
5D
100
AcDbEntity
  8
LAYER_1
 62
   250
100
AcDbVertex
100
AcDb2dVertex
 10
-4.517654212891983
 20
-234.3270439221808
 30
0.0
  0
SEQEND
  5
60
330
5D
100
AcDbEntity
  8
LAYER_1
 62
   250
  0
POLYLINE
  5
61
330
1F
100
AcDbEntity
  8
LAYER_1
 62
   250
100
AcDb2dPolyline
 66
     1
 10
0.0
 20
0.0
 30
0.0
  0
VERTEX
  5
62
330
61
100
AcDbEntity
  8
LAYER_1
 62
   250
100
AcDbVertex
100
AcDb2dVertex
 10
-4.517654212748885
 20
-237.5020439213871
 30
0.0
  0
VERTEX
  5
63
330
61
100
AcDbEntity
  8
LAYER_1
 62
   250
100
AcDbVertex
100
AcDb2dVertex
 10
-4.517654212891983
 20
-234.3270439221808
 30
0.0
  0
SEQEND
  5
64
330
61
100
AcDbEntity
  8
LAYER_1
 62
   250
  0
POLYLINE
  5
65
330
1F
100
AcDbEntity
  8
LAYER_1
 62
   250
100
AcDb2dPolyline
 66
     1
 10
0.0
 20
0.0
 30
0.0
  0
VERTEX
  5
66
330
65
100
AcDbEntity
  8
LAYER_1
 62
   250
100
AcDbVertex
100
AcDb2dVertex
 10
-4.517654212748885
 20
-237.5020439213871
 30
0.0
  0
VERTEX
  5
67
330
65
100
AcDbEntity
  8
LAYER_1
 62
   250
100
AcDbVertex
100
AcDb2dVertex
 10
1.090678631748826
 20
-237.5020439211355
 30
0.0
  0
SEQEND
  5
68
330
65
100
AcDbEntity
  8
LAYER_1
 62
   250
  0
POLYLINE
  5
69
330
1F
100
AcDbEntity
  8
LAYER_1
 62
   250
100
AcDb2dPolyline
 66
     1
 10
0.0
 20
0.0
 30
0.0
  0
VERTEX
  5
6A
330
69
100
AcDbEntity
  8
LAYER_1
 62
   250
100
AcDbVertex
100
AcDb2dVertex
 10
-22.08431923147047
 20
-144.3270572545244
 30
0.0
  0
VERTEX
  5
6B
330
69
100
AcDbEntity
  8
LAYER_1
 62
   250
100
AcDbVertex
100
AcDb2dVertex
 10
-22.08431923108995
 20
-152.7975350559549
 30
0.0
  0
SEQEND
  5
6C
330
69
100
AcDbEntity
  8
LAYER_1
 62
   250
  0
POLYLINE
  5
6D
330
1F
100
AcDbEntity
  8
LAYER_1
 62
   250
100
AcDb2dPolyline
 66
     1
 10
0.0
 20
0.0
 30
0.0
  0
VERTEX
  5
6E
330
6D
100
AcDbEntity
  8
LAYER_1
 62
   250
100
AcDbVertex
100
AcDb2dVertex
 10
-18.90931990475391
 20
-152.7975350558125
 30
0.0
  0
VERTEX
  5
6F
330
6D
100
AcDbEntity
  8
LAYER_1
 62
   250
100
AcDbVertex
100
AcDb2dVertex
 10
-22.08431923108995
 20
-152.7975350559549
 30
0.0
  0
SEQEND
  5
70
330
6D
100
AcDbEntity
  8
LAYER_1
 62
   250
  0
POLYLINE
  5
71
330
1F
100
AcDbEntity
  8
LAYER_1
 62
   250
100
AcDb2dPolyline
 66
     1
 10
0.0
 20
0.0
 30
0.0
  0
VERTEX
  5
72
330
71
100
AcDbEntity
  8
LAYER_1
 62
   250
100
AcDbVertex
100
AcDb2dVertex
 10
-18.90931990475391
 20
-152.7975350558125
 30
0.0
  0
VERTEX
  5
73
330
71
100
AcDbEntity
  8
LAYER_1
 62
   250
100
AcDbVertex
100
AcDb2dVertex
 10
-18.9093199043737
 20
-161.2679697935495
 30
0.0
  0
SEQEND
  5
74
330
71
100
AcDbEntity
  8
LAYER_1
 62
   250
  0
POLYLINE
  5
75
330
1F
100
AcDbEntity
  8
LAYER_1
 62
   250
100
AcDb2dPolyline
 66
     1
 10
0.0
 20
0.0
 30
0.0
  0
VERTEX
  5
76
330
75
100
AcDbEntity
  8
LAYER_1
 62
   250
100
AcDbVertex
100
AcDb2dVertex
 10
-18.9093199043737
 20
-161.2679697935495
 30
0.0
  0
VERTEX
  5
77
330
75
100
AcDbEntity
  8
LAYER_1
 62
   250
100
AcDbVertex
100
AcDb2dVertex
 10
-22.08431923070974
 20
-161.2679697936919
 30
0.0
  0
SEQEND
  5
78
330
75
100
AcDbEntity
  8
LAYER_1
 62
   250
  0
POLYLINE
  5
79
330
1F
100
AcDbEntity
  8
LAYER_1
 62
   250
100
AcDb2dPolyline
 66
     1
 10
0.0
 20
0.0
 30
0.0
  0
VERTEX
  5
7A
330
79
100
AcDbEntity
  8
LAYER_1
 62
   250
100
AcDbVertex
100
AcDb2dVertex
 10
-22.08431923070974
 20
-161.2679697936919
 30
0.0
  0
VERTEX
  5
7B
330
79
100
AcDbEntity
  8
LAYER_1
 62
   250
100
AcDbVertex
100
AcDb2dVertex
 10
-22.08431923032953
 20
-169.7384152973523
 30
0.0
  0
SEQEND
  5
7C
330
79
100
AcDbEntity
  8
LAYER_1
 62
   250
  0
POLYLINE
  5
7D
330
1F
100
AcDbEntity
  8
LAYER_1
 62
   250
100
AcDb2dPolyline
 66
     1
 10
0.0
 20
0.0
 30
0.0
  0
VERTEX
  5
7E
330
7D
100
AcDbEntity
  8
LAYER_1
 62
   250
100
AcDbVertex
100
AcDb2dVertex
 10
-18.9093199039935
 20
-169.7384152972099
 30
0.0
  0
VERTEX
  5
7F
330
7D
100
AcDbEntity
  8
LAYER_1
 62
   250
100
AcDbVertex
100
AcDb2dVertex
 10
-22.08431923032953
 20
-169.7384152973523
 30
0.0
  0
SEQEND
  5
80
330
7D
100
AcDbEntity
  8
LAYER_1
 62
   250
  0
POLYLINE
  5
81
330
1F
100
AcDbEntity
  8
LAYER_1
 62
   250
100
AcDb2dPolyline
 66
     1
 10
0.0
 20
0.0
 30
0.0
  0
VERTEX
  5
82
330
81
100
AcDbEntity
  8
LAYER_1
 62
   250
100
AcDbVertex
100
AcDb2dVertex
 10
-18.9093199039935
 20
-169.7384152972099
 30
0.0
  0
VERTEX
  5
83
330
81
100
AcDbEntity
  8
LAYER_1
 62
   250
100
AcDbVertex
100
AcDb2dVertex
 10
-18.90931990361297
 20
-178.2088930986404
 30
0.0
  0
SEQEND
  5
84
330
81
100
AcDbEntity
  8
LAYER_1
 62
   250
  0
POLYLINE
  5
85
330
1F
100
AcDbEntity
  8
LAYER_1
 62
   250
100
AcDb2dPolyline
 66
     1
 10
0.0
 20
0.0
 30
0.0
  0
VERTEX
  5
86
330
85
100
AcDbEntity
  8
LAYER_1
 62
   250
100
AcDbVertex
100
AcDb2dVertex
 10
-18.90931990361297
 20
-178.2088930986404
 30
0.0
  0
VERTEX
  5
87
330
85
100
AcDbEntity
  8
LAYER_1
 62
   250
100
AcDbVertex
100
AcDb2dVertex
 10
-22.08431922994965
 20
-178.2088930987829
 30
0.0
  0
SEQEND
  5
88
330
85
100
AcDbEntity
  8
LAYER_1
 62
   250
  0
POLYLINE
  5
89
330
1F
100
AcDbEntity
  8
LAYER_1
 62
   250
100
AcDb2dPolyline
 66
     1
 10
0.0
 20
0.0
 30
0.0
  0
VERTEX
  5
8A
330
89
100
AcDbEntity
  8
LAYER_1
 62
   250
100
AcDbVertex
100
AcDb2dVertex
 10
-22.08431922994965
 20
-178.2088930987829
 30
0.0
  0
VERTEX
  5
8B
330
89
100
AcDbEntity
  8
LAYER_1
 62
   250
100
AcDbVertex
100
AcDb2dVertex
 10
-22.0843192295688
 20
-186.6793278365199
 30
0.0
  0
SEQEND
  5
8C
330
89
100
AcDbEntity
  8
LAYER_1
 62
   250
  0
POLYLINE
  5
8D
330
1F
100
AcDbEntity
  8
LAYER_1
 62
   250
100
AcDb2dPolyline
 66
     1
 10
0.0
 20
0.0
 30
0.0
  0
VERTEX
  5
8E
330
8D
100
AcDbEntity
  8
LAYER_1
 62
   250
100
AcDbVertex
100
AcDb2dVertex
 10
-18.90931990323276
 20
-186.6793278363774
 30
0.0
  0
VERTEX
  5
8F
330
8D
100
AcDbEntity
  8
LAYER_1
 62
   250
100
AcDbVertex
100
AcDb2dVertex
 10
-22.0843192295688
 20
-186.6793278365199
 30
0.0
  0
SEQEND
  5
90
330
8D
100
AcDbEntity
  8
LAYER_1
 62
   250
  0
POLYLINE
  5
91
330
1F
100
AcDbEntity
  8
LAYER_1
 62
   250
100
AcDb2dPolyline
 66
     1
 10
0.0
 20
0.0
 30
0.0
  0
VERTEX
  5
92
330
91
100
AcDbEntity
  8
LAYER_1
 62
   250
100
AcDbVertex
100
AcDb2dVertex
 10
-18.90931990323276
 20
-186.6793278363774
 30
0.0
  0
VERTEX
  5
93
330
91
100
AcDbEntity
  8
LAYER_1
 62
   250
100
AcDbVertex
100
AcDb2dVertex
 10
-18.90931990285255
 20
-195.1497733400378
 30
0.0
  0
SEQEND
  5
94
330
91
100
AcDbEntity
  8
LAYER_1
 62
   250
  0
POLYLINE
  5
95
330
1F
100
AcDbEntity
  8
LAYER_1
 62
   250
100
AcDb2dPolyline
 66
     1
 10
0.0
 20
0.0
 30
0.0
  0
VERTEX
  5
96
330
95
100
AcDbEntity
  8
LAYER_1
 62
   250
100
AcDbVertex
100
AcDb2dVertex
 10
-18.90931990285255
 20
-195.1497733400378
 30
0.0
  0
VERTEX
  5
97
330
95
100
AcDbEntity
  8
LAYER_1
 62
   250
100
AcDbVertex
100
AcDb2dVertex
 10
-22.08431922918859
 20
-195.1497733401802
 30
0.0
  0
SEQEND
  5
98
330
95
100
AcDbEntity
  8
LAYER_1
 62
   250
  0
POLYLINE
  5
99
330
1F
100
AcDbEntity
  8
LAYER_1
 62
   250
100
AcDb2dPolyline
 66
     1
 10
0.0
 20
0.0
 30
0.0
  0
VERTEX
  5
9A
330
99
100
AcDbEntity
  8
LAYER_1
 62
   250
100
AcDbVertex
100
AcDb2dVertex
 10
-22.08431922918859
 20
-195.1497733401802
 30
0.0
  0
VERTEX
  5
9B
330
99
100
AcDbEntity
  8
LAYER_1
 62
   250
100
AcDbVertex
100
AcDb2dVertex
 10
-22.08431922880838
 20
-203.6202511416108
 30
0.0
  0
SEQEND
  5
9C
330
99
100
AcDbEntity
  8
LAYER_1
 62
   250
  0
POLYLINE
  5
9D
330
1F
100
AcDbEntity
  8
LAYER_1
 62
   250
100
AcDb2dPolyline
 66
     1
 10
0.0
 20
0.0
 30
0.0
  0
VERTEX
  5
9E
330
9D
100
AcDbEntity
  8
LAYER_1
 62
   250
100
AcDbVertex
100
AcDb2dVertex
 10
-18.90931990247235
 20
-203.6202511414683
 30
0.0
  0
VERTEX
  5
9F
330
9D
100
AcDbEntity
  8
LAYER_1
 62
   250
100
AcDbVertex
100
AcDb2dVertex
 10
-22.08431922880838
 20
-203.6202511416108
 30
0.0
  0
SEQEND
  5
A0
330
9D
100
AcDbEntity
  8
LAYER_1
 62
   250
  0
POLYLINE
  5
A1
330
1F
100
AcDbEntity
  8
LAYER_1
 62
   250
100
AcDb2dPolyline
 66
     1
 10
0.0
 20
0.0
 30
0.0
  0
VERTEX
  5
A2
330
A1
100
AcDbEntity
  8
LAYER_1
 62
   250
100
AcDbVertex
100
AcDb2dVertex
 10
-18.90931990247235
 20
-203.6202511414683
 30
0.0
  0
VERTEX
  5
A3
330
A1
100
AcDbEntity
  8
LAYER_1
 62
   250
100
AcDbVertex
100
AcDb2dVertex
 10
-18.9093199020915
 20
-212.0906966451287
 30
0.0
  0
SEQEND
  5
A4
330
A1
100
AcDbEntity
  8
LAYER_1
 62
   250
  0
POLYLINE
  5
A5
330
1F
100
AcDbEntity
  8
LAYER_1
 62
   250
100
AcDb2dPolyline
 66
     1
 10
0.0
 20
0.0
 30
0.0
  0
VERTEX
  5
A6
330
A5
100
AcDbEntity
  8
LAYER_1
 62
   250
100
AcDbVertex
100
AcDb2dVertex
 10
-18.9093199020915
 20
-212.0906966451287
 30
0.0
  0
VERTEX
  5
A7
330
A5
100
AcDbEntity
  8
LAYER_1
 62
   250
100
AcDbVertex
100
AcDb2dVertex
 10
-22.08431922842754
 20
-212.0906966452712
 30
0.0
  0
SEQEND
  5
A8
330
A5
100
AcDbEntity
  8
LAYER_1
 62
   250
  0
POLYLINE
  5
A9
330
1F
100
AcDbEntity
  8
LAYER_1
 62
   250
100
AcDb2dPolyline
 66
     1
 10
0.0
 20
0.0
 30
0.0
  0
VERTEX
  5
AA
330
A9
100
AcDbEntity
  8
LAYER_1
 62
   250
100
AcDbVertex
100
AcDb2dVertex
 10
-22.08431922842754
 20
-212.0906966452712
 30
0.0
  0
VERTEX
  5
AB
330
A9
100
AcDbEntity
  8
LAYER_1
 62
   250
100
AcDbVertex
100
AcDb2dVertex
 10
-22.08431922804765
 20
-220.5611744467017
 30
0.0
  0
SEQEND
  5
AC
330
A9
100
AcDbEntity
  8
LAYER_1
 62
   250
  0
POLYLINE
  5
AD
330
1F
100
AcDbEntity
  8
LAYER_1
 62
   250
100
AcDb2dPolyline
 66
     1
 10
0.0
 20
0.0
 30
0.0
  0
VERTEX
  5
AE
330
AD
100
AcDbEntity
  8
LAYER_1
 62
   250
100
AcDbVertex
100
AcDb2dVertex
 10
-18.90931990171161
 20
-220.5611744465593
 30
0.0
  0
VERTEX
  5
AF
330
AD
100
AcDbEntity
  8
LAYER_1
 62
   250
100
AcDbVertex
100
AcDb2dVertex
 10
-22.08431922804765
 20
-220.5611744467017
 30
0.0
  0
SEQEND
  5
B0
330
AD
100
AcDbEntity
  8
LAYER_1
 62
   250
  0
POLYLINE
  5
B1
330
1F
100
AcDbEntity
  8
LAYER_1
 62
   250
100
AcDb2dPolyline
 66
     1
 10
0.0
 20
0.0
 30
0.0
  0
VERTEX
  5
B2
330
B1
100
AcDbEntity
  8
LAYER_1
 62
   250
100
AcDbVertex
100
AcDb2dVertex
 10
-18.90931990171161
 20
-220.5611744465593
 30
0.0
  0
VERTEX
  5
B3
330
B1
100
AcDbEntity
  8
LAYER_1
 62
   250
100
AcDbVertex
100
AcDb2dVertex
 10
-18.90931990133205
 20
-229.0316091842963
 30
0.0
  0
SEQEND
  5
B4
330
B1
100
AcDbEntity
  8
LAYER_1
 62
   250
  0
POLYLINE
  5
B5
330
1F
100
AcDbEntity
  8
LAYER_1
 62
   250
100
AcDb2dPolyline
 66
     1
 10
0.0
 20
0.0
 30
0.0
  0
VERTEX
  5
B6
330
B5
100
AcDbEntity
  8
LAYER_1
 62
   250
100
AcDbVertex
100
AcDb2dVertex
 10
-18.90931990133205
 20
-229.0316091842963
 30
0.0
  0
VERTEX
  5
B7
330
B5
100
AcDbEntity
  8
LAYER_1
 62
   250
100
AcDbVertex
100
AcDb2dVertex
 10
-22.08431922766744
 20
-229.0316091844387
 30
0.0
  0
SEQEND
  5
B8
330
B5
100
AcDbEntity
  8
LAYER_1
 62
   250
  0
POLYLINE
  5
B9
330
1F
100
AcDbEntity
  8
LAYER_1
 62
   250
100
AcDb2dPolyline
 66
     1
 10
0.0
 20
0.0
 30
0.0
  0
VERTEX
  5
BA
330
B9
100
AcDbEntity
  8
LAYER_1
 62
   250
100
AcDbVertex
100
AcDb2dVertex
 10
-22.08431922728724
 20
-237.5020439221757
 30
0.0
  0
VERTEX
  5
BB
330
B9
100
AcDbEntity
  8
LAYER_1
 62
   250
100
AcDbVertex
100
AcDb2dVertex
 10
-22.08431922766744
 20
-229.0316091844387
 30
0.0
  0
SEQEND
  5
BC
330
B9
100
AcDbEntity
  8
LAYER_1
 62
   250
  0
POLYLINE
  5
BD
330
1F
100
AcDbEntity
  8
LAYER_1
 62
   250
100
AcDb2dPolyline
 66
     1
 10
0.0
 20
0.0
 30
0.0
  0
VERTEX
  5
BE
330
BD
100
AcDbEntity
  8
LAYER_1
 62
   250
100
AcDbVertex
100
AcDb2dVertex
 10
1.090678627564948
 20
-144.3270572534842
 30
0.0
  0
VERTEX
  5
BF
330
BD
100
AcDbEntity
  8
LAYER_1
 62
   250
100
AcDbVertex
100
AcDb2dVertex
 10
1.090678627945476
 20
-152.7975350549147
 30
0.0
  0
SEQEND
  5
C0
330
BD
100
AcDbEntity
  8
LAYER_1
 62
   250
  0
POLYLINE
  5
C1
330
1F
100
AcDbEntity
  8
LAYER_1
 62
   250
100
AcDb2dPolyline
 66
     1
 10
0.0
 20
0.0
 30
0.0
  0
VERTEX
  5
C2
330
C1
100
AcDbEntity
  8
LAYER_1
 62
   250
100
AcDbVertex
100
AcDb2dVertex
 10
4.265689393075117
 20
-152.797535054771
 30
0.0
  0
VERTEX
  5
C3
330
C1
100
AcDbEntity
  8
LAYER_1
 62
   250
100
AcDbVertex
100
AcDb2dVertex
 10
1.090678627945476
 20
-152.7975350549147
 30
0.0
  0
SEQEND
  5
C4
330
C1
100
AcDbEntity
  8
LAYER_1
 62
   250
  0
POLYLINE
  5
C5
330
1F
100
AcDbEntity
  8
LAYER_1
 62
   250
100
AcDb2dPolyline
 66
     1
 10
0.0
 20
0.0
 30
0.0
  0
VERTEX
  5
C6
330
C5
100
AcDbEntity
  8
LAYER_1
 62
   250
100
AcDbVertex
100
AcDb2dVertex
 10
4.265689393075117
 20
-152.797535054771
 30
0.0
  0
VERTEX
  5
C7
330
C5
100
AcDbEntity
  8
LAYER_1
 62
   250
100
AcDbVertex
100
AcDb2dVertex
 10
4.265689393455645
 20
-161.267969792508
 30
0.0
  0
SEQEND
  5
C8
330
C5
100
AcDbEntity
  8
LAYER_1
 62
   250
  0
POLYLINE
  5
C9
330
1F
100
AcDbEntity
  8
LAYER_1
 62
   250
100
AcDb2dPolyline
 66
     1
 10
0.0
 20
0.0
 30
0.0
  0
VERTEX
  5
CA
330
C9
100
AcDbEntity
  8
LAYER_1
 62
   250
100
AcDbVertex
100
AcDb2dVertex
 10
4.265689393455645
 20
-161.267969792508
 30
0.0
  0
VERTEX
  5
CB
330
C9
100
AcDbEntity
  8
LAYER_1
 62
   250
100
AcDbVertex
100
AcDb2dVertex
 10
1.090678628325682
 20
-161.2679697926517
 30
0.0
  0
SEQEND
  5
CC
330
C9
100
AcDbEntity
  8
LAYER_1
 62
   250
  0
POLYLINE
  5
CD
330
1F
100
AcDbEntity
  8
LAYER_1
 62
   250
100
AcDb2dPolyline
 66
     1
 10
0.0
 20
0.0
 30
0.0
  0
VERTEX
  5
CE
330
CD
100
AcDbEntity
  8
LAYER_1
 62
   250
100
AcDbVertex
100
AcDb2dVertex
 10
1.090678628325682
 20
-161.2679697926517
 30
0.0
  0
VERTEX
  5
CF
330
CD
100
AcDbEntity
  8
LAYER_1
 62
   250
100
AcDbVertex
100
AcDb2dVertex
 10
1.090678628705889
 20
-169.7384152963121
 30
0.0
  0
SEQEND
  5
D0
330
CD
100
AcDbEntity
  8
LAYER_1
 62
   250
  0
POLYLINE
  5
D1
330
1F
100
AcDbEntity
  8
LAYER_1
 62
   250
100
AcDb2dPolyline
 66
     1
 10
0.0
 20
0.0
 30
0.0
  0
VERTEX
  5
D2
330
D1
100
AcDbEntity
  8
LAYER_1
 62
   250
100
AcDbVertex
100
AcDb2dVertex
 10
4.26568939383553
 20
-169.7384152961684
 30
0.0
  0
VERTEX
  5
D3
330
D1
100
AcDbEntity
  8
LAYER_1
 62
   250
100
AcDbVertex
100
AcDb2dVertex
 10
1.090678628705889
 20
-169.7384152963121
 30
0.0
  0
SEQEND
  5
D4
330
D1
100
AcDbEntity
  8
LAYER_1
 62
   250
  0
POLYLINE
  5
D5
330
1F
100
AcDbEntity
  8
LAYER_1
 62
   250
100
AcDb2dPolyline
 66
     1
 10
0.0
 20
0.0
 30
0.0
  0
VERTEX
  5
D6
330
D5
100
AcDbEntity
  8
LAYER_1
 62
   250
100
AcDbVertex
100
AcDb2dVertex
 10
4.26568939383553
 20
-169.7384152961684
 30
0.0
  0
VERTEX
  5
D7
330
D5
100
AcDbEntity
  8
LAYER_1
 62
   250
100
AcDbVertex
100
AcDb2dVertex
 10
4.265689394216058
 20
-178.2088930975989
 30
0.0
  0
SEQEND
  5
D8
330
D5
100
AcDbEntity
  8
LAYER_1
 62
   250
  0
POLYLINE
  5
D9
330
1F
100
AcDbEntity
  8
LAYER_1
 62
   250
100
AcDb2dPolyline
 66
     1
 10
0.0
 20
0.0
 30
0.0
  0
VERTEX
  5
DA
330
D9
100
AcDbEntity
  8
LAYER_1
 62
   250
100
AcDbVertex
100
AcDb2dVertex
 10
4.265689394216058
 20
-178.2088930975989
 30
0.0
  0
VERTEX
  5
DB
330
D9
100
AcDbEntity
  8
LAYER_1
 62
   250
100
AcDbVertex
100
AcDb2dVertex
 10
1.090678629086417
 20
-178.2088930977427
 30
0.0
  0
SEQEND
  5
DC
330
D9
100
AcDbEntity
  8
LAYER_1
 62
   250
  0
POLYLINE
  5
DD
330
1F
100
AcDbEntity
  8
LAYER_1
 62
   250
100
AcDb2dPolyline
 66
     1
 10
0.0
 20
0.0
 30
0.0
  0
VERTEX
  5
DE
330
DD
100
AcDbEntity
  8
LAYER_1
 62
   250
100
AcDbVertex
100
AcDb2dVertex
 10
1.090678629086417
 20
-178.2088930977427
 30
0.0
  0
VERTEX
  5
DF
330
DD
100
AcDbEntity
  8
LAYER_1
 62
   250
100
AcDbVertex
100
AcDb2dVertex
 10
1.090678629466302
 20
-186.6793278354797
 30
0.0
  0
SEQEND
  5
E0
330
DD
100
AcDbEntity
  8
LAYER_1
 62
   250
  0
POLYLINE
  5
E1
330
1F
100
AcDbEntity
  8
LAYER_1
 62
   250
100
AcDb2dPolyline
 66
     1
 10
0.0
 20
0.0
 30
0.0
  0
VERTEX
  5
E2
330
E1
100
AcDbEntity
  8
LAYER_1
 62
   250
100
AcDbVertex
100
AcDb2dVertex
 10
4.265689394596586
 20
-186.6793278353359
 30
0.0
  0
VERTEX
  5
E3
330
E1
100
AcDbEntity
  8
LAYER_1
 62
   250
100
AcDbVertex
100
AcDb2dVertex
 10
1.090678629466302
 20
-186.6793278354797
 30
0.0
  0
SEQEND
  5
E4
330
E1
100
AcDbEntity
  8
LAYER_1
 62
   250
  0
POLYLINE
  5
E5
330
1F
100
AcDbEntity
  8
LAYER_1
 62
   250
100
AcDb2dPolyline
 66
     1
 10
0.0
 20
0.0
 30
0.0
  0
VERTEX
  5
E6
330
E5
100
AcDbEntity
  8
LAYER_1
 62
   250
100
AcDbVertex
100
AcDb2dVertex
 10
4.265689394596586
 20
-186.6793278353359
 30
0.0
  0
VERTEX
  5
E7
330
E5
100
AcDbEntity
  8
LAYER_1
 62
   250
100
AcDbVertex
100
AcDb2dVertex
 10
4.265689394976472
 20
-195.1497733389963
 30
0.0
  0
SEQEND
  5
E8
330
E5
100
AcDbEntity
  8
LAYER_1
 62
   250
  0
POLYLINE
  5
E9
330
1F
100
AcDbEntity
  8
LAYER_1
 62
   250
100
AcDb2dPolyline
 66
     1
 10
0.0
 20
0.0
 30
0.0
  0
VERTEX
  5
EA
330
E9
100
AcDbEntity
  8
LAYER_1
 62
   250
100
AcDbVertex
100
AcDb2dVertex
 10
4.265689394976472
 20
-195.1497733389963
 30
0.0
  0
VERTEX
  5
EB
330
E9
100
AcDbEntity
  8
LAYER_1
 62
   250
100
AcDbVertex
100
AcDb2dVertex
 10
1.09067862984683
 20
-195.14977333914
 30
0.0
  0
SEQEND
  5
EC
330
E9
100
AcDbEntity
  8
LAYER_1
 62
   250
  0
POLYLINE
  5
ED
330
1F
100
AcDbEntity
  8
LAYER_1
 62
   250
100
AcDb2dPolyline
 66
     1
 10
0.0
 20
0.0
 30
0.0
  0
VERTEX
  5
EE
330
ED
100
AcDbEntity
  8
LAYER_1
 62
   250
100
AcDbVertex
100
AcDb2dVertex
 10
1.09067862984683
 20
-195.14977333914
 30
0.0
  0
VERTEX
  5
EF
330
ED
100
AcDbEntity
  8
LAYER_1
 62
   250
100
AcDbVertex
100
AcDb2dVertex
 10
1.090678630227037
 20
-203.6202511405706
 30
0.0
  0
SEQEND
  5
F0
330
ED
100
AcDbEntity
  8
LAYER_1
 62
   250
  0
POLYLINE
  5
F1
330
1F
100
AcDbEntity
  8
LAYER_1
 62
   250
100
AcDb2dPolyline
 66
     1
 10
0.0
 20
0.0
 30
0.0
  0
VERTEX
  5
F2
330
F1
100
AcDbEntity
  8
LAYER_1
 62
   250
100
AcDbVertex
100
AcDb2dVertex
 10
4.265689395356357
 20
-203.6202511404269
 30
0.0
  0
VERTEX
  5
F3
330
F1
100
AcDbEntity
  8
LAYER_1
 62
   250
100
AcDbVertex
100
AcDb2dVertex
 10
1.090678630227037
 20
-203.6202511405706
 30
0.0
  0
SEQEND
  5
F4
330
F1
100
AcDbEntity
  8
LAYER_1
 62
   250
  0
POLYLINE
  5
F5
330
1F
100
AcDbEntity
  8
LAYER_1
 62
   250
100
AcDb2dPolyline
 66
     1
 10
0.0
 20
0.0
 30
0.0
  0
VERTEX
  5
F6
330
F5
100
AcDbEntity
  8
LAYER_1
 62
   250
100
AcDbVertex
100
AcDb2dVertex
 10
4.265689395356357
 20
-203.6202511404269
 30
0.0
  0
VERTEX
  5
F7
330
F5
100
AcDbEntity
  8
LAYER_1
 62
   250
100
AcDbVertex
100
AcDb2dVertex
 10
4.265689395737526
 20
-212.0906966440879
 30
0.0
  0
SEQEND
  5
F8
330
F5
100
AcDbEntity
  8
LAYER_1
 62
   250
  0
POLYLINE
  5
F9
330
1F
100
AcDbEntity
  8
LAYER_1
 62
   250
100
AcDb2dPolyline
 66
     1
 10
0.0
 20
0.0
 30
0.0
  0
VERTEX
  5
FA
330
F9
100
AcDbEntity
  8
LAYER_1
 62
   250
100
AcDbVertex
100
AcDb2dVertex
 10
4.265689395737526
 20
-212.0906966440879
 30
0.0
  0
VERTEX
  5
FB
330
F9
100
AcDbEntity
  8
LAYER_1
 62
   250
100
AcDbVertex
100
AcDb2dVertex
 10
1.090678630607885
 20
-212.090696644231
 30
0.0
  0
SEQEND
  5
FC
330
F9
100
AcDbEntity
  8
LAYER_1
 62
   250
  0
POLYLINE
  5
FD
330
1F
100
AcDbEntity
  8
LAYER_1
 62
   250
100
AcDb2dPolyline
 66
     1
 10
0.0
 20
0.0
 30
0.0
  0
VERTEX
  5
FE
330
FD
100
AcDbEntity
  8
LAYER_1
 62
   250
100
AcDbVertex
100
AcDb2dVertex
 10
1.090678630607885
 20
-212.090696644231
 30
0.0
  0
VERTEX
  5
FF
330
FD
100
AcDbEntity
  8
LAYER_1
 62
   250
100
AcDbVertex
100
AcDb2dVertex
 10
1.090678630987771
 20
-220.5611744456615
 30
0.0
  0
SEQEND
  5
100
330
FD
100
AcDbEntity
  8
LAYER_1
 62
   250
  0
POLYLINE
  5
101
330
1F
100
AcDbEntity
  8
LAYER_1
 62
   250
100
AcDb2dPolyline
 66
     1
 10
0.0
 20
0.0
 30
0.0
  0
VERTEX
  5
102
330
101
100
AcDbEntity
  8
LAYER_1
 62
   250
100
AcDbVertex
100
AcDb2dVertex
 10
4.265689396117413
 20
-220.5611744455184
 30
0.0
  0
VERTEX
  5
103
330
101
100
AcDbEntity
  8
LAYER_1
 62
   250
100
AcDbVertex
100
AcDb2dVertex
 10
1.090678630987771
 20
-220.5611744456615
 30
0.0
  0
SEQEND
  5
104
330
101
100
AcDbEntity
  8
LAYER_1
 62
   250
  0
POLYLINE
  5
105
330
1F
100
AcDbEntity
  8
LAYER_1
 62
   250
100
AcDb2dPolyline
 66
     1
 10
0.0
 20
0.0
 30
0.0
  0
VERTEX
  5
106
330
105
100
AcDbEntity
  8
LAYER_1
 62
   250
100
AcDbVertex
100
AcDb2dVertex
 10
4.265689396117413
 20
-220.5611744455184
 30
0.0
  0
VERTEX
  5
107
330
105
100
AcDbEntity
  8
LAYER_1
 62
   250
100
AcDbVertex
100
AcDb2dVertex
 10
4.265689396497298
 20
-229.0316091832554
 30
0.0
  0
SEQEND
  5
108
330
105
100
AcDbEntity
  8
LAYER_1
 62
   250
  0
POLYLINE
  5
109
330
1F
100
AcDbEntity
  8
LAYER_1
 62
   250
100
AcDb2dPolyline
 66
     1
 10
0.0
 20
0.0
 30
0.0
  0
VERTEX
  5
10A
330
109
100
AcDbEntity
  8
LAYER_1
 62
   250
100
AcDbVertex
100
AcDb2dVertex
 10
4.265689396497298
 20
-229.0316091832554
 30
0.0
  0
VERTEX
  5
10B
330
109
100
AcDbEntity
  8
LAYER_1
 62
   250
100
AcDbVertex
100
AcDb2dVertex
 10
1.090678631367336
 20
-229.0316091833985
 30
0.0
  0
SEQEND
  5
10C
330
109
100
AcDbEntity
  8
LAYER_1
 62
   250
  0
POLYLINE
  5
10D
330
1F
100
AcDbEntity
  8
LAYER_1
 62
   250
100
AcDb2dPolyline
 66
     1
 10
0.0
 20
0.0
 30
0.0
  0
VERTEX
  5
10E
330
10D
100
AcDbEntity
  8
LAYER_1
 62
   250
100
AcDbVertex
100
AcDb2dVertex
 10
1.090678631367336
 20
-229.0316091833985
 30
0.0
  0
VERTEX
  5
10F
330
10D
100
AcDbEntity
  8
LAYER_1
 62
   250
100
AcDbVertex
100
AcDb2dVertex
 10
1.090678631748826
 20
-237.5020439211355
 30
0.0
  0
SEQEND
  5
110
330
10D
100
AcDbEntity
  8
LAYER_1
 62
   250
  0
POLYLINE
  5
111
330
1F
100
AcDbEntity
  8
LAYER_1
 62
   250
100
AcDb2dPolyline
 66
     1
 10
0.0
 20
0.0
 30
0.0
  0
VERTEX
  5
112
330
111
100
AcDbEntity
  8
LAYER_1
 62
   250
100
AcDbVertex
100
AcDb2dVertex
 10
1.075415484718545
 20
-144.3270518705231
 30
0.0
  0
VERTEX
  5
113
330
111
100
AcDbEntity
  8
LAYER_1
 62
   250
100
AcDbVertex
100
AcDb2dVertex
 10
9.858767168788441
 20
-144.3270518701291
 30
0.0
  0
SEQEND
  5
114
330
111
100
AcDbEntity
  8
LAYER_1
 62
   250
  0
POLYLINE
  5
115
330
1F
100
AcDbEntity
  8
LAYER_1
 62
   250
100
AcDb2dPolyline
 66
     1
 10
0.0
 20
0.0
 30
0.0
  0
VERTEX
  5
116
330
115
100
AcDbEntity
  8
LAYER_1
 62
   250
100
AcDbVertex
100
AcDb2dVertex
 10
9.858767168930898
 20
-147.5020518693354
 30
0.0
  0
VERTEX
  5
117
330
115
100
AcDbEntity
  8
LAYER_1
 62
   250
100
AcDbVertex
100
AcDb2dVertex
 10
9.858767168788441
 20
-144.3270518701291
 30
0.0
  0
SEQEND
  5
118
330
115
100
AcDbEntity
  8
LAYER_1
 62
   250
  0
POLYLINE
  5
119
330
1F
100
AcDbEntity
  8
LAYER_1
 62
   250
100
AcDb2dPolyline
 66
     1
 10
0.0
 20
0.0
 30
0.0
  0
VERTEX
  5
11A
330
119
100
AcDbEntity
  8
LAYER_1
 62
   250
100
AcDbVertex
100
AcDb2dVertex
 10
9.858767168930898
 20
-147.5020518693354
 30
0.0
  0
VERTEX
  5
11B
330
119
100
AcDbEntity
  8
LAYER_1
 62
   250
100
AcDbVertex
100
AcDb2dVertex
 10
18.64209193819232
 20
-147.5020518689407
 30
0.0
  0
SEQEND
  5
11C
330
119
100
AcDbEntity
  8
LAYER_1
 62
   250
  0
POLYLINE
  5
11D
330
1F
100
AcDbEntity
  8
LAYER_1
 62
   250
100
AcDb2dPolyline
 66
     1
 10
0.0
 20
0.0
 30
0.0
  0
VERTEX
  5
11E
330
11D
100
AcDbEntity
  8
LAYER_1
 62
   250
100
AcDbVertex
100
AcDb2dVertex
 10
18.64209193819232
 20
-147.5020518689407
 30
0.0
  0
VERTEX
  5
11F
330
11D
100
AcDbEntity
  8
LAYER_1
 62
   250
100
AcDbVertex
100
AcDb2dVertex
 10
18.64209193804986
 20
-144.3270518697345
 30
0.0
  0
SEQEND
  5
120
330
11D
100
AcDbEntity
  8
LAYER_1
 62
   250
  0
POLYLINE
  5
121
330
1F
100
AcDbEntity
  8
LAYER_1
 62
   250
100
AcDb2dPolyline
 66
     1
 10
0.0
 20
0.0
 30
0.0
  0
VERTEX
  5
122
330
121
100
AcDbEntity
  8
LAYER_1
 62
   250
100
AcDbVertex
100
AcDb2dVertex
 10
18.64209193804986
 20
-144.3270518697345
 30
0.0
  0
VERTEX
  5
123
330
121
100
AcDbEntity
  8
LAYER_1
 62
   250
100
AcDbVertex
100
AcDb2dVertex
 10
24.25041132514333
 20
-144.3270518694816
 30
0.0
  0
SEQEND
  5
124
330
121
100
AcDbEntity
  8
LAYER_1
 62
   250
  0
POLYLINE
  5
125
330
1F
100
AcDbEntity
  8
LAYER_1
 62
   250
100
AcDb2dPolyline
 66
     1
 10
0.0
 20
0.0
 30
0.0
  0
VERTEX
  5
126
330
125
100
AcDbEntity
  8
LAYER_1
 62
   250
100
AcDbVertex
100
AcDb2dVertex
 10
1.075415488901139
 20
-237.5020493040979
 30
0.0
  0
VERTEX
  5
127
330
125
100
AcDbEntity
  8
LAYER_1
 62
   250
100
AcDbVertex
100
AcDb2dVertex
 10
9.858767172971035
 20
-237.5020493037039
 30
0.0
  0
SEQEND
  5
128
330
125
100
AcDbEntity
  8
LAYER_1
 62
   250
  0
POLYLINE
  5
129
330
1F
100
AcDbEntity
  8
LAYER_1
 62
   250
100
AcDb2dPolyline
 66
     1
 10
0.0
 20
0.0
 30
0.0
  0
VERTEX
  5
12A
330
129
100
AcDbEntity
  8
LAYER_1
 62
   250
100
AcDbVertex
100
AcDb2dVertex
 10
9.858767172971035
 20
-237.5020493037039
 30
0.0
  0
VERTEX
  5
12B
330
129
100
AcDbEntity
  8
LAYER_1
 62
   250
100
AcDbVertex
100
AcDb2dVertex
 10
9.858767172828578
 20
-234.3270493044976
 30
0.0
  0
SEQEND
  5
12C
330
129
100
AcDbEntity
  8
LAYER_1
 62
   250
  0
POLYLINE
  5
12D
330
1F
100
AcDbEntity
  8
LAYER_1
 62
   250
100
AcDb2dPolyline
 66
     1
 10
0.0
 20
0.0
 30
0.0
  0
VERTEX
  5
12E
330
12D
100
AcDbEntity
  8
LAYER_1
 62
   250
100
AcDbVertex
100
AcDb2dVertex
 10
9.858767172828578
 20
-234.3270493044976
 30
0.0
  0
VERTEX
  5
12F
330
12D
100
AcDbEntity
  8
LAYER_1
 62
   250
100
AcDbVertex
100
AcDb2dVertex
 10
18.64209194208999
 20
-234.327049304103
 30
0.0
  0
SEQEND
  5
130
330
12D
100
AcDbEntity
  8
LAYER_1
 62
   250
  0
POLYLINE
  5
131
330
1F
100
AcDbEntity
  8
LAYER_1
 62
   250
100
AcDb2dPolyline
 66
     1
 10
0.0
 20
0.0
 30
0.0
  0
VERTEX
  5
132
330
131
100
AcDbEntity
  8
LAYER_1
 62
   250
100
AcDbVertex
100
AcDb2dVertex
 10
18.64209194223245
 20
-237.5020493033092
 30
0.0
  0
VERTEX
  5
133
330
131
100
AcDbEntity
  8
LAYER_1
 62
   250
100
AcDbVertex
100
AcDb2dVertex
 10
18.64209194208999
 20
-234.327049304103
 30
0.0
  0
SEQEND
  5
134
330
131
100
AcDbEntity
  8
LAYER_1
 62
   250
  0
POLYLINE
  5
135
330
1F
100
AcDbEntity
  8
LAYER_1
 62
   250
100
AcDb2dPolyline
 66
     1
 10
0.0
 20
0.0
 30
0.0
  0
VERTEX
  5
136
330
135
100
AcDbEntity
  8
LAYER_1
 62
   250
100
AcDbVertex
100
AcDb2dVertex
 10
18.64209194223245
 20
-237.5020493033092
 30
0.0
  0
VERTEX
  5
137
330
135
100
AcDbEntity
  8
LAYER_1
 62
   250
100
AcDbVertex
100
AcDb2dVertex
 10
24.25041132932592
 20
-237.5020493030564
 30
0.0
  0
SEQEND
  5
138
330
135
100
AcDbEntity
  8
LAYER_1
 62
   250
  0
POLYLINE
  5
139
330
1F
100
AcDbEntity
  8
LAYER_1
 62
   250
100
AcDb2dPolyline
 66
     1
 10
0.0
 20
0.0
 30
0.0
  0
VERTEX
  5
13A
330
139
100
AcDbEntity
  8
LAYER_1
 62
   250
100
AcDbVertex
100
AcDb2dVertex
 10
24.25041132514333
 20
-144.3270518694816
 30
0.0
  0
VERTEX
  5
13B
330
139
100
AcDbEntity
  8
LAYER_1
 62
   250
100
AcDbVertex
100
AcDb2dVertex
 10
24.25041132552322
 20
-152.797497373142
 30
0.0
  0
SEQEND
  5
13C
330
139
100
AcDbEntity
  8
LAYER_1
 62
   250
  0
POLYLINE
  5
13D
330
1F
100
AcDbEntity
  8
LAYER_1
 62
   250
100
AcDb2dPolyline
 66
     1
 10
0.0
 20
0.0
 30
0.0
  0
VERTEX
  5
13E
330
13D
100
AcDbEntity
  8
LAYER_1
 62
   250
100
AcDbVertex
100
AcDb2dVertex
 10
27.42541132472947
 20
-152.7974973730002
 30
0.0
  0
VERTEX
  5
13F
330
13D
100
AcDbEntity
  8
LAYER_1
 62
   250
100
AcDbVertex
100
AcDb2dVertex
 10
24.25041132552322
 20
-152.797497373142
 30
0.0
  0
SEQEND
  5
140
330
13D
100
AcDbEntity
  8
LAYER_1
 62
   250
  0
POLYLINE
  5
141
330
1F
100
AcDbEntity
  8
LAYER_1
 62
   250
100
AcDb2dPolyline
 66
     1
 10
0.0
 20
0.0
 30
0.0
  0
VERTEX
  5
142
330
141
100
AcDbEntity
  8
LAYER_1
 62
   250
100
AcDbVertex
100
AcDb2dVertex
 10
27.42541132472947
 20
-152.7974973730002
 30
0.0
  0
VERTEX
  5
143
330
141
100
AcDbEntity
  8
LAYER_1
 62
   250
100
AcDbVertex
100
AcDb2dVertex
 10
27.42541132510935
 20
-161.2679644085074
 30
0.0
  0
SEQEND
  5
144
330
141
100
AcDbEntity
  8
LAYER_1
 62
   250
  0
POLYLINE
  5
145
330
1F
100
AcDbEntity
  8
LAYER_1
 62
   250
100
AcDb2dPolyline
 66
     1
 10
0.0
 20
0.0
 30
0.0
  0
VERTEX
  5
146
330
145
100
AcDbEntity
  8
LAYER_1
 62
   250
100
AcDbVertex
100
AcDb2dVertex
 10
27.42541132510935
 20
-161.2679644085074
 30
0.0
  0
VERTEX
  5
147
330
145
100
AcDbEntity
  8
LAYER_1
 62
   250
100
AcDbVertex
100
AcDb2dVertex
 10
24.2504113259031
 20
-161.2679644086492
 30
0.0
  0
SEQEND
  5
148
330
145
100
AcDbEntity
  8
LAYER_1
 62
   250
  0
POLYLINE
  5
149
330
1F
100
AcDbEntity
  8
LAYER_1
 62
   250
100
AcDb2dPolyline
 66
     1
 10
0.0
 20
0.0
 30
0.0
  0
VERTEX
  5
14A
330
149
100
AcDbEntity
  8
LAYER_1
 62
   250
100
AcDbVertex
100
AcDb2dVertex
 10
24.2504113259031
 20
-161.2679644086492
 30
0.0
  0
VERTEX
  5
14B
330
149
100
AcDbEntity
  8
LAYER_1
 62
   250
100
AcDbVertex
100
AcDb2dVertex
 10
24.25041132628363
 20
-169.7384099123096
 30
0.0
  0
SEQEND
  5
14C
330
149
100
AcDbEntity
  8
LAYER_1
 62
   250
  0
POLYLINE
  5
14D
330
1F
100
AcDbEntity
  8
LAYER_1
 62
   250
100
AcDb2dPolyline
 66
     1
 10
0.0
 20
0.0
 30
0.0
  0
VERTEX
  5
14E
330
14D
100
AcDbEntity
  8
LAYER_1
 62
   250
100
AcDbVertex
100
AcDb2dVertex
 10
27.42541132548988
 20
-169.7384099121678
 30
0.0
  0
VERTEX
  5
14F
330
14D
100
AcDbEntity
  8
LAYER_1
 62
   250
100
AcDbVertex
100
AcDb2dVertex
 10
24.25041132628363
 20
-169.7384099123096
 30
0.0
  0
SEQEND
  5
150
330
14D
100
AcDbEntity
  8
LAYER_1
 62
   250
  0
POLYLINE
  5
151
330
1F
100
AcDbEntity
  8
LAYER_1
 62
   250
100
AcDb2dPolyline
 66
     1
 10
0.0
 20
0.0
 30
0.0
  0
VERTEX
  5
152
330
151
100
AcDbEntity
  8
LAYER_1
 62
   250
100
AcDbVertex
100
AcDb2dVertex
 10
27.42541132548988
 20
-169.7384099121678
 30
0.0
  0
VERTEX
  5
153
330
151
100
AcDbEntity
  8
LAYER_1
 62
   250
100
AcDbVertex
100
AcDb2dVertex
 10
27.42541132587041
 20
-178.2088554158281
 30
0.0
  0
SEQEND
  5
154
330
151
100
AcDbEntity
  8
LAYER_1
 62
   250
  0
POLYLINE
  5
155
330
1F
100
AcDbEntity
  8
LAYER_1
 62
   250
100
AcDb2dPolyline
 66
     1
 10
0.0
 20
0.0
 30
0.0
  0
VERTEX
  5
156
330
155
100
AcDbEntity
  8
LAYER_1
 62
   250
100
AcDbVertex
100
AcDb2dVertex
 10
27.42541132587041
 20
-178.2088554158281
 30
0.0
  0
VERTEX
  5
157
330
155
100
AcDbEntity
  8
LAYER_1
 62
   250
100
AcDbVertex
100
AcDb2dVertex
 10
24.25041132666416
 20
-178.20885541597
 30
0.0
  0
SEQEND
  5
158
330
155
100
AcDbEntity
  8
LAYER_1
 62
   250
  0
POLYLINE
  5
159
330
1F
100
AcDbEntity
  8
LAYER_1
 62
   250
100
AcDb2dPolyline
 66
     1
 10
0.0
 20
0.0
 30
0.0
  0
VERTEX
  5
15A
330
159
100
AcDbEntity
  8
LAYER_1
 62
   250
100
AcDbVertex
100
AcDb2dVertex
 10
24.25041132666416
 20
-178.20885541597
 30
0.0
  0
VERTEX
  5
15B
330
159
100
AcDbEntity
  8
LAYER_1
 62
   250
100
AcDbVertex
100
AcDb2dVertex
 10
24.25041132704404
 20
-186.6793332174005
 30
0.0
  0
SEQEND
  5
15C
330
159
100
AcDbEntity
  8
LAYER_1
 62
   250
  0
POLYLINE
  5
15D
330
1F
100
AcDbEntity
  8
LAYER_1
 62
   250
100
AcDb2dPolyline
 66
     1
 10
0.0
 20
0.0
 30
0.0
  0
VERTEX
  5
15E
330
15D
100
AcDbEntity
  8
LAYER_1
 62
   250
100
AcDbVertex
100
AcDb2dVertex
 10
27.42541132625029
 20
-186.6793332172587
 30
0.0
  0
VERTEX
  5
15F
330
15D
100
AcDbEntity
  8
LAYER_1
 62
   250
100
AcDbVertex
100
AcDb2dVertex
 10
24.25041132704404
 20
-186.6793332174005
 30
0.0
  0
SEQEND
  5
160
330
15D
100
AcDbEntity
  8
LAYER_1
 62
   250
  0
POLYLINE
  5
161
330
1F
100
AcDbEntity
  8
LAYER_1
 62
   250
100
AcDb2dPolyline
 66
     1
 10
0.0
 20
0.0
 30
0.0
  0
VERTEX
  5
162
330
161
100
AcDbEntity
  8
LAYER_1
 62
   250
100
AcDbVertex
100
AcDb2dVertex
 10
27.42541132625029
 20
-186.6793332172587
 30
0.0
  0
VERTEX
  5
163
330
161
100
AcDbEntity
  8
LAYER_1
 62
   250
100
AcDbVertex
100
AcDb2dVertex
 10
27.42541132663082
 20
-195.1497679549957
 30
0.0
  0
SEQEND
  5
164
330
161
100
AcDbEntity
  8
LAYER_1
 62
   250
  0
POLYLINE
  5
165
330
1F
100
AcDbEntity
  8
LAYER_1
 62
   250
100
AcDb2dPolyline
 66
     1
 10
0.0
 20
0.0
 30
0.0
  0
VERTEX
  5
166
330
165
100
AcDbEntity
  8
LAYER_1
 62
   250
100
AcDbVertex
100
AcDb2dVertex
 10
27.42541132663082
 20
-195.1497679549957
 30
0.0
  0
VERTEX
  5
167
330
165
100
AcDbEntity
  8
LAYER_1
 62
   250
100
AcDbVertex
100
AcDb2dVertex
 10
24.25041132742457
 20
-195.1497679551375
 30
0.0
  0
SEQEND
  5
168
330
165
100
AcDbEntity
  8
LAYER_1
 62
   250
  0
POLYLINE
  5
169
330
1F
100
AcDbEntity
  8
LAYER_1
 62
   250
100
AcDb2dPolyline
 66
     1
 10
0.0
 20
0.0
 30
0.0
  0
VERTEX
  5
16A
330
169
100
AcDbEntity
  8
LAYER_1
 62
   250
100
AcDbVertex
100
AcDb2dVertex
 10
24.25041132742457
 20
-195.1497679551375
 30
0.0
  0
VERTEX
  5
16B
330
169
100
AcDbEntity
  8
LAYER_1
 62
   250
100
AcDbVertex
100
AcDb2dVertex
 10
24.2504113278051
 20
-203.6202457565681
 30
0.0
  0
SEQEND
  5
16C
330
169
100
AcDbEntity
  8
LAYER_1
 62
   250
  0
POLYLINE
  5
16D
330
1F
100
AcDbEntity
  8
LAYER_1
 62
   250
100
AcDb2dPolyline
 66
     1
 10
0.0
 20
0.0
 30
0.0
  0
VERTEX
  5
16E
330
16D
100
AcDbEntity
  8
LAYER_1
 62
   250
100
AcDbVertex
100
AcDb2dVertex
 10
27.42541132701135
 20
-203.6202457564262
 30
0.0
  0
VERTEX
  5
16F
330
16D
100
AcDbEntity
  8
LAYER_1
 62
   250
100
AcDbVertex
100
AcDb2dVertex
 10
24.2504113278051
 20
-203.6202457565681
 30
0.0
  0
SEQEND
  5
170
330
16D
100
AcDbEntity
  8
LAYER_1
 62
   250
  0
POLYLINE
  5
171
330
1F
100
AcDbEntity
  8
LAYER_1
 62
   250
100
AcDb2dPolyline
 66
     1
 10
0.0
 20
0.0
 30
0.0
  0
VERTEX
  5
172
330
171
100
AcDbEntity
  8
LAYER_1
 62
   250
100
AcDbVertex
100
AcDb2dVertex
 10
27.42541132701135
 20
-203.6202457564262
 30
0.0
  0
VERTEX
  5
173
330
171
100
AcDbEntity
  8
LAYER_1
 62
   250
100
AcDbVertex
100
AcDb2dVertex
 10
27.42541132739123
 20
-212.0906804941633
 30
0.0
  0
SEQEND
  5
174
330
171
100
AcDbEntity
  8
LAYER_1
 62
   250
  0
POLYLINE
  5
175
330
1F
100
AcDbEntity
  8
LAYER_1
 62
   250
100
AcDb2dPolyline
 66
     1
 10
0.0
 20
0.0
 30
0.0
  0
VERTEX
  5
176
330
175
100
AcDbEntity
  8
LAYER_1
 62
   250
100
AcDbVertex
100
AcDb2dVertex
 10
27.42541132739123
 20
-212.0906804941633
 30
0.0
  0
VERTEX
  5
177
330
175
100
AcDbEntity
  8
LAYER_1
 62
   250
100
AcDbVertex
100
AcDb2dVertex
 10
24.25041132818498
 20
-212.090680494305
 30
0.0
  0
SEQEND
  5
178
330
175
100
AcDbEntity
  8
LAYER_1
 62
   250
  0
POLYLINE
  5
179
330
1F
100
AcDbEntity
  8
LAYER_1
 62
   250
100
AcDb2dPolyline
 66
     1
 10
0.0
 20
0.0
 30
0.0
  0
VERTEX
  5
17A
330
179
100
AcDbEntity
  8
LAYER_1
 62
   250
100
AcDbVertex
100
AcDb2dVertex
 10
24.25041132818498
 20
-212.090680494305
 30
0.0
  0
VERTEX
  5
17B
330
179
100
AcDbEntity
  8
LAYER_1
 62
   250
100
AcDbVertex
100
AcDb2dVertex
 10
24.25041132856615
 20
-220.5611367638888
 30
0.0
  0
SEQEND
  5
17C
330
179
100
AcDbEntity
  8
LAYER_1
 62
   250
  0
POLYLINE
  5
17D
330
1F
100
AcDbEntity
  8
LAYER_1
 62
   250
100
AcDb2dPolyline
 66
     1
 10
0.0
 20
0.0
 30
0.0
  0
VERTEX
  5
17E
330
17D
100
AcDbEntity
  8
LAYER_1
 62
   250
100
AcDbVertex
100
AcDb2dVertex
 10
27.4254113277724
 20
-220.561136763747
 30
0.0
  0
VERTEX
  5
17F
330
17D
100
AcDbEntity
  8
LAYER_1
 62
   250
100
AcDbVertex
100
AcDb2dVertex
 10
24.25041132856615
 20
-220.5611367638888
 30
0.0
  0
SEQEND
  5
180
330
17D
100
AcDbEntity
  8
LAYER_1
 62
   250
  0
POLYLINE
  5
181
330
1F
100
AcDbEntity
  8
LAYER_1
 62
   250
100
AcDb2dPolyline
 66
     1
 10
0.0
 20
0.0
 30
0.0
  0
VERTEX
  5
182
330
181
100
AcDbEntity
  8
LAYER_1
 62
   250
100
AcDbVertex
100
AcDb2dVertex
 10
27.4254113277724
 20
-220.561136763747
 30
0.0
  0
VERTEX
  5
183
330
181
100
AcDbEntity
  8
LAYER_1
 62
   250
100
AcDbVertex
100
AcDb2dVertex
 10
27.42541132815229
 20
-229.0316145651776
 30
0.0
  0
SEQEND
  5
184
330
181
100
AcDbEntity
  8
LAYER_1
 62
   250
  0
POLYLINE
  5
185
330
1F
100
AcDbEntity
  8
LAYER_1
 62
   250
100
AcDb2dPolyline
 66
     1
 10
0.0
 20
0.0
 30
0.0
  0
VERTEX
  5
186
330
185
100
AcDbEntity
  8
LAYER_1
 62
   250
100
AcDbVertex
100
AcDb2dVertex
 10
27.42541132815229
 20
-229.0316145651776
 30
0.0
  0
VERTEX
  5
187
330
185
100
AcDbEntity
  8
LAYER_1
 62
   250
100
AcDbVertex
100
AcDb2dVertex
 10
24.25041132894604
 20
-229.0316145653194
 30
0.0
  0
SEQEND
  5
188
330
185
100
AcDbEntity
  8
LAYER_1
 62
   250
  0
POLYLINE
  5
189
330
1F
100
AcDbEntity
  8
LAYER_1
 62
   250
100
AcDb2dPolyline
 66
     1
 10
0.0
 20
0.0
 30
0.0
  0
VERTEX
  5
18A
330
189
100
AcDbEntity
  8
LAYER_1
 62
   250
100
AcDbVertex
100
AcDb2dVertex
 10
24.25041132894604
 20
-229.0316145653194
 30
0.0
  0
VERTEX
  5
18B
330
189
100
AcDbEntity
  8
LAYER_1
 62
   250
100
AcDbVertex
100
AcDb2dVertex
 10
24.25041132932592
 20
-237.5020493030564
 30
0.0
  0
SEQEND
  5
18C
330
189
100
AcDbEntity
  8
LAYER_1
 62
   250
  0
POLYLINE
  5
18D
330
1F
100
AcDbEntity
  8
LAYER_1
 62
   250
100
AcDb2dPolyline
 66
     1
 10
0.0
 20
0.0
 30
0.0
  0
VERTEX
  5
18E
330
18D
100
AcDbEntity
  8
LAYER_1
 62
   250
100
AcDbVertex
100
AcDb2dVertex
 10
-18.92459381480261
 20
-124.3270667961257
 30
0.0
  0
VERTEX
  5
18F
330
18D
100
AcDbEntity
  8
LAYER_1
 62
   250
100
AcDbVertex
100
AcDb2dVertex
 10
-13.31624212993896
 20
-124.3270667958738
 30
0.0
  0
SEQEND
  5
190
330
18D
100
AcDbEntity
  8
LAYER_1
 62
   250
  0
POLYLINE
  5
191
330
1F
100
AcDbEntity
  8
LAYER_1
 62
   250
100
AcDb2dPolyline
 66
     1
 10
0.0
 20
0.0
 30
0.0
  0
VERTEX
  5
192
330
191
100
AcDbEntity
  8
LAYER_1
 62
   250
100
AcDbVertex
100
AcDb2dVertex
 10
-13.31624212993896
 20
-124.3270667958738
 30
0.0
  0
VERTEX
  5
193
330
191
100
AcDbEntity
  8
LAYER_1
 62
   250
100
AcDbVertex
100
AcDb2dVertex
 10
-13.31624213008142
 20
-121.1520667966676
 30
0.0
  0
SEQEND
  5
194
330
191
100
AcDbEntity
  8
LAYER_1
 62
   250
  0
POLYLINE
  5
195
330
1F
100
AcDbEntity
  8
LAYER_1
 62
   250
100
AcDb2dPolyline
 66
     1
 10
0.0
 20
0.0
 30
0.0
  0
VERTEX
  5
196
330
195
100
AcDbEntity
  8
LAYER_1
 62
   250
100
AcDbVertex
100
AcDb2dVertex
 10
-13.31624213008142
 20
-121.1520667966676
 30
0.0
  0
VERTEX
  5
197
330
195
100
AcDbEntity
  8
LAYER_1
 62
   250
100
AcDbVertex
100
AcDb2dVertex
 10
-4.532917360820002
 20
-121.1520667962733
 30
0.0
  0
SEQEND
  5
198
330
195
100
AcDbEntity
  8
LAYER_1
 62
   250
  0
POLYLINE
  5
199
330
1F
100
AcDbEntity
  8
LAYER_1
 62
   250
100
AcDb2dPolyline
 66
     1
 10
0.0
 20
0.0
 30
0.0
  0
VERTEX
  5
19A
330
199
100
AcDbEntity
  8
LAYER_1
 62
   250
100
AcDbVertex
100
AcDb2dVertex
 10
-4.532917360677545
 20
-124.3270667954795
 30
0.0
  0
VERTEX
  5
19B
330
199
100
AcDbEntity
  8
LAYER_1
 62
   250
100
AcDbVertex
100
AcDb2dVertex
 10
-4.532917360820002
 20
-121.1520667962733
 30
0.0
  0
SEQEND
  5
19C
330
199
100
AcDbEntity
  8
LAYER_1
 62
   250
  0
POLYLINE
  5
19D
330
1F
100
AcDbEntity
  8
LAYER_1
 62
   250
100
AcDb2dPolyline
 66
     1
 10
0.0
 20
0.0
 30
0.0
  0
VERTEX
  5
19E
330
19D
100
AcDbEntity
  8
LAYER_1
 62
   250
100
AcDbVertex
100
AcDb2dVertex
 10
-4.532917360677545
 20
-124.3270667954795
 30
0.0
  0
VERTEX
  5
19F
330
19D
100
AcDbEntity
  8
LAYER_1
 62
   250
100
AcDbVertex
100
AcDb2dVertex
 10
1.075402026416248
 20
-124.327066795228
 30
0.0
  0
SEQEND
  5
1A0
330
19D
100
AcDbEntity
  8
LAYER_1
 62
   250
  0
POLYLINE
  5
1A1
330
1F
100
AcDbEntity
  8
LAYER_1
 62
   250
100
AcDb2dPolyline
 66
     1
 10
0.0
 20
0.0
 30
0.0
  0
VERTEX
  5
1A2
330
1A1
100
AcDbEntity
  8
LAYER_1
 62
   250
100
AcDbVertex
100
AcDb2dVertex
 10
-18.92459381480261
 20
-124.3270667961257
 30
0.0
  0
VERTEX
  5
1A3
330
1A1
100
AcDbEntity
  8
LAYER_1
 62
   250
100
AcDbVertex
100
AcDb2dVertex
 10
-18.92459381455106
 20
-129.9353808002575
 30
0.0
  0
SEQEND
  5
1A4
330
1A1
100
AcDbEntity
  8
LAYER_1
 62
   250
  0
POLYLINE
  5
1A5
330
1F
100
AcDbEntity
  8
LAYER_1
 62
   250
100
AcDb2dPolyline
 66
     1
 10
0.0
 20
0.0
 30
0.0
  0
VERTEX
  5
1A6
330
1A5
100
AcDbEntity
  8
LAYER_1
 62
   250
100
AcDbVertex
100
AcDb2dVertex
 10
-18.92459381455106
 20
-129.9353808002575
 30
0.0
  0
VERTEX
  5
1A7
330
1A5
100
AcDbEntity
  8
LAYER_1
 62
   250
100
AcDbVertex
100
AcDb2dVertex
 10
-22.09959381375731
 20
-129.9353808004006
 30
0.0
  0
SEQEND
  5
1A8
330
1A5
100
AcDbEntity
  8
LAYER_1
 62
   250
  0
POLYLINE
  5
1A9
330
1F
100
AcDbEntity
  8
LAYER_1
 62
   250
100
AcDb2dPolyline
 66
     1
 10
0.0
 20
0.0
 30
0.0
  0
VERTEX
  5
1AA
330
1A9
100
AcDbEntity
  8
LAYER_1
 62
   250
100
AcDbVertex
100
AcDb2dVertex
 10
-22.09959381375731
 20
-129.9353808004006
 30
0.0
  0
VERTEX
  5
1AB
330
1A9
100
AcDbEntity
  8
LAYER_1
 62
   250
100
AcDbVertex
100
AcDb2dVertex
 10
-22.09959381336267
 20
-138.7187163355854
 30
0.0
  0
SEQEND
  5
1AC
330
1A9
100
AcDbEntity
  8
LAYER_1
 62
   250
  0
POLYLINE
  5
1AD
330
1F
100
AcDbEntity
  8
LAYER_1
 62
   250
100
AcDb2dPolyline
 66
     1
 10
0.0
 20
0.0
 30
0.0
  0
VERTEX
  5
1AE
330
1AD
100
AcDbEntity
  8
LAYER_1
 62
   250
100
AcDbVertex
100
AcDb2dVertex
 10
-18.92459381415642
 20
-138.7187163354423
 30
0.0
  0
VERTEX
  5
1AF
330
1AD
100
AcDbEntity
  8
LAYER_1
 62
   250
100
AcDbVertex
100
AcDb2dVertex
 10
-22.09959381336267
 20
-138.7187163355854
 30
0.0
  0
SEQEND
  5
1B0
330
1AD
100
AcDbEntity
  8
LAYER_1
 62
   250
  0
POLYLINE
  5
1B1
330
1F
100
AcDbEntity
  8
LAYER_1
 62
   250
100
AcDb2dPolyline
 66
     1
 10
0.0
 20
0.0
 30
0.0
  0
VERTEX
  5
1B2
330
1B1
100
AcDbEntity
  8
LAYER_1
 62
   250
100
AcDbVertex
100
AcDb2dVertex
 10
-18.92459381415642
 20
-138.7187163354423
 30
0.0
  0
VERTEX
  5
1B3
330
1B1
100
AcDbEntity
  8
LAYER_1
 62
   250
100
AcDbVertex
100
AcDb2dVertex
 10
-18.92459381390423
 20
-144.3270518714208
 30
0.0
  0
SEQEND
  5
1B4
330
1B1
100
AcDbEntity
  8
LAYER_1
 62
   250
  0
POLYLINE
  5
1B5
330
1F
100
AcDbEntity
  8
LAYER_1
 62
   250
100
AcDb2dPolyline
 66
     1
 10
0.0
 20
0.0
 30
0.0
  0
VERTEX
  5
1B6
330
1B5
100
AcDbEntity
  8
LAYER_1
 62
   250
100
AcDbVertex
100
AcDb2dVertex
 10
1.075402026416248
 20
-124.327066795228
 30
0.0
  0
VERTEX
  5
1B7
330
1B5
100
AcDbEntity
  8
LAYER_1
 62
   250
100
AcDbVertex
100
AcDb2dVertex
 10
1.075402026667473
 20
-129.9353807993598
 30
0.0
  0
SEQEND
  5
1B8
330
1B5
100
AcDbEntity
  8
LAYER_1
 62
   250
  0
POLYLINE
  5
1B9
330
1F
100
AcDbEntity
  8
LAYER_1
 62
   250
100
AcDb2dPolyline
 66
     1
 10
0.0
 20
0.0
 30
0.0
  0
VERTEX
  5
1BA
330
1B9
100
AcDbEntity
  8
LAYER_1
 62
   250
100
AcDbVertex
100
AcDb2dVertex
 10
4.250402025873723
 20
-129.935380799217
 30
0.0
  0
VERTEX
  5
1BB
330
1B9
100
AcDbEntity
  8
LAYER_1
 62
   250
100
AcDbVertex
100
AcDb2dVertex
 10
1.075402026667473
 20
-129.9353807993598
 30
0.0
  0
SEQEND
  5
1BC
330
1B9
100
AcDbEntity
  8
LAYER_1
 62
   250
  0
POLYLINE
  5
1BD
330
1F
100
AcDbEntity
  8
LAYER_1
 62
   250
100
AcDb2dPolyline
 66
     1
 10
0.0
 20
0.0
 30
0.0
  0
VERTEX
  5
1BE
330
1BD
100
AcDbEntity
  8
LAYER_1
 62
   250
100
AcDbVertex
100
AcDb2dVertex
 10
4.250402025873723
 20
-129.935380799217
 30
0.0
  0
VERTEX
  5
1BF
330
1BD
100
AcDbEntity
  8
LAYER_1
 62
   250
100
AcDbVertex
100
AcDb2dVertex
 10
4.250402026268368
 20
-138.7187163344014
 30
0.0
  0
SEQEND
  5
1C0
330
1BD
100
AcDbEntity
  8
LAYER_1
 62
   250
  0
POLYLINE
  5
1C1
330
1F
100
AcDbEntity
  8
LAYER_1
 62
   250
100
AcDb2dPolyline
 66
     1
 10
0.0
 20
0.0
 30
0.0
  0
VERTEX
  5
1C2
330
1C1
100
AcDbEntity
  8
LAYER_1
 62
   250
100
AcDbVertex
100
AcDb2dVertex
 10
4.250402026268368
 20
-138.7187163344014
 30
0.0
  0
VERTEX
  5
1C3
330
1C1
100
AcDbEntity
  8
LAYER_1
 62
   250
100
AcDbVertex
100
AcDb2dVertex
 10
1.075402027062118
 20
-138.7187163345446
 30
0.0
  0
SEQEND
  5
1C4
330
1C1
100
AcDbEntity
  8
LAYER_1
 62
   250
  0
POLYLINE
  5
1C5
330
1F
100
AcDbEntity
  8
LAYER_1
 62
   250
100
AcDb2dPolyline
 66
     1
 10
0.0
 20
0.0
 30
0.0
  0
VERTEX
  5
1C6
330
1C5
100
AcDbEntity
  8
LAYER_1
 62
   250
100
AcDbVertex
100
AcDb2dVertex
 10
1.075402027062118
 20
-138.7187163345446
 30
0.0
  0
VERTEX
  5
1C7
330
1C5
100
AcDbEntity
  8
LAYER_1
 62
   250
100
AcDbVertex
100
AcDb2dVertex
 10
1.075402027314305
 20
-144.3270518705231
 30
0.0
  0
SEQEND
  5
1C8
330
1C5
100
AcDbEntity
  8
LAYER_1
 62
   250
  0
SPLINE
  5
1C9
330
1F
100
AcDbEntity
  8
LAYER_1
 62
   250
100
AcDbSpline
210
0.0
220
0.0
230
1.0
 70
    11
 71
     3
 72
    17
 73
    13
 74
     0
 42
0.0000000001
 43
0.0000000001
 12
1.0
 22
0.0
 32
0.0
 13
1.0
 23
0.0
 33
0.0
 40
0.0
 40
0.0
 40
0.0
 40
0.0
 40
1.0
 40
1.0
 40
1.0
 40
2.0
 40
2.0
 40
2.0
 40
3.0
 40
3.0
 40
3.0
 40
4.0
 40
4.0
 40
4.0
 40
4.0
 10
-6.40931491667122
 20
-218.7629272759987
 30
0.0
 10
-6.409314916733786
 20
-217.3822154018438
 30
0.0
 10
-7.528603042002799
 20
-216.2629272766746
 30
0.0
 10
-8.909314916157628
 20
-216.2629272767362
 30
0.0
 10
-10.29002679031246
 20
-216.2629272767985
 30
0.0
 10
-11.40931491548329
 20
-217.3822154020691
 30
0.0
 10
-11.40931491542137
 20
-218.7629272762239
 30
0.0
 10
-11.40931491535912
 20
-220.1436391503787
 30
0.0
 10
-10.29002679008851
 20
-221.2629272755486
 30
0.0
 10
-8.909314915933676
 20
-221.2629272754857
 30
0.0
 10
-7.528603041778846
 20
-221.2629272754247
 30
0.0
 10
-6.409314916609296
 20
-220.1436391501535
 30
0.0
 10
-6.40931491667122
 20
-218.7629272759987
 30
0.0
  0
SPLINE
  5
1CA
330
1F
100
AcDbEntity
  8
LAYER_1
 62
   250
100
AcDbSpline
210
0.0
220
0.0
230
1.0
 70
    11
 71
     3
 72
    17
 73
    13
 74
     0
 42
0.0000000001
 43
0.0000000001
 12
1.0
 22
0.0
 32
0.0
 13
1.0
 23
0.0
 33
0.0
 40
0.0
 40
0.0
 40
0.0
 40
0.0
 40
1.0
 40
1.0
 40
1.0
 40
2.0
 40
2.0
 40
2.0
 40
3.0
 40
3.0
 40
3.0
 40
4.0
 40
4.0
 40
4.0
 40
4.0
 10
-6.409314917525322
 20
-199.7339921556169
 30
0.0
 10
-6.409314917586925
 20
-198.353280281462
 30
0.0
 10
-7.528603042857542
 20
-197.2339921562928
 30
0.0
 10
-8.909314917012372
 20
-197.2339921563544
 30
0.0
 10
-10.2900267911672
 20
-197.2339921564167
 30
0.0
 10
-11.40931491633771
 20
-198.3532802816879
 30
0.0
 10
-11.40931491627547
 20
-199.7339921558427
 30
0.0
 10
-11.40931491621354
 20
-201.1147040299976
 30
0.0
 10
-10.29002679094293
 20
-202.2339921551668
 30
0.0
 10
-8.909314916788098
 20
-202.2339921551039
 30
0.0
 10
-7.528603042633268
 20
-202.233992155043
 30
0.0
 10
-6.409314917463398
 20
-201.1147040297717
 30
0.0
 10
-6.409314917525322
 20
-199.7339921556169
 30
0.0
  0
SPLINE
  5
1CB
330
1F
100
AcDbEntity
  8
LAYER_1
 62
   250
100
AcDbSpline
210
0.0
220
0.0
230
1.0
 70
    11
 71
     3
 72
    17
 73
    13
 74
     0
 42
0.0000000001
 43
0.0000000001
 12
1.0
 22
0.0
 32
0.0
 13
1.0
 23
0.0
 33
0.0
 40
0.0
 40
0.0
 40
0.0
 40
0.0
 40
1.0
 40
1.0
 40
1.0
 40
2.0
 40
2.0
 40
2.0
 40
3.0
 40
3.0
 40
3.0
 40
4.0
 40
4.0
 40
4.0
 40
4.0
 10
-6.40931491847632
 20
-178.5578541731383
 30
0.0
 10
-6.409314918538244
 20
-177.1771422989835
 30
0.0
 10
-7.528603043809182
 20
-176.0578541738142
 30
0.0
 10
-8.90931491796401
 20
-176.0578541738758
 30
0.0
 10
-10.29002679211884
 20
-176.0578541739381
 30
0.0
 10
-11.40931491728903
 20
-177.1771422992093
 30
0.0
 10
-11.40931491722582
 20
-178.5578541733641
 30
0.0
 10
-11.40931491716422
 20
-179.938566047519
 30
0.0
 10
-10.2900267918936
 20
-181.0578541726882
 30
0.0
 10
-8.909314917738774
 20
-181.0578541726253
 30
0.0
 10
-7.528603043583945
 20
-181.0578541725644
 30
0.0
 10
-6.409314918414075
 20
-179.9385660472931
 30
0.0
 10
-6.40931491847632
 20
-178.5578541731383
 30
0.0
  0
SPLINE
  5
1CC
330
1F
100
AcDbEntity
  8
LAYER_1
 62
   250
100
AcDbSpline
210
0.0
220
0.0
230
1.0
 70
    11
 71
     3
 72
    17
 73
    13
 74
     0
 42
0.0000000001
 43
0.0000000001
 12
1.0
 22
0.0
 32
0.0
 13
1.0
 23
0.0
 33
0.0
 40
0.0
 40
0.0
 40
0.0
 40
0.0
 40
1.0
 40
1.0
 40
1.0
 40
2.0
 40
2.0
 40
2.0
 40
3.0
 40
3.0
 40
3.0
 40
4.0
 40
4.0
 40
4.0
 40
4.0
 10
16.75041414063771
 20
-209.5907050550299
 30
0.0
 10
16.7504141405761
 20
-208.2099931808751
 30
0.0
 10
15.63112601530549
 20
-207.0907050557059
 30
0.0
 10
14.25041414115066
 20
-207.0907050557675
 30
0.0
 10
12.86970226699583
 20
-207.0907050558291
 30
0.0
 10
11.75041414182596
 20
-208.2099931810997
 30
0.0
 10
11.7504141418882
 20
-209.5907050552545
 30
0.0
 10
11.7504141419498
 20
-210.9714169294094
 30
0.0
 10
12.86970226722042
 20
-212.0907050545792
 30
0.0
 10
14.25041414137525
 20
-212.0907050545176
 30
0.0
 10
15.63112601553008
 20
-212.0907050544567
 30
0.0
 10
16.75041414069995
 20
-210.9714169291848
 30
0.0
 10
16.75041414063771
 20
-209.5907050550299
 30
0.0
  0
SPLINE
  5
1CD
330
1F
100
AcDbEntity
  8
LAYER_1
 62
   250
100
AcDbSpline
210
0.0
220
0.0
230
1.0
 70
    11
 71
     3
 72
    17
 73
    13
 74
     0
 42
0.0000000001
 43
0.0000000001
 12
1.0
 22
0.0
 32
0.0
 13
1.0
 23
0.0
 33
0.0
 40
0.0
 40
0.0
 40
0.0
 40
0.0
 40
1.0
 40
1.0
 40
1.0
 40
2.0
 40
2.0
 40
2.0
 40
3.0
 40
3.0
 40
3.0
 40
4.0
 40
4.0
 40
4.0
 40
4.0
 10
16.75041413979965
 20
-190.9145477123377
 30
0.0
 10
16.7504141397374
 20
-189.5338358381829
 30
0.0
 10
15.63112601446743
 20
-188.4145477130137
 30
0.0
 10
14.2504141403126
 20
-188.4145477130753
 30
0.0
 10
12.86970226615777
 20
-188.4145477131369
 30
0.0
 10
11.75041414098726
 20
-189.5338358384075
 30
0.0
 10
11.75041414104886
 20
-190.9145477125623
 30
0.0
 10
11.75041414111175
 20
-192.2952595867172
 30
0.0
 10
12.86970226638236
 20
-193.4145477118864
 30
0.0
 10
14.25041414053719
 20
-193.4145477118254
 30
0.0
 10
15.63112601469202
 20
-193.4145477117645
 30
0.0
 10
16.75041413986125
 20
-192.2952595864926
 30
0.0
 10
16.75041413979965
 20
-190.9145477123377
 30
0.0
  0
SPLINE
  5
1CE
330
1F
100
AcDbEntity
  8
LAYER_1
 62
   250
100
AcDbSpline
210
0.0
220
0.0
230
1.0
 70
    11
 71
     3
 72
    17
 73
    13
 74
     0
 42
0.0000000001
 43
0.0000000001
 12
1.0
 22
0.0
 32
0.0
 13
1.0
 23
0.0
 33
0.0
 40
0.0
 40
0.0
 40
0.0
 40
0.0
 40
1.0
 40
1.0
 40
1.0
 40
2.0
 40
2.0
 40
2.0
 40
3.0
 40
3.0
 40
3.0
 40
4.0
 40
4.0
 40
4.0
 40
4.0
 10
16.75041355737178
 20
-169.7384097298591
 30
0.0
 10
16.75041355731018
 20
-168.3576978557043
 30
0.0
 10
15.6311254320402
 20
-167.2384097305351
 30
0.0
 10
14.25041355788537
 20
-167.2384097305967
 30
0.0
 10
12.86970168373054
 20
-167.2384097306583
 30
0.0
 10
11.75041355855939
 20
-168.3576978559289
 30
0.0
 10
11.75041355862228
 20
-169.7384097300837
 30
0.0
 10
11.75041355868388
 20
-171.1191216042386
 30
0.0
 10
12.8697016839545
 20
-172.2384097294078
 30
0.0
 10
14.25041355810933
 20
-172.2384097293468
 30
0.0
 10
15.63112543226416
 20
-172.2384097292859
 30
0.0
 10
16.75041355743467
 20
-171.119121604014
 30
0.0
 10
16.75041355737178
 20
-169.7384097298591
 30
0.0
  0
INSERT
  5
1D0
330
1F
100
AcDbEntity
  8
LAYER_1
100
AcDbBlockReference
  2
BLOCK_2
 10
0.0
 20
0.0
 30
0.0
  0
POLYLINE
  5
325
330
1F
100
AcDbEntity
  8
LAYER_1
 62
   250
100
AcDb2dPolyline
 66
     1
 10
0.0
 20
0.0
 30
0.0
  0
VERTEX
  5
326
330
325
100
AcDbEntity
  8
LAYER_1
 62
   250
100
AcDbVertex
100
AcDb2dVertex
 10
97.53528295829774
 20
-23.74375591468429
 30
0.0
  0
VERTEX
  5
327
330
325
100
AcDbEntity
  8
LAYER_1
 62
   250
100
AcDbVertex
100
AcDb2dVertex
 10
88.05670562234273
 20
-23.74375591425948
 30
0.0
  0
SEQEND
  5
328
330
325
100
AcDbEntity
  8
LAYER_1
 62
   250
  0
POLYLINE
  5
329
330
1F
100
AcDbEntity
  8
LAYER_1
 62
   250
100
AcDb2dPolyline
 66
     1
 10
0.0
 20
0.0
 30
0.0
  0
VERTEX
  5
32A
330
329
100
AcDbEntity
  8
LAYER_1
 62
   250
100
AcDbVertex
100
AcDb2dVertex
 10
88.05670562234273
 20
-23.74375591425948
 30
0.0
  0
VERTEX
  5
32B
330
329
100
AcDbEntity
  8
LAYER_1
 62
   250
100
AcDbVertex
100
AcDb2dVertex
 10
88.05670562220028
 20
-26.91875591346573
 30
0.0
  0
SEQEND
  5
32C
330
329
100
AcDbEntity
  8
LAYER_1
 62
   250
  0
POLYLINE
  5
32D
330
1F
100
AcDbEntity
  8
LAYER_1
 62
   250
100
AcDb2dPolyline
 66
     1
 10
0.0
 20
0.0
 30
0.0
  0
VERTEX
  5
32E
330
32D
100
AcDbEntity
  8
LAYER_1
 62
   250
100
AcDbVertex
100
AcDb2dVertex
 10
88.05670562220028
 20
-26.91875591346573
 30
0.0
  0
VERTEX
  5
32F
330
32D
100
AcDbEntity
  8
LAYER_1
 62
   250
100
AcDbVertex
100
AcDb2dVertex
 10
78.57813905216867
 20
-26.91875591303964
 30
0.0
  0
SEQEND
  5
330
330
32D
100
AcDbEntity
  8
LAYER_1
 62
   250
  0
POLYLINE
  5
331
330
1F
100
AcDbEntity
  8
LAYER_1
 62
   250
100
AcDb2dPolyline
 66
     1
 10
0.0
 20
0.0
 30
0.0
  0
VERTEX
  5
332
330
331
100
AcDbEntity
  8
LAYER_1
 62
   250
100
AcDbVertex
100
AcDb2dVertex
 10
78.57813905231112
 20
-23.74375591383339
 30
0.0
  0
VERTEX
  5
333
330
331
100
AcDbEntity
  8
LAYER_1
 62
   250
100
AcDbVertex
100
AcDb2dVertex
 10
78.57813905216867
 20
-26.91875591303964
 30
0.0
  0
SEQEND
  5
334
330
331
100
AcDbEntity
  8
LAYER_1
 62
   250
  0
POLYLINE
  5
335
330
1F
100
AcDbEntity
  8
LAYER_1
 62
   250
100
AcDb2dPolyline
 66
     1
 10
0.0
 20
0.0
 30
0.0
  0
VERTEX
  5
336
330
335
100
AcDbEntity
  8
LAYER_1
 62
   250
100
AcDbVertex
100
AcDb2dVertex
 10
78.57813905231112
 20
-23.74375591383339
 30
0.0
  0
VERTEX
  5
337
330
335
100
AcDbEntity
  8
LAYER_1
 62
   250
100
AcDbVertex
100
AcDb2dVertex
 10
69.0995617163561
 20
-23.7437559134073
 30
0.0
  0
SEQEND
  5
338
330
335
100
AcDbEntity
  8
LAYER_1
 62
   250
  0
POLYLINE
  5
339
330
1F
100
AcDbEntity
  8
LAYER_1
 62
   250
100
AcDb2dPolyline
 66
     1
 10
0.0
 20
0.0
 30
0.0
  0
VERTEX
  5
33A
330
339
100
AcDbEntity
  8
LAYER_1
 62
   250
100
AcDbVertex
100
AcDb2dVertex
 10
69.0995617163561
 20
-23.7437559134073
 30
0.0
  0
VERTEX
  5
33B
330
339
100
AcDbEntity
  8
LAYER_1
 62
   250
100
AcDbVertex
100
AcDb2dVertex
 10
69.09956171621366
 20
-26.91875591261355
 30
0.0
  0
SEQEND
  5
33C
330
339
100
AcDbEntity
  8
LAYER_1
 62
   250
  0
POLYLINE
  5
33D
330
1F
100
AcDbEntity
  8
LAYER_1
 62
   250
100
AcDb2dPolyline
 66
     1
 10
0.0
 20
0.0
 30
0.0
  0
VERTEX
  5
33E
330
33D
100
AcDbEntity
  8
LAYER_1
 62
   250
100
AcDbVertex
100
AcDb2dVertex
 10
69.09956171621366
 20
-26.91875591261355
 30
0.0
  0
VERTEX
  5
33F
330
33D
100
AcDbEntity
  8
LAYER_1
 62
   250
100
AcDbVertex
100
AcDb2dVertex
 10
59.62098438025865
 20
-26.91875591218811
 30
0.0
  0
SEQEND
  5
340
330
33D
100
AcDbEntity
  8
LAYER_1
 62
   250
  0
POLYLINE
  5
341
330
1F
100
AcDbEntity
  8
LAYER_1
 62
   250
100
AcDb2dPolyline
 66
     1
 10
0.0
 20
0.0
 30
0.0
  0
VERTEX
  5
342
330
341
100
AcDbEntity
  8
LAYER_1
 62
   250
100
AcDbVertex
100
AcDb2dVertex
 10
59.6209843804011
 20
-23.74375591298186
 30
0.0
  0
VERTEX
  5
343
330
341
100
AcDbEntity
  8
LAYER_1
 62
   250
100
AcDbVertex
100
AcDb2dVertex
 10
59.62098438025865
 20
-26.91875591218811
 30
0.0
  0
SEQEND
  5
344
330
341
100
AcDbEntity
  8
LAYER_1
 62
   250
  0
POLYLINE
  5
345
330
1F
100
AcDbEntity
  8
LAYER_1
 62
   250
100
AcDb2dPolyline
 66
     1
 10
0.0
 20
0.0
 30
0.0
  0
VERTEX
  5
346
330
345
100
AcDbEntity
  8
LAYER_1
 62
   250
100
AcDbVertex
100
AcDb2dVertex
 10
59.6209843804011
 20
-23.74375591298186
 30
0.0
  0
VERTEX
  5
347
330
345
100
AcDbEntity
  8
LAYER_1
 62
   250
100
AcDbVertex
100
AcDb2dVertex
 10
50.1424070444461
 20
-23.74375591255641
 30
0.0
  0
SEQEND
  5
348
330
345
100
AcDbEntity
  8
LAYER_1
 62
   250
  0
POLYLINE
  5
349
330
1F
100
AcDbEntity
  8
LAYER_1
 62
   250
100
AcDb2dPolyline
 66
     1
 10
0.0
 20
0.0
 30
0.0
  0
VERTEX
  5
34A
330
349
100
AcDbEntity
  8
LAYER_1
 62
   250
100
AcDbVertex
100
AcDb2dVertex
 10
50.1424070444461
 20
-23.74375591255641
 30
0.0
  0
VERTEX
  5
34B
330
349
100
AcDbEntity
  8
LAYER_1
 62
   250
100
AcDbVertex
100
AcDb2dVertex
 10
50.14240704430364
 20
-26.91875591176266
 30
0.0
  0
SEQEND
  5
34C
330
349
100
AcDbEntity
  8
LAYER_1
 62
   250
  0
POLYLINE
  5
34D
330
1F
100
AcDbEntity
  8
LAYER_1
 62
   250
100
AcDb2dPolyline
 66
     1
 10
0.0
 20
0.0
 30
0.0
  0
VERTEX
  5
34E
330
34D
100
AcDbEntity
  8
LAYER_1
 62
   250
100
AcDbVertex
100
AcDb2dVertex
 10
50.14240704430364
 20
-26.91875591176266
 30
0.0
  0
VERTEX
  5
34F
330
34D
100
AcDbEntity
  8
LAYER_1
 62
   250
100
AcDbVertex
100
AcDb2dVertex
 10
40.66384047427202
 20
-26.91875591133721
 30
0.0
  0
SEQEND
  5
350
330
34D
100
AcDbEntity
  8
LAYER_1
 62
   250
  0
POLYLINE
  5
351
330
1F
100
AcDbEntity
  8
LAYER_1
 62
   250
100
AcDb2dPolyline
 66
     1
 10
0.0
 20
0.0
 30
0.0
  0
VERTEX
  5
352
330
351
100
AcDbEntity
  8
LAYER_1
 62
   250
100
AcDbVertex
100
AcDb2dVertex
 10
40.66384047441448
 20
-23.74375591213096
 30
0.0
  0
VERTEX
  5
353
330
351
100
AcDbEntity
  8
LAYER_1
 62
   250
100
AcDbVertex
100
AcDb2dVertex
 10
40.66384047427202
 20
-26.91875591133721
 30
0.0
  0
SEQEND
  5
354
330
351
100
AcDbEntity
  8
LAYER_1
 62
   250
  0
POLYLINE
  5
355
330
1F
100
AcDbEntity
  8
LAYER_1
 62
   250
100
AcDb2dPolyline
 66
     1
 10
0.0
 20
0.0
 30
0.0
  0
VERTEX
  5
356
330
355
100
AcDbEntity
  8
LAYER_1
 62
   250
100
AcDbVertex
100
AcDb2dVertex
 10
40.66384047441448
 20
-23.74375591213096
 30
0.0
  0
VERTEX
  5
357
330
355
100
AcDbEntity
  8
LAYER_1
 62
   250
100
AcDbVertex
100
AcDb2dVertex
 10
34.36026313766572
 20
-23.74375591184797
 30
0.0
  0
SEQEND
  5
358
330
355
100
AcDbEntity
  8
LAYER_1
 62
   250
  0
POLYLINE
  5
359
330
1F
100
AcDbEntity
  8
LAYER_1
 62
   250
100
AcDb2dPolyline
 66
     1
 10
0.0
 20
0.0
 30
0.0
  0
VERTEX
  5
35A
330
359
100
AcDbEntity
  8
LAYER_1
 62
   250
100
AcDbVertex
100
AcDb2dVertex
 10
94.36028295392967
 20
-138.7070794153604
 30
0.0
  0
VERTEX
  5
35B
330
359
100
AcDbEntity
  8
LAYER_1
 62
   250
100
AcDbVertex
100
AcDb2dVertex
 10
97.53528295313592
 20
-138.7070794155055
 30
0.0
  0
SEQEND
  5
35C
330
359
100
AcDbEntity
  8
LAYER_1
 62
   250
  0
POLYLINE
  5
35D
330
1F
100
AcDbEntity
  8
LAYER_1
 62
   250
100
AcDb2dPolyline
 66
     1
 10
0.0
 20
0.0
 30
0.0
  0
VERTEX
  5
35E
330
35D
100
AcDbEntity
  8
LAYER_1
 62
   250
100
AcDbVertex
100
AcDb2dVertex
 10
94.36028295392967
 20
-138.7070794153604
 30
0.0
  0
VERTEX
  5
35F
330
35D
100
AcDbEntity
  8
LAYER_1
 62
   250
100
AcDbVertex
100
AcDb2dVertex
 10
94.36028295429865
 20
-130.495411720781
 30
0.0
  0
SEQEND
  5
360
330
35D
100
AcDbEntity
  8
LAYER_1
 62
   250
  0
POLYLINE
  5
361
330
1F
100
AcDbEntity
  8
LAYER_1
 62
   250
100
AcDb2dPolyline
 66
     1
 10
0.0
 20
0.0
 30
0.0
  0
VERTEX
  5
362
330
361
100
AcDbEntity
  8
LAYER_1
 62
   250
100
AcDbVertex
100
AcDb2dVertex
 10
94.36028295429865
 20
-130.495411720781
 30
0.0
  0
VERTEX
  5
363
330
361
100
AcDbEntity
  8
LAYER_1
 62
   250
100
AcDbVertex
100
AcDb2dVertex
 10
97.5352829535049
 20
-130.4954117209215
 30
0.0
  0
SEQEND
  5
364
330
361
100
AcDbEntity
  8
LAYER_1
 62
   250
  0
POLYLINE
  5
365
330
1F
100
AcDbEntity
  8
LAYER_1
 62
   250
100
AcDb2dPolyline
 66
     1
 10
0.0
 20
0.0
 30
0.0
  0
VERTEX
  5
366
330
365
100
AcDbEntity
  8
LAYER_1
 62
   250
100
AcDbVertex
100
AcDb2dVertex
 10
97.5352829535049
 20
-130.4954117209215
 30
0.0
  0
VERTEX
  5
367
330
365
100
AcDbEntity
  8
LAYER_1
 62
   250
100
AcDbVertex
100
AcDb2dVertex
 10
97.5352829538726
 20
-122.283746717821
 30
0.0
  0
SEQEND
  5
368
330
365
100
AcDbEntity
  8
LAYER_1
 62
   250
  0
POLYLINE
  5
369
330
1F
100
AcDbEntity
  8
LAYER_1
 62
   250
100
AcDb2dPolyline
 66
     1
 10
0.0
 20
0.0
 30
0.0
  0
VERTEX
  5
36A
330
369
100
AcDbEntity
  8
LAYER_1
 62
   250
100
AcDbVertex
100
AcDb2dVertex
 10
94.36028295466635
 20
-122.2837467176798
 30
0.0
  0
VERTEX
  5
36B
330
369
100
AcDbEntity
  8
LAYER_1
 62
   250
100
AcDbVertex
100
AcDb2dVertex
 10
97.5352829538726
 20
-122.283746717821
 30
0.0
  0
SEQEND
  5
36C
330
369
100
AcDbEntity
  8
LAYER_1
 62
   250
  0
POLYLINE
  5
36D
330
1F
100
AcDbEntity
  8
LAYER_1
 62
   250
100
AcDb2dPolyline
 66
     1
 10
0.0
 20
0.0
 30
0.0
  0
VERTEX
  5
36E
330
36D
100
AcDbEntity
  8
LAYER_1
 62
   250
100
AcDbVertex
100
AcDb2dVertex
 10
94.36028295466635
 20
-122.2837467176798
 30
0.0
  0
VERTEX
  5
36F
330
36D
100
AcDbEntity
  8
LAYER_1
 62
   250
100
AcDbVertex
100
AcDb2dVertex
 10
94.36028295503596
 20
-114.0720844060589
 30
0.0
  0
SEQEND
  5
370
330
36D
100
AcDbEntity
  8
LAYER_1
 62
   250
  0
POLYLINE
  5
371
330
1F
100
AcDbEntity
  8
LAYER_1
 62
   250
100
AcDb2dPolyline
 66
     1
 10
0.0
 20
0.0
 30
0.0
  0
VERTEX
  5
372
330
371
100
AcDbEntity
  8
LAYER_1
 62
   250
100
AcDbVertex
100
AcDb2dVertex
 10
94.36028295503596
 20
-114.0720844060589
 30
0.0
  0
VERTEX
  5
373
330
371
100
AcDbEntity
  8
LAYER_1
 62
   250
100
AcDbVertex
100
AcDb2dVertex
 10
97.5352829542422
 20
-114.0720844061994
 30
0.0
  0
SEQEND
  5
374
330
371
100
AcDbEntity
  8
LAYER_1
 62
   250
  0
POLYLINE
  5
375
330
1F
100
AcDbEntity
  8
LAYER_1
 62
   250
100
AcDb2dPolyline
 66
     1
 10
0.0
 20
0.0
 30
0.0
  0
VERTEX
  5
376
330
375
100
AcDbEntity
  8
LAYER_1
 62
   250
100
AcDbVertex
100
AcDb2dVertex
 10
97.5352829542422
 20
-114.0720844061994
 30
0.0
  0
VERTEX
  5
377
330
375
100
AcDbEntity
  8
LAYER_1
 62
   250
100
AcDbVertex
100
AcDb2dVertex
 10
97.53528295461055
 20
-105.8604059456959
 30
0.0
  0
SEQEND
  5
378
330
375
100
AcDbEntity
  8
LAYER_1
 62
   250
  0
POLYLINE
  5
379
330
1F
100
AcDbEntity
  8
LAYER_1
 62
   250
100
AcDb2dPolyline
 66
     1
 10
0.0
 20
0.0
 30
0.0
  0
VERTEX
  5
37A
330
379
100
AcDbEntity
  8
LAYER_1
 62
   250
100
AcDbVertex
100
AcDb2dVertex
 10
94.3602829554043
 20
-105.8604059455547
 30
0.0
  0
VERTEX
  5
37B
330
379
100
AcDbEntity
  8
LAYER_1
 62
   250
100
AcDbVertex
100
AcDb2dVertex
 10
97.53528295461055
 20
-105.8604059456959
 30
0.0
  0
SEQEND
  5
37C
330
379
100
AcDbEntity
  8
LAYER_1
 62
   250
  0
POLYLINE
  5
37D
330
1F
100
AcDbEntity
  8
LAYER_1
 62
   250
100
AcDb2dPolyline
 66
     1
 10
0.0
 20
0.0
 30
0.0
  0
VERTEX
  5
37E
330
37D
100
AcDbEntity
  8
LAYER_1
 62
   250
100
AcDbVertex
100
AcDb2dVertex
 10
94.3602829554043
 20
-105.8604059455547
 30
0.0
  0
VERTEX
  5
37F
330
37D
100
AcDbEntity
  8
LAYER_1
 62
   250
100
AcDbVertex
100
AcDb2dVertex
 10
94.36028295577263
 20
-97.64876247429845
 30
0.0
  0
SEQEND
  5
380
330
37D
100
AcDbEntity
  8
LAYER_1
 62
   250
  0
POLYLINE
  5
381
330
1F
100
AcDbEntity
  8
LAYER_1
 62
   250
100
AcDb2dPolyline
 66
     1
 10
0.0
 20
0.0
 30
0.0
  0
VERTEX
  5
382
330
381
100
AcDbEntity
  8
LAYER_1
 62
   250
100
AcDbVertex
100
AcDb2dVertex
 10
94.36028295577263
 20
-97.64876247429845
 30
0.0
  0
VERTEX
  5
383
330
381
100
AcDbEntity
  8
LAYER_1
 62
   250
100
AcDbVertex
100
AcDb2dVertex
 10
97.53528295497888
 20
-97.64876247444283
 30
0.0
  0
SEQEND
  5
384
330
381
100
AcDbEntity
  8
LAYER_1
 62
   250
  0
POLYLINE
  5
385
330
1F
100
AcDbEntity
  8
LAYER_1
 62
   250
100
AcDb2dPolyline
 66
     1
 10
0.0
 20
0.0
 30
0.0
  0
VERTEX
  5
386
330
385
100
AcDbEntity
  8
LAYER_1
 62
   250
100
AcDbVertex
100
AcDb2dVertex
 10
97.53528295497888
 20
-97.64876247444283
 30
0.0
  0
VERTEX
  5
387
330
385
100
AcDbEntity
  8
LAYER_1
 62
   250
100
AcDbVertex
100
AcDb2dVertex
 10
97.5352829553485
 20
-89.43708132245594
 30
0.0
  0
SEQEND
  5
388
330
385
100
AcDbEntity
  8
LAYER_1
 62
   250
  0
POLYLINE
  5
389
330
1F
100
AcDbEntity
  8
LAYER_1
 62
   250
100
AcDb2dPolyline
 66
     1
 10
0.0
 20
0.0
 30
0.0
  0
VERTEX
  5
38A
330
389
100
AcDbEntity
  8
LAYER_1
 62
   250
100
AcDbVertex
100
AcDb2dVertex
 10
94.36028295614226
 20
-89.43708132231156
 30
0.0
  0
VERTEX
  5
38B
330
389
100
AcDbEntity
  8
LAYER_1
 62
   250
100
AcDbVertex
100
AcDb2dVertex
 10
97.5352829553485
 20
-89.43708132245594
 30
0.0
  0
SEQEND
  5
38C
330
389
100
AcDbEntity
  8
LAYER_1
 62
   250
  0
POLYLINE
  5
38D
330
1F
100
AcDbEntity
  8
LAYER_1
 62
   250
100
AcDb2dPolyline
 66
     1
 10
0.0
 20
0.0
 30
0.0
  0
VERTEX
  5
38E
330
38D
100
AcDbEntity
  8
LAYER_1
 62
   250
100
AcDbVertex
100
AcDb2dVertex
 10
94.36028295614226
 20
-89.43708132231156
 30
0.0
  0
VERTEX
  5
38F
330
38D
100
AcDbEntity
  8
LAYER_1
 62
   250
100
AcDbVertex
100
AcDb2dVertex
 10
94.36028295651123
 20
-81.22540555328699
 30
0.0
  0
SEQEND
  5
390
330
38D
100
AcDbEntity
  8
LAYER_1
 62
   250
  0
POLYLINE
  5
391
330
1F
100
AcDbEntity
  8
LAYER_1
 62
   250
100
AcDb2dPolyline
 66
     1
 10
0.0
 20
0.0
 30
0.0
  0
VERTEX
  5
392
330
391
100
AcDbEntity
  8
LAYER_1
 62
   250
100
AcDbVertex
100
AcDb2dVertex
 10
94.36028295651123
 20
-81.22540555328699
 30
0.0
  0
VERTEX
  5
393
330
391
100
AcDbEntity
  8
LAYER_1
 62
   250
100
AcDbVertex
100
AcDb2dVertex
 10
97.53528295571748
 20
-81.22540555343137
 30
0.0
  0
SEQEND
  5
394
330
391
100
AcDbEntity
  8
LAYER_1
 62
   250
  0
POLYLINE
  5
395
330
1F
100
AcDbEntity
  8
LAYER_1
 62
   250
100
AcDb2dPolyline
 66
     1
 10
0.0
 20
0.0
 30
0.0
  0
VERTEX
  5
396
330
395
100
AcDbEntity
  8
LAYER_1
 62
   250
100
AcDbVertex
100
AcDb2dVertex
 10
97.53528295571748
 20
-81.22540555343137
 30
0.0
  0
VERTEX
  5
397
330
395
100
AcDbEntity
  8
LAYER_1
 62
   250
100
AcDbVertex
100
AcDb2dVertex
 10
97.53528295608581
 20
-73.01376208217508
 30
0.0
  0
SEQEND
  5
398
330
395
100
AcDbEntity
  8
LAYER_1
 62
   250
  0
POLYLINE
  5
399
330
1F
100
AcDbEntity
  8
LAYER_1
 62
   250
100
AcDb2dPolyline
 66
     1
 10
0.0
 20
0.0
 30
0.0
  0
VERTEX
  5
39A
330
399
100
AcDbEntity
  8
LAYER_1
 62
   250
100
AcDbVertex
100
AcDb2dVertex
 10
94.36028295687956
 20
-73.01376208203389
 30
0.0
  0
VERTEX
  5
39B
330
399
100
AcDbEntity
  8
LAYER_1
 62
   250
100
AcDbVertex
100
AcDb2dVertex
 10
97.53528295608581
 20
-73.01376208217508
 30
0.0
  0
SEQEND
  5
39C
330
399
100
AcDbEntity
  8
LAYER_1
 62
   250
  0
POLYLINE
  5
39D
330
1F
100
AcDbEntity
  8
LAYER_1
 62
   250
100
AcDb2dPolyline
 66
     1
 10
0.0
 20
0.0
 30
0.0
  0
VERTEX
  5
39E
330
39D
100
AcDbEntity
  8
LAYER_1
 62
   250
100
AcDbVertex
100
AcDb2dVertex
 10
94.36028295687956
 20
-73.01376208203389
 30
0.0
  0
VERTEX
  5
39F
330
39D
100
AcDbEntity
  8
LAYER_1
 62
   250
100
AcDbVertex
100
AcDb2dVertex
 10
94.3602829572479
 20
-64.80208093004765
 30
0.0
  0
SEQEND
  5
3A0
330
39D
100
AcDbEntity
  8
LAYER_1
 62
   250
  0
POLYLINE
  5
3A1
330
1F
100
AcDbEntity
  8
LAYER_1
 62
   250
100
AcDb2dPolyline
 66
     1
 10
0.0
 20
0.0
 30
0.0
  0
VERTEX
  5
3A2
330
3A1
100
AcDbEntity
  8
LAYER_1
 62
   250
100
AcDbVertex
100
AcDb2dVertex
 10
94.3602829572479
 20
-64.80208093004765
 30
0.0
  0
VERTEX
  5
3A3
330
3A1
100
AcDbEntity
  8
LAYER_1
 62
   250
100
AcDbVertex
100
AcDb2dVertex
 10
97.53528295645415
 20
-64.8020809301901
 30
0.0
  0
SEQEND
  5
3A4
330
3A1
100
AcDbEntity
  8
LAYER_1
 62
   250
  0
POLYLINE
  5
3A5
330
1F
100
AcDbEntity
  8
LAYER_1
 62
   250
100
AcDb2dPolyline
 66
     1
 10
0.0
 20
0.0
 30
0.0
  0
VERTEX
  5
3A6
330
3A5
100
AcDbEntity
  8
LAYER_1
 62
   250
100
AcDbVertex
100
AcDb2dVertex
 10
97.53528295645415
 20
-64.8020809301901
 30
0.0
  0
VERTEX
  5
3A7
330
3A5
100
AcDbEntity
  8
LAYER_1
 62
   250
100
AcDbVertex
100
AcDb2dVertex
 10
97.53528295682312
 20
-56.59040516116555
 30
0.0
  0
SEQEND
  5
3A8
330
3A5
100
AcDbEntity
  8
LAYER_1
 62
   250
  0
POLYLINE
  5
3A9
330
1F
100
AcDbEntity
  8
LAYER_1
 62
   250
100
AcDb2dPolyline
 66
     1
 10
0.0
 20
0.0
 30
0.0
  0
VERTEX
  5
3AA
330
3A9
100
AcDbEntity
  8
LAYER_1
 62
   250
100
AcDbVertex
100
AcDb2dVertex
 10
94.36028295761687
 20
-56.59040516102309
 30
0.0
  0
VERTEX
  5
3AB
330
3A9
100
AcDbEntity
  8
LAYER_1
 62
   250
100
AcDbVertex
100
AcDb2dVertex
 10
97.53528295682312
 20
-56.59040516116555
 30
0.0
  0
SEQEND
  5
3AC
330
3A9
100
AcDbEntity
  8
LAYER_1
 62
   250
  0
POLYLINE
  5
3AD
330
1F
100
AcDbEntity
  8
LAYER_1
 62
   250
100
AcDb2dPolyline
 66
     1
 10
0.0
 20
0.0
 30
0.0
  0
VERTEX
  5
3AE
330
3AD
100
AcDbEntity
  8
LAYER_1
 62
   250
100
AcDbVertex
100
AcDb2dVertex
 10
94.36028295761687
 20
-56.59040516102309
 30
0.0
  0
VERTEX
  5
3AF
330
3AD
100
AcDbEntity
  8
LAYER_1
 62
   250
100
AcDbVertex
100
AcDb2dVertex
 10
94.36028295798585
 20
-48.37876168976871
 30
0.0
  0
SEQEND
  5
3B0
330
3AD
100
AcDbEntity
  8
LAYER_1
 62
   250
  0
POLYLINE
  5
3B1
330
1F
100
AcDbEntity
  8
LAYER_1
 62
   250
100
AcDb2dPolyline
 66
     1
 10
0.0
 20
0.0
 30
0.0
  0
VERTEX
  5
3B2
330
3B1
100
AcDbEntity
  8
LAYER_1
 62
   250
100
AcDbVertex
100
AcDb2dVertex
 10
94.36028295798585
 20
-48.37876168976871
 30
0.0
  0
VERTEX
  5
3B3
330
3B1
100
AcDbEntity
  8
LAYER_1
 62
   250
100
AcDbVertex
100
AcDb2dVertex
 10
97.5352829571921
 20
-48.37876168991117
 30
0.0
  0
SEQEND
  5
3B4
330
3B1
100
AcDbEntity
  8
LAYER_1
 62
   250
  0
POLYLINE
  5
3B5
330
1F
100
AcDbEntity
  8
LAYER_1
 62
   250
100
AcDb2dPolyline
 66
     1
 10
0.0
 20
0.0
 30
0.0
  0
VERTEX
  5
3B6
330
3B5
100
AcDbEntity
  8
LAYER_1
 62
   250
100
AcDbVertex
100
AcDb2dVertex
 10
97.5352829571921
 20
-48.37876168991117
 30
0.0
  0
VERTEX
  5
3B7
330
3B5
100
AcDbEntity
  8
LAYER_1
 62
   250
100
AcDbVertex
100
AcDb2dVertex
 10
97.5352829575598
 20
-40.16708592088661
 30
0.0
  0
SEQEND
  5
3B8
330
3B5
100
AcDbEntity
  8
LAYER_1
 62
   250
  0
POLYLINE
  5
3B9
330
1F
100
AcDbEntity
  8
LAYER_1
 62
   250
100
AcDb2dPolyline
 66
     1
 10
0.0
 20
0.0
 30
0.0
  0
VERTEX
  5
3BA
330
3B9
100
AcDbEntity
  8
LAYER_1
 62
   250
100
AcDbVertex
100
AcDb2dVertex
 10
94.36028295835355
 20
-40.16708592074416
 30
0.0
  0
VERTEX
  5
3BB
330
3B9
100
AcDbEntity
  8
LAYER_1
 62
   250
100
AcDbVertex
100
AcDb2dVertex
 10
97.5352829575598
 20
-40.16708592088661
 30
0.0
  0
SEQEND
  5
3BC
330
3B9
100
AcDbEntity
  8
LAYER_1
 62
   250
  0
POLYLINE
  5
3BD
330
1F
100
AcDbEntity
  8
LAYER_1
 62
   250
100
AcDb2dPolyline
 66
     1
 10
0.0
 20
0.0
 30
0.0
  0
VERTEX
  5
3BE
330
3BD
100
AcDbEntity
  8
LAYER_1
 62
   250
100
AcDbVertex
100
AcDb2dVertex
 10
94.36028295835355
 20
-40.16708592074416
 30
0.0
  0
VERTEX
  5
3BF
330
3BD
100
AcDbEntity
  8
LAYER_1
 62
   250
100
AcDbVertex
100
AcDb2dVertex
 10
94.36028295872188
 20
-31.95539938579621
 30
0.0
  0
SEQEND
  5
3C0
330
3BD
100
AcDbEntity
  8
LAYER_1
 62
   250
  0
POLYLINE
  5
3C1
330
1F
100
AcDbEntity
  8
LAYER_1
 62
   250
100
AcDb2dPolyline
 66
     1
 10
0.0
 20
0.0
 30
0.0
  0
VERTEX
  5
3C2
330
3C1
100
AcDbEntity
  8
LAYER_1
 62
   250
100
AcDbVertex
100
AcDb2dVertex
 10
94.36028295872188
 20
-31.95539938579621
 30
0.0
  0
VERTEX
  5
3C3
330
3C1
100
AcDbEntity
  8
LAYER_1
 62
   250
100
AcDbVertex
100
AcDb2dVertex
 10
97.53528295792813
 20
-31.95539938593867
 30
0.0
  0
SEQEND
  5
3C4
330
3C1
100
AcDbEntity
  8
LAYER_1
 62
   250
  0
POLYLINE
  5
3C5
330
1F
100
AcDbEntity
  8
LAYER_1
 62
   250
100
AcDb2dPolyline
 66
     1
 10
0.0
 20
0.0
 30
0.0
  0
VERTEX
  5
3C6
330
3C5
100
AcDbEntity
  8
LAYER_1
 62
   250
100
AcDbVertex
100
AcDb2dVertex
 10
97.53528295792813
 20
-31.95539938593867
 30
0.0
  0
VERTEX
  5
3C7
330
3C5
100
AcDbEntity
  8
LAYER_1
 62
   250
100
AcDbVertex
100
AcDb2dVertex
 10
97.53528295829774
 20
-23.74375591468429
 30
0.0
  0
SEQEND
  5
3C8
330
3C5
100
AcDbEntity
  8
LAYER_1
 62
   250
  0
POLYLINE
  5
3C9
330
1F
100
AcDbEntity
  8
LAYER_1
 62
   250
100
AcDb2dPolyline
 66
     1
 10
0.0
 20
0.0
 30
0.0
  0
VERTEX
  5
3CA
330
3C9
100
AcDbEntity
  8
LAYER_1
 62
   250
100
AcDbVertex
100
AcDb2dVertex
 10
34.3602631325039
 20
-138.7070794126691
 30
0.0
  0
VERTEX
  5
3CB
330
3C9
100
AcDbEntity
  8
LAYER_1
 62
   250
100
AcDbVertex
100
AcDb2dVertex
 10
34.36026313213556
 20
-146.9187437428988
 30
0.0
  0
VERTEX
  5
3CC
330
3C9
100
AcDbEntity
  8
LAYER_1
 62
   250
100
AcDbVertex
100
AcDb2dVertex
 10
97.53528295276759
 20
-146.9187437457351
 30
0.0
  0
VERTEX
  5
3CD
330
3C9
100
AcDbEntity
  8
LAYER_1
 62
   250
100
AcDbVertex
100
AcDb2dVertex
 10
97.53528295313592
 20
-138.7070794155055
 30
0.0
  0
SEQEND
  5
3CE
330
3C9
100
AcDbEntity
  8
LAYER_1
 62
   250
  0
POLYLINE
  5
3CF
330
1F
100
AcDbEntity
  8
LAYER_1
 62
   250
100
AcDb2dPolyline
 66
     1
 10
0.0
 20
0.0
 30
0.0
  0
VERTEX
  5
3D0
330
3CF
100
AcDbEntity
  8
LAYER_1
 62
   250
100
AcDbVertex
100
AcDb2dVertex
 10
31.18526313329764
 20
-138.7070794125241
 30
0.0
  0
VERTEX
  5
3D1
330
3CF
100
AcDbEntity
  8
LAYER_1
 62
   250
100
AcDbVertex
100
AcDb2dVertex
 10
34.3602631325039
 20
-138.7070794126691
 30
0.0
  0
SEQEND
  5
3D2
330
3CF
100
AcDbEntity
  8
LAYER_1
 62
   250
  0
POLYLINE
  5
3D3
330
1F
100
AcDbEntity
  8
LAYER_1
 62
   250
100
AcDb2dPolyline
 66
     1
 10
0.0
 20
0.0
 30
0.0
  0
VERTEX
  5
3D4
330
3D3
100
AcDbEntity
  8
LAYER_1
 62
   250
100
AcDbVertex
100
AcDb2dVertex
 10
31.18526313329764
 20
-138.7070794125241
 30
0.0
  0
VERTEX
  5
3D5
330
3D3
100
AcDbEntity
  8
LAYER_1
 62
   250
100
AcDbVertex
100
AcDb2dVertex
 10
31.18526313366662
 20
-130.4954117179441
 30
0.0
  0
SEQEND
  5
3D6
330
3D3
100
AcDbEntity
  8
LAYER_1
 62
   250
  0
POLYLINE
  5
3D7
330
1F
100
AcDbEntity
  8
LAYER_1
 62
   250
100
AcDb2dPolyline
 66
     1
 10
0.0
 20
0.0
 30
0.0
  0
VERTEX
  5
3D8
330
3D7
100
AcDbEntity
  8
LAYER_1
 62
   250
100
AcDbVertex
100
AcDb2dVertex
 10
31.18526313366662
 20
-130.4954117179441
 30
0.0
  0
VERTEX
  5
3D9
330
3D7
100
AcDbEntity
  8
LAYER_1
 62
   250
100
AcDbVertex
100
AcDb2dVertex
 10
34.36026313287287
 20
-130.4954117180852
 30
0.0
  0
SEQEND
  5
3DA
330
3D7
100
AcDbEntity
  8
LAYER_1
 62
   250
  0
POLYLINE
  5
3DB
330
1F
100
AcDbEntity
  8
LAYER_1
 62
   250
100
AcDb2dPolyline
 66
     1
 10
0.0
 20
0.0
 30
0.0
  0
VERTEX
  5
3DC
330
3DB
100
AcDbEntity
  8
LAYER_1
 62
   250
100
AcDbVertex
100
AcDb2dVertex
 10
34.36026313287287
 20
-130.4954117180852
 30
0.0
  0
VERTEX
  5
3DD
330
3DB
100
AcDbEntity
  8
LAYER_1
 62
   250
100
AcDbVertex
100
AcDb2dVertex
 10
34.36026313324184
 20
-122.2837467149847
 30
0.0
  0
SEQEND
  5
3DE
330
3DB
100
AcDbEntity
  8
LAYER_1
 62
   250
  0
POLYLINE
  5
3DF
330
1F
100
AcDbEntity
  8
LAYER_1
 62
   250
100
AcDb2dPolyline
 66
     1
 10
0.0
 20
0.0
 30
0.0
  0
VERTEX
  5
3E0
330
3DF
100
AcDbEntity
  8
LAYER_1
 62
   250
100
AcDbVertex
100
AcDb2dVertex
 10
31.1852631340356
 20
-122.2837467148435
 30
0.0
  0
VERTEX
  5
3E1
330
3DF
100
AcDbEntity
  8
LAYER_1
 62
   250
100
AcDbVertex
100
AcDb2dVertex
 10
34.36026313324184
 20
-122.2837467149847
 30
0.0
  0
SEQEND
  5
3E2
330
3DF
100
AcDbEntity
  8
LAYER_1
 62
   250
  0
POLYLINE
  5
3E3
330
1F
100
AcDbEntity
  8
LAYER_1
 62
   250
100
AcDb2dPolyline
 66
     1
 10
0.0
 20
0.0
 30
0.0
  0
VERTEX
  5
3E4
330
3E3
100
AcDbEntity
  8
LAYER_1
 62
   250
100
AcDbVertex
100
AcDb2dVertex
 10
31.1852631340356
 20
-122.2837467148435
 30
0.0
  0
VERTEX
  5
3E5
330
3E3
100
AcDbEntity
  8
LAYER_1
 62
   250
100
AcDbVertex
100
AcDb2dVertex
 10
31.18526313440393
 20
-114.0720844032219
 30
0.0
  0
SEQEND
  5
3E6
330
3E3
100
AcDbEntity
  8
LAYER_1
 62
   250
  0
POLYLINE
  5
3E7
330
1F
100
AcDbEntity
  8
LAYER_1
 62
   250
100
AcDb2dPolyline
 66
     1
 10
0.0
 20
0.0
 30
0.0
  0
VERTEX
  5
3E8
330
3E7
100
AcDbEntity
  8
LAYER_1
 62
   250
100
AcDbVertex
100
AcDb2dVertex
 10
31.18526313440393
 20
-114.0720844032219
 30
0.0
  0
VERTEX
  5
3E9
330
3E7
100
AcDbEntity
  8
LAYER_1
 62
   250
100
AcDbVertex
100
AcDb2dVertex
 10
34.36026313361018
 20
-114.0720844033631
 30
0.0
  0
SEQEND
  5
3EA
330
3E7
100
AcDbEntity
  8
LAYER_1
 62
   250
  0
POLYLINE
  5
3EB
330
1F
100
AcDbEntity
  8
LAYER_1
 62
   250
100
AcDb2dPolyline
 66
     1
 10
0.0
 20
0.0
 30
0.0
  0
VERTEX
  5
3EC
330
3EB
100
AcDbEntity
  8
LAYER_1
 62
   250
100
AcDbVertex
100
AcDb2dVertex
 10
34.36026313361018
 20
-114.0720844033631
 30
0.0
  0
VERTEX
  5
3ED
330
3EB
100
AcDbEntity
  8
LAYER_1
 62
   250
100
AcDbVertex
100
AcDb2dVertex
 10
34.36026313397851
 20
-105.8604059428596
 30
0.0
  0
SEQEND
  5
3EE
330
3EB
100
AcDbEntity
  8
LAYER_1
 62
   250
  0
POLYLINE
  5
3EF
330
1F
100
AcDbEntity
  8
LAYER_1
 62
   250
100
AcDb2dPolyline
 66
     1
 10
0.0
 20
0.0
 30
0.0
  0
VERTEX
  5
3F0
330
3EF
100
AcDbEntity
  8
LAYER_1
 62
   250
100
AcDbVertex
100
AcDb2dVertex
 10
31.18526313477227
 20
-105.8604059427184
 30
0.0
  0
VERTEX
  5
3F1
330
3EF
100
AcDbEntity
  8
LAYER_1
 62
   250
100
AcDbVertex
100
AcDb2dVertex
 10
34.36026313397851
 20
-105.8604059428596
 30
0.0
  0
SEQEND
  5
3F2
330
3EF
100
AcDbEntity
  8
LAYER_1
 62
   250
  0
POLYLINE
  5
3F3
330
1F
100
AcDbEntity
  8
LAYER_1
 62
   250
100
AcDb2dPolyline
 66
     1
 10
0.0
 20
0.0
 30
0.0
  0
VERTEX
  5
3F4
330
3F3
100
AcDbEntity
  8
LAYER_1
 62
   250
100
AcDbVertex
100
AcDb2dVertex
 10
31.18526313477227
 20
-105.8604059427184
 30
0.0
  0
VERTEX
  5
3F5
330
3F3
100
AcDbEntity
  8
LAYER_1
 62
   250
100
AcDbVertex
100
AcDb2dVertex
 10
31.1852631351406
 20
-97.64876247146213
 30
0.0
  0
SEQEND
  5
3F6
330
3F3
100
AcDbEntity
  8
LAYER_1
 62
   250
  0
POLYLINE
  5
3F7
330
1F
100
AcDbEntity
  8
LAYER_1
 62
   250
100
AcDb2dPolyline
 66
     1
 10
0.0
 20
0.0
 30
0.0
  0
VERTEX
  5
3F8
330
3F7
100
AcDbEntity
  8
LAYER_1
 62
   250
100
AcDbVertex
100
AcDb2dVertex
 10
31.1852631351406
 20
-97.64876247146213
 30
0.0
  0
VERTEX
  5
3F9
330
3F7
100
AcDbEntity
  8
LAYER_1
 62
   250
100
AcDbVertex
100
AcDb2dVertex
 10
34.36026313434685
 20
-97.64876247160652
 30
0.0
  0
SEQEND
  5
3FA
330
3F7
100
AcDbEntity
  8
LAYER_1
 62
   250
  0
POLYLINE
  5
3FB
330
1F
100
AcDbEntity
  8
LAYER_1
 62
   250
100
AcDb2dPolyline
 66
     1
 10
0.0
 20
0.0
 30
0.0
  0
VERTEX
  5
3FC
330
3FB
100
AcDbEntity
  8
LAYER_1
 62
   250
100
AcDbVertex
100
AcDb2dVertex
 10
34.36026313434685
 20
-97.64876247160652
 30
0.0
  0
VERTEX
  5
3FD
330
3FB
100
AcDbEntity
  8
LAYER_1
 62
   250
100
AcDbVertex
100
AcDb2dVertex
 10
34.36026313471647
 20
-89.43708131961962
 30
0.0
  0
SEQEND
  5
3FE
330
3FB
100
AcDbEntity
  8
LAYER_1
 62
   250
  0
POLYLINE
  5
3FF
330
1F
100
AcDbEntity
  8
LAYER_1
 62
   250
100
AcDb2dPolyline
 66
     1
 10
0.0
 20
0.0
 30
0.0
  0
VERTEX
  5
400
330
3FF
100
AcDbEntity
  8
LAYER_1
 62
   250
100
AcDbVertex
100
AcDb2dVertex
 10
31.18526313551022
 20
-89.43708131947524
 30
0.0
  0
VERTEX
  5
401
330
3FF
100
AcDbEntity
  8
LAYER_1
 62
   250
100
AcDbVertex
100
AcDb2dVertex
 10
34.36026313471647
 20
-89.43708131961962
 30
0.0
  0
SEQEND
  5
402
330
3FF
100
AcDbEntity
  8
LAYER_1
 62
   250
  0
POLYLINE
  5
403
330
1F
100
AcDbEntity
  8
LAYER_1
 62
   250
100
AcDb2dPolyline
 66
     1
 10
0.0
 20
0.0
 30
0.0
  0
VERTEX
  5
404
330
403
100
AcDbEntity
  8
LAYER_1
 62
   250
100
AcDbVertex
100
AcDb2dVertex
 10
31.18526313551022
 20
-89.43708131947524
 30
0.0
  0
VERTEX
  5
405
330
403
100
AcDbEntity
  8
LAYER_1
 62
   250
100
AcDbVertex
100
AcDb2dVertex
 10
31.18526313587791
 20
-81.22540555045069
 30
0.0
  0
SEQEND
  5
406
330
403
100
AcDbEntity
  8
LAYER_1
 62
   250
  0
POLYLINE
  5
407
330
1F
100
AcDbEntity
  8
LAYER_1
 62
   250
100
AcDb2dPolyline
 66
     1
 10
0.0
 20
0.0
 30
0.0
  0
VERTEX
  5
408
330
407
100
AcDbEntity
  8
LAYER_1
 62
   250
100
AcDbVertex
100
AcDb2dVertex
 10
31.18526313587791
 20
-81.22540555045069
 30
0.0
  0
VERTEX
  5
409
330
407
100
AcDbEntity
  8
LAYER_1
 62
   250
100
AcDbVertex
100
AcDb2dVertex
 10
34.36026313508417
 20
-81.22540555059507
 30
0.0
  0
SEQEND
  5
40A
330
407
100
AcDbEntity
  8
LAYER_1
 62
   250
  0
POLYLINE
  5
40B
330
1F
100
AcDbEntity
  8
LAYER_1
 62
   250
100
AcDb2dPolyline
 66
     1
 10
0.0
 20
0.0
 30
0.0
  0
VERTEX
  5
40C
330
40B
100
AcDbEntity
  8
LAYER_1
 62
   250
100
AcDbVertex
100
AcDb2dVertex
 10
34.36026313508417
 20
-81.22540555059507
 30
0.0
  0
VERTEX
  5
40D
330
40B
100
AcDbEntity
  8
LAYER_1
 62
   250
100
AcDbVertex
100
AcDb2dVertex
 10
34.36026313545314
 20
-73.01376207933876
 30
0.0
  0
SEQEND
  5
40E
330
40B
100
AcDbEntity
  8
LAYER_1
 62
   250
  0
POLYLINE
  5
40F
330
1F
100
AcDbEntity
  8
LAYER_1
 62
   250
100
AcDb2dPolyline
 66
     1
 10
0.0
 20
0.0
 30
0.0
  0
VERTEX
  5
410
330
40F
100
AcDbEntity
  8
LAYER_1
 62
   250
100
AcDbVertex
100
AcDb2dVertex
 10
31.18526313624689
 20
-73.01376207919759
 30
0.0
  0
VERTEX
  5
411
330
40F
100
AcDbEntity
  8
LAYER_1
 62
   250
100
AcDbVertex
100
AcDb2dVertex
 10
34.36026313545314
 20
-73.01376207933876
 30
0.0
  0
SEQEND
  5
412
330
40F
100
AcDbEntity
  8
LAYER_1
 62
   250
  0
POLYLINE
  5
413
330
1F
100
AcDbEntity
  8
LAYER_1
 62
   250
100
AcDb2dPolyline
 66
     1
 10
0.0
 20
0.0
 30
0.0
  0
VERTEX
  5
414
330
413
100
AcDbEntity
  8
LAYER_1
 62
   250
100
AcDbVertex
100
AcDb2dVertex
 10
31.18526313624689
 20
-73.01376207919759
 30
0.0
  0
VERTEX
  5
415
330
413
100
AcDbEntity
  8
LAYER_1
 62
   250
100
AcDbVertex
100
AcDb2dVertex
 10
31.18526313661587
 20
-64.80208092721134
 30
0.0
  0
SEQEND
  5
416
330
413
100
AcDbEntity
  8
LAYER_1
 62
   250
  0
POLYLINE
  5
417
330
1F
100
AcDbEntity
  8
LAYER_1
 62
   250
100
AcDb2dPolyline
 66
     1
 10
0.0
 20
0.0
 30
0.0
  0
VERTEX
  5
418
330
417
100
AcDbEntity
  8
LAYER_1
 62
   250
100
AcDbVertex
100
AcDb2dVertex
 10
31.18526313661587
 20
-64.80208092721134
 30
0.0
  0
VERTEX
  5
419
330
417
100
AcDbEntity
  8
LAYER_1
 62
   250
100
AcDbVertex
100
AcDb2dVertex
 10
34.36026313582212
 20
-64.8020809273538
 30
0.0
  0
SEQEND
  5
41A
330
417
100
AcDbEntity
  8
LAYER_1
 62
   250
  0
POLYLINE
  5
41B
330
1F
100
AcDbEntity
  8
LAYER_1
 62
   250
100
AcDb2dPolyline
 66
     1
 10
0.0
 20
0.0
 30
0.0
  0
VERTEX
  5
41C
330
41B
100
AcDbEntity
  8
LAYER_1
 62
   250
100
AcDbVertex
100
AcDb2dVertex
 10
34.36026313582212
 20
-64.8020809273538
 30
0.0
  0
VERTEX
  5
41D
330
41B
100
AcDbEntity
  8
LAYER_1
 62
   250
100
AcDbVertex
100
AcDb2dVertex
 10
34.36026313619109
 20
-56.59040515832924
 30
0.0
  0
SEQEND
  5
41E
330
41B
100
AcDbEntity
  8
LAYER_1
 62
   250
  0
POLYLINE
  5
41F
330
1F
100
AcDbEntity
  8
LAYER_1
 62
   250
100
AcDb2dPolyline
 66
     1
 10
0.0
 20
0.0
 30
0.0
  0
VERTEX
  5
420
330
41F
100
AcDbEntity
  8
LAYER_1
 62
   250
100
AcDbVertex
100
AcDb2dVertex
 10
31.18526313698484
 20
-56.59040515818678
 30
0.0
  0
VERTEX
  5
421
330
41F
100
AcDbEntity
  8
LAYER_1
 62
   250
100
AcDbVertex
100
AcDb2dVertex
 10
34.36026313619109
 20
-56.59040515832924
 30
0.0
  0
SEQEND
  5
422
330
41F
100
AcDbEntity
  8
LAYER_1
 62
   250
  0
POLYLINE
  5
423
330
1F
100
AcDbEntity
  8
LAYER_1
 62
   250
100
AcDb2dPolyline
 66
     1
 10
0.0
 20
0.0
 30
0.0
  0
VERTEX
  5
424
330
423
100
AcDbEntity
  8
LAYER_1
 62
   250
100
AcDbVertex
100
AcDb2dVertex
 10
31.18526313698484
 20
-56.59040515818678
 30
0.0
  0
VERTEX
  5
425
330
423
100
AcDbEntity
  8
LAYER_1
 62
   250
100
AcDbVertex
100
AcDb2dVertex
 10
31.18526313735318
 20
-48.3787616869324
 30
0.0
  0
SEQEND
  5
426
330
423
100
AcDbEntity
  8
LAYER_1
 62
   250
  0
POLYLINE
  5
427
330
1F
100
AcDbEntity
  8
LAYER_1
 62
   250
100
AcDb2dPolyline
 66
     1
 10
0.0
 20
0.0
 30
0.0
  0
VERTEX
  5
428
330
427
100
AcDbEntity
  8
LAYER_1
 62
   250
100
AcDbVertex
100
AcDb2dVertex
 10
31.18526313735318
 20
-48.3787616869324
 30
0.0
  0
VERTEX
  5
429
330
427
100
AcDbEntity
  8
LAYER_1
 62
   250
100
AcDbVertex
100
AcDb2dVertex
 10
34.36026313655943
 20
-48.37876168707486
 30
0.0
  0
SEQEND
  5
42A
330
427
100
AcDbEntity
  8
LAYER_1
 62
   250
  0
POLYLINE
  5
42B
330
1F
100
AcDbEntity
  8
LAYER_1
 62
   250
100
AcDb2dPolyline
 66
     1
 10
0.0
 20
0.0
 30
0.0
  0
VERTEX
  5
42C
330
42B
100
AcDbEntity
  8
LAYER_1
 62
   250
100
AcDbVertex
100
AcDb2dVertex
 10
34.36026313655943
 20
-48.37876168707486
 30
0.0
  0
VERTEX
  5
42D
330
42B
100
AcDbEntity
  8
LAYER_1
 62
   250
100
AcDbVertex
100
AcDb2dVertex
 10
34.36026313692841
 20
-40.1670859180503
 30
0.0
  0
SEQEND
  5
42E
330
42B
100
AcDbEntity
  8
LAYER_1
 62
   250
  0
POLYLINE
  5
42F
330
1F
100
AcDbEntity
  8
LAYER_1
 62
   250
100
AcDb2dPolyline
 66
     1
 10
0.0
 20
0.0
 30
0.0
  0
VERTEX
  5
430
330
42F
100
AcDbEntity
  8
LAYER_1
 62
   250
100
AcDbVertex
100
AcDb2dVertex
 10
31.18526313772216
 20
-40.16708591790785
 30
0.0
  0
VERTEX
  5
431
330
42F
100
AcDbEntity
  8
LAYER_1
 62
   250
100
AcDbVertex
100
AcDb2dVertex
 10
34.36026313692841
 20
-40.1670859180503
 30
0.0
  0
SEQEND
  5
432
330
42F
100
AcDbEntity
  8
LAYER_1
 62
   250
  0
POLYLINE
  5
433
330
1F
100
AcDbEntity
  8
LAYER_1
 62
   250
100
AcDb2dPolyline
 66
     1
 10
0.0
 20
0.0
 30
0.0
  0
VERTEX
  5
434
330
433
100
AcDbEntity
  8
LAYER_1
 62
   250
100
AcDbVertex
100
AcDb2dVertex
 10
31.18526313772216
 20
-40.16708591790785
 30
0.0
  0
VERTEX
  5
435
330
433
100
AcDbEntity
  8
LAYER_1
 62
   250
100
AcDbVertex
100
AcDb2dVertex
 10
31.18526313808985
 20
-31.9553993829599
 30
0.0
  0
SEQEND
  5
436
330
433
100
AcDbEntity
  8
LAYER_1
 62
   250
  0
POLYLINE
  5
437
330
1F
100
AcDbEntity
  8
LAYER_1
 62
   250
100
AcDb2dPolyline
 66
     1
 10
0.0
 20
0.0
 30
0.0
  0
VERTEX
  5
438
330
437
100
AcDbEntity
  8
LAYER_1
 62
   250
100
AcDbVertex
100
AcDb2dVertex
 10
31.18526313808985
 20
-31.9553993829599
 30
0.0
  0
VERTEX
  5
439
330
437
100
AcDbEntity
  8
LAYER_1
 62
   250
100
AcDbVertex
100
AcDb2dVertex
 10
34.3602631372961
 20
-31.95539938310236
 30
0.0
  0
SEQEND
  5
43A
330
437
100
AcDbEntity
  8
LAYER_1
 62
   250
  0
POLYLINE
  5
43B
330
1F
100
AcDbEntity
  8
LAYER_1
 62
   250
100
AcDb2dPolyline
 66
     1
 10
0.0
 20
0.0
 30
0.0
  0
VERTEX
  5
43C
330
43B
100
AcDbEntity
  8
LAYER_1
 62
   250
100
AcDbVertex
100
AcDb2dVertex
 10
34.3602631372961
 20
-31.95539938310236
 30
0.0
  0
VERTEX
  5
43D
330
43B
100
AcDbEntity
  8
LAYER_1
 62
   250
100
AcDbVertex
100
AcDb2dVertex
 10
34.36026313766572
 20
-23.74375591184797
 30
0.0
  0
SEQEND
  5
43E
330
43B
100
AcDbEntity
  8
LAYER_1
 62
   250
  0
POLYLINE
  5
43F
330
1F
100
AcDbEntity
  8
LAYER_1
 62
   250
100
AcDb2dPolyline
 66
     1
 10
0.0
 20
0.0
 30
0.0
  0
VERTEX
  5
440
330
43F
100
AcDbEntity
  8
LAYER_1
 62
   250
100
AcDbVertex
100
AcDb2dVertex
 10
307.1394783830057
 20
-23.74374714855114
 30
0.0
  0
VERTEX
  5
441
330
43F
100
AcDbEntity
  8
LAYER_1
 62
   250
100
AcDbVertex
100
AcDb2dVertex
 10
298.656146741916
 20
-23.74374714931283
 30
0.0
  0
SEQEND
  5
442
330
43F
100
AcDbEntity
  8
LAYER_1
 62
   250
  0
POLYLINE
  5
443
330
1F
100
AcDbEntity
  8
LAYER_1
 62
   250
100
AcDb2dPolyline
 66
     1
 10
0.0
 20
0.0
 30
0.0
  0
VERTEX
  5
444
330
443
100
AcDbEntity
  8
LAYER_1
 62
   250
100
AcDbVertex
100
AcDb2dVertex
 10
298.656146742201
 20
-26.91874714851908
 30
0.0
  0
VERTEX
  5
445
330
443
100
AcDbEntity
  8
LAYER_1
 62
   250
100
AcDbVertex
100
AcDb2dVertex
 10
298.656146741916
 20
-23.74374714931283
 30
0.0
  0
SEQEND
  5
446
330
443
100
AcDbEntity
  8
LAYER_1
 62
   250
  0
POLYLINE
  5
447
330
1F
100
AcDbEntity
  8
LAYER_1
 62
   250
100
AcDb2dPolyline
 66
     1
 10
0.0
 20
0.0
 30
0.0
  0
VERTEX
  5
448
330
447
100
AcDbEntity
  8
LAYER_1
 62
   250
100
AcDbVertex
100
AcDb2dVertex
 10
298.656146742201
 20
-26.91874714851908
 30
0.0
  0
VERTEX
  5
449
330
447
100
AcDbEntity
  8
LAYER_1
 62
   250
100
AcDbVertex
100
AcDb2dVertex
 10
290.1728144282411
 20
-26.91874714928142
 30
0.0
  0
SEQEND
  5
44A
330
447
100
AcDbEntity
  8
LAYER_1
 62
   250
  0
POLYLINE
  5
44B
330
1F
100
AcDbEntity
  8
LAYER_1
 62
   250
100
AcDb2dPolyline
 66
     1
 10
0.0
 20
0.0
 30
0.0
  0
VERTEX
  5
44C
330
44B
100
AcDbEntity
  8
LAYER_1
 62
   250
100
AcDbVertex
100
AcDb2dVertex
 10
290.1728144282411
 20
-26.91874714928142
 30
0.0
  0
VERTEX
  5
44D
330
44B
100
AcDbEntity
  8
LAYER_1
 62
   250
100
AcDbVertex
100
AcDb2dVertex
 10
290.1728144279562
 20
-23.74374715007517
 30
0.0
  0
SEQEND
  5
44E
330
44B
100
AcDbEntity
  8
LAYER_1
 62
   250
  0
POLYLINE
  5
44F
330
1F
100
AcDbEntity
  8
LAYER_1
 62
   250
100
AcDb2dPolyline
 66
     1
 10
0.0
 20
0.0
 30
0.0
  0
VERTEX
  5
450
330
44F
100
AcDbEntity
  8
LAYER_1
 62
   250
100
AcDbVertex
100
AcDb2dVertex
 10
290.1728144279562
 20
-23.74374715007517
 30
0.0
  0
VERTEX
  5
451
330
44F
100
AcDbEntity
  8
LAYER_1
 62
   250
100
AcDbVertex
100
AcDb2dVertex
 10
281.6894767310345
 20
-23.74374715083623
 30
0.0
  0
SEQEND
  5
452
330
44F
100
AcDbEntity
  8
LAYER_1
 62
   250
  0
POLYLINE
  5
453
330
1F
100
AcDbEntity
  8
LAYER_1
 62
   250
100
AcDb2dPolyline
 66
     1
 10
0.0
 20
0.0
 30
0.0
  0
VERTEX
  5
454
330
453
100
AcDbEntity
  8
LAYER_1
 62
   250
100
AcDbVertex
100
AcDb2dVertex
 10
281.6894767313195
 20
-26.91874715004248
 30
0.0
  0
VERTEX
  5
455
330
453
100
AcDbEntity
  8
LAYER_1
 62
   250
100
AcDbVertex
100
AcDb2dVertex
 10
281.6894767310345
 20
-23.74374715083623
 30
0.0
  0
SEQEND
  5
456
330
453
100
AcDbEntity
  8
LAYER_1
 62
   250
  0
POLYLINE
  5
457
330
1F
100
AcDbEntity
  8
LAYER_1
 62
   250
100
AcDb2dPolyline
 66
     1
 10
0.0
 20
0.0
 30
0.0
  0
VERTEX
  5
458
330
457
100
AcDbEntity
  8
LAYER_1
 62
   250
100
AcDbVertex
100
AcDb2dVertex
 10
281.6894767313195
 20
-26.91874715004248
 30
0.0
  0
VERTEX
  5
459
330
457
100
AcDbEntity
  8
LAYER_1
 62
   250
100
AcDbVertex
100
AcDb2dVertex
 10
273.2061578747638
 20
-26.91874715080482
 30
0.0
  0
SEQEND
  5
45A
330
457
100
AcDbEntity
  8
LAYER_1
 62
   250
  0
POLYLINE
  5
45B
330
1F
100
AcDbEntity
  8
LAYER_1
 62
   250
100
AcDb2dPolyline
 66
     1
 10
0.0
 20
0.0
 30
0.0
  0
VERTEX
  5
45C
330
45B
100
AcDbEntity
  8
LAYER_1
 62
   250
100
AcDbVertex
100
AcDb2dVertex
 10
273.2061578747638
 20
-26.91874715080482
 30
0.0
  0
VERTEX
  5
45D
330
45B
100
AcDbEntity
  8
LAYER_1
 62
   250
100
AcDbVertex
100
AcDb2dVertex
 10
273.2061578744789
 20
-23.74374715159857
 30
0.0
  0
SEQEND
  5
45E
330
45B
100
AcDbEntity
  8
LAYER_1
 62
   250
  0
POLYLINE
  5
45F
330
1F
100
AcDbEntity
  8
LAYER_1
 62
   250
100
AcDb2dPolyline
 66
     1
 10
0.0
 20
0.0
 30
0.0
  0
VERTEX
  5
460
330
45F
100
AcDbEntity
  8
LAYER_1
 62
   250
100
AcDbVertex
100
AcDb2dVertex
 10
273.2061578744789
 20
-23.74374715159857
 30
0.0
  0
VERTEX
  5
461
330
45F
100
AcDbEntity
  8
LAYER_1
 62
   250
100
AcDbVertex
100
AcDb2dVertex
 10
264.7228040286722
 20
-23.74374715235898
 30
0.0
  0
SEQEND
  5
462
330
45F
100
AcDbEntity
  8
LAYER_1
 62
   250
  0
POLYLINE
  5
463
330
1F
100
AcDbEntity
  8
LAYER_1
 62
   250
100
AcDb2dPolyline
 66
     1
 10
0.0
 20
0.0
 30
0.0
  0
VERTEX
  5
464
330
463
100
AcDbEntity
  8
LAYER_1
 62
   250
100
AcDbVertex
100
AcDb2dVertex
 10
264.7228040289571
 20
-26.91874715156523
 30
0.0
  0
VERTEX
  5
465
330
463
100
AcDbEntity
  8
LAYER_1
 62
   250
100
AcDbVertex
100
AcDb2dVertex
 10
264.7228040286722
 20
-23.74374715235898
 30
0.0
  0
SEQEND
  5
466
330
463
100
AcDbEntity
  8
LAYER_1
 62
   250
  0
POLYLINE
  5
467
330
1F
100
AcDbEntity
  8
LAYER_1
 62
   250
100
AcDb2dPolyline
 66
     1
 10
0.0
 20
0.0
 30
0.0
  0
VERTEX
  5
468
330
467
100
AcDbEntity
  8
LAYER_1
 62
   250
100
AcDbVertex
100
AcDb2dVertex
 10
264.7228040289571
 20
-26.91874715156523
 30
0.0
  0
VERTEX
  5
469
330
467
100
AcDbEntity
  8
LAYER_1
 62
   250
100
AcDbVertex
100
AcDb2dVertex
 10
256.2394878638823
 20
-26.91874715232693
 30
0.0
  0
SEQEND
  5
46A
330
467
100
AcDbEntity
  8
LAYER_1
 62
   250
  0
POLYLINE
  5
46B
330
1F
100
AcDbEntity
  8
LAYER_1
 62
   250
100
AcDb2dPolyline
 66
     1
 10
0.0
 20
0.0
 30
0.0
  0
VERTEX
  5
46C
330
46B
100
AcDbEntity
  8
LAYER_1
 62
   250
100
AcDbVertex
100
AcDb2dVertex
 10
256.2394878638823
 20
-26.91874715232693
 30
0.0
  0
VERTEX
  5
46D
330
46B
100
AcDbEntity
  8
LAYER_1
 62
   250
100
AcDbVertex
100
AcDb2dVertex
 10
256.2394878635974
 20
-23.74374715312068
 30
0.0
  0
SEQEND
  5
46E
330
46B
100
AcDbEntity
  8
LAYER_1
 62
   250
  0
POLYLINE
  5
46F
330
1F
100
AcDbEntity
  8
LAYER_1
 62
   250
100
AcDb2dPolyline
 66
     1
 10
0.0
 20
0.0
 30
0.0
  0
VERTEX
  5
470
330
46F
100
AcDbEntity
  8
LAYER_1
 62
   250
100
AcDbVertex
100
AcDb2dVertex
 10
256.2394878635974
 20
-23.74374715312068
 30
0.0
  0
VERTEX
  5
471
330
46F
100
AcDbEntity
  8
LAYER_1
 62
   250
100
AcDbVertex
100
AcDb2dVertex
 10
247.7561340177907
 20
-23.74374715388173
 30
0.0
  0
SEQEND
  5
472
330
46F
100
AcDbEntity
  8
LAYER_1
 62
   250
  0
POLYLINE
  5
473
330
1F
100
AcDbEntity
  8
LAYER_1
 62
   250
100
AcDb2dPolyline
 66
     1
 10
0.0
 20
0.0
 30
0.0
  0
VERTEX
  5
474
330
473
100
AcDbEntity
  8
LAYER_1
 62
   250
100
AcDbVertex
100
AcDb2dVertex
 10
247.7561340180756
 20
-26.91874715308798
 30
0.0
  0
VERTEX
  5
475
330
473
100
AcDbEntity
  8
LAYER_1
 62
   250
100
AcDbVertex
100
AcDb2dVertex
 10
247.7561340177907
 20
-23.74374715388173
 30
0.0
  0
SEQEND
  5
476
330
473
100
AcDbEntity
  8
LAYER_1
 62
   250
  0
POLYLINE
  5
477
330
1F
100
AcDbEntity
  8
LAYER_1
 62
   250
100
AcDb2dPolyline
 66
     1
 10
0.0
 20
0.0
 30
0.0
  0
VERTEX
  5
478
330
477
100
AcDbEntity
  8
LAYER_1
 62
   250
100
AcDbVertex
100
AcDb2dVertex
 10
247.7561340180756
 20
-26.91874715308798
 30
0.0
  0
VERTEX
  5
479
330
477
100
AcDbEntity
  8
LAYER_1
 62
   250
100
AcDbVertex
100
AcDb2dVertex
 10
239.2728178530008
 20
-26.91874715385032
 30
0.0
  0
SEQEND
  5
47A
330
477
100
AcDbEntity
  8
LAYER_1
 62
   250
  0
POLYLINE
  5
47B
330
1F
100
AcDbEntity
  8
LAYER_1
 62
   250
100
AcDb2dPolyline
 66
     1
 10
0.0
 20
0.0
 30
0.0
  0
VERTEX
  5
47C
330
47B
100
AcDbEntity
  8
LAYER_1
 62
   250
100
AcDbVertex
100
AcDb2dVertex
 10
239.2728178530008
 20
-26.91874715385032
 30
0.0
  0
VERTEX
  5
47D
330
47B
100
AcDbEntity
  8
LAYER_1
 62
   250
100
AcDbVertex
100
AcDb2dVertex
 10
239.2728178527159
 20
-23.74374715464407
 30
0.0
  0
SEQEND
  5
47E
330
47B
100
AcDbEntity
  8
LAYER_1
 62
   250
  0
POLYLINE
  5
47F
330
1F
100
AcDbEntity
  8
LAYER_1
 62
   250
100
AcDb2dPolyline
 66
     1
 10
0.0
 20
0.0
 30
0.0
  0
VERTEX
  5
480
330
47F
100
AcDbEntity
  8
LAYER_1
 62
   250
100
AcDbVertex
100
AcDb2dVertex
 10
239.2728178527159
 20
-23.74374715464407
 30
0.0
  0
VERTEX
  5
481
330
47F
100
AcDbEntity
  8
LAYER_1
 62
   250
100
AcDbVertex
100
AcDb2dVertex
 10
233.9644640061155
 20
-23.74374715512085
 30
0.0
  0
SEQEND
  5
482
330
47F
100
AcDbEntity
  8
LAYER_1
 62
   250
  0
POLYLINE
  5
483
330
1F
100
AcDbEntity
  8
LAYER_1
 62
   250
100
AcDb2dPolyline
 66
     1
 10
0.0
 20
0.0
 30
0.0
  0
VERTEX
  5
484
330
483
100
AcDbEntity
  8
LAYER_1
 62
   250
100
AcDbVertex
100
AcDb2dVertex
 10
307.1394783830057
 20
-23.74374714855114
 30
0.0
  0
VERTEX
  5
485
330
483
100
AcDbEntity
  8
LAYER_1
 62
   250
100
AcDbVertex
100
AcDb2dVertex
 10
307.139478383743
 20
-31.95542291757569
 30
0.0
  0
SEQEND
  5
486
330
483
100
AcDbEntity
  8
LAYER_1
 62
   250
  0
POLYLINE
  5
487
330
1F
100
AcDbEntity
  8
LAYER_1
 62
   250
100
AcDb2dPolyline
 66
     1
 10
0.0
 20
0.0
 30
0.0
  0
VERTEX
  5
488
330
487
100
AcDbEntity
  8
LAYER_1
 62
   250
100
AcDbVertex
100
AcDb2dVertex
 10
303.964479057407
 20
-31.95542291786125
 30
0.0
  0
VERTEX
  5
489
330
487
100
AcDbEntity
  8
LAYER_1
 62
   250
100
AcDbVertex
100
AcDb2dVertex
 10
307.139478383743
 20
-31.95542291757569
 30
0.0
  0
SEQEND
  5
48A
330
487
100
AcDbEntity
  8
LAYER_1
 62
   250
  0
POLYLINE
  5
48B
330
1F
100
AcDbEntity
  8
LAYER_1
 62
   250
100
AcDb2dPolyline
 66
     1
 10
0.0
 20
0.0
 30
0.0
  0
VERTEX
  5
48C
330
48B
100
AcDbEntity
  8
LAYER_1
 62
   250
100
AcDbVertex
100
AcDb2dVertex
 10
303.964479057407
 20
-31.95542291786125
 30
0.0
  0
VERTEX
  5
48D
330
48B
100
AcDbEntity
  8
LAYER_1
 62
   250
100
AcDbVertex
100
AcDb2dVertex
 10
303.9644790581443
 20
-40.16706638911563
 30
0.0
  0
SEQEND
  5
48E
330
48B
100
AcDbEntity
  8
LAYER_1
 62
   250
  0
POLYLINE
  5
48F
330
1F
100
AcDbEntity
  8
LAYER_1
 62
   250
100
AcDb2dPolyline
 66
     1
 10
0.0
 20
0.0
 30
0.0
  0
VERTEX
  5
490
330
48F
100
AcDbEntity
  8
LAYER_1
 62
   250
100
AcDbVertex
100
AcDb2dVertex
 10
303.9644790581443
 20
-40.16706638911563
 30
0.0
  0
VERTEX
  5
491
330
48F
100
AcDbEntity
  8
LAYER_1
 62
   250
100
AcDbVertex
100
AcDb2dVertex
 10
307.1394783844804
 20
-40.16706638883007
 30
0.0
  0
SEQEND
  5
492
330
48F
100
AcDbEntity
  8
LAYER_1
 62
   250
  0
POLYLINE
  5
493
330
1F
100
AcDbEntity
  8
LAYER_1
 62
   250
100
AcDb2dPolyline
 66
     1
 10
0.0
 20
0.0
 30
0.0
  0
VERTEX
  5
494
330
493
100
AcDbEntity
  8
LAYER_1
 62
   250
100
AcDbVertex
100
AcDb2dVertex
 10
307.1394783844804
 20
-40.16706638883007
 30
0.0
  0
VERTEX
  5
495
330
493
100
AcDbEntity
  8
LAYER_1
 62
   250
100
AcDbVertex
100
AcDb2dVertex
 10
307.139478385217
 20
-48.37874215785463
 30
0.0
  0
SEQEND
  5
496
330
493
100
AcDbEntity
  8
LAYER_1
 62
   250
  0
POLYLINE
  5
497
330
1F
100
AcDbEntity
  8
LAYER_1
 62
   250
100
AcDb2dPolyline
 66
     1
 10
0.0
 20
0.0
 30
0.0
  0
VERTEX
  5
498
330
497
100
AcDbEntity
  8
LAYER_1
 62
   250
100
AcDbVertex
100
AcDb2dVertex
 10
303.964479058881
 20
-48.37874215814018
 30
0.0
  0
VERTEX
  5
499
330
497
100
AcDbEntity
  8
LAYER_1
 62
   250
100
AcDbVertex
100
AcDb2dVertex
 10
307.139478385217
 20
-48.37874215785463
 30
0.0
  0
SEQEND
  5
49A
330
497
100
AcDbEntity
  8
LAYER_1
 62
   250
  0
POLYLINE
  5
49B
330
1F
100
AcDbEntity
  8
LAYER_1
 62
   250
100
AcDb2dPolyline
 66
     1
 10
0.0
 20
0.0
 30
0.0
  0
VERTEX
  5
49C
330
49B
100
AcDbEntity
  8
LAYER_1
 62
   250
100
AcDbVertex
100
AcDb2dVertex
 10
303.964479058881
 20
-48.37874215814018
 30
0.0
  0
VERTEX
  5
49D
330
49B
100
AcDbEntity
  8
LAYER_1
 62
   250
100
AcDbVertex
100
AcDb2dVertex
 10
303.964479059619
 20
-56.59042869308685
 30
0.0
  0
SEQEND
  5
49E
330
49B
100
AcDbEntity
  8
LAYER_1
 62
   250
  0
POLYLINE
  5
49F
330
1F
100
AcDbEntity
  8
LAYER_1
 62
   250
100
AcDb2dPolyline
 66
     1
 10
0.0
 20
0.0
 30
0.0
  0
VERTEX
  5
4A0
330
49F
100
AcDbEntity
  8
LAYER_1
 62
   250
100
AcDbVertex
100
AcDb2dVertex
 10
303.964479059619
 20
-56.59042869308685
 30
0.0
  0
VERTEX
  5
4A1
330
49F
100
AcDbEntity
  8
LAYER_1
 62
   250
100
AcDbVertex
100
AcDb2dVertex
 10
307.139478385955
 20
-56.59042869280194
 30
0.0
  0
SEQEND
  5
4A2
330
49F
100
AcDbEntity
  8
LAYER_1
 62
   250
  0
POLYLINE
  5
4A3
330
1F
100
AcDbEntity
  8
LAYER_1
 62
   250
100
AcDb2dPolyline
 66
     1
 10
0.0
 20
0.0
 30
0.0
  0
VERTEX
  5
4A4
330
4A3
100
AcDbEntity
  8
LAYER_1
 62
   250
100
AcDbVertex
100
AcDb2dVertex
 10
307.139478385955
 20
-56.59042869280194
 30
0.0
  0
VERTEX
  5
4A5
330
4A3
100
AcDbEntity
  8
LAYER_1
 62
   250
100
AcDbVertex
100
AcDb2dVertex
 10
307.1394783866929
 20
-64.80207216405631
 30
0.0
  0
SEQEND
  5
4A6
330
4A3
100
AcDbEntity
  8
LAYER_1
 62
   250
  0
POLYLINE
  5
4A7
330
1F
100
AcDbEntity
  8
LAYER_1
 62
   250
100
AcDb2dPolyline
 66
     1
 10
0.0
 20
0.0
 30
0.0
  0
VERTEX
  5
4A8
330
4A7
100
AcDbEntity
  8
LAYER_1
 62
   250
100
AcDbVertex
100
AcDb2dVertex
 10
303.9644790603569
 20
-64.80207216434123
 30
0.0
  0
VERTEX
  5
4A9
330
4A7
100
AcDbEntity
  8
LAYER_1
 62
   250
100
AcDbVertex
100
AcDb2dVertex
 10
307.1394783866929
 20
-64.80207216405631
 30
0.0
  0
SEQEND
  5
4AA
330
4A7
100
AcDbEntity
  8
LAYER_1
 62
   250
  0
POLYLINE
  5
4AB
330
1F
100
AcDbEntity
  8
LAYER_1
 62
   250
100
AcDb2dPolyline
 66
     1
 10
0.0
 20
0.0
 30
0.0
  0
VERTEX
  5
4AC
330
4AB
100
AcDbEntity
  8
LAYER_1
 62
   250
100
AcDbVertex
100
AcDb2dVertex
 10
303.9644790603569
 20
-64.80207216434123
 30
0.0
  0
VERTEX
  5
4AD
330
4AB
100
AcDbEntity
  8
LAYER_1
 62
   250
100
AcDbVertex
100
AcDb2dVertex
 10
303.9644790610935
 20
-73.01375869929046
 30
0.0
  0
SEQEND
  5
4AE
330
4AB
100
AcDbEntity
  8
LAYER_1
 62
   250
  0
POLYLINE
  5
4AF
330
1F
100
AcDbEntity
  8
LAYER_1
 62
   250
100
AcDb2dPolyline
 66
     1
 10
0.0
 20
0.0
 30
0.0
  0
VERTEX
  5
4B0
330
4AF
100
AcDbEntity
  8
LAYER_1
 62
   250
100
AcDbVertex
100
AcDb2dVertex
 10
303.9644790610935
 20
-73.01375869929046
 30
0.0
  0
VERTEX
  5
4B1
330
4AF
100
AcDbEntity
  8
LAYER_1
 62
   250
100
AcDbVertex
100
AcDb2dVertex
 10
307.1394783874296
 20
-73.01375869900491
 30
0.0
  0
SEQEND
  5
4B2
330
4AF
100
AcDbEntity
  8
LAYER_1
 62
   250
  0
POLYLINE
  5
4B3
330
1F
100
AcDbEntity
  8
LAYER_1
 62
   250
100
AcDb2dPolyline
 66
     1
 10
0.0
 20
0.0
 30
0.0
  0
VERTEX
  5
4B4
330
4B3
100
AcDbEntity
  8
LAYER_1
 62
   250
100
AcDbVertex
100
AcDb2dVertex
 10
307.1394783874296
 20
-73.01375869900491
 30
0.0
  0
VERTEX
  5
4B5
330
4B3
100
AcDbEntity
  8
LAYER_1
 62
   250
100
AcDbVertex
100
AcDb2dVertex
 10
307.1394783881669
 20
-81.22542370210543
 30
0.0
  0
SEQEND
  5
4B6
330
4B3
100
AcDbEntity
  8
LAYER_1
 62
   250
  0
POLYLINE
  5
4B7
330
1F
100
AcDbEntity
  8
LAYER_1
 62
   250
100
AcDb2dPolyline
 66
     1
 10
0.0
 20
0.0
 30
0.0
  0
VERTEX
  5
4B8
330
4B7
100
AcDbEntity
  8
LAYER_1
 62
   250
100
AcDbVertex
100
AcDb2dVertex
 10
303.9644790618315
 20
-81.22542370239098
 30
0.0
  0
VERTEX
  5
4B9
330
4B7
100
AcDbEntity
  8
LAYER_1
 62
   250
100
AcDbVertex
100
AcDb2dVertex
 10
307.1394783881669
 20
-81.22542370210543
 30
0.0
  0
SEQEND
  5
4BA
330
4B7
100
AcDbEntity
  8
LAYER_1
 62
   250
  0
POLYLINE
  5
4BB
330
1F
100
AcDbEntity
  8
LAYER_1
 62
   250
100
AcDb2dPolyline
 66
     1
 10
0.0
 20
0.0
 30
0.0
  0
VERTEX
  5
4BC
330
4BB
100
AcDbEntity
  8
LAYER_1
 62
   250
100
AcDbVertex
100
AcDb2dVertex
 10
303.9644790618315
 20
-81.22542370239098
 30
0.0
  0
VERTEX
  5
4BD
330
4BB
100
AcDbEntity
  8
LAYER_1
 62
   250
100
AcDbVertex
100
AcDb2dVertex
 10
303.9644790625682
 20
-89.43706717364344
 30
0.0
  0
SEQEND
  5
4BE
330
4BB
100
AcDbEntity
  8
LAYER_1
 62
   250
  0
POLYLINE
  5
4BF
330
1F
100
AcDbEntity
  8
LAYER_1
 62
   250
100
AcDb2dPolyline
 66
     1
 10
0.0
 20
0.0
 30
0.0
  0
VERTEX
  5
4C0
330
4BF
100
AcDbEntity
  8
LAYER_1
 62
   250
100
AcDbVertex
100
AcDb2dVertex
 10
303.9644790625682
 20
-89.43706717364344
 30
0.0
  0
VERTEX
  5
4C1
330
4BF
100
AcDbEntity
  8
LAYER_1
 62
   250
100
AcDbVertex
100
AcDb2dVertex
 10
307.1394783889042
 20
-89.43706717336173
 30
0.0
  0
SEQEND
  5
4C2
330
4BF
100
AcDbEntity
  8
LAYER_1
 62
   250
  0
POLYLINE
  5
4C3
330
1F
100
AcDbEntity
  8
LAYER_1
 62
   250
100
AcDb2dPolyline
 66
     1
 10
0.0
 20
0.0
 30
0.0
  0
VERTEX
  5
4C4
330
4C3
100
AcDbEntity
  8
LAYER_1
 62
   250
100
AcDbVertex
100
AcDb2dVertex
 10
307.1394783889042
 20
-89.43706717336173
 30
0.0
  0
VERTEX
  5
4C5
330
4C3
100
AcDbEntity
  8
LAYER_1
 62
   250
100
AcDbVertex
100
AcDb2dVertex
 10
307.1394783896415
 20
-97.64875370830647
 30
0.0
  0
SEQEND
  5
4C6
330
4C3
100
AcDbEntity
  8
LAYER_1
 62
   250
  0
POLYLINE
  5
4C7
330
1F
100
AcDbEntity
  8
LAYER_1
 62
   250
100
AcDb2dPolyline
 66
     1
 10
0.0
 20
0.0
 30
0.0
  0
VERTEX
  5
4C8
330
4C7
100
AcDbEntity
  8
LAYER_1
 62
   250
100
AcDbVertex
100
AcDb2dVertex
 10
303.9644790633055
 20
-97.64875370859266
 30
0.0
  0
VERTEX
  5
4C9
330
4C7
100
AcDbEntity
  8
LAYER_1
 62
   250
100
AcDbVertex
100
AcDb2dVertex
 10
307.1394783896415
 20
-97.64875370830647
 30
0.0
  0
SEQEND
  5
4CA
330
4C7
100
AcDbEntity
  8
LAYER_1
 62
   250
  0
POLYLINE
  5
4CB
330
1F
100
AcDbEntity
  8
LAYER_1
 62
   250
100
AcDb2dPolyline
 66
     1
 10
0.0
 20
0.0
 30
0.0
  0
VERTEX
  5
4CC
330
4CB
100
AcDbEntity
  8
LAYER_1
 62
   250
100
AcDbVertex
100
AcDb2dVertex
 10
303.9644790633055
 20
-97.64875370859266
 30
0.0
  0
VERTEX
  5
4CD
330
4CB
100
AcDbEntity
  8
LAYER_1
 62
   250
100
AcDbVertex
100
AcDb2dVertex
 10
303.9644790640428
 20
-105.8603971798483
 30
0.0
  0
SEQEND
  5
4CE
330
4CB
100
AcDbEntity
  8
LAYER_1
 62
   250
  0
POLYLINE
  5
4CF
330
1F
100
AcDbEntity
  8
LAYER_1
 62
   250
100
AcDb2dPolyline
 66
     1
 10
0.0
 20
0.0
 30
0.0
  0
VERTEX
  5
4D0
330
4CF
100
AcDbEntity
  8
LAYER_1
 62
   250
100
AcDbVertex
100
AcDb2dVertex
 10
303.9644790640428
 20
-105.8603971798483
 30
0.0
  0
VERTEX
  5
4D1
330
4CF
100
AcDbEntity
  8
LAYER_1
 62
   250
100
AcDbVertex
100
AcDb2dVertex
 10
307.1394783903788
 20
-105.8603971795628
 30
0.0
  0
SEQEND
  5
4D2
330
4CF
100
AcDbEntity
  8
LAYER_1
 62
   250
  0
POLYLINE
  5
4D3
330
1F
100
AcDbEntity
  8
LAYER_1
 62
   250
100
AcDb2dPolyline
 66
     1
 10
0.0
 20
0.0
 30
0.0
  0
VERTEX
  5
4D4
330
4D3
100
AcDbEntity
  8
LAYER_1
 62
   250
100
AcDbVertex
100
AcDb2dVertex
 10
307.1394783903788
 20
-105.8603971795628
 30
0.0
  0
VERTEX
  5
4D5
330
4D3
100
AcDbEntity
  8
LAYER_1
 62
   250
100
AcDbVertex
100
AcDb2dVertex
 10
307.1394783911161
 20
-114.0720621826639
 30
0.0
  0
SEQEND
  5
4D6
330
4D3
100
AcDbEntity
  8
LAYER_1
 62
   250
  0
POLYLINE
  5
4D7
330
1F
100
AcDbEntity
  8
LAYER_1
 62
   250
100
AcDb2dPolyline
 66
     1
 10
0.0
 20
0.0
 30
0.0
  0
VERTEX
  5
4D8
330
4D7
100
AcDbEntity
  8
LAYER_1
 62
   250
100
AcDbVertex
100
AcDb2dVertex
 10
303.9644790647801
 20
-114.0720621829495
 30
0.0
  0
VERTEX
  5
4D9
330
4D7
100
AcDbEntity
  8
LAYER_1
 62
   250
100
AcDbVertex
100
AcDb2dVertex
 10
307.1394783911161
 20
-114.0720621826639
 30
0.0
  0
SEQEND
  5
4DA
330
4D7
100
AcDbEntity
  8
LAYER_1
 62
   250
  0
POLYLINE
  5
4DB
330
1F
100
AcDbEntity
  8
LAYER_1
 62
   250
100
AcDb2dPolyline
 66
     1
 10
0.0
 20
0.0
 30
0.0
  0
VERTEX
  5
4DC
330
4DB
100
AcDbEntity
  8
LAYER_1
 62
   250
100
AcDbVertex
100
AcDb2dVertex
 10
303.9644790647801
 20
-114.0720621829495
 30
0.0
  0
VERTEX
  5
4DD
330
4DB
100
AcDbEntity
  8
LAYER_1
 62
   250
100
AcDbVertex
100
AcDb2dVertex
 10
303.9644790655174
 20
-122.2837487178949
 30
0.0
  0
SEQEND
  5
4DE
330
4DB
100
AcDbEntity
  8
LAYER_1
 62
   250
  0
POLYLINE
  5
4DF
330
1F
100
AcDbEntity
  8
LAYER_1
 62
   250
100
AcDb2dPolyline
 66
     1
 10
0.0
 20
0.0
 30
0.0
  0
VERTEX
  5
4E0
330
4DF
100
AcDbEntity
  8
LAYER_1
 62
   250
100
AcDbVertex
100
AcDb2dVertex
 10
303.9644790655174
 20
-122.2837487178949
 30
0.0
  0
VERTEX
  5
4E1
330
4DF
100
AcDbEntity
  8
LAYER_1
 62
   250
100
AcDbVertex
100
AcDb2dVertex
 10
307.1394783918535
 20
-122.2837487176125
 30
0.0
  0
SEQEND
  5
4E2
330
4DF
100
AcDbEntity
  8
LAYER_1
 62
   250
  0
POLYLINE
  5
4E3
330
1F
100
AcDbEntity
  8
LAYER_1
 62
   250
100
AcDb2dPolyline
 66
     1
 10
0.0
 20
0.0
 30
0.0
  0
VERTEX
  5
4E4
330
4E3
100
AcDbEntity
  8
LAYER_1
 62
   250
100
AcDbVertex
100
AcDb2dVertex
 10
307.1394783918535
 20
-122.2837487176125
 30
0.0
  0
VERTEX
  5
4E5
330
4E3
100
AcDbEntity
  8
LAYER_1
 62
   250
100
AcDbVertex
100
AcDb2dVertex
 10
307.1394783925914
 20
-130.495392188865
 30
0.0
  0
SEQEND
  5
4E6
330
4E3
100
AcDbEntity
  8
LAYER_1
 62
   250
  0
POLYLINE
  5
4E7
330
1F
100
AcDbEntity
  8
LAYER_1
 62
   250
100
AcDb2dPolyline
 66
     1
 10
0.0
 20
0.0
 30
0.0
  0
VERTEX
  5
4E8
330
4E7
100
AcDbEntity
  8
LAYER_1
 62
   250
100
AcDbVertex
100
AcDb2dVertex
 10
303.9644790662554
 20
-130.4953921891506
 30
0.0
  0
VERTEX
  5
4E9
330
4E7
100
AcDbEntity
  8
LAYER_1
 62
   250
100
AcDbVertex
100
AcDb2dVertex
 10
307.1394783925914
 20
-130.495392188865
 30
0.0
  0
SEQEND
  5
4EA
330
4E7
100
AcDbEntity
  8
LAYER_1
 62
   250
  0
POLYLINE
  5
4EB
330
1F
100
AcDbEntity
  8
LAYER_1
 62
   250
100
AcDb2dPolyline
 66
     1
 10
0.0
 20
0.0
 30
0.0
  0
VERTEX
  5
4EC
330
4EB
100
AcDbEntity
  8
LAYER_1
 62
   250
100
AcDbVertex
100
AcDb2dVertex
 10
303.9644790662554
 20
-130.4953921891506
 30
0.0
  0
VERTEX
  5
4ED
330
4EB
100
AcDbEntity
  8
LAYER_1
 62
   250
100
AcDbVertex
100
AcDb2dVertex
 10
303.9644790669921
 20
-138.7070787240998
 30
0.0
  0
SEQEND
  5
4EE
330
4EB
100
AcDbEntity
  8
LAYER_1
 62
   250
  0
POLYLINE
  5
4EF
330
1F
100
AcDbEntity
  8
LAYER_1
 62
   250
100
AcDb2dPolyline
 66
     1
 10
0.0
 20
0.0
 30
0.0
  0
VERTEX
  5
4F0
330
4EF
100
AcDbEntity
  8
LAYER_1
 62
   250
100
AcDbVertex
100
AcDb2dVertex
 10
303.9644790669921
 20
-138.7070787240998
 30
0.0
  0
VERTEX
  5
4F1
330
4EF
100
AcDbEntity
  8
LAYER_1
 62
   250
100
AcDbVertex
100
AcDb2dVertex
 10
307.1394783933281
 20
-138.7070787238142
 30
0.0
  0
SEQEND
  5
4F2
330
4EF
100
AcDbEntity
  8
LAYER_1
 62
   250
  0
POLYLINE
  5
4F3
330
1F
100
AcDbEntity
  8
LAYER_1
 62
   250
100
AcDb2dPolyline
 66
     1
 10
0.0
 20
0.0
 30
0.0
  0
VERTEX
  5
4F4
330
4F3
100
AcDbEntity
  8
LAYER_1
 62
   250
100
AcDbVertex
100
AcDb2dVertex
 10
233.9644640061155
 20
-23.74374715512085
 30
0.0
  0
VERTEX
  5
4F5
330
4F3
100
AcDbEntity
  8
LAYER_1
 62
   250
100
AcDbVertex
100
AcDb2dVertex
 10
233.9644640068528
 20
-31.95542292414541
 30
0.0
  0
SEQEND
  5
4F6
330
4F3
100
AcDbEntity
  8
LAYER_1
 62
   250
  0
POLYLINE
  5
4F7
330
1F
100
AcDbEntity
  8
LAYER_1
 62
   250
100
AcDb2dPolyline
 66
     1
 10
0.0
 20
0.0
 30
0.0
  0
VERTEX
  5
4F8
330
4F7
100
AcDbEntity
  8
LAYER_1
 62
   250
100
AcDbVertex
100
AcDb2dVertex
 10
230.7894640076465
 20
-31.95542292443032
 30
0.0
  0
VERTEX
  5
4F9
330
4F7
100
AcDbEntity
  8
LAYER_1
 62
   250
100
AcDbVertex
100
AcDb2dVertex
 10
233.9644640068528
 20
-31.95542292414541
 30
0.0
  0
SEQEND
  5
4FA
330
4F7
100
AcDbEntity
  8
LAYER_1
 62
   250
  0
POLYLINE
  5
4FB
330
1F
100
AcDbEntity
  8
LAYER_1
 62
   250
100
AcDb2dPolyline
 66
     1
 10
0.0
 20
0.0
 30
0.0
  0
VERTEX
  5
4FC
330
4FB
100
AcDbEntity
  8
LAYER_1
 62
   250
100
AcDbVertex
100
AcDb2dVertex
 10
230.7894640076465
 20
-31.95542292443032
 30
0.0
  0
VERTEX
  5
4FD
330
4FB
100
AcDbEntity
  8
LAYER_1
 62
   250
100
AcDbVertex
100
AcDb2dVertex
 10
230.7894640083838
 20
-40.16706639568471
 30
0.0
  0
SEQEND
  5
4FE
330
4FB
100
AcDbEntity
  8
LAYER_1
 62
   250
  0
POLYLINE
  5
4FF
330
1F
100
AcDbEntity
  8
LAYER_1
 62
   250
100
AcDb2dPolyline
 66
     1
 10
0.0
 20
0.0
 30
0.0
  0
VERTEX
  5
500
330
4FF
100
AcDbEntity
  8
LAYER_1
 62
   250
100
AcDbVertex
100
AcDb2dVertex
 10
230.7894640083838
 20
-40.16706639568471
 30
0.0
  0
VERTEX
  5
501
330
4FF
100
AcDbEntity
  8
LAYER_1
 62
   250
100
AcDbVertex
100
AcDb2dVertex
 10
233.9644640075901
 20
-40.16706639539979
 30
0.0
  0
SEQEND
  5
502
330
4FF
100
AcDbEntity
  8
LAYER_1
 62
   250
  0
POLYLINE
  5
503
330
1F
100
AcDbEntity
  8
LAYER_1
 62
   250
100
AcDb2dPolyline
 66
     1
 10
0.0
 20
0.0
 30
0.0
  0
VERTEX
  5
504
330
503
100
AcDbEntity
  8
LAYER_1
 62
   250
100
AcDbVertex
100
AcDb2dVertex
 10
233.9644640075901
 20
-40.16706639539979
 30
0.0
  0
VERTEX
  5
505
330
503
100
AcDbEntity
  8
LAYER_1
 62
   250
100
AcDbVertex
100
AcDb2dVertex
 10
233.9644640083274
 20
-48.37874216442435
 30
0.0
  0
SEQEND
  5
506
330
503
100
AcDbEntity
  8
LAYER_1
 62
   250
  0
POLYLINE
  5
507
330
1F
100
AcDbEntity
  8
LAYER_1
 62
   250
100
AcDb2dPolyline
 66
     1
 10
0.0
 20
0.0
 30
0.0
  0
VERTEX
  5
508
330
507
100
AcDbEntity
  8
LAYER_1
 62
   250
100
AcDbVertex
100
AcDb2dVertex
 10
230.7894640091212
 20
-48.37874216470926
 30
0.0
  0
VERTEX
  5
509
330
507
100
AcDbEntity
  8
LAYER_1
 62
   250
100
AcDbVertex
100
AcDb2dVertex
 10
233.9644640083274
 20
-48.37874216442435
 30
0.0
  0
SEQEND
  5
50A
330
507
100
AcDbEntity
  8
LAYER_1
 62
   250
  0
POLYLINE
  5
50B
330
1F
100
AcDbEntity
  8
LAYER_1
 62
   250
100
AcDb2dPolyline
 66
     1
 10
0.0
 20
0.0
 30
0.0
  0
VERTEX
  5
50C
330
50B
100
AcDbEntity
  8
LAYER_1
 62
   250
100
AcDbVertex
100
AcDb2dVertex
 10
230.7894640091212
 20
-48.37874216470926
 30
0.0
  0
VERTEX
  5
50D
330
50B
100
AcDbEntity
  8
LAYER_1
 62
   250
100
AcDbVertex
100
AcDb2dVertex
 10
230.7894640098585
 20
-56.5904286996572
 30
0.0
  0
SEQEND
  5
50E
330
50B
100
AcDbEntity
  8
LAYER_1
 62
   250
  0
POLYLINE
  5
50F
330
1F
100
AcDbEntity
  8
LAYER_1
 62
   250
100
AcDb2dPolyline
 66
     1
 10
0.0
 20
0.0
 30
0.0
  0
VERTEX
  5
510
330
50F
100
AcDbEntity
  8
LAYER_1
 62
   250
100
AcDbVertex
100
AcDb2dVertex
 10
230.7894640098585
 20
-56.5904286996572
 30
0.0
  0
VERTEX
  5
511
330
50F
100
AcDbEntity
  8
LAYER_1
 62
   250
100
AcDbVertex
100
AcDb2dVertex
 10
233.9644640090647
 20
-56.59042869937229
 30
0.0
  0
SEQEND
  5
512
330
50F
100
AcDbEntity
  8
LAYER_1
 62
   250
  0
POLYLINE
  5
513
330
1F
100
AcDbEntity
  8
LAYER_1
 62
   250
100
AcDb2dPolyline
 66
     1
 10
0.0
 20
0.0
 30
0.0
  0
VERTEX
  5
514
330
513
100
AcDbEntity
  8
LAYER_1
 62
   250
100
AcDbVertex
100
AcDb2dVertex
 10
233.9644640090647
 20
-56.59042869937229
 30
0.0
  0
VERTEX
  5
515
330
513
100
AcDbEntity
  8
LAYER_1
 62
   250
100
AcDbVertex
100
AcDb2dVertex
 10
233.964464009802
 20
-64.80207217062667
 30
0.0
  0
SEQEND
  5
516
330
513
100
AcDbEntity
  8
LAYER_1
 62
   250
  0
POLYLINE
  5
517
330
1F
100
AcDbEntity
  8
LAYER_1
 62
   250
100
AcDb2dPolyline
 66
     1
 10
0.0
 20
0.0
 30
0.0
  0
VERTEX
  5
518
330
517
100
AcDbEntity
  8
LAYER_1
 62
   250
100
AcDbVertex
100
AcDb2dVertex
 10
230.7894640105958
 20
-64.80207217091159
 30
0.0
  0
VERTEX
  5
519
330
517
100
AcDbEntity
  8
LAYER_1
 62
   250
100
AcDbVertex
100
AcDb2dVertex
 10
233.964464009802
 20
-64.80207217062667
 30
0.0
  0
SEQEND
  5
51A
330
517
100
AcDbEntity
  8
LAYER_1
 62
   250
  0
POLYLINE
  5
51B
330
1F
100
AcDbEntity
  8
LAYER_1
 62
   250
100
AcDb2dPolyline
 66
     1
 10
0.0
 20
0.0
 30
0.0
  0
VERTEX
  5
51C
330
51B
100
AcDbEntity
  8
LAYER_1
 62
   250
100
AcDbVertex
100
AcDb2dVertex
 10
230.7894640105958
 20
-64.80207217091159
 30
0.0
  0
VERTEX
  5
51D
330
51B
100
AcDbEntity
  8
LAYER_1
 62
   250
100
AcDbVertex
100
AcDb2dVertex
 10
230.7894640113331
 20
-73.01375870585889
 30
0.0
  0
SEQEND
  5
51E
330
51B
100
AcDbEntity
  8
LAYER_1
 62
   250
  0
POLYLINE
  5
51F
330
1F
100
AcDbEntity
  8
LAYER_1
 62
   250
100
AcDb2dPolyline
 66
     1
 10
0.0
 20
0.0
 30
0.0
  0
VERTEX
  5
520
330
51F
100
AcDbEntity
  8
LAYER_1
 62
   250
100
AcDbVertex
100
AcDb2dVertex
 10
230.7894640113331
 20
-73.01375870585889
 30
0.0
  0
VERTEX
  5
521
330
51F
100
AcDbEntity
  8
LAYER_1
 62
   250
100
AcDbVertex
100
AcDb2dVertex
 10
233.9644640105394
 20
-73.01375870557334
 30
0.0
  0
SEQEND
  5
522
330
51F
100
AcDbEntity
  8
LAYER_1
 62
   250
  0
POLYLINE
  5
523
330
1F
100
AcDbEntity
  8
LAYER_1
 62
   250
100
AcDb2dPolyline
 66
     1
 10
0.0
 20
0.0
 30
0.0
  0
VERTEX
  5
524
330
523
100
AcDbEntity
  8
LAYER_1
 62
   250
100
AcDbVertex
100
AcDb2dVertex
 10
233.9644640105394
 20
-73.01375870557334
 30
0.0
  0
VERTEX
  5
525
330
523
100
AcDbEntity
  8
LAYER_1
 62
   250
100
AcDbVertex
100
AcDb2dVertex
 10
233.9644640112767
 20
-81.22542370867386
 30
0.0
  0
SEQEND
  5
526
330
523
100
AcDbEntity
  8
LAYER_1
 62
   250
  0
POLYLINE
  5
527
330
1F
100
AcDbEntity
  8
LAYER_1
 62
   250
100
AcDb2dPolyline
 66
     1
 10
0.0
 20
0.0
 30
0.0
  0
VERTEX
  5
528
330
527
100
AcDbEntity
  8
LAYER_1
 62
   250
100
AcDbVertex
100
AcDb2dVertex
 10
230.7894640120704
 20
-81.22542370896005
 30
0.0
  0
VERTEX
  5
529
330
527
100
AcDbEntity
  8
LAYER_1
 62
   250
100
AcDbVertex
100
AcDb2dVertex
 10
233.9644640112767
 20
-81.22542370867386
 30
0.0
  0
SEQEND
  5
52A
330
527
100
AcDbEntity
  8
LAYER_1
 62
   250
  0
POLYLINE
  5
52B
330
1F
100
AcDbEntity
  8
LAYER_1
 62
   250
100
AcDb2dPolyline
 66
     1
 10
0.0
 20
0.0
 30
0.0
  0
VERTEX
  5
52C
330
52B
100
AcDbEntity
  8
LAYER_1
 62
   250
100
AcDbVertex
100
AcDb2dVertex
 10
230.7894640120704
 20
-81.22542370896005
 30
0.0
  0
VERTEX
  5
52D
330
52B
100
AcDbEntity
  8
LAYER_1
 62
   250
100
AcDbVertex
100
AcDb2dVertex
 10
230.7894640128077
 20
-89.43706718021572
 30
0.0
  0
SEQEND
  5
52E
330
52B
100
AcDbEntity
  8
LAYER_1
 62
   250
  0
POLYLINE
  5
52F
330
1F
100
AcDbEntity
  8
LAYER_1
 62
   250
100
AcDb2dPolyline
 66
     1
 10
0.0
 20
0.0
 30
0.0
  0
VERTEX
  5
530
330
52F
100
AcDbEntity
  8
LAYER_1
 62
   250
100
AcDbVertex
100
AcDb2dVertex
 10
230.7894640128077
 20
-89.43706718021572
 30
0.0
  0
VERTEX
  5
531
330
52F
100
AcDbEntity
  8
LAYER_1
 62
   250
100
AcDbVertex
100
AcDb2dVertex
 10
233.964464012014
 20
-89.43706717993017
 30
0.0
  0
SEQEND
  5
532
330
52F
100
AcDbEntity
  8
LAYER_1
 62
   250
  0
POLYLINE
  5
533
330
1F
100
AcDbEntity
  8
LAYER_1
 62
   250
100
AcDb2dPolyline
 66
     1
 10
0.0
 20
0.0
 30
0.0
  0
VERTEX
  5
534
330
533
100
AcDbEntity
  8
LAYER_1
 62
   250
100
AcDbVertex
100
AcDb2dVertex
 10
233.964464012014
 20
-89.43706717993017
 30
0.0
  0
VERTEX
  5
535
330
533
100
AcDbEntity
  8
LAYER_1
 62
   250
100
AcDbVertex
100
AcDb2dVertex
 10
233.9644640127513
 20
-97.64875371487875
 30
0.0
  0
SEQEND
  5
536
330
533
100
AcDbEntity
  8
LAYER_1
 62
   250
  0
POLYLINE
  5
537
330
1F
100
AcDbEntity
  8
LAYER_1
 62
   250
100
AcDb2dPolyline
 66
     1
 10
0.0
 20
0.0
 30
0.0
  0
VERTEX
  5
538
330
537
100
AcDbEntity
  8
LAYER_1
 62
   250
100
AcDbVertex
100
AcDb2dVertex
 10
230.789464013545
 20
-97.64875371516494
 30
0.0
  0
VERTEX
  5
539
330
537
100
AcDbEntity
  8
LAYER_1
 62
   250
100
AcDbVertex
100
AcDb2dVertex
 10
233.9644640127513
 20
-97.64875371487875
 30
0.0
  0
SEQEND
  5
53A
330
537
100
AcDbEntity
  8
LAYER_1
 62
   250
  0
POLYLINE
  5
53B
330
1F
100
AcDbEntity
  8
LAYER_1
 62
   250
100
AcDb2dPolyline
 66
     1
 10
0.0
 20
0.0
 30
0.0
  0
VERTEX
  5
53C
330
53B
100
AcDbEntity
  8
LAYER_1
 62
   250
100
AcDbVertex
100
AcDb2dVertex
 10
230.789464013545
 20
-97.64875371516494
 30
0.0
  0
VERTEX
  5
53D
330
53B
100
AcDbEntity
  8
LAYER_1
 62
   250
100
AcDbVertex
100
AcDb2dVertex
 10
230.7894640142823
 20
-105.8603971864174
 30
0.0
  0
SEQEND
  5
53E
330
53B
100
AcDbEntity
  8
LAYER_1
 62
   250
  0
POLYLINE
  5
53F
330
1F
100
AcDbEntity
  8
LAYER_1
 62
   250
100
AcDb2dPolyline
 66
     1
 10
0.0
 20
0.0
 30
0.0
  0
VERTEX
  5
540
330
53F
100
AcDbEntity
  8
LAYER_1
 62
   250
100
AcDbVertex
100
AcDb2dVertex
 10
230.7894640142823
 20
-105.8603971864174
 30
0.0
  0
VERTEX
  5
541
330
53F
100
AcDbEntity
  8
LAYER_1
 62
   250
100
AcDbVertex
100
AcDb2dVertex
 10
233.9644640134886
 20
-105.8603971861318
 30
0.0
  0
SEQEND
  5
542
330
53F
100
AcDbEntity
  8
LAYER_1
 62
   250
  0
POLYLINE
  5
543
330
1F
100
AcDbEntity
  8
LAYER_1
 62
   250
100
AcDb2dPolyline
 66
     1
 10
0.0
 20
0.0
 30
0.0
  0
VERTEX
  5
544
330
543
100
AcDbEntity
  8
LAYER_1
 62
   250
100
AcDbVertex
100
AcDb2dVertex
 10
233.9644640134886
 20
-105.8603971861318
 30
0.0
  0
VERTEX
  5
545
330
543
100
AcDbEntity
  8
LAYER_1
 62
   250
100
AcDbVertex
100
AcDb2dVertex
 10
233.9644640142259
 20
-114.0720621892324
 30
0.0
  0
SEQEND
  5
546
330
543
100
AcDbEntity
  8
LAYER_1
 62
   250
  0
POLYLINE
  5
547
330
1F
100
AcDbEntity
  8
LAYER_1
 62
   250
100
AcDb2dPolyline
 66
     1
 10
0.0
 20
0.0
 30
0.0
  0
VERTEX
  5
548
330
547
100
AcDbEntity
  8
LAYER_1
 62
   250
100
AcDbVertex
100
AcDb2dVertex
 10
230.7894640150197
 20
-114.0720621895179
 30
0.0
  0
VERTEX
  5
549
330
547
100
AcDbEntity
  8
LAYER_1
 62
   250
100
AcDbVertex
100
AcDb2dVertex
 10
233.9644640142259
 20
-114.0720621892324
 30
0.0
  0
SEQEND
  5
54A
330
547
100
AcDbEntity
  8
LAYER_1
 62
   250
  0
POLYLINE
  5
54B
330
1F
100
AcDbEntity
  8
LAYER_1
 62
   250
100
AcDb2dPolyline
 66
     1
 10
0.0
 20
0.0
 30
0.0
  0
VERTEX
  5
54C
330
54B
100
AcDbEntity
  8
LAYER_1
 62
   250
100
AcDbVertex
100
AcDb2dVertex
 10
230.7894640150197
 20
-114.0720621895179
 30
0.0
  0
VERTEX
  5
54D
330
54B
100
AcDbEntity
  8
LAYER_1
 62
   250
100
AcDbVertex
100
AcDb2dVertex
 10
230.789464015757
 20
-122.2837487244672
 30
0.0
  0
SEQEND
  5
54E
330
54B
100
AcDbEntity
  8
LAYER_1
 62
   250
  0
POLYLINE
  5
54F
330
1F
100
AcDbEntity
  8
LAYER_1
 62
   250
100
AcDb2dPolyline
 66
     1
 10
0.0
 20
0.0
 30
0.0
  0
VERTEX
  5
550
330
54F
100
AcDbEntity
  8
LAYER_1
 62
   250
100
AcDbVertex
100
AcDb2dVertex
 10
230.789464015757
 20
-122.2837487244672
 30
0.0
  0
VERTEX
  5
551
330
54F
100
AcDbEntity
  8
LAYER_1
 62
   250
100
AcDbVertex
100
AcDb2dVertex
 10
233.9644640149632
 20
-122.283748724181
 30
0.0
  0
SEQEND
  5
552
330
54F
100
AcDbEntity
  8
LAYER_1
 62
   250
  0
POLYLINE
  5
553
330
1F
100
AcDbEntity
  8
LAYER_1
 62
   250
100
AcDb2dPolyline
 66
     1
 10
0.0
 20
0.0
 30
0.0
  0
VERTEX
  5
554
330
553
100
AcDbEntity
  8
LAYER_1
 62
   250
100
AcDbVertex
100
AcDb2dVertex
 10
233.9644640149632
 20
-122.283748724181
 30
0.0
  0
VERTEX
  5
555
330
553
100
AcDbEntity
  8
LAYER_1
 62
   250
100
AcDbVertex
100
AcDb2dVertex
 10
233.9644640157012
 20
-130.4953921954373
 30
0.0
  0
SEQEND
  5
556
330
553
100
AcDbEntity
  8
LAYER_1
 62
   250
  0
POLYLINE
  5
557
330
1F
100
AcDbEntity
  8
LAYER_1
 62
   250
100
AcDb2dPolyline
 66
     1
 10
0.0
 20
0.0
 30
0.0
  0
VERTEX
  5
558
330
557
100
AcDbEntity
  8
LAYER_1
 62
   250
100
AcDbVertex
100
AcDb2dVertex
 10
230.7894640164949
 20
-130.4953921957196
 30
0.0
  0
VERTEX
  5
559
330
557
100
AcDbEntity
  8
LAYER_1
 62
   250
100
AcDbVertex
100
AcDb2dVertex
 10
233.9644640157012
 20
-130.4953921954373
 30
0.0
  0
SEQEND
  5
55A
330
557
100
AcDbEntity
  8
LAYER_1
 62
   250
  0
POLYLINE
  5
55B
330
1F
100
AcDbEntity
  8
LAYER_1
 62
   250
100
AcDb2dPolyline
 66
     1
 10
0.0
 20
0.0
 30
0.0
  0
VERTEX
  5
55C
330
55B
100
AcDbEntity
  8
LAYER_1
 62
   250
100
AcDbVertex
100
AcDb2dVertex
 10
230.7894640164949
 20
-130.4953921957196
 30
0.0
  0
VERTEX
  5
55D
330
55B
100
AcDbEntity
  8
LAYER_1
 62
   250
100
AcDbVertex
100
AcDb2dVertex
 10
230.7894640172316
 20
-138.7070787306682
 30
0.0
  0
SEQEND
  5
55E
330
55B
100
AcDbEntity
  8
LAYER_1
 62
   250
  0
POLYLINE
  5
55F
330
1F
100
AcDbEntity
  8
LAYER_1
 62
   250
100
AcDb2dPolyline
 66
     1
 10
0.0
 20
0.0
 30
0.0
  0
VERTEX
  5
560
330
55F
100
AcDbEntity
  8
LAYER_1
 62
   250
100
AcDbVertex
100
AcDb2dVertex
 10
230.7894640172316
 20
-138.7070787306682
 30
0.0
  0
VERTEX
  5
561
330
55F
100
AcDbEntity
  8
LAYER_1
 62
   250
100
AcDbVertex
100
AcDb2dVertex
 10
233.9644640164379
 20
-138.7070787303826
 30
0.0
  0
SEQEND
  5
562
330
55F
100
AcDbEntity
  8
LAYER_1
 62
   250
  0
POLYLINE
  5
563
330
1F
100
AcDbEntity
  8
LAYER_1
 62
   250
100
AcDb2dPolyline
 66
     1
 10
0.0
 20
0.0
 30
0.0
  0
VERTEX
  5
564
330
563
100
AcDbEntity
  8
LAYER_1
 62
   250
100
AcDbVertex
100
AcDb2dVertex
 10
233.9644640164379
 20
-138.7070787303826
 30
0.0
  0
VERTEX
  5
565
330
563
100
AcDbEntity
  8
LAYER_1
 62
   250
100
AcDbVertex
100
AcDb2dVertex
 10
233.9644640171758
 20
-146.9187437334832
 30
0.0
  0
VERTEX
  5
566
330
563
100
AcDbEntity
  8
LAYER_1
 62
   250
100
AcDbVertex
100
AcDb2dVertex
 10
307.139478394066
 20
-146.9187437269147
 30
0.0
  0
VERTEX
  5
567
330
563
100
AcDbEntity
  8
LAYER_1
 62
   250
100
AcDbVertex
100
AcDb2dVertex
 10
307.1394783933281
 20
-138.7070787238142
 30
0.0
  0
SEQEND
  5
568
330
563
100
AcDbEntity
  8
LAYER_1
 62
   250
  0
POLYLINE
  5
569
330
1F
100
AcDbEntity
  8
LAYER_1
 62
   250
100
AcDb2dPolyline
 66
     1
 10
0.0
 20
0.0
 30
0.0
  0
VERTEX
  5
56A
330
569
100
AcDbEntity
  8
LAYER_1
 62
   250
100
AcDbVertex
100
AcDb2dVertex
 10
170.7102852104874
 20
-23.74374716080053
 30
0.0
  0
VERTEX
  5
56B
330
569
100
AcDbEntity
  8
LAYER_1
 62
   250
100
AcDbVertex
100
AcDb2dVertex
 10
162.2269421306041
 20
-23.74374716156287
 30
0.0
  0
SEQEND
  5
56C
330
569
100
AcDbEntity
  8
LAYER_1
 62
   250
  0
POLYLINE
  5
56D
330
1F
100
AcDbEntity
  8
LAYER_1
 62
   250
100
AcDb2dPolyline
 66
     1
 10
0.0
 20
0.0
 30
0.0
  0
VERTEX
  5
56E
330
56D
100
AcDbEntity
  8
LAYER_1
 62
   250
100
AcDbVertex
100
AcDb2dVertex
 10
162.226942130889
 20
-26.91874716076912
 30
0.0
  0
VERTEX
  5
56F
330
56D
100
AcDbEntity
  8
LAYER_1
 62
   250
100
AcDbVertex
100
AcDb2dVertex
 10
162.2269421306041
 20
-23.74374716156287
 30
0.0
  0
SEQEND
  5
570
330
56D
100
AcDbEntity
  8
LAYER_1
 62
   250
  0
POLYLINE
  5
571
330
1F
100
AcDbEntity
  8
LAYER_1
 62
   250
100
AcDb2dPolyline
 66
     1
 10
0.0
 20
0.0
 30
0.0
  0
VERTEX
  5
572
330
571
100
AcDbEntity
  8
LAYER_1
 62
   250
100
AcDbVertex
100
AcDb2dVertex
 10
162.226942130889
 20
-26.91874716076912
 30
0.0
  0
VERTEX
  5
573
330
571
100
AcDbEntity
  8
LAYER_1
 62
   250
100
AcDbVertex
100
AcDb2dVertex
 10
153.7436098169291
 20
-26.91874716153017
 30
0.0
  0
SEQEND
  5
574
330
571
100
AcDbEntity
  8
LAYER_1
 62
   250
  0
POLYLINE
  5
575
330
1F
100
AcDbEntity
  8
LAYER_1
 62
   250
100
AcDb2dPolyline
 66
     1
 10
0.0
 20
0.0
 30
0.0
  0
VERTEX
  5
576
330
575
100
AcDbEntity
  8
LAYER_1
 62
   250
100
AcDbVertex
100
AcDb2dVertex
 10
153.7436098169291
 20
-26.91874716153017
 30
0.0
  0
VERTEX
  5
577
330
575
100
AcDbEntity
  8
LAYER_1
 62
   250
100
AcDbVertex
100
AcDb2dVertex
 10
153.7436098166442
 20
-23.74374716232392
 30
0.0
  0
SEQEND
  5
578
330
575
100
AcDbEntity
  8
LAYER_1
 62
   250
  0
POLYLINE
  5
579
330
1F
100
AcDbEntity
  8
LAYER_1
 62
   250
100
AcDb2dPolyline
 66
     1
 10
0.0
 20
0.0
 30
0.0
  0
VERTEX
  5
57A
330
579
100
AcDbEntity
  8
LAYER_1
 62
   250
100
AcDbVertex
100
AcDb2dVertex
 10
153.7436098166442
 20
-23.74374716232392
 30
0.0
  0
VERTEX
  5
57B
330
579
100
AcDbEntity
  8
LAYER_1
 62
   250
100
AcDbVertex
100
AcDb2dVertex
 10
145.2602990345311
 20
-23.74374716308562
 30
0.0
  0
SEQEND
  5
57C
330
579
100
AcDbEntity
  8
LAYER_1
 62
   250
  0
POLYLINE
  5
57D
330
1F
100
AcDbEntity
  8
LAYER_1
 62
   250
100
AcDb2dPolyline
 66
     1
 10
0.0
 20
0.0
 30
0.0
  0
VERTEX
  5
57E
330
57D
100
AcDbEntity
  8
LAYER_1
 62
   250
100
AcDbVertex
100
AcDb2dVertex
 10
145.260299034816
 20
-26.91874716229187
 30
0.0
  0
VERTEX
  5
57F
330
57D
100
AcDbEntity
  8
LAYER_1
 62
   250
100
AcDbVertex
100
AcDb2dVertex
 10
145.2602990345311
 20
-23.74374716308562
 30
0.0
  0
SEQEND
  5
580
330
57D
100
AcDbEntity
  8
LAYER_1
 62
   250
  0
POLYLINE
  5
581
330
1F
100
AcDbEntity
  8
LAYER_1
 62
   250
100
AcDb2dPolyline
 66
     1
 10
0.0
 20
0.0
 30
0.0
  0
VERTEX
  5
582
330
581
100
AcDbEntity
  8
LAYER_1
 62
   250
100
AcDbVertex
100
AcDb2dVertex
 10
145.260299034816
 20
-26.91874716229187
 30
0.0
  0
VERTEX
  5
583
330
581
100
AcDbEntity
  8
LAYER_1
 62
   250
100
AcDbVertex
100
AcDb2dVertex
 10
136.7769451890094
 20
-26.91874716305357
 30
0.0
  0
SEQEND
  5
584
330
581
100
AcDbEntity
  8
LAYER_1
 62
   250
  0
POLYLINE
  5
585
330
1F
100
AcDbEntity
  8
LAYER_1
 62
   250
100
AcDb2dPolyline
 66
     1
 10
0.0
 20
0.0
 30
0.0
  0
VERTEX
  5
586
330
585
100
AcDbEntity
  8
LAYER_1
 62
   250
100
AcDbVertex
100
AcDb2dVertex
 10
136.7769451890094
 20
-26.91874716305357
 30
0.0
  0
VERTEX
  5
587
330
585
100
AcDbEntity
  8
LAYER_1
 62
   250
100
AcDbVertex
100
AcDb2dVertex
 10
136.7769451887244
 20
-23.74374716384732
 30
0.0
  0
SEQEND
  5
588
330
585
100
AcDbEntity
  8
LAYER_1
 62
   250
  0
POLYLINE
  5
589
330
1F
100
AcDbEntity
  8
LAYER_1
 62
   250
100
AcDb2dPolyline
 66
     1
 10
0.0
 20
0.0
 30
0.0
  0
VERTEX
  5
58A
330
589
100
AcDbEntity
  8
LAYER_1
 62
   250
100
AcDbVertex
100
AcDb2dVertex
 10
136.7769451887244
 20
-23.74374716384732
 30
0.0
  0
VERTEX
  5
58B
330
589
100
AcDbEntity
  8
LAYER_1
 62
   250
100
AcDbVertex
100
AcDb2dVertex
 10
128.2936344066113
 20
-23.74374716460965
 30
0.0
  0
SEQEND
  5
58C
330
589
100
AcDbEntity
  8
LAYER_1
 62
   250
  0
POLYLINE
  5
58D
330
1F
100
AcDbEntity
  8
LAYER_1
 62
   250
100
AcDb2dPolyline
 66
     1
 10
0.0
 20
0.0
 30
0.0
  0
VERTEX
  5
58E
330
58D
100
AcDbEntity
  8
LAYER_1
 62
   250
100
AcDbVertex
100
AcDb2dVertex
 10
128.2936344068962
 20
-26.9187471638159
 30
0.0
  0
VERTEX
  5
58F
330
58D
100
AcDbEntity
  8
LAYER_1
 62
   250
100
AcDbVertex
100
AcDb2dVertex
 10
128.2936344066113
 20
-23.74374716460965
 30
0.0
  0
SEQEND
  5
590
330
58D
100
AcDbEntity
  8
LAYER_1
 62
   250
  0
POLYLINE
  5
591
330
1F
100
AcDbEntity
  8
LAYER_1
 62
   250
100
AcDb2dPolyline
 66
     1
 10
0.0
 20
0.0
 30
0.0
  0
VERTEX
  5
592
330
591
100
AcDbEntity
  8
LAYER_1
 62
   250
100
AcDbVertex
100
AcDb2dVertex
 10
128.2936344068962
 20
-26.9187471638159
 30
0.0
  0
VERTEX
  5
593
330
591
100
AcDbEntity
  8
LAYER_1
 62
   250
100
AcDbVertex
100
AcDb2dVertex
 10
119.8102805610896
 20
-26.91874716457696
 30
0.0
  0
SEQEND
  5
594
330
591
100
AcDbEntity
  8
LAYER_1
 62
   250
  0
POLYLINE
  5
595
330
1F
100
AcDbEntity
  8
LAYER_1
 62
   250
100
AcDb2dPolyline
 66
     1
 10
0.0
 20
0.0
 30
0.0
  0
VERTEX
  5
596
330
595
100
AcDbEntity
  8
LAYER_1
 62
   250
100
AcDbVertex
100
AcDb2dVertex
 10
119.8102805610896
 20
-26.91874716457696
 30
0.0
  0
VERTEX
  5
597
330
595
100
AcDbEntity
  8
LAYER_1
 62
   250
100
AcDbVertex
100
AcDb2dVertex
 10
119.8102805608046
 20
-23.74374716537071
 30
0.0
  0
SEQEND
  5
598
330
595
100
AcDbEntity
  8
LAYER_1
 62
   250
  0
POLYLINE
  5
599
330
1F
100
AcDbEntity
  8
LAYER_1
 62
   250
100
AcDb2dPolyline
 66
     1
 10
0.0
 20
0.0
 30
0.0
  0
VERTEX
  5
59A
330
599
100
AcDbEntity
  8
LAYER_1
 62
   250
100
AcDbVertex
100
AcDb2dVertex
 10
119.8102805608046
 20
-23.74374716537071
 30
0.0
  0
VERTEX
  5
59B
330
599
100
AcDbEntity
  8
LAYER_1
 62
   250
100
AcDbVertex
100
AcDb2dVertex
 10
111.3269482468448
 20
-23.74374716613305
 30
0.0
  0
SEQEND
  5
59C
330
599
100
AcDbEntity
  8
LAYER_1
 62
   250
  0
POLYLINE
  5
59D
330
1F
100
AcDbEntity
  8
LAYER_1
 62
   250
100
AcDb2dPolyline
 66
     1
 10
0.0
 20
0.0
 30
0.0
  0
VERTEX
  5
59E
330
59D
100
AcDbEntity
  8
LAYER_1
 62
   250
100
AcDbVertex
100
AcDb2dVertex
 10
111.3269482471297
 20
-26.9187471653393
 30
0.0
  0
VERTEX
  5
59F
330
59D
100
AcDbEntity
  8
LAYER_1
 62
   250
100
AcDbVertex
100
AcDb2dVertex
 10
111.3269482468448
 20
-23.74374716613305
 30
0.0
  0
SEQEND
  5
5A0
330
59D
100
AcDbEntity
  8
LAYER_1
 62
   250
  0
POLYLINE
  5
5A1
330
1F
100
AcDbEntity
  8
LAYER_1
 62
   250
100
AcDb2dPolyline
 66
     1
 10
0.0
 20
0.0
 30
0.0
  0
VERTEX
  5
5A2
330
5A1
100
AcDbEntity
  8
LAYER_1
 62
   250
100
AcDbVertex
100
AcDb2dVertex
 10
111.3269482471297
 20
-26.9187471653393
 30
0.0
  0
VERTEX
  5
5A3
330
5A1
100
AcDbEntity
  8
LAYER_1
 62
   250
100
AcDbVertex
100
AcDb2dVertex
 10
102.843594401323
 20
-26.91874716610036
 30
0.0
  0
SEQEND
  5
5A4
330
5A1
100
AcDbEntity
  8
LAYER_1
 62
   250
  0
POLYLINE
  5
5A5
330
1F
100
AcDbEntity
  8
LAYER_1
 62
   250
100
AcDb2dPolyline
 66
     1
 10
0.0
 20
0.0
 30
0.0
  0
VERTEX
  5
5A6
330
5A5
100
AcDbEntity
  8
LAYER_1
 62
   250
100
AcDbVertex
100
AcDb2dVertex
 10
102.843594401323
 20
-26.91874716610036
 30
0.0
  0
VERTEX
  5
5A7
330
5A5
100
AcDbEntity
  8
LAYER_1
 62
   250
100
AcDbVertex
100
AcDb2dVertex
 10
102.8435944010381
 20
-23.7437471668941
 30
0.0
  0
SEQEND
  5
5A8
330
5A5
100
AcDbEntity
  8
LAYER_1
 62
   250
  0
POLYLINE
  5
5A9
330
1F
100
AcDbEntity
  8
LAYER_1
 62
   250
100
AcDb2dPolyline
 66
     1
 10
0.0
 20
0.0
 30
0.0
  0
VERTEX
  5
5AA
330
5A9
100
AcDbEntity
  8
LAYER_1
 62
   250
100
AcDbVertex
100
AcDb2dVertex
 10
102.8435944010381
 20
-23.7437471668941
 30
0.0
  0
VERTEX
  5
5AB
330
5A9
100
AcDbEntity
  8
LAYER_1
 62
   250
100
AcDbVertex
100
AcDb2dVertex
 10
97.5352836181312
 20
-23.74374716737153
 30
0.0
  0
SEQEND
  5
5AC
330
5A9
100
AcDbEntity
  8
LAYER_1
 62
   250
  0
POLYLINE
  5
5AD
330
1F
100
AcDbEntity
  8
LAYER_1
 62
   250
100
AcDb2dPolyline
 66
     1
 10
0.0
 20
0.0
 30
0.0
  0
VERTEX
  5
5AE
330
5AD
100
AcDbEntity
  8
LAYER_1
 62
   250
100
AcDbVertex
100
AcDb2dVertex
 10
170.7102852104874
 20
-23.74374716080053
 30
0.0
  0
VERTEX
  5
5AF
330
5AD
100
AcDbEntity
  8
LAYER_1
 62
   250
100
AcDbVertex
100
AcDb2dVertex
 10
170.7102852112241
 20
-31.95542292982509
 30
0.0
  0
SEQEND
  5
5B0
330
5AD
100
AcDbEntity
  8
LAYER_1
 62
   250
  0
POLYLINE
  5
5B1
330
1F
100
AcDbEntity
  8
LAYER_1
 62
   250
100
AcDb2dPolyline
 66
     1
 10
0.0
 20
0.0
 30
0.0
  0
VERTEX
  5
5B2
330
5B1
100
AcDbEntity
  8
LAYER_1
 62
   250
100
AcDbVertex
100
AcDb2dVertex
 10
167.5352852120178
 20
-31.95542293011
 30
0.0
  0
VERTEX
  5
5B3
330
5B1
100
AcDbEntity
  8
LAYER_1
 62
   250
100
AcDbVertex
100
AcDb2dVertex
 10
170.7102852112241
 20
-31.95542292982509
 30
0.0
  0
SEQEND
  5
5B4
330
5B1
100
AcDbEntity
  8
LAYER_1
 62
   250
  0
POLYLINE
  5
5B5
330
1F
100
AcDbEntity
  8
LAYER_1
 62
   250
100
AcDb2dPolyline
 66
     1
 10
0.0
 20
0.0
 30
0.0
  0
VERTEX
  5
5B6
330
5B5
100
AcDbEntity
  8
LAYER_1
 62
   250
100
AcDbVertex
100
AcDb2dVertex
 10
167.5352852120178
 20
-31.95542293011
 30
0.0
  0
VERTEX
  5
5B7
330
5B5
100
AcDbEntity
  8
LAYER_1
 62
   250
100
AcDbVertex
100
AcDb2dVertex
 10
167.5352852127552
 20
-40.16706640136438
 30
0.0
  0
SEQEND
  5
5B8
330
5B5
100
AcDbEntity
  8
LAYER_1
 62
   250
  0
POLYLINE
  5
5B9
330
1F
100
AcDbEntity
  8
LAYER_1
 62
   250
100
AcDb2dPolyline
 66
     1
 10
0.0
 20
0.0
 30
0.0
  0
VERTEX
  5
5BA
330
5B9
100
AcDbEntity
  8
LAYER_1
 62
   250
100
AcDbVertex
100
AcDb2dVertex
 10
167.5352852127552
 20
-40.16706640136438
 30
0.0
  0
VERTEX
  5
5BB
330
5B9
100
AcDbEntity
  8
LAYER_1
 62
   250
100
AcDbVertex
100
AcDb2dVertex
 10
170.710285211962
 20
-40.16706640107947
 30
0.0
  0
SEQEND
  5
5BC
330
5B9
100
AcDbEntity
  8
LAYER_1
 62
   250
  0
POLYLINE
  5
5BD
330
1F
100
AcDbEntity
  8
LAYER_1
 62
   250
100
AcDb2dPolyline
 66
     1
 10
0.0
 20
0.0
 30
0.0
  0
VERTEX
  5
5BE
330
5BD
100
AcDbEntity
  8
LAYER_1
 62
   250
100
AcDbVertex
100
AcDb2dVertex
 10
170.710285211962
 20
-40.16706640107947
 30
0.0
  0
VERTEX
  5
5BF
330
5BD
100
AcDbEntity
  8
LAYER_1
 62
   250
100
AcDbVertex
100
AcDb2dVertex
 10
170.7102852126993
 20
-48.37874217010403
 30
0.0
  0
SEQEND
  5
5C0
330
5BD
100
AcDbEntity
  8
LAYER_1
 62
   250
  0
POLYLINE
  5
5C1
330
1F
100
AcDbEntity
  8
LAYER_1
 62
   250
100
AcDb2dPolyline
 66
     1
 10
0.0
 20
0.0
 30
0.0
  0
VERTEX
  5
5C2
330
5C1
100
AcDbEntity
  8
LAYER_1
 62
   250
100
AcDbVertex
100
AcDb2dVertex
 10
167.5352852134931
 20
-48.37874217038894
 30
0.0
  0
VERTEX
  5
5C3
330
5C1
100
AcDbEntity
  8
LAYER_1
 62
   250
100
AcDbVertex
100
AcDb2dVertex
 10
170.7102852126993
 20
-48.37874217010403
 30
0.0
  0
SEQEND
  5
5C4
330
5C1
100
AcDbEntity
  8
LAYER_1
 62
   250
  0
POLYLINE
  5
5C5
330
1F
100
AcDbEntity
  8
LAYER_1
 62
   250
100
AcDb2dPolyline
 66
     1
 10
0.0
 20
0.0
 30
0.0
  0
VERTEX
  5
5C6
330
5C5
100
AcDbEntity
  8
LAYER_1
 62
   250
100
AcDbVertex
100
AcDb2dVertex
 10
167.5352852134931
 20
-48.37874217038894
 30
0.0
  0
VERTEX
  5
5C7
330
5C5
100
AcDbEntity
  8
LAYER_1
 62
   250
100
AcDbVertex
100
AcDb2dVertex
 10
167.5352852142304
 20
-56.59042870533688
 30
0.0
  0
SEQEND
  5
5C8
330
5C5
100
AcDbEntity
  8
LAYER_1
 62
   250
  0
POLYLINE
  5
5C9
330
1F
100
AcDbEntity
  8
LAYER_1
 62
   250
100
AcDb2dPolyline
 66
     1
 10
0.0
 20
0.0
 30
0.0
  0
VERTEX
  5
5CA
330
5C9
100
AcDbEntity
  8
LAYER_1
 62
   250
100
AcDbVertex
100
AcDb2dVertex
 10
167.5352852142304
 20
-56.59042870533688
 30
0.0
  0
VERTEX
  5
5CB
330
5C9
100
AcDbEntity
  8
LAYER_1
 62
   250
100
AcDbVertex
100
AcDb2dVertex
 10
170.7102852134367
 20
-56.59042870505197
 30
0.0
  0
SEQEND
  5
5CC
330
5C9
100
AcDbEntity
  8
LAYER_1
 62
   250
  0
POLYLINE
  5
5CD
330
1F
100
AcDbEntity
  8
LAYER_1
 62
   250
100
AcDb2dPolyline
 66
     1
 10
0.0
 20
0.0
 30
0.0
  0
VERTEX
  5
5CE
330
5CD
100
AcDbEntity
  8
LAYER_1
 62
   250
100
AcDbVertex
100
AcDb2dVertex
 10
170.7102852134367
 20
-56.59042870505197
 30
0.0
  0
VERTEX
  5
5CF
330
5CD
100
AcDbEntity
  8
LAYER_1
 62
   250
100
AcDbVertex
100
AcDb2dVertex
 10
170.710285214174
 20
-64.80207217630635
 30
0.0
  0
SEQEND
  5
5D0
330
5CD
100
AcDbEntity
  8
LAYER_1
 62
   250
  0
POLYLINE
  5
5D1
330
1F
100
AcDbEntity
  8
LAYER_1
 62
   250
100
AcDb2dPolyline
 66
     1
 10
0.0
 20
0.0
 30
0.0
  0
VERTEX
  5
5D2
330
5D1
100
AcDbEntity
  8
LAYER_1
 62
   250
100
AcDbVertex
100
AcDb2dVertex
 10
167.5352852149677
 20
-64.80207217659127
 30
0.0
  0
VERTEX
  5
5D3
330
5D1
100
AcDbEntity
  8
LAYER_1
 62
   250
100
AcDbVertex
100
AcDb2dVertex
 10
170.710285214174
 20
-64.80207217630635
 30
0.0
  0
SEQEND
  5
5D4
330
5D1
100
AcDbEntity
  8
LAYER_1
 62
   250
  0
POLYLINE
  5
5D5
330
1F
100
AcDbEntity
  8
LAYER_1
 62
   250
100
AcDb2dPolyline
 66
     1
 10
0.0
 20
0.0
 30
0.0
  0
VERTEX
  5
5D6
330
5D5
100
AcDbEntity
  8
LAYER_1
 62
   250
100
AcDbVertex
100
AcDb2dVertex
 10
167.5352852149677
 20
-64.80207217659127
 30
0.0
  0
VERTEX
  5
5D7
330
5D5
100
AcDbEntity
  8
LAYER_1
 62
   250
100
AcDbVertex
100
AcDb2dVertex
 10
167.535285215705
 20
-73.01375871153857
 30
0.0
  0
SEQEND
  5
5D8
330
5D5
100
AcDbEntity
  8
LAYER_1
 62
   250
  0
POLYLINE
  5
5D9
330
1F
100
AcDbEntity
  8
LAYER_1
 62
   250
100
AcDb2dPolyline
 66
     1
 10
0.0
 20
0.0
 30
0.0
  0
VERTEX
  5
5DA
330
5D9
100
AcDbEntity
  8
LAYER_1
 62
   250
100
AcDbVertex
100
AcDb2dVertex
 10
167.535285215705
 20
-73.01375871153857
 30
0.0
  0
VERTEX
  5
5DB
330
5D9
100
AcDbEntity
  8
LAYER_1
 62
   250
100
AcDbVertex
100
AcDb2dVertex
 10
170.7102852149113
 20
-73.01375871125302
 30
0.0
  0
SEQEND
  5
5DC
330
5D9
100
AcDbEntity
  8
LAYER_1
 62
   250
  0
POLYLINE
  5
5DD
330
1F
100
AcDbEntity
  8
LAYER_1
 62
   250
100
AcDb2dPolyline
 66
     1
 10
0.0
 20
0.0
 30
0.0
  0
VERTEX
  5
5DE
330
5DD
100
AcDbEntity
  8
LAYER_1
 62
   250
100
AcDbVertex
100
AcDb2dVertex
 10
170.7102852149113
 20
-73.01375871125302
 30
0.0
  0
VERTEX
  5
5DF
330
5DD
100
AcDbEntity
  8
LAYER_1
 62
   250
100
AcDbVertex
100
AcDb2dVertex
 10
170.7102852156486
 20
-81.22542371435354
 30
0.0
  0
SEQEND
  5
5E0
330
5DD
100
AcDbEntity
  8
LAYER_1
 62
   250
  0
POLYLINE
  5
5E1
330
1F
100
AcDbEntity
  8
LAYER_1
 62
   250
100
AcDb2dPolyline
 66
     1
 10
0.0
 20
0.0
 30
0.0
  0
VERTEX
  5
5E2
330
5E1
100
AcDbEntity
  8
LAYER_1
 62
   250
100
AcDbVertex
100
AcDb2dVertex
 10
167.535285216443
 20
-81.22542371463973
 30
0.0
  0
VERTEX
  5
5E3
330
5E1
100
AcDbEntity
  8
LAYER_1
 62
   250
100
AcDbVertex
100
AcDb2dVertex
 10
170.7102852156486
 20
-81.22542371435354
 30
0.0
  0
SEQEND
  5
5E4
330
5E1
100
AcDbEntity
  8
LAYER_1
 62
   250
  0
POLYLINE
  5
5E5
330
1F
100
AcDbEntity
  8
LAYER_1
 62
   250
100
AcDb2dPolyline
 66
     1
 10
0.0
 20
0.0
 30
0.0
  0
VERTEX
  5
5E6
330
5E5
100
AcDbEntity
  8
LAYER_1
 62
   250
100
AcDbVertex
100
AcDb2dVertex
 10
167.535285216443
 20
-81.22542371463973
 30
0.0
  0
VERTEX
  5
5E7
330
5E5
100
AcDbEntity
  8
LAYER_1
 62
   250
100
AcDbVertex
100
AcDb2dVertex
 10
167.5352852171796
 20
-89.43706718589604
 30
0.0
  0
SEQEND
  5
5E8
330
5E5
100
AcDbEntity
  8
LAYER_1
 62
   250
  0
POLYLINE
  5
5E9
330
1F
100
AcDbEntity
  8
LAYER_1
 62
   250
100
AcDb2dPolyline
 66
     1
 10
0.0
 20
0.0
 30
0.0
  0
VERTEX
  5
5EA
330
5E9
100
AcDbEntity
  8
LAYER_1
 62
   250
100
AcDbVertex
100
AcDb2dVertex
 10
167.5352852171796
 20
-89.43706718589604
 30
0.0
  0
VERTEX
  5
5EB
330
5E9
100
AcDbEntity
  8
LAYER_1
 62
   250
100
AcDbVertex
100
AcDb2dVertex
 10
170.7102852163859
 20
-89.43706718560985
 30
0.0
  0
SEQEND
  5
5EC
330
5E9
100
AcDbEntity
  8
LAYER_1
 62
   250
  0
POLYLINE
  5
5ED
330
1F
100
AcDbEntity
  8
LAYER_1
 62
   250
100
AcDb2dPolyline
 66
     1
 10
0.0
 20
0.0
 30
0.0
  0
VERTEX
  5
5EE
330
5ED
100
AcDbEntity
  8
LAYER_1
 62
   250
100
AcDbVertex
100
AcDb2dVertex
 10
170.7102852163859
 20
-89.43706718560985
 30
0.0
  0
VERTEX
  5
5EF
330
5ED
100
AcDbEntity
  8
LAYER_1
 62
   250
100
AcDbVertex
100
AcDb2dVertex
 10
170.7102852171239
 20
-97.64875372055907
 30
0.0
  0
SEQEND
  5
5F0
330
5ED
100
AcDbEntity
  8
LAYER_1
 62
   250
  0
POLYLINE
  5
5F1
330
1F
100
AcDbEntity
  8
LAYER_1
 62
   250
100
AcDb2dPolyline
 66
     1
 10
0.0
 20
0.0
 30
0.0
  0
VERTEX
  5
5F2
330
5F1
100
AcDbEntity
  8
LAYER_1
 62
   250
100
AcDbVertex
100
AcDb2dVertex
 10
167.535285217917
 20
-97.64875372084462
 30
0.0
  0
VERTEX
  5
5F3
330
5F1
100
AcDbEntity
  8
LAYER_1
 62
   250
100
AcDbVertex
100
AcDb2dVertex
 10
170.7102852171239
 20
-97.64875372055907
 30
0.0
  0
SEQEND
  5
5F4
330
5F1
100
AcDbEntity
  8
LAYER_1
 62
   250
  0
POLYLINE
  5
5F5
330
1F
100
AcDbEntity
  8
LAYER_1
 62
   250
100
AcDb2dPolyline
 66
     1
 10
0.0
 20
0.0
 30
0.0
  0
VERTEX
  5
5F6
330
5F5
100
AcDbEntity
  8
LAYER_1
 62
   250
100
AcDbVertex
100
AcDb2dVertex
 10
167.535285217917
 20
-97.64875372084462
 30
0.0
  0
VERTEX
  5
5F7
330
5F5
100
AcDbEntity
  8
LAYER_1
 62
   250
100
AcDbVertex
100
AcDb2dVertex
 10
167.5352852186543
 20
-105.8603971920971
 30
0.0
  0
SEQEND
  5
5F8
330
5F5
100
AcDbEntity
  8
LAYER_1
 62
   250
  0
POLYLINE
  5
5F9
330
1F
100
AcDbEntity
  8
LAYER_1
 62
   250
100
AcDb2dPolyline
 66
     1
 10
0.0
 20
0.0
 30
0.0
  0
VERTEX
  5
5FA
330
5F9
100
AcDbEntity
  8
LAYER_1
 62
   250
100
AcDbVertex
100
AcDb2dVertex
 10
167.5352852186543
 20
-105.8603971920971
 30
0.0
  0
VERTEX
  5
5FB
330
5F9
100
AcDbEntity
  8
LAYER_1
 62
   250
100
AcDbVertex
100
AcDb2dVertex
 10
170.7102852178605
 20
-105.8603971918115
 30
0.0
  0
SEQEND
  5
5FC
330
5F9
100
AcDbEntity
  8
LAYER_1
 62
   250
  0
POLYLINE
  5
5FD
330
1F
100
AcDbEntity
  8
LAYER_1
 62
   250
100
AcDb2dPolyline
 66
     1
 10
0.0
 20
0.0
 30
0.0
  0
VERTEX
  5
5FE
330
5FD
100
AcDbEntity
  8
LAYER_1
 62
   250
100
AcDbVertex
100
AcDb2dVertex
 10
170.7102852178605
 20
-105.8603971918115
 30
0.0
  0
VERTEX
  5
5FF
330
5FD
100
AcDbEntity
  8
LAYER_1
 62
   250
100
AcDbVertex
100
AcDb2dVertex
 10
170.7102852185985
 20
-114.072062194912
 30
0.0
  0
SEQEND
  5
600
330
5FD
100
AcDbEntity
  8
LAYER_1
 62
   250
  0
POLYLINE
  5
601
330
1F
100
AcDbEntity
  8
LAYER_1
 62
   250
100
AcDb2dPolyline
 66
     1
 10
0.0
 20
0.0
 30
0.0
  0
VERTEX
  5
602
330
601
100
AcDbEntity
  8
LAYER_1
 62
   250
100
AcDbVertex
100
AcDb2dVertex
 10
167.5352852193923
 20
-114.0720621951976
 30
0.0
  0
VERTEX
  5
603
330
601
100
AcDbEntity
  8
LAYER_1
 62
   250
100
AcDbVertex
100
AcDb2dVertex
 10
170.7102852185985
 20
-114.072062194912
 30
0.0
  0
SEQEND
  5
604
330
601
100
AcDbEntity
  8
LAYER_1
 62
   250
  0
POLYLINE
  5
605
330
1F
100
AcDbEntity
  8
LAYER_1
 62
   250
100
AcDb2dPolyline
 66
     1
 10
0.0
 20
0.0
 30
0.0
  0
VERTEX
  5
606
330
605
100
AcDbEntity
  8
LAYER_1
 62
   250
100
AcDbVertex
100
AcDb2dVertex
 10
167.5352852193923
 20
-114.0720621951976
 30
0.0
  0
VERTEX
  5
607
330
605
100
AcDbEntity
  8
LAYER_1
 62
   250
100
AcDbVertex
100
AcDb2dVertex
 10
167.5352852201289
 20
-122.2837487301468
 30
0.0
  0
SEQEND
  5
608
330
605
100
AcDbEntity
  8
LAYER_1
 62
   250
  0
POLYLINE
  5
609
330
1F
100
AcDbEntity
  8
LAYER_1
 62
   250
100
AcDb2dPolyline
 66
     1
 10
0.0
 20
0.0
 30
0.0
  0
VERTEX
  5
60A
330
609
100
AcDbEntity
  8
LAYER_1
 62
   250
100
AcDbVertex
100
AcDb2dVertex
 10
167.5352852201289
 20
-122.2837487301468
 30
0.0
  0
VERTEX
  5
60B
330
609
100
AcDbEntity
  8
LAYER_1
 62
   250
100
AcDbVertex
100
AcDb2dVertex
 10
170.7102852193352
 20
-122.2837487298613
 30
0.0
  0
SEQEND
  5
60C
330
609
100
AcDbEntity
  8
LAYER_1
 62
   250
  0
POLYLINE
  5
60D
330
1F
100
AcDbEntity
  8
LAYER_1
 62
   250
100
AcDb2dPolyline
 66
     1
 10
0.0
 20
0.0
 30
0.0
  0
VERTEX
  5
60E
330
60D
100
AcDbEntity
  8
LAYER_1
 62
   250
100
AcDbVertex
100
AcDb2dVertex
 10
170.7102852193352
 20
-122.2837487298613
 30
0.0
  0
VERTEX
  5
60F
330
60D
100
AcDbEntity
  8
LAYER_1
 62
   250
100
AcDbVertex
100
AcDb2dVertex
 10
170.7102852200731
 20
-130.4953922011169
 30
0.0
  0
SEQEND
  5
610
330
60D
100
AcDbEntity
  8
LAYER_1
 62
   250
  0
POLYLINE
  5
611
330
1F
100
AcDbEntity
  8
LAYER_1
 62
   250
100
AcDb2dPolyline
 66
     1
 10
0.0
 20
0.0
 30
0.0
  0
VERTEX
  5
612
330
611
100
AcDbEntity
  8
LAYER_1
 62
   250
100
AcDbVertex
100
AcDb2dVertex
 10
167.5352852208662
 20
-130.4953922014031
 30
0.0
  0
VERTEX
  5
613
330
611
100
AcDbEntity
  8
LAYER_1
 62
   250
100
AcDbVertex
100
AcDb2dVertex
 10
170.7102852200731
 20
-130.4953922011169
 30
0.0
  0
SEQEND
  5
614
330
611
100
AcDbEntity
  8
LAYER_1
 62
   250
  0
POLYLINE
  5
615
330
1F
100
AcDbEntity
  8
LAYER_1
 62
   250
100
AcDb2dPolyline
 66
     1
 10
0.0
 20
0.0
 30
0.0
  0
VERTEX
  5
616
330
615
100
AcDbEntity
  8
LAYER_1
 62
   250
100
AcDbVertex
100
AcDb2dVertex
 10
167.5352852208662
 20
-130.4953922014031
 30
0.0
  0
VERTEX
  5
617
330
615
100
AcDbEntity
  8
LAYER_1
 62
   250
100
AcDbVertex
100
AcDb2dVertex
 10
167.5352852216035
 20
-138.7070787363479
 30
0.0
  0
SEQEND
  5
618
330
615
100
AcDbEntity
  8
LAYER_1
 62
   250
  0
POLYLINE
  5
619
330
1F
100
AcDbEntity
  8
LAYER_1
 62
   250
100
AcDb2dPolyline
 66
     1
 10
0.0
 20
0.0
 30
0.0
  0
VERTEX
  5
61A
330
619
100
AcDbEntity
  8
LAYER_1
 62
   250
100
AcDbVertex
100
AcDb2dVertex
 10
167.5352852216035
 20
-138.7070787363479
 30
0.0
  0
VERTEX
  5
61B
330
619
100
AcDbEntity
  8
LAYER_1
 62
   250
100
AcDbVertex
100
AcDb2dVertex
 10
170.7102852208098
 20
-138.7070787360623
 30
0.0
  0
SEQEND
  5
61C
330
619
100
AcDbEntity
  8
LAYER_1
 62
   250
  0
POLYLINE
  5
61D
330
1F
100
AcDbEntity
  8
LAYER_1
 62
   250
100
AcDb2dPolyline
 66
     1
 10
0.0
 20
0.0
 30
0.0
  0
VERTEX
  5
61E
330
61D
100
AcDbEntity
  8
LAYER_1
 62
   250
100
AcDbVertex
100
AcDb2dVertex
 10
170.7102852208098
 20
-138.7070787360623
 30
0.0
  0
VERTEX
  5
61F
330
61D
100
AcDbEntity
  8
LAYER_1
 62
   250
100
AcDbVertex
100
AcDb2dVertex
 10
170.7102852215477
 20
-146.9187437391628
 30
0.0
  0
VERTEX
  5
620
330
61D
100
AcDbEntity
  8
LAYER_1
 62
   250
100
AcDbVertex
100
AcDb2dVertex
 10
97.53528362919153
 20
-146.9187437457351
 30
0.0
  0
VERTEX
  5
621
330
61D
100
AcDbEntity
  8
LAYER_1
 62
   250
100
AcDbVertex
100
AcDb2dVertex
 10
97.53528362845357
 20
-138.7070787426346
 30
0.0
  0
SEQEND
  5
622
330
61D
100
AcDbEntity
  8
LAYER_1
 62
   250
  0
POLYLINE
  5
623
330
1F
100
AcDbEntity
  8
LAYER_1
 62
   250
100
AcDb2dPolyline
 66
     1
 10
0.0
 20
0.0
 30
0.0
  0
VERTEX
  5
624
330
623
100
AcDbEntity
  8
LAYER_1
 62
   250
100
AcDbVertex
100
AcDb2dVertex
 10
233.8853050410221
 20
-23.74374715512791
 30
0.0
  0
VERTEX
  5
625
330
623
100
AcDbEntity
  8
LAYER_1
 62
   250
100
AcDbVertex
100
AcDb2dVertex
 10
224.4067277050671
 20
-23.74374715597945
 30
0.0
  0
SEQEND
  5
626
330
623
100
AcDbEntity
  8
LAYER_1
 62
   250
  0
POLYLINE
  5
627
330
1F
100
AcDbEntity
  8
LAYER_1
 62
   250
100
AcDb2dPolyline
 66
     1
 10
0.0
 20
0.0
 30
0.0
  0
VERTEX
  5
628
330
627
100
AcDbEntity
  8
LAYER_1
 62
   250
100
AcDbVertex
100
AcDb2dVertex
 10
224.406727705352
 20
-26.9187471551857
 30
0.0
  0
VERTEX
  5
629
330
627
100
AcDbEntity
  8
LAYER_1
 62
   250
100
AcDbVertex
100
AcDb2dVertex
 10
224.4067277050671
 20
-23.74374715597945
 30
0.0
  0
SEQEND
  5
62A
330
627
100
AcDbEntity
  8
LAYER_1
 62
   250
  0
POLYLINE
  5
62B
330
1F
100
AcDbEntity
  8
LAYER_1
 62
   250
100
AcDb2dPolyline
 66
     1
 10
0.0
 20
0.0
 30
0.0
  0
VERTEX
  5
62C
330
62B
100
AcDbEntity
  8
LAYER_1
 62
   250
100
AcDbVertex
100
AcDb2dVertex
 10
224.406727705352
 20
-26.9187471551857
 30
0.0
  0
VERTEX
  5
62D
330
62B
100
AcDbEntity
  8
LAYER_1
 62
   250
100
AcDbVertex
100
AcDb2dVertex
 10
214.9281611353204
 20
-26.91874715603659
 30
0.0
  0
SEQEND
  5
62E
330
62B
100
AcDbEntity
  8
LAYER_1
 62
   250
  0
POLYLINE
  5
62F
330
1F
100
AcDbEntity
  8
LAYER_1
 62
   250
100
AcDb2dPolyline
 66
     1
 10
0.0
 20
0.0
 30
0.0
  0
VERTEX
  5
630
330
62F
100
AcDbEntity
  8
LAYER_1
 62
   250
100
AcDbVertex
100
AcDb2dVertex
 10
214.9281611353204
 20
-26.91874715603659
 30
0.0
  0
VERTEX
  5
631
330
62F
100
AcDbEntity
  8
LAYER_1
 62
   250
100
AcDbVertex
100
AcDb2dVertex
 10
214.9281611350355
 20
-23.74374715683034
 30
0.0
  0
SEQEND
  5
632
330
62F
100
AcDbEntity
  8
LAYER_1
 62
   250
  0
POLYLINE
  5
633
330
1F
100
AcDbEntity
  8
LAYER_1
 62
   250
100
AcDb2dPolyline
 66
     1
 10
0.0
 20
0.0
 30
0.0
  0
VERTEX
  5
634
330
633
100
AcDbEntity
  8
LAYER_1
 62
   250
100
AcDbVertex
100
AcDb2dVertex
 10
214.9281611350355
 20
-23.74374715683034
 30
0.0
  0
VERTEX
  5
635
330
633
100
AcDbEntity
  8
LAYER_1
 62
   250
100
AcDbVertex
100
AcDb2dVertex
 10
205.4495837990805
 20
-23.74374715768187
 30
0.0
  0
SEQEND
  5
636
330
633
100
AcDbEntity
  8
LAYER_1
 62
   250
  0
POLYLINE
  5
637
330
1F
100
AcDbEntity
  8
LAYER_1
 62
   250
100
AcDb2dPolyline
 66
     1
 10
0.0
 20
0.0
 30
0.0
  0
VERTEX
  5
638
330
637
100
AcDbEntity
  8
LAYER_1
 62
   250
100
AcDbVertex
100
AcDb2dVertex
 10
205.4495837993654
 20
-26.91874715688812
 30
0.0
  0
VERTEX
  5
639
330
637
100
AcDbEntity
  8
LAYER_1
 62
   250
100
AcDbVertex
100
AcDb2dVertex
 10
205.4495837990805
 20
-23.74374715768187
 30
0.0
  0
SEQEND
  5
63A
330
637
100
AcDbEntity
  8
LAYER_1
 62
   250
  0
POLYLINE
  5
63B
330
1F
100
AcDbEntity
  8
LAYER_1
 62
   250
100
AcDb2dPolyline
 66
     1
 10
0.0
 20
0.0
 30
0.0
  0
VERTEX
  5
63C
330
63B
100
AcDbEntity
  8
LAYER_1
 62
   250
100
AcDbVertex
100
AcDb2dVertex
 10
205.4495837993654
 20
-26.91874715688812
 30
0.0
  0
VERTEX
  5
63D
330
63B
100
AcDbEntity
  8
LAYER_1
 62
   250
100
AcDbVertex
100
AcDb2dVertex
 10
195.9710064634104
 20
-26.91874715773837
 30
0.0
  0
SEQEND
  5
63E
330
63B
100
AcDbEntity
  8
LAYER_1
 62
   250
  0
POLYLINE
  5
63F
330
1F
100
AcDbEntity
  8
LAYER_1
 62
   250
100
AcDb2dPolyline
 66
     1
 10
0.0
 20
0.0
 30
0.0
  0
VERTEX
  5
640
330
63F
100
AcDbEntity
  8
LAYER_1
 62
   250
100
AcDbVertex
100
AcDb2dVertex
 10
195.9710064634104
 20
-26.91874715773837
 30
0.0
  0
VERTEX
  5
641
330
63F
100
AcDbEntity
  8
LAYER_1
 62
   250
100
AcDbVertex
100
AcDb2dVertex
 10
195.9710064631255
 20
-23.74374715853212
 30
0.0
  0
SEQEND
  5
642
330
63F
100
AcDbEntity
  8
LAYER_1
 62
   250
  0
POLYLINE
  5
643
330
1F
100
AcDbEntity
  8
LAYER_1
 62
   250
100
AcDb2dPolyline
 66
     1
 10
0.0
 20
0.0
 30
0.0
  0
VERTEX
  5
644
330
643
100
AcDbEntity
  8
LAYER_1
 62
   250
100
AcDbVertex
100
AcDb2dVertex
 10
195.9710064631255
 20
-23.74374715853212
 30
0.0
  0
VERTEX
  5
645
330
643
100
AcDbEntity
  8
LAYER_1
 62
   250
100
AcDbVertex
100
AcDb2dVertex
 10
186.4924291271705
 20
-23.74374715938366
 30
0.0
  0
SEQEND
  5
646
330
643
100
AcDbEntity
  8
LAYER_1
 62
   250
  0
POLYLINE
  5
647
330
1F
100
AcDbEntity
  8
LAYER_1
 62
   250
100
AcDb2dPolyline
 66
     1
 10
0.0
 20
0.0
 30
0.0
  0
VERTEX
  5
648
330
647
100
AcDbEntity
  8
LAYER_1
 62
   250
100
AcDbVertex
100
AcDb2dVertex
 10
186.4924291274554
 20
-26.91874715858991
 30
0.0
  0
VERTEX
  5
649
330
647
100
AcDbEntity
  8
LAYER_1
 62
   250
100
AcDbVertex
100
AcDb2dVertex
 10
186.4924291271705
 20
-23.74374715938366
 30
0.0
  0
SEQEND
  5
64A
330
647
100
AcDbEntity
  8
LAYER_1
 62
   250
  0
POLYLINE
  5
64B
330
1F
100
AcDbEntity
  8
LAYER_1
 62
   250
100
AcDb2dPolyline
 66
     1
 10
0.0
 20
0.0
 30
0.0
  0
VERTEX
  5
64C
330
64B
100
AcDbEntity
  8
LAYER_1
 62
   250
100
AcDbVertex
100
AcDb2dVertex
 10
186.4924291274554
 20
-26.91874715858991
 30
0.0
  0
VERTEX
  5
64D
330
64B
100
AcDbEntity
  8
LAYER_1
 62
   250
100
AcDbVertex
100
AcDb2dVertex
 10
177.0138625574238
 20
-26.9187471594408
 30
0.0
  0
SEQEND
  5
64E
330
64B
100
AcDbEntity
  8
LAYER_1
 62
   250
  0
POLYLINE
  5
64F
330
1F
100
AcDbEntity
  8
LAYER_1
 62
   250
100
AcDb2dPolyline
 66
     1
 10
0.0
 20
0.0
 30
0.0
  0
VERTEX
  5
650
330
64F
100
AcDbEntity
  8
LAYER_1
 62
   250
100
AcDbVertex
100
AcDb2dVertex
 10
177.0138625574238
 20
-26.9187471594408
 30
0.0
  0
VERTEX
  5
651
330
64F
100
AcDbEntity
  8
LAYER_1
 62
   250
100
AcDbVertex
100
AcDb2dVertex
 10
177.0138625571389
 20
-23.74374716023455
 30
0.0
  0
SEQEND
  5
652
330
64F
100
AcDbEntity
  8
LAYER_1
 62
   250
  0
POLYLINE
  5
653
330
1F
100
AcDbEntity
  8
LAYER_1
 62
   250
100
AcDb2dPolyline
 66
     1
 10
0.0
 20
0.0
 30
0.0
  0
VERTEX
  5
654
330
653
100
AcDbEntity
  8
LAYER_1
 62
   250
100
AcDbVertex
100
AcDb2dVertex
 10
177.0138625571389
 20
-23.74374716023455
 30
0.0
  0
VERTEX
  5
655
330
653
100
AcDbEntity
  8
LAYER_1
 62
   250
100
AcDbVertex
100
AcDb2dVertex
 10
170.7102852203901
 20
-23.74374716080053
 30
0.0
  0
SEQEND
  5
656
330
653
100
AcDbEntity
  8
LAYER_1
 62
   250
  0
POLYLINE
  5
657
330
1F
100
AcDbEntity
  8
LAYER_1
 62
   250
100
AcDb2dPolyline
 66
     1
 10
0.0
 20
0.0
 30
0.0
  0
VERTEX
  5
658
330
657
100
AcDbEntity
  8
LAYER_1
 62
   250
100
AcDbVertex
100
AcDb2dVertex
 10
170.7102852307125
 20
-138.7071002679104
 30
0.0
  0
VERTEX
  5
659
330
657
100
AcDbEntity
  8
LAYER_1
 62
   250
100
AcDbVertex
100
AcDb2dVertex
 10
170.7102852314504
 20
-146.9187437391628
 30
0.0
  0
VERTEX
  5
65A
330
657
100
AcDbEntity
  8
LAYER_1
 62
   250
100
AcDbVertex
100
AcDb2dVertex
 10
233.8853050520825
 20
-146.9187437334902
 30
0.0
  0
VERTEX
  5
65B
330
657
100
AcDbEntity
  8
LAYER_1
 62
   250
100
AcDbVertex
100
AcDb2dVertex
 10
233.8853050513445
 20
-138.7071002622378
 30
0.0
  0
SEQEND
  5
65C
330
657
100
AcDbEntity
  8
LAYER_1
 62
   250
  0
POLYLINE
  5
65D
330
1F
100
AcDbEntity
  8
LAYER_1
 62
   250
100
AcDb2dPolyline
 66
     1
 10
0.0
 20
0.0
 30
0.0
  0
VERTEX
  5
65E
330
65D
100
AcDbEntity
  8
LAYER_1
 62
   250
100
AcDbVertex
100
AcDb2dVertex
 10
94.22020307683576
 20
-164.7339937950271
 30
0.0
  0
VERTEX
  5
65F
330
65D
100
AcDbEntity
  8
LAYER_1
 62
   250
100
AcDbVertex
100
AcDb2dVertex
 10
87.91662574008828
 20
-164.7339937955911
 30
0.0
  0
SEQEND
  5
660
330
65D
100
AcDbEntity
  8
LAYER_1
 62
   250
  0
POLYLINE
  5
661
330
1F
100
AcDbEntity
  8
LAYER_1
 62
   250
100
AcDb2dPolyline
 66
     1
 10
0.0
 20
0.0
 30
0.0
  0
VERTEX
  5
662
330
661
100
AcDbEntity
  8
LAYER_1
 62
   250
100
AcDbVertex
100
AcDb2dVertex
 10
87.91662574008828
 20
-164.7339937955911
 30
0.0
  0
VERTEX
  5
663
330
661
100
AcDbEntity
  8
LAYER_1
 62
   250
100
AcDbVertex
100
AcDb2dVertex
 10
87.91662573980273
 20
-161.5589937963849
 30
0.0
  0
SEQEND
  5
664
330
661
100
AcDbEntity
  8
LAYER_1
 62
   250
  0
POLYLINE
  5
665
330
1F
100
AcDbEntity
  8
LAYER_1
 62
   250
100
AcDb2dPolyline
 66
     1
 10
0.0
 20
0.0
 30
0.0
  0
VERTEX
  5
666
330
665
100
AcDbEntity
  8
LAYER_1
 62
   250
100
AcDbVertex
100
AcDb2dVertex
 10
87.91662573980273
 20
-161.5589937963849
 30
0.0
  0
VERTEX
  5
667
330
665
100
AcDbEntity
  8
LAYER_1
 62
   250
100
AcDbVertex
100
AcDb2dVertex
 10
78.43805916977111
 20
-161.5589937972351
 30
0.0
  0
SEQEND
  5
668
330
665
100
AcDbEntity
  8
LAYER_1
 62
   250
  0
POLYLINE
  5
669
330
1F
100
AcDbEntity
  8
LAYER_1
 62
   250
100
AcDb2dPolyline
 66
     1
 10
0.0
 20
0.0
 30
0.0
  0
VERTEX
  5
66A
330
669
100
AcDbEntity
  8
LAYER_1
 62
   250
100
AcDbVertex
100
AcDb2dVertex
 10
78.43805917005602
 20
-164.7339937964414
 30
0.0
  0
VERTEX
  5
66B
330
669
100
AcDbEntity
  8
LAYER_1
 62
   250
100
AcDbVertex
100
AcDb2dVertex
 10
78.43805916977111
 20
-161.5589937972351
 30
0.0
  0
SEQEND
  5
66C
330
669
100
AcDbEntity
  8
LAYER_1
 62
   250
  0
POLYLINE
  5
66D
330
1F
100
AcDbEntity
  8
LAYER_1
 62
   250
100
AcDb2dPolyline
 66
     1
 10
0.0
 20
0.0
 30
0.0
  0
VERTEX
  5
66E
330
66D
100
AcDbEntity
  8
LAYER_1
 62
   250
100
AcDbVertex
100
AcDb2dVertex
 10
78.43805917005602
 20
-164.7339937964414
 30
0.0
  0
VERTEX
  5
66F
330
66D
100
AcDbEntity
  8
LAYER_1
 62
   250
100
AcDbVertex
100
AcDb2dVertex
 10
68.95948183410101
 20
-164.7339937972955
 30
0.0
  0
SEQEND
  5
670
330
66D
100
AcDbEntity
  8
LAYER_1
 62
   250
  0
POLYLINE
  5
671
330
1F
100
AcDbEntity
  8
LAYER_1
 62
   250
100
AcDb2dPolyline
 66
     1
 10
0.0
 20
0.0
 30
0.0
  0
VERTEX
  5
672
330
671
100
AcDbEntity
  8
LAYER_1
 62
   250
100
AcDbVertex
100
AcDb2dVertex
 10
68.95948183410101
 20
-164.7339937972955
 30
0.0
  0
VERTEX
  5
673
330
671
100
AcDbEntity
  8
LAYER_1
 62
   250
100
AcDbVertex
100
AcDb2dVertex
 10
68.9594818338161
 20
-161.5589937980892
 30
0.0
  0
SEQEND
  5
674
330
671
100
AcDbEntity
  8
LAYER_1
 62
   250
  0
POLYLINE
  5
675
330
1F
100
AcDbEntity
  8
LAYER_1
 62
   250
100
AcDb2dPolyline
 66
     1
 10
0.0
 20
0.0
 30
0.0
  0
VERTEX
  5
676
330
675
100
AcDbEntity
  8
LAYER_1
 62
   250
100
AcDbVertex
100
AcDb2dVertex
 10
68.9594818338161
 20
-161.5589937980892
 30
0.0
  0
VERTEX
  5
677
330
675
100
AcDbEntity
  8
LAYER_1
 62
   250
100
AcDbVertex
100
AcDb2dVertex
 10
59.48090449786109
 20
-161.5589937989388
 30
0.0
  0
SEQEND
  5
678
330
675
100
AcDbEntity
  8
LAYER_1
 62
   250
  0
POLYLINE
  5
679
330
1F
100
AcDbEntity
  8
LAYER_1
 62
   250
100
AcDb2dPolyline
 66
     1
 10
0.0
 20
0.0
 30
0.0
  0
VERTEX
  5
67A
330
679
100
AcDbEntity
  8
LAYER_1
 62
   250
100
AcDbVertex
100
AcDb2dVertex
 10
59.480904498146
 20
-164.7339937981451
 30
0.0
  0
VERTEX
  5
67B
330
679
100
AcDbEntity
  8
LAYER_1
 62
   250
100
AcDbVertex
100
AcDb2dVertex
 10
59.48090449786109
 20
-161.5589937989388
 30
0.0
  0
SEQEND
  5
67C
330
679
100
AcDbEntity
  8
LAYER_1
 62
   250
  0
POLYLINE
  5
67D
330
1F
100
AcDbEntity
  8
LAYER_1
 62
   250
100
AcDb2dPolyline
 66
     1
 10
0.0
 20
0.0
 30
0.0
  0
VERTEX
  5
67E
330
67D
100
AcDbEntity
  8
LAYER_1
 62
   250
100
AcDbVertex
100
AcDb2dVertex
 10
59.480904498146
 20
-164.7339937981451
 30
0.0
  0
VERTEX
  5
67F
330
67D
100
AcDbEntity
  8
LAYER_1
 62
   250
100
AcDbVertex
100
AcDb2dVertex
 10
50.00232716219099
 20
-164.7339937989953
 30
0.0
  0
SEQEND
  5
680
330
67D
100
AcDbEntity
  8
LAYER_1
 62
   250
  0
POLYLINE
  5
681
330
1F
100
AcDbEntity
  8
LAYER_1
 62
   250
100
AcDb2dPolyline
 66
     1
 10
0.0
 20
0.0
 30
0.0
  0
VERTEX
  5
682
330
681
100
AcDbEntity
  8
LAYER_1
 62
   250
100
AcDbVertex
100
AcDb2dVertex
 10
50.00232716219099
 20
-164.7339937989953
 30
0.0
  0
VERTEX
  5
683
330
681
100
AcDbEntity
  8
LAYER_1
 62
   250
100
AcDbVertex
100
AcDb2dVertex
 10
50.00232716190608
 20
-161.5589937997891
 30
0.0
  0
SEQEND
  5
684
330
681
100
AcDbEntity
  8
LAYER_1
 62
   250
  0
POLYLINE
  5
685
330
1F
100
AcDbEntity
  8
LAYER_1
 62
   250
100
AcDb2dPolyline
 66
     1
 10
0.0
 20
0.0
 30
0.0
  0
VERTEX
  5
686
330
685
100
AcDbEntity
  8
LAYER_1
 62
   250
100
AcDbVertex
100
AcDb2dVertex
 10
50.00232716190608
 20
-161.5589937997891
 30
0.0
  0
VERTEX
  5
687
330
685
100
AcDbEntity
  8
LAYER_1
 62
   250
100
AcDbVertex
100
AcDb2dVertex
 10
40.52376059187446
 20
-161.5589938006432
 30
0.0
  0
SEQEND
  5
688
330
685
100
AcDbEntity
  8
LAYER_1
 62
   250
  0
POLYLINE
  5
689
330
1F
100
AcDbEntity
  8
LAYER_1
 62
   250
100
AcDb2dPolyline
 66
     1
 10
0.0
 20
0.0
 30
0.0
  0
VERTEX
  5
68A
330
689
100
AcDbEntity
  8
LAYER_1
 62
   250
100
AcDbVertex
100
AcDb2dVertex
 10
40.52376059215938
 20
-164.7339937998494
 30
0.0
  0
VERTEX
  5
68B
330
689
100
AcDbEntity
  8
LAYER_1
 62
   250
100
AcDbVertex
100
AcDb2dVertex
 10
40.52376059187446
 20
-161.5589938006432
 30
0.0
  0
SEQEND
  5
68C
330
689
100
AcDbEntity
  8
LAYER_1
 62
   250
  0
POLYLINE
  5
68D
330
1F
100
AcDbEntity
  8
LAYER_1
 62
   250
100
AcDb2dPolyline
 66
     1
 10
0.0
 20
0.0
 30
0.0
  0
VERTEX
  5
68E
330
68D
100
AcDbEntity
  8
LAYER_1
 62
   250
100
AcDbVertex
100
AcDb2dVertex
 10
40.52376059215938
 20
-164.7339937998494
 30
0.0
  0
VERTEX
  5
68F
330
68D
100
AcDbEntity
  8
LAYER_1
 62
   250
100
AcDbVertex
100
AcDb2dVertex
 10
34.22018325541062
 20
-164.7339938004135
 30
0.0
  0
SEQEND
  5
690
330
68D
100
AcDbEntity
  8
LAYER_1
 62
   250
  0
POLYLINE
  5
691
330
1F
100
AcDbEntity
  8
LAYER_1
 62
   250
100
AcDb2dPolyline
 66
     1
 10
0.0
 20
0.0
 30
0.0
  0
VERTEX
  5
692
330
691
100
AcDbEntity
  8
LAYER_1
 62
   250
100
AcDbVertex
100
AcDb2dVertex
 10
94.22020308312183
 20
-234.7339846222504
 30
0.0
  0
VERTEX
  5
693
330
691
100
AcDbEntity
  8
LAYER_1
 62
   250
100
AcDbVertex
100
AcDb2dVertex
 10
87.91662574637179
 20
-234.733984622819
 30
0.0
  0
SEQEND
  5
694
330
691
100
AcDbEntity
  8
LAYER_1
 62
   250
  0
POLYLINE
  5
695
330
1F
100
AcDbEntity
  8
LAYER_1
 62
   250
100
AcDb2dPolyline
 66
     1
 10
0.0
 20
0.0
 30
0.0
  0
VERTEX
  5
696
330
695
100
AcDbEntity
  8
LAYER_1
 62
   250
100
AcDbVertex
100
AcDb2dVertex
 10
87.91662574665735
 20
-237.9089846220252
 30
0.0
  0
VERTEX
  5
697
330
695
100
AcDbEntity
  8
LAYER_1
 62
   250
100
AcDbVertex
100
AcDb2dVertex
 10
87.91662574637179
 20
-234.733984622819
 30
0.0
  0
SEQEND
  5
698
330
695
100
AcDbEntity
  8
LAYER_1
 62
   250
  0
POLYLINE
  5
699
330
1F
100
AcDbEntity
  8
LAYER_1
 62
   250
100
AcDb2dPolyline
 66
     1
 10
0.0
 20
0.0
 30
0.0
  0
VERTEX
  5
69A
330
699
100
AcDbEntity
  8
LAYER_1
 62
   250
100
AcDbVertex
100
AcDb2dVertex
 10
87.91662574665735
 20
-237.9089846220252
 30
0.0
  0
VERTEX
  5
69B
330
699
100
AcDbEntity
  8
LAYER_1
 62
   250
100
AcDbVertex
100
AcDb2dVertex
 10
78.43805917662638
 20
-237.9089846228748
 30
0.0
  0
SEQEND
  5
69C
330
699
100
AcDbEntity
  8
LAYER_1
 62
   250
  0
POLYLINE
  5
69D
330
1F
100
AcDbEntity
  8
LAYER_1
 62
   250
100
AcDb2dPolyline
 66
     1
 10
0.0
 20
0.0
 30
0.0
  0
VERTEX
  5
69E
330
69D
100
AcDbEntity
  8
LAYER_1
 62
   250
100
AcDbVertex
100
AcDb2dVertex
 10
78.43805917662638
 20
-237.9089846228748
 30
0.0
  0
VERTEX
  5
69F
330
69D
100
AcDbEntity
  8
LAYER_1
 62
   250
100
AcDbVertex
100
AcDb2dVertex
 10
78.43805917634147
 20
-234.7339846236686
 30
0.0
  0
SEQEND
  5
6A0
330
69D
100
AcDbEntity
  8
LAYER_1
 62
   250
  0
POLYLINE
  5
6A1
330
1F
100
AcDbEntity
  8
LAYER_1
 62
   250
100
AcDb2dPolyline
 66
     1
 10
0.0
 20
0.0
 30
0.0
  0
VERTEX
  5
6A2
330
6A1
100
AcDbEntity
  8
LAYER_1
 62
   250
100
AcDbVertex
100
AcDb2dVertex
 10
78.43805917634147
 20
-234.7339846236686
 30
0.0
  0
VERTEX
  5
6A3
330
6A1
100
AcDbEntity
  8
LAYER_1
 62
   250
100
AcDbVertex
100
AcDb2dVertex
 10
68.95948184038646
 20
-234.7339846245188
 30
0.0
  0
SEQEND
  5
6A4
330
6A1
100
AcDbEntity
  8
LAYER_1
 62
   250
  0
POLYLINE
  5
6A5
330
1F
100
AcDbEntity
  8
LAYER_1
 62
   250
100
AcDb2dPolyline
 66
     1
 10
0.0
 20
0.0
 30
0.0
  0
VERTEX
  5
6A6
330
6A5
100
AcDbEntity
  8
LAYER_1
 62
   250
100
AcDbVertex
100
AcDb2dVertex
 10
68.95948184067137
 20
-237.9089846237251
 30
0.0
  0
VERTEX
  5
6A7
330
6A5
100
AcDbEntity
  8
LAYER_1
 62
   250
100
AcDbVertex
100
AcDb2dVertex
 10
68.95948184038646
 20
-234.7339846245188
 30
0.0
  0
SEQEND
  5
6A8
330
6A5
100
AcDbEntity
  8
LAYER_1
 62
   250
  0
POLYLINE
  5
6A9
330
1F
100
AcDbEntity
  8
LAYER_1
 62
   250
100
AcDb2dPolyline
 66
     1
 10
0.0
 20
0.0
 30
0.0
  0
VERTEX
  5
6AA
330
6A9
100
AcDbEntity
  8
LAYER_1
 62
   250
100
AcDbVertex
100
AcDb2dVertex
 10
68.95948184067137
 20
-237.9089846237251
 30
0.0
  0
VERTEX
  5
6AB
330
6A9
100
AcDbEntity
  8
LAYER_1
 62
   250
100
AcDbVertex
100
AcDb2dVertex
 10
59.48090450471636
 20
-237.9089846245792
 30
0.0
  0
SEQEND
  5
6AC
330
6A9
100
AcDbEntity
  8
LAYER_1
 62
   250
  0
POLYLINE
  5
6AD
330
1F
100
AcDbEntity
  8
LAYER_1
 62
   250
100
AcDb2dPolyline
 66
     1
 10
0.0
 20
0.0
 30
0.0
  0
VERTEX
  5
6AE
330
6AD
100
AcDbEntity
  8
LAYER_1
 62
   250
100
AcDbVertex
100
AcDb2dVertex
 10
59.48090450471636
 20
-237.9089846245792
 30
0.0
  0
VERTEX
  5
6AF
330
6AD
100
AcDbEntity
  8
LAYER_1
 62
   250
100
AcDbVertex
100
AcDb2dVertex
 10
59.48090450443144
 20
-234.7339846253729
 30
0.0
  0
SEQEND
  5
6B0
330
6AD
100
AcDbEntity
  8
LAYER_1
 62
   250
  0
POLYLINE
  5
6B1
330
1F
100
AcDbEntity
  8
LAYER_1
 62
   250
100
AcDb2dPolyline
 66
     1
 10
0.0
 20
0.0
 30
0.0
  0
VERTEX
  5
6B2
330
6B1
100
AcDbEntity
  8
LAYER_1
 62
   250
100
AcDbVertex
100
AcDb2dVertex
 10
59.48090450443144
 20
-234.7339846253729
 30
0.0
  0
VERTEX
  5
6B3
330
6B1
100
AcDbEntity
  8
LAYER_1
 62
   250
100
AcDbVertex
100
AcDb2dVertex
 10
50.00232716847643
 20
-234.7339846262232
 30
0.0
  0
SEQEND
  5
6B4
330
6B1
100
AcDbEntity
  8
LAYER_1
 62
   250
  0
POLYLINE
  5
6B5
330
1F
100
AcDbEntity
  8
LAYER_1
 62
   250
100
AcDb2dPolyline
 66
     1
 10
0.0
 20
0.0
 30
0.0
  0
VERTEX
  5
6B6
330
6B5
100
AcDbEntity
  8
LAYER_1
 62
   250
100
AcDbVertex
100
AcDb2dVertex
 10
50.00232716876135
 20
-237.9089846254294
 30
0.0
  0
VERTEX
  5
6B7
330
6B5
100
AcDbEntity
  8
LAYER_1
 62
   250
100
AcDbVertex
100
AcDb2dVertex
 10
50.00232716847643
 20
-234.7339846262232
 30
0.0
  0
SEQEND
  5
6B8
330
6B5
100
AcDbEntity
  8
LAYER_1
 62
   250
  0
POLYLINE
  5
6B9
330
1F
100
AcDbEntity
  8
LAYER_1
 62
   250
100
AcDb2dPolyline
 66
     1
 10
0.0
 20
0.0
 30
0.0
  0
VERTEX
  5
6BA
330
6B9
100
AcDbEntity
  8
LAYER_1
 62
   250
100
AcDbVertex
100
AcDb2dVertex
 10
50.00232716876135
 20
-237.9089846254294
 30
0.0
  0
VERTEX
  5
6BB
330
6B9
100
AcDbEntity
  8
LAYER_1
 62
   250
100
AcDbVertex
100
AcDb2dVertex
 10
40.52376059872973
 20
-237.9089846262797
 30
0.0
  0
SEQEND
  5
6BC
330
6B9
100
AcDbEntity
  8
LAYER_1
 62
   250
  0
POLYLINE
  5
6BD
330
1F
100
AcDbEntity
  8
LAYER_1
 62
   250
100
AcDb2dPolyline
 66
     1
 10
0.0
 20
0.0
 30
0.0
  0
VERTEX
  5
6BE
330
6BD
100
AcDbEntity
  8
LAYER_1
 62
   250
100
AcDbVertex
100
AcDb2dVertex
 10
40.52376059872973
 20
-237.9089846262797
 30
0.0
  0
VERTEX
  5
6BF
330
6BD
100
AcDbEntity
  8
LAYER_1
 62
   250
100
AcDbVertex
100
AcDb2dVertex
 10
40.52376059844482
 20
-234.7339846270734
 30
0.0
  0
SEQEND
  5
6C0
330
6BD
100
AcDbEntity
  8
LAYER_1
 62
   250
  0
POLYLINE
  5
6C1
330
1F
100
AcDbEntity
  8
LAYER_1
 62
   250
100
AcDb2dPolyline
 66
     1
 10
0.0
 20
0.0
 30
0.0
  0
VERTEX
  5
6C2
330
6C1
100
AcDbEntity
  8
LAYER_1
 62
   250
100
AcDbVertex
100
AcDb2dVertex
 10
40.52376059844482
 20
-234.7339846270734
 30
0.0
  0
VERTEX
  5
6C3
330
6C1
100
AcDbEntity
  8
LAYER_1
 62
   250
100
AcDbVertex
100
AcDb2dVertex
 10
34.22018326169606
 20
-234.7339846276413
 30
0.0
  0
SEQEND
  5
6C4
330
6C1
100
AcDbEntity
  8
LAYER_1
 62
   250
  0
POLYLINE
  5
6C5
330
1F
100
AcDbEntity
  8
LAYER_1
 62
   250
100
AcDb2dPolyline
 66
     1
 10
0.0
 20
0.0
 30
0.0
  0
VERTEX
  5
6C6
330
6C5
100
AcDbEntity
  8
LAYER_1
 62
   250
100
AcDbVertex
100
AcDb2dVertex
 10
94.22020307683576
 20
-164.7339937950271
 30
0.0
  0
VERTEX
  5
6C7
330
6C5
100
AcDbEntity
  8
LAYER_1
 62
   250
100
AcDbVertex
100
AcDb2dVertex
 10
94.2202030773119
 20
-170.0423153438573
 30
0.0
  0
SEQEND
  5
6C8
330
6C5
100
AcDbEntity
  8
LAYER_1
 62
   250
  0
POLYLINE
  5
6C9
330
1F
100
AcDbEntity
  8
LAYER_1
 62
   250
100
AcDb2dPolyline
 66
     1
 10
0.0
 20
0.0
 30
0.0
  0
VERTEX
  5
6CA
330
6C9
100
AcDbEntity
  8
LAYER_1
 62
   250
100
AcDbVertex
100
AcDb2dVertex
 10
94.2202030773119
 20
-170.0423153438573
 30
0.0
  0
VERTEX
  5
6CB
330
6C9
100
AcDbEntity
  8
LAYER_1
 62
   250
100
AcDbVertex
100
AcDb2dVertex
 10
97.39520307651814
 20
-170.0423153435717
 30
0.0
  0
SEQEND
  5
6CC
330
6C9
100
AcDbEntity
  8
LAYER_1
 62
   250
  0
POLYLINE
  5
6CD
330
1F
100
AcDbEntity
  8
LAYER_1
 62
   250
100
AcDb2dPolyline
 66
     1
 10
0.0
 20
0.0
 30
0.0
  0
VERTEX
  5
6CE
330
6CD
100
AcDbEntity
  8
LAYER_1
 62
   250
100
AcDbVertex
100
AcDb2dVertex
 10
97.39520307651814
 20
-170.0423153435717
 30
0.0
  0
VERTEX
  5
6CF
330
6CD
100
AcDbEntity
  8
LAYER_1
 62
   250
100
AcDbVertex
100
AcDb2dVertex
 10
97.39520307727985
 20
-178.5256584234525
 30
0.0
  0
SEQEND
  5
6D0
330
6CD
100
AcDbEntity
  8
LAYER_1
 62
   250
  0
POLYLINE
  5
6D1
330
1F
100
AcDbEntity
  8
LAYER_1
 62
   250
100
AcDb2dPolyline
 66
     1
 10
0.0
 20
0.0
 30
0.0
  0
VERTEX
  5
6D2
330
6D1
100
AcDbEntity
  8
LAYER_1
 62
   250
100
AcDbVertex
100
AcDb2dVertex
 10
94.2202030780736
 20
-178.5256584237387
 30
0.0
  0
VERTEX
  5
6D3
330
6D1
100
AcDbEntity
  8
LAYER_1
 62
   250
100
AcDbVertex
100
AcDb2dVertex
 10
97.39520307727985
 20
-178.5256584234525
 30
0.0
  0
SEQEND
  5
6D4
330
6D1
100
AcDbEntity
  8
LAYER_1
 62
   250
  0
POLYLINE
  5
6D5
330
1F
100
AcDbEntity
  8
LAYER_1
 62
   250
100
AcDb2dPolyline
 66
     1
 10
0.0
 20
0.0
 30
0.0
  0
VERTEX
  5
6D6
330
6D5
100
AcDbEntity
  8
LAYER_1
 62
   250
100
AcDbVertex
100
AcDb2dVertex
 10
94.2202030780736
 20
-178.5256584237387
 30
0.0
  0
VERTEX
  5
6D7
330
6D5
100
AcDbEntity
  8
LAYER_1
 62
   250
100
AcDbVertex
100
AcDb2dVertex
 10
94.22020307883594
 20
-187.0089799717752
 30
0.0
  0
SEQEND
  5
6D8
330
6D5
100
AcDbEntity
  8
LAYER_1
 62
   250
  0
POLYLINE
  5
6D9
330
1F
100
AcDbEntity
  8
LAYER_1
 62
   250
100
AcDb2dPolyline
 66
     1
 10
0.0
 20
0.0
 30
0.0
  0
VERTEX
  5
6DA
330
6D9
100
AcDbEntity
  8
LAYER_1
 62
   250
100
AcDbVertex
100
AcDb2dVertex
 10
94.22020307883594
 20
-187.0089799717752
 30
0.0
  0
VERTEX
  5
6DB
330
6D9
100
AcDbEntity
  8
LAYER_1
 62
   250
100
AcDbVertex
100
AcDb2dVertex
 10
97.39520307804219
 20
-187.0089799714896
 30
0.0
  0
SEQEND
  5
6DC
330
6D9
100
AcDbEntity
  8
LAYER_1
 62
   250
  0
POLYLINE
  5
6DD
330
1F
100
AcDbEntity
  8
LAYER_1
 62
   250
100
AcDb2dPolyline
 66
     1
 10
0.0
 20
0.0
 30
0.0
  0
VERTEX
  5
6DE
330
6DD
100
AcDbEntity
  8
LAYER_1
 62
   250
100
AcDbVertex
100
AcDb2dVertex
 10
97.39520307804219
 20
-187.0089799714896
 30
0.0
  0
VERTEX
  5
6DF
330
6DD
100
AcDbEntity
  8
LAYER_1
 62
   250
100
AcDbVertex
100
AcDb2dVertex
 10
97.39520307880387
 20
-195.4923338172982
 30
0.0
  0
SEQEND
  5
6E0
330
6DD
100
AcDbEntity
  8
LAYER_1
 62
   250
  0
POLYLINE
  5
6E1
330
1F
100
AcDbEntity
  8
LAYER_1
 62
   250
100
AcDb2dPolyline
 66
     1
 10
0.0
 20
0.0
 30
0.0
  0
VERTEX
  5
6E2
330
6E1
100
AcDbEntity
  8
LAYER_1
 62
   250
100
AcDbVertex
100
AcDb2dVertex
 10
94.22020307959762
 20
-195.4923338175844
 30
0.0
  0
VERTEX
  5
6E3
330
6E1
100
AcDbEntity
  8
LAYER_1
 62
   250
100
AcDbVertex
100
AcDb2dVertex
 10
97.39520307880387
 20
-195.4923338172982
 30
0.0
  0
SEQEND
  5
6E4
330
6E1
100
AcDbEntity
  8
LAYER_1
 62
   250
  0
POLYLINE
  5
6E5
330
1F
100
AcDbEntity
  8
LAYER_1
 62
   250
100
AcDb2dPolyline
 66
     1
 10
0.0
 20
0.0
 30
0.0
  0
VERTEX
  5
6E6
330
6E5
100
AcDbEntity
  8
LAYER_1
 62
   250
100
AcDbVertex
100
AcDb2dVertex
 10
94.22020307959762
 20
-195.4923338175844
 30
0.0
  0
VERTEX
  5
6E7
330
6E5
100
AcDbEntity
  8
LAYER_1
 62
   250
100
AcDbVertex
100
AcDb2dVertex
 10
94.22020308035997
 20
-203.9756553656171
 30
0.0
  0
SEQEND
  5
6E8
330
6E5
100
AcDbEntity
  8
LAYER_1
 62
   250
  0
POLYLINE
  5
6E9
330
1F
100
AcDbEntity
  8
LAYER_1
 62
   250
100
AcDb2dPolyline
 66
     1
 10
0.0
 20
0.0
 30
0.0
  0
VERTEX
  5
6EA
330
6E9
100
AcDbEntity
  8
LAYER_1
 62
   250
100
AcDbVertex
100
AcDb2dVertex
 10
94.22020308035997
 20
-203.9756553656171
 30
0.0
  0
VERTEX
  5
6EB
330
6E9
100
AcDbEntity
  8
LAYER_1
 62
   250
100
AcDbVertex
100
AcDb2dVertex
 10
97.39520307956622
 20
-203.9756553653354
 30
0.0
  0
SEQEND
  5
6EC
330
6E9
100
AcDbEntity
  8
LAYER_1
 62
   250
  0
POLYLINE
  5
6ED
330
1F
100
AcDbEntity
  8
LAYER_1
 62
   250
100
AcDb2dPolyline
 66
     1
 10
0.0
 20
0.0
 30
0.0
  0
VERTEX
  5
6EE
330
6ED
100
AcDbEntity
  8
LAYER_1
 62
   250
100
AcDbVertex
100
AcDb2dVertex
 10
97.39520307956622
 20
-203.9756553653354
 30
0.0
  0
VERTEX
  5
6EF
330
6ED
100
AcDbEntity
  8
LAYER_1
 62
   250
100
AcDbVertex
100
AcDb2dVertex
 10
97.39520308032792
 20
-212.4590092111408
 30
0.0
  0
SEQEND
  5
6F0
330
6ED
100
AcDbEntity
  8
LAYER_1
 62
   250
  0
POLYLINE
  5
6F1
330
1F
100
AcDbEntity
  8
LAYER_1
 62
   250
100
AcDb2dPolyline
 66
     1
 10
0.0
 20
0.0
 30
0.0
  0
VERTEX
  5
6F2
330
6F1
100
AcDbEntity
  8
LAYER_1
 62
   250
100
AcDbVertex
100
AcDb2dVertex
 10
94.22020308112167
 20
-212.4590092114263
 30
0.0
  0
VERTEX
  5
6F3
330
6F1
100
AcDbEntity
  8
LAYER_1
 62
   250
100
AcDbVertex
100
AcDb2dVertex
 10
97.39520308032792
 20
-212.4590092111408
 30
0.0
  0
SEQEND
  5
6F4
330
6F1
100
AcDbEntity
  8
LAYER_1
 62
   250
  0
POLYLINE
  5
6F5
330
1F
100
AcDbEntity
  8
LAYER_1
 62
   250
100
AcDb2dPolyline
 66
     1
 10
0.0
 20
0.0
 30
0.0
  0
VERTEX
  5
6F6
330
6F5
100
AcDbEntity
  8
LAYER_1
 62
   250
100
AcDbVertex
100
AcDb2dVertex
 10
94.22020308112167
 20
-212.4590092114263
 30
0.0
  0
VERTEX
  5
6F7
330
6F5
100
AcDbEntity
  8
LAYER_1
 62
   250
100
AcDbVertex
100
AcDb2dVertex
 10
94.220203081884
 20
-220.9423199935388
 30
0.0
  0
SEQEND
  5
6F8
330
6F5
100
AcDbEntity
  8
LAYER_1
 62
   250
  0
POLYLINE
  5
6F9
330
1F
100
AcDbEntity
  8
LAYER_1
 62
   250
100
AcDb2dPolyline
 66
     1
 10
0.0
 20
0.0
 30
0.0
  0
VERTEX
  5
6FA
330
6F9
100
AcDbEntity
  8
LAYER_1
 62
   250
100
AcDbVertex
100
AcDb2dVertex
 10
94.220203081884
 20
-220.9423199935388
 30
0.0
  0
VERTEX
  5
6FB
330
6F9
100
AcDbEntity
  8
LAYER_1
 62
   250
100
AcDbVertex
100
AcDb2dVertex
 10
97.39520308109024
 20
-220.9423199932532
 30
0.0
  0
SEQEND
  5
6FC
330
6F9
100
AcDbEntity
  8
LAYER_1
 62
   250
  0
POLYLINE
  5
6FD
330
1F
100
AcDbEntity
  8
LAYER_1
 62
   250
100
AcDb2dPolyline
 66
     1
 10
0.0
 20
0.0
 30
0.0
  0
VERTEX
  5
6FE
330
6FD
100
AcDbEntity
  8
LAYER_1
 62
   250
100
AcDbVertex
100
AcDb2dVertex
 10
97.39520308109024
 20
-220.9423199932532
 30
0.0
  0
VERTEX
  5
6FF
330
6FD
100
AcDbEntity
  8
LAYER_1
 62
   250
100
AcDbVertex
100
AcDb2dVertex
 10
97.39520308185195
 20
-229.4256307753657
 30
0.0
  0
SEQEND
  5
700
330
6FD
100
AcDbEntity
  8
LAYER_1
 62
   250
  0
POLYLINE
  5
701
330
1F
100
AcDbEntity
  8
LAYER_1
 62
   250
100
AcDb2dPolyline
 66
     1
 10
0.0
 20
0.0
 30
0.0
  0
VERTEX
  5
702
330
701
100
AcDbEntity
  8
LAYER_1
 62
   250
100
AcDbVertex
100
AcDb2dVertex
 10
94.2202030826457
 20
-229.4256307756513
 30
0.0
  0
VERTEX
  5
703
330
701
100
AcDbEntity
  8
LAYER_1
 62
   250
100
AcDbVertex
100
AcDb2dVertex
 10
97.39520308185195
 20
-229.4256307753657
 30
0.0
  0
SEQEND
  5
704
330
701
100
AcDbEntity
  8
LAYER_1
 62
   250
  0
POLYLINE
  5
705
330
1F
100
AcDbEntity
  8
LAYER_1
 62
   250
100
AcDb2dPolyline
 66
     1
 10
0.0
 20
0.0
 30
0.0
  0
VERTEX
  5
706
330
705
100
AcDbEntity
  8
LAYER_1
 62
   250
100
AcDbVertex
100
AcDb2dVertex
 10
94.2202030826457
 20
-229.4256307756513
 30
0.0
  0
VERTEX
  5
707
330
705
100
AcDbEntity
  8
LAYER_1
 62
   250
100
AcDbVertex
100
AcDb2dVertex
 10
94.22020308312183
 20
-234.7339846222504
 30
0.0
  0
SEQEND
  5
708
330
705
100
AcDbEntity
  8
LAYER_1
 62
   250
  0
POLYLINE
  5
709
330
1F
100
AcDbEntity
  8
LAYER_1
 62
   250
100
AcDb2dPolyline
 66
     1
 10
0.0
 20
0.0
 30
0.0
  0
VERTEX
  5
70A
330
709
100
AcDbEntity
  8
LAYER_1
 62
   250
100
AcDbVertex
100
AcDb2dVertex
 10
34.22018325541062
 20
-164.7339938004135
 30
0.0
  0
VERTEX
  5
70B
330
709
100
AcDbEntity
  8
LAYER_1
 62
   250
100
AcDbVertex
100
AcDb2dVertex
 10
34.2201832558874
 20
-170.0423153492444
 30
0.0
  0
SEQEND
  5
70C
330
709
100
AcDbEntity
  8
LAYER_1
 62
   250
  0
POLYLINE
  5
70D
330
1F
100
AcDbEntity
  8
LAYER_1
 62
   250
100
AcDb2dPolyline
 66
     1
 10
0.0
 20
0.0
 30
0.0
  0
VERTEX
  5
70E
330
70D
100
AcDbEntity
  8
LAYER_1
 62
   250
100
AcDbVertex
100
AcDb2dVertex
 10
31.04518325668115
 20
-170.0423153495299
 30
0.0
  0
VERTEX
  5
70F
330
70D
100
AcDbEntity
  8
LAYER_1
 62
   250
100
AcDbVertex
100
AcDb2dVertex
 10
34.2201832558874
 20
-170.0423153492444
 30
0.0
  0
SEQEND
  5
710
330
70D
100
AcDbEntity
  8
LAYER_1
 62
   250
  0
POLYLINE
  5
711
330
1F
100
AcDbEntity
  8
LAYER_1
 62
   250
100
AcDb2dPolyline
 66
     1
 10
0.0
 20
0.0
 30
0.0
  0
VERTEX
  5
712
330
711
100
AcDbEntity
  8
LAYER_1
 62
   250
100
AcDbVertex
100
AcDb2dVertex
 10
31.04518325668115
 20
-170.0423153495299
 30
0.0
  0
VERTEX
  5
713
330
711
100
AcDbEntity
  8
LAYER_1
 62
   250
100
AcDbVertex
100
AcDb2dVertex
 10
31.04518325744285
 20
-178.5256584294113
 30
0.0
  0
SEQEND
  5
714
330
711
100
AcDbEntity
  8
LAYER_1
 62
   250
  0
POLYLINE
  5
715
330
1F
100
AcDbEntity
  8
LAYER_1
 62
   250
100
AcDb2dPolyline
 66
     1
 10
0.0
 20
0.0
 30
0.0
  0
VERTEX
  5
716
330
715
100
AcDbEntity
  8
LAYER_1
 62
   250
100
AcDbVertex
100
AcDb2dVertex
 10
31.04518325744285
 20
-178.5256584294113
 30
0.0
  0
VERTEX
  5
717
330
715
100
AcDbEntity
  8
LAYER_1
 62
   250
100
AcDbVertex
100
AcDb2dVertex
 10
34.22018325664909
 20
-178.5256584291257
 30
0.0
  0
SEQEND
  5
718
330
715
100
AcDbEntity
  8
LAYER_1
 62
   250
  0
POLYLINE
  5
719
330
1F
100
AcDbEntity
  8
LAYER_1
 62
   250
100
AcDb2dPolyline
 66
     1
 10
0.0
 20
0.0
 30
0.0
  0
VERTEX
  5
71A
330
719
100
AcDbEntity
  8
LAYER_1
 62
   250
100
AcDbVertex
100
AcDb2dVertex
 10
34.22018325664909
 20
-178.5256584291257
 30
0.0
  0
VERTEX
  5
71B
330
719
100
AcDbEntity
  8
LAYER_1
 62
   250
100
AcDbVertex
100
AcDb2dVertex
 10
34.22018325741015
 20
-187.0089799771622
 30
0.0
  0
SEQEND
  5
71C
330
719
100
AcDbEntity
  8
LAYER_1
 62
   250
  0
POLYLINE
  5
71D
330
1F
100
AcDbEntity
  8
LAYER_1
 62
   250
100
AcDb2dPolyline
 66
     1
 10
0.0
 20
0.0
 30
0.0
  0
VERTEX
  5
71E
330
71D
100
AcDbEntity
  8
LAYER_1
 62
   250
100
AcDbVertex
100
AcDb2dVertex
 10
31.0451832582039
 20
-187.0089799774478
 30
0.0
  0
VERTEX
  5
71F
330
71D
100
AcDbEntity
  8
LAYER_1
 62
   250
100
AcDbVertex
100
AcDb2dVertex
 10
34.22018325741015
 20
-187.0089799771622
 30
0.0
  0
SEQEND
  5
720
330
71D
100
AcDbEntity
  8
LAYER_1
 62
   250
  0
POLYLINE
  5
721
330
1F
100
AcDbEntity
  8
LAYER_1
 62
   250
100
AcDb2dPolyline
 66
     1
 10
0.0
 20
0.0
 30
0.0
  0
VERTEX
  5
722
330
721
100
AcDbEntity
  8
LAYER_1
 62
   250
100
AcDbVertex
100
AcDb2dVertex
 10
31.0451832582039
 20
-187.0089799774478
 30
0.0
  0
VERTEX
  5
723
330
721
100
AcDbEntity
  8
LAYER_1
 62
   250
100
AcDbVertex
100
AcDb2dVertex
 10
31.04518325896656
 20
-195.492333823257
 30
0.0
  0
SEQEND
  5
724
330
721
100
AcDbEntity
  8
LAYER_1
 62
   250
  0
POLYLINE
  5
725
330
1F
100
AcDbEntity
  8
LAYER_1
 62
   250
100
AcDb2dPolyline
 66
     1
 10
0.0
 20
0.0
 30
0.0
  0
VERTEX
  5
726
330
725
100
AcDbEntity
  8
LAYER_1
 62
   250
100
AcDbVertex
100
AcDb2dVertex
 10
31.04518325896656
 20
-195.492333823257
 30
0.0
  0
VERTEX
  5
727
330
725
100
AcDbEntity
  8
LAYER_1
 62
   250
100
AcDbVertex
100
AcDb2dVertex
 10
34.22018325817281
 20
-195.4923338229708
 30
0.0
  0
SEQEND
  5
728
330
725
100
AcDbEntity
  8
LAYER_1
 62
   250
  0
POLYLINE
  5
729
330
1F
100
AcDbEntity
  8
LAYER_1
 62
   250
100
AcDb2dPolyline
 66
     1
 10
0.0
 20
0.0
 30
0.0
  0
VERTEX
  5
72A
330
729
100
AcDbEntity
  8
LAYER_1
 62
   250
100
AcDbVertex
100
AcDb2dVertex
 10
34.22018325817281
 20
-195.4923338229708
 30
0.0
  0
VERTEX
  5
72B
330
729
100
AcDbEntity
  8
LAYER_1
 62
   250
100
AcDbVertex
100
AcDb2dVertex
 10
34.22018325893418
 20
-203.975655371008
 30
0.0
  0
SEQEND
  5
72C
330
729
100
AcDbEntity
  8
LAYER_1
 62
   250
  0
POLYLINE
  5
72D
330
1F
100
AcDbEntity
  8
LAYER_1
 62
   250
100
AcDb2dPolyline
 66
     1
 10
0.0
 20
0.0
 30
0.0
  0
VERTEX
  5
72E
330
72D
100
AcDbEntity
  8
LAYER_1
 62
   250
100
AcDbVertex
100
AcDb2dVertex
 10
31.0451832597289
 20
-203.9756553712897
 30
0.0
  0
VERTEX
  5
72F
330
72D
100
AcDbEntity
  8
LAYER_1
 62
   250
100
AcDbVertex
100
AcDb2dVertex
 10
34.22018325893418
 20
-203.975655371008
 30
0.0
  0
SEQEND
  5
730
330
72D
100
AcDbEntity
  8
LAYER_1
 62
   250
  0
POLYLINE
  5
731
330
1F
100
AcDbEntity
  8
LAYER_1
 62
   250
100
AcDb2dPolyline
 66
     1
 10
0.0
 20
0.0
 30
0.0
  0
VERTEX
  5
732
330
731
100
AcDbEntity
  8
LAYER_1
 62
   250
100
AcDbVertex
100
AcDb2dVertex
 10
31.0451832597289
 20
-203.9756553712897
 30
0.0
  0
VERTEX
  5
733
330
731
100
AcDbEntity
  8
LAYER_1
 62
   250
100
AcDbVertex
100
AcDb2dVertex
 10
31.04518326048963
 20
-212.459009217099
 30
0.0
  0
SEQEND
  5
734
330
731
100
AcDbEntity
  8
LAYER_1
 62
   250
  0
POLYLINE
  5
735
330
1F
100
AcDbEntity
  8
LAYER_1
 62
   250
100
AcDb2dPolyline
 66
     1
 10
0.0
 20
0.0
 30
0.0
  0
VERTEX
  5
736
330
735
100
AcDbEntity
  8
LAYER_1
 62
   250
100
AcDbVertex
100
AcDb2dVertex
 10
31.04518326048963
 20
-212.459009217099
 30
0.0
  0
VERTEX
  5
737
330
735
100
AcDbEntity
  8
LAYER_1
 62
   250
100
AcDbVertex
100
AcDb2dVertex
 10
34.22018325969588
 20
-212.4590092168134
 30
0.0
  0
SEQEND
  5
738
330
735
100
AcDbEntity
  8
LAYER_1
 62
   250
  0
POLYLINE
  5
739
330
1F
100
AcDbEntity
  8
LAYER_1
 62
   250
100
AcDb2dPolyline
 66
     1
 10
0.0
 20
0.0
 30
0.0
  0
VERTEX
  5
73A
330
739
100
AcDbEntity
  8
LAYER_1
 62
   250
100
AcDbVertex
100
AcDb2dVertex
 10
34.22018325969588
 20
-212.4590092168134
 30
0.0
  0
VERTEX
  5
73B
330
739
100
AcDbEntity
  8
LAYER_1
 62
   250
100
AcDbVertex
100
AcDb2dVertex
 10
34.22018326045693
 20
-220.9423199989259
 30
0.0
  0
SEQEND
  5
73C
330
739
100
AcDbEntity
  8
LAYER_1
 62
   250
  0
POLYLINE
  5
73D
330
1F
100
AcDbEntity
  8
LAYER_1
 62
   250
100
AcDb2dPolyline
 66
     1
 10
0.0
 20
0.0
 30
0.0
  0
VERTEX
  5
73E
330
73D
100
AcDbEntity
  8
LAYER_1
 62
   250
100
AcDbVertex
100
AcDb2dVertex
 10
31.04518326125101
 20
-220.9423199992114
 30
0.0
  0
VERTEX
  5
73F
330
73D
100
AcDbEntity
  8
LAYER_1
 62
   250
100
AcDbVertex
100
AcDb2dVertex
 10
34.22018326045693
 20
-220.9423199989259
 30
0.0
  0
SEQEND
  5
740
330
73D
100
AcDbEntity
  8
LAYER_1
 62
   250
  0
POLYLINE
  5
741
330
1F
100
AcDbEntity
  8
LAYER_1
 62
   250
100
AcDb2dPolyline
 66
     1
 10
0.0
 20
0.0
 30
0.0
  0
VERTEX
  5
742
330
741
100
AcDbEntity
  8
LAYER_1
 62
   250
100
AcDbVertex
100
AcDb2dVertex
 10
31.04518326125101
 20
-220.9423199992114
 30
0.0
  0
VERTEX
  5
743
330
741
100
AcDbEntity
  8
LAYER_1
 62
   250
100
AcDbVertex
100
AcDb2dVertex
 10
31.04518326201303
 20
-229.4256307813245
 30
0.0
  0
SEQEND
  5
744
330
741
100
AcDbEntity
  8
LAYER_1
 62
   250
  0
POLYLINE
  5
745
330
1F
100
AcDbEntity
  8
LAYER_1
 62
   250
100
AcDb2dPolyline
 66
     1
 10
0.0
 20
0.0
 30
0.0
  0
VERTEX
  5
746
330
745
100
AcDbEntity
  8
LAYER_1
 62
   250
100
AcDbVertex
100
AcDb2dVertex
 10
31.04518326201303
 20
-229.4256307813245
 30
0.0
  0
VERTEX
  5
747
330
745
100
AcDbEntity
  8
LAYER_1
 62
   250
100
AcDbVertex
100
AcDb2dVertex
 10
34.22018326121928
 20
-229.4256307810383
 30
0.0
  0
SEQEND
  5
748
330
745
100
AcDbEntity
  8
LAYER_1
 62
   250
  0
POLYLINE
  5
749
330
1F
100
AcDbEntity
  8
LAYER_1
 62
   250
100
AcDb2dPolyline
 66
     1
 10
0.0
 20
0.0
 30
0.0
  0
VERTEX
  5
74A
330
749
100
AcDbEntity
  8
LAYER_1
 62
   250
100
AcDbVertex
100
AcDb2dVertex
 10
34.22018326121928
 20
-229.4256307810383
 30
0.0
  0
VERTEX
  5
74B
330
749
100
AcDbEntity
  8
LAYER_1
 62
   250
100
AcDbVertex
100
AcDb2dVertex
 10
34.22018326169606
 20
-234.7339846276413
 30
0.0
  0
SEQEND
  5
74C
330
749
100
AcDbEntity
  8
LAYER_1
 62
   250
  0
POLYLINE
  5
74D
330
1F
100
AcDbEntity
  8
LAYER_1
 62
   250
100
AcDb2dPolyline
 66
     1
 10
0.0
 20
0.0
 30
0.0
  0
VERTEX
  5
74E
330
74D
100
AcDbEntity
  8
LAYER_1
 62
   250
100
AcDbVertex
100
AcDb2dVertex
 10
128.2919848642503
 20
-186.5590236552035
 30
0.0
  0
VERTEX
  5
772
330
74D
100
AcDbEntity
  8
0
100
AcDbVertex
100
AcDb2dVertex
 10
128.2919848642503
 20
-186.5590236552035
 30
0.0
  0
SEQEND
  5
74F
330
74D
100
AcDbEntity
  8
LAYER_1
 62
   250
  0
POLYLINE
  5
750
330
1F
100
AcDbEntity
  8
LAYER_1
 62
   250
100
AcDb2dPolyline
 66
     1
 10
0.0
 20
0.0
 30
0.0
  0
VERTEX
  5
751
330
750
100
AcDbEntity
  8
LAYER_1
 62
   250
100
AcDbVertex
100
AcDb2dVertex
 10
168.9975571707602
 20
-237.9089788601723
 30
0.0
  0
VERTEX
  5
752
330
750
100
AcDbEntity
  8
LAYER_1
 62
   250
100
AcDbVertex
100
AcDb2dVertex
 10
102.6475373509251
 20
-237.9089788661311
 30
0.0
  0
VERTEX
  5
753
330
750
100
AcDbEntity
  8
LAYER_1
 62
   250
100
AcDbVertex
100
AcDb2dVertex
 10
102.6475373440673
 20
-161.5590311041837
 30
0.0
  0
VERTEX
  5
754
330
750
100
AcDbEntity
  8
LAYER_1
 62
   250
100
AcDbVertex
100
AcDb2dVertex
 10
168.9975571639056
 20
-161.5590310982255
 30
0.0
  0
VERTEX
  5
755
330
750
100
AcDbEntity
  8
LAYER_1
 62
   250
100
AcDbVertex
100
AcDb2dVertex
 10
168.9975571707602
 20
-237.9089788601723
 30
0.0
  0
SEQEND
  5
756
330
750
100
AcDbEntity
  8
LAYER_1
 62
   250
  0
POLYLINE
  5
757
330
1F
100
AcDbEntity
  8
LAYER_1
 62
   250
100
AcDb2dPolyline
 66
     1
 10
0.0
 20
0.0
 30
0.0
  0
VERTEX
  5
758
330
757
100
AcDbEntity
  8
LAYER_1
 62
   250
100
AcDbVertex
100
AcDb2dVertex
 10
122.647540421217
 20
-186.5590236552035
 30
0.0
  0
VERTEX
  5
759
330
757
100
AcDbEntity
  8
LAYER_1
 62
   250
100
AcDbVertex
100
AcDb2dVertex
 10
131.4308659646736
 20
-186.5590070627555
 30
0.0
  0
VERTEX
  5
75A
330
757
100
AcDbEntity
  8
LAYER_1
 62
   250
100
AcDbVertex
100
AcDb2dVertex
 10
131.4308659649598
 20
-189.7340070619618
 30
0.0
  0
VERTEX
  5
75B
330
757
100
AcDbEntity
  8
LAYER_1
 62
   250
100
AcDbVertex
100
AcDb2dVertex
 10
140.2141907342206
 20
-189.734007061175
 30
0.0
  0
VERTEX
  5
75C
330
757
100
AcDbEntity
  8
LAYER_1
 62
   250
100
AcDbVertex
100
AcDb2dVertex
 10
140.214190733935
 20
-186.5590070619688
 30
0.0
  0
VERTEX
  5
75D
330
757
100
AcDbEntity
  8
LAYER_1
 62
   250
100
AcDbVertex
100
AcDb2dVertex
 10
148.9975362600581
 20
-186.5590236552035
 30
0.0
  0
VERTEX
  5
75E
330
757
100
AcDbEntity
  8
LAYER_1
 62
   250
100
AcDbVertex
100
AcDb2dVertex
 10
148.9975424187929
 20
-195.3423641282118
 30
0.0
  0
VERTEX
  5
75F
330
757
100
AcDbEntity
  8
LAYER_1
 62
   250
100
AcDbVertex
100
AcDb2dVertex
 10
145.8225424195866
 20
-195.342364128498
 30
0.0
  0
VERTEX
  5
760
330
757
100
AcDbEntity
  8
LAYER_1
 62
   250
100
AcDbVertex
100
AcDb2dVertex
 10
145.8225424203772
 20
-204.1256781318347
 30
0.0
  0
VERTEX
  5
761
330
757
100
AcDbEntity
  8
LAYER_1
 62
   250
100
AcDbVertex
100
AcDb2dVertex
 10
148.9975424195835
 20
-204.1256781315491
 30
0.0
  0
VERTEX
  5
762
330
757
100
AcDbEntity
  8
LAYER_1
 62
   250
100
AcDbVertex
100
AcDb2dVertex
 10
148.9975362600581
 20
-212.9090194940485
 30
0.0
  0
VERTEX
  5
763
330
757
100
AcDbEntity
  8
LAYER_1
 62
   250
100
AcDbVertex
100
AcDb2dVertex
 10
140.2141907363022
 20
-212.9090029016005
 30
0.0
  0
VERTEX
  5
764
330
757
100
AcDbEntity
  8
LAYER_1
 62
   250
100
AcDbVertex
100
AcDb2dVertex
 10
140.214190736016
 20
-209.7340029023942
 30
0.0
  0
VERTEX
  5
765
330
757
100
AcDbEntity
  8
LAYER_1
 62
   250
100
AcDbVertex
100
AcDb2dVertex
 10
131.4308659667552
 20
-209.734002903181
 30
0.0
  0
VERTEX
  5
766
330
757
100
AcDbEntity
  8
LAYER_1
 62
   250
100
AcDbVertex
100
AcDb2dVertex
 10
131.4308659670408
 20
-212.9090029023872
 30
0.0
  0
VERTEX
  5
767
330
757
100
AcDbEntity
  8
LAYER_1
 62
   250
100
AcDbVertex
100
AcDb2dVertex
 10
122.647540421217
 20
-212.9090194940485
 30
0.0
  0
VERTEX
  5
768
330
757
100
AcDbEntity
  8
LAYER_1
 62
   250
100
AcDbVertex
100
AcDb2dVertex
 10
122.6475465799511
 20
-204.1256781339164
 30
0.0
  0
VERTEX
  5
769
330
757
100
AcDbEntity
  8
LAYER_1
 62
   250
100
AcDbVertex
100
AcDb2dVertex
 10
125.8225465791574
 20
-204.1256781336308
 30
0.0
  0
VERTEX
  5
76A
330
757
100
AcDbEntity
  8
LAYER_1
 62
   250
100
AcDbVertex
100
AcDb2dVertex
 10
125.8225465783675
 20
-195.3423641302934
 30
0.0
  0
VERTEX
  5
76B
330
757
100
AcDbEntity
  8
LAYER_1
 62
   250
100
AcDbVertex
100
AcDb2dVertex
 10
122.6475465791612
 20
-195.342364130579
 30
0.0
  0
VERTEX
  5
76C
330
757
100
AcDbEntity
  8
LAYER_1
 62
   250
100
AcDbVertex
100
AcDb2dVertex
 10
122.647540421217
 20
-186.5590236552035
 30
0.0
  0
SEQEND
  5
76D
330
757
100
AcDbEntity
  8
LAYER_1
 62
   250
  0
MTEXT
  5
76E
330
1F
100
AcDbEntity
  8
LAYER_1
 62
   250
100
AcDbMText
 10
264.3266736535364
 20
-220.5209065203906
 30
0.0
 40
2.9971999992507
 41
0.0
 71
     7
 72
     1
  1
\fMyriad Pro|b0|i0|c0|p34;\W1;Simple Hydroponic Vase
  0
MTEXT
  5
76F
330
1F
100
AcDbEntity
  8
LAYER_1
 62
   250
100
AcDbMText
 10
295.1237602343788
 20
-225.60104432294
 30
0.0
 40
2.9971999992507
 41
0.0
 71
     7
 72
     1
  1
\fMyriad Pro|b0|i0|c0|p34;\W1;2 Parts
  0
MTEXT
  5
770
330
1F
100
AcDbEntity
  8
LAYER_1
 62
   250
100
AcDbMText
 10
293.1765922661156
 20
-230.6811821254894
 30
0.0
 40
2.9971999992507
 41
0.0
 71
     7
 72
     1
  1
\fMyriad Pro|b0|i0|c0|p34;\W1;4/13/16
  0
MTEXT
  5
771
330
1F
100
AcDbEntity
  8
LAYER_1
 62
   250
100
AcDbMText
 10
253.9255858740186
 20
-235.7609754184903
 30
0.0
 40
2.9971999992507
 41
0.0
 71
     7
 72
     1
  1
\fMyriad Pro|b0|i0|c0|p34;\W1;Developed by Michelle Krasny
  0
ENDSEC
  0
SECTION
  2
OBJECTS
  0
DICTIONARY
  5
C
330
0
100
AcDbDictionary
  3
ACAD_GROUP
350
D
  3
ACAD_LAYOUT
350
1A
  3
ACAD_MATERIAL
350
3B
  3
ACAD_MLEADERSTYLE
350
795
  3
ACAD_MLINESTYLE
350
17
  3
ACAD_PLOTSETTINGS
350
19
  3
ACAD_VISUALSTYLE
350
2A
  3
ACDBHEADERROUNDTRIPXREC
350
773
  3
ACDBVARIABLEDICTIONARY
350
793
  0
DICTIONARY
  5
D
102
{ACAD_REACTORS
330
C
102
}
330
C
100
AcDbDictionary
  0
DICTIONARY
  5
1A
102
{ACAD_REACTORS
330
C
102
}
330
C
100
AcDbDictionary
  0
DICTIONARY
  5
3B
102
{ACAD_REACTORS
330
C
102
}
330
C
100
AcDbDictionary
  3
BYBLOCK
350
3D
  3
BYLAYER
350
3C
  3
GLOBAL
350
3E
  0
DICTIONARY
  5
795
102
{ACAD_REACTORS
330
C
102
}
330
C
100
AcDbDictionary
  0
DICTIONARY
  5
17
102
{ACAD_REACTORS
330
C
102
}
330
C
100
AcDbDictionary
  3
STANDARD
350
18
  0
DICTIONARY
  5
19
102
{ACAD_REACTORS
330
C
102
}
330
C
100
AcDbDictionary
  0
DICTIONARY
  5
2A
102
{ACAD_REACTORS
330
C
102
}
330
C
100
AcDbDictionary
  3
2DWIREFRAME
350
2F
  3
3DWIREFRAME
350
30
  3
3D_HIDDEN
350
31
  3
BASIC
350
32
  3
BRIGHTEN
350
36
  3
COLORCHANGE
350
3A
  3
CONCEPTUAL
350
34
  3
DIM
350
35
  3
FACEPATTERN
350
39
  3
FLAT
350
2B
  3
FLATWITHEDGES
350
2C
  3
GOURAUD
350
2D
  3
GOURAUDWITHEDGES
350
2E
  3
LINEPATTERN
350
38
  3
REALISTIC
350
33
  3
THICKEN
350
37
  0
DICTIONARY
  5
773
102
{ACAD_REACTORS
330
C
102
}
330
C
100
AcDbDictionary
  3
CEPSNTYPE
350
77C
  3
DIMSTYLEDATA
350
792
  3
FINGERPRINTGUID
350
77D
  3
HYPERLINKBASE
350
776
  3
INSUNITS
350
77B
  3
LAYOUTDICT
350
778
  3
LWETCUNION
350
77A
  3
PLOTSETDICT
350
779
  3
PSVPSCALE
350
77F
  3
PUCSBASE
350
782
  3
PUCSORGBACK
350
788
  3
PUCSORGBOTTOM
350
784
  3
PUCSORGFRONT
350
787
  3
PUCSORGLEFT
350
785
  3
PUCSORGRIGHT
350
786
  3
PUCSORGTOP
350
783
  3
PUCSORTHOREF
350
780
  3
PUCSORTHOVIEW
350
781
  3
STYLESHEET
350
777
  3
TSTACKALIGN
350
774
  3
TSTACKSIZE
350
775
  3
UCSBASE
350
78B
  3
UCSORGBACK
350
791
  3
UCSORGBOTTOM
350
78D
  3
UCSORGFRONT
350
790
  3
UCSORGLEFT
350
78E
  3
UCSORGRIGHT
350
78F
  3
UCSORGTOP
350
78C
  3
UCSORTHOREF
350
789
  3
UCSORTHOVIEW
350
78A
  3
VERSIONGUID
350
77E
  0
DICTIONARY
  5
793
102
{ACAD_REACTORS
330
C
102
}
330
C
100
AcDbDictionary
  3
DIMASSOC
350
796
  3
HIDETEXT
350
797
  0
MATERIAL
  5
3D
102
{ACAD_REACTORS
330
3B
102
}
102
{ACAD_XDICTIONARY
360
79A
102
}
330
3B
100
AcDbMaterial
  1
ByBlock
  0
MATERIAL
  5
3C
102
{ACAD_REACTORS
330
3B
102
}
102
{ACAD_XDICTIONARY
360
798
102
}
330
3B
100
AcDbMaterial
  1
ByLayer
  0
MATERIAL
  5
3E
102
{ACAD_REACTORS
330
3B
102
}
102
{ACAD_XDICTIONARY
360
79C
102
}
330
3B
100
AcDbMaterial
  1
Global
  0
MLINESTYLE
  5
18
102
{ACAD_REACTORS
330
17
102
}
330
17
100
AcDbMlineStyle
  2
Standard
 70
     0
  3

 62
   256
 51
90.0
 52
90.0
 71
     2
 49
0.5
 62
   256
  6
BYLAYER
 49
-0.5
 62
   256
  6
BYLAYER
  0
ACAD_PROXY_OBJECT
  5
2F
102
{ACAD_REACTORS
330
2A
102
}
330
2A
100
AcDbProxyObject
 90
      499
 91
      501
 93
      436
310
42CC9915DA5C99599C985B595049028333333333333E3BF0000000000000FB0107901411070040501600405405064090741402480A0340
1001
ACAD
1000
AcDbSavedByObjectVersion
1070
     0
  0
ACAD_PROXY_OBJECT
  5
30
102
{ACAD_REACTORS
330
2A
102
}
330
2A
100
AcDbProxyObject
 90
      499
 91
      501
 93
      436
310
42CCD915DA5C99599C985B595059028333333333333E3BF0000000000000FB0107901411070040501600405405064090741402480A0340
1001
ACAD
1000
AcDbSavedByObjectVersion
1070
     0
  0
ACAD_PROXY_OBJECT
  5
31
102
{ACAD_REACTORS
330
2A
102
}
330
2A
100
AcDbProxyObject
 90
      499
 91
      501
 93
      500
310
424CD108121A5919195B90640502408333333333333E3BF0000000000000FB01079024090700405020000000000001110200405405064090740C02480A0340
1001
ACAD
1000
AcDbSavedByObjectVersion
1070
     0
  0
ACAD_PROXY_OBJECT
  5
32
102
{ACAD_REACTORS
330
2A
102
}
330
2A
100
AcDbProxyObject
 90
      499
 91
      501
 93
      388
310
4150985CDA58D07406404333333333333E3BF0000000000000FB0107A41107004050150841D405064090741402480A0350
1001
ACAD
1000
AcDbSavedByObjectVersion
1070
     0
  0
ACAD_PROXY_OBJECT
  5
36
102
{ACAD_REACTORS
330
2A
102
}
330
2A
100
AcDbProxyObject
 90
      499
 91
      501
 93
      428
310
42109C9A59DA1D195B90C409028333333333333E3BF0000000000000FB010790141107004050150841D405064090741402480A029950
1001
ACAD
1000
AcDbSavedByObjectVersion
1070
     0
  0
ACAD_PROXY_OBJECT
  5
3A
102
{ACAD_REACTORS
330
2A
102
}
330
2A
100
AcDbProxyObject
 90
      499
 91
      501
 93
      452
310
42D0DBDB1BDC90DA185B99D95104090240C333333333333E3BF0000000000000FB0108901411070040501508421405064090741402480A0350
1001
ACAD
1000
AcDbSavedByObjectVersion
1070
     0
  0
ACAD_PROXY_OBJECT
  5
34
102
{ACAD_REACTORS
330
2A
102
}
330
2A
100
AcDbProxyObject
 90
      499
 91
      501
 93
      500
310
4290DBDB98D95C1D1D585B10940D028333333333333E3BF0000000000000FB0107902409070040501000000000000111010841D405064090740C02480A0340
1001
ACAD
1000
AcDbSavedByObjectVersion
1070
     0
  0
ACAD_PROXY_OBJECT
  5
35
102
{ACAD_REACTORS
330
2A
102
}
330
2A
100
AcDbProxyObject
 90
      499
 91
      501
 93
      412
310
40D11A5B50B409028333333333333E3BF0000000000000FB010790141107004050150841D405064090741402480A02677FFFFFD0
1001
ACAD
1000
AcDbSavedByObjectVersion
1070
     0
  0
ACAD_PROXY_OBJECT
  5
39
102
{ACAD_REACTORS
330
2A
102
}
330
2A
100
AcDbProxyObject
 90
      499
 91
      501
 93
      444
310
42D19858D95C185D1D195C9B90F409028333333333333E3BF0000000000000FB010790141107004050150841D405064090741402480A0350
1001
ACAD
1000
AcDbSavedByObjectVersion
1070
     0
  0
ACAD_PROXY_OBJECT
  5
2B
102
{ACAD_REACTORS
330
2A
102
}
330
2A
100
AcDbProxyObject
 90
      499
 91
      501
 93
      388
310
41119B185D240901404333333333333E3BF0000000000000F9010740A41107004050150841D405064090741402480A1B50
1001
ACAD
1000
AcDbSavedByObjectVersion
1070
     0
  0
ACAD_PROXY_OBJECT
  5
2C
102
{ACAD_REACTORS
330
2A
102
}
330
2A
100
AcDbProxyObject
 90
      499
 91
      501
 93
      476
310
43519B185D15DA5D1A115919D95CD0140901404333333333333E3BF0000000000000F9010740901411070040501600405405064090741402480A1B50
1001
ACAD
1000
AcDbSavedByObjectVersion
1070
     0
  0
ACAD_PROXY_OBJECT
  5
2D
102
{ACAD_REACTORS
330
2A
102
}
330
2A
100
AcDbProxyObject
 90
      499
 91
      501
 93
      412
310
41D1DBDD5C985D5910240902404333333333333E3BF0000000000000F9010740A411070040501641D405064090741402480A1B50
1001
ACAD
1000
AcDbSavedByObjectVersion
1070
     0
  0
ACAD_PROXY_OBJECT
  5
2E
102
{ACAD_REACTORS
330
2A
102
}
330
2A
100
AcDbProxyObject
 90
      499
 91
      501
 93
      500
310
4411DBDD5C985D5915DA5D1A115919D95CD0340902404333333333333E3BF0000000000000F9010740901411070040501600405405064090741402480A1B50
1001
ACAD
1000
AcDbSavedByObjectVersion
1070
     0
  0
ACAD_PROXY_OBJECT
  5
38
102
{ACAD_REACTORS
330
2A
102
}
330
2A
100
AcDbProxyObject
 90
      499
 91
      501
 93
      444
310
42D31A5B995C185D1D195C9B90E409028333333333333E3BF0000000000000FB010790141107004050750841D405064090741402483A0350
1001
ACAD
1000
AcDbSavedByObjectVersion
1070
     0
  0
ACAD_PROXY_OBJECT
  5
33
102
{ACAD_REACTORS
330
2A
102
}
330
2A
100
AcDbProxyObject
 90
      499
 91
      501
 93
      420
310
425499585B1A5CDD1A58D08409028333333333333E3BF0000000000000FB01079019070040501508421405064090741402480A1B40
1001
ACAD
1000
AcDbSavedByObjectVersion
1070
     0
  0
ACAD_PROXY_OBJECT
  5
37
102
{ACAD_REACTORS
330
2A
102
}
330
2A
100
AcDbProxyObject
 90
      499
 91
      501
 93
      412
310
41D51A1A58DAD95B90D409028333333333333E3BF0000000000000FB010790141107004050150C41D405064090741402480A0350
1001
ACAD
1000
AcDbSavedByObjectVersion
1070
     0
  0
XRECORD
  5
77C
102
{ACAD_REACTORS
330
773
102
}
330
773
100
AcDbXrecord
 90
        0
  0
XRECORD
  5
792
102
{ACAD_REACTORS
330
773
102
}
330
773
100
AcDbXrecord
1000
DSTYLE
1002
{
1070
   340
340
11
1002
}
  0
XRECORD
  5
77D
102
{ACAD_REACTORS
330
773
102
}
330
773
100
AcDbXrecord
  1
{9D140F97-E220-8C9D-712D-63224FD5E772}
  0
XRECORD
  5
776
102
{ACAD_REACTORS
330
773
102
}
330
773
100
AcDbXrecord
  1

  0
XRECORD
  5
77B
102
{ACAD_REACTORS
330
773
102
}
330
773
100
AcDbXrecord
 90
        1
  0
XRECORD
  5
778
102
{ACAD_REACTORS
330
773
102
}
330
773
100
AcDbXrecord
340
1A
  0
XRECORD
  5
77A
102
{ACAD_REACTORS
330
773
102
}
330
773
100
AcDbXrecord
 90
    10269
  0
XRECORD
  5
779
102
{ACAD_REACTORS
330
773
102
}
330
773
100
AcDbXrecord
340
19
  0
XRECORD
  5
77F
102
{ACAD_REACTORS
330
773
102
}
330
773
100
AcDbXrecord
 40
0.0
  0
XRECORD
  5
782
102
{ACAD_REACTORS
330
773
102
}
330
773
100
AcDbXrecord
340
0
  0
XRECORD
  5
788
102
{ACAD_REACTORS
330
773
102
}
330
773
100
AcDbXrecord
 10
0.0
 20
0.0
 30
0.0
  0
XRECORD
  5
784
102
{ACAD_REACTORS
330
773
102
}
330
773
100
AcDbXrecord
 10
0.0
 20
0.0
 30
0.0
  0
XRECORD
  5
787
102
{ACAD_REACTORS
330
773
102
}
330
773
100
AcDbXrecord
 10
0.0
 20
0.0
 30
0.0
  0
XRECORD
  5
785
102
{ACAD_REACTORS
330
773
102
}
330
773
100
AcDbXrecord
 10
0.0
 20
0.0
 30
0.0
  0
XRECORD
  5
786
102
{ACAD_REACTORS
330
773
102
}
330
773
100
AcDbXrecord
 10
0.0
 20
0.0
 30
0.0
  0
XRECORD
  5
783
102
{ACAD_REACTORS
330
773
102
}
330
773
100
AcDbXrecord
 10
0.0
 20
0.0
 30
0.0
  0
XRECORD
  5
780
102
{ACAD_REACTORS
330
773
102
}
330
773
100
AcDbXrecord
340
0
  0
XRECORD
  5
781
102
{ACAD_REACTORS
330
773
102
}
330
773
100
AcDbXrecord
 70
     0
  0
XRECORD
  5
777
102
{ACAD_REACTORS
330
773
102
}
330
773
100
AcDbXrecord
  1

  0
XRECORD
  5
774
102
{ACAD_REACTORS
330
773
102
}
330
773
100
AcDbXrecord
 90
        1
  0
XRECORD
  5
775
102
{ACAD_REACTORS
330
773
102
}
330
773
100
AcDbXrecord
 90
       70
  0
XRECORD
  5
78B
102
{ACAD_REACTORS
330
773
102
}
330
773
100
AcDbXrecord
340
0
  0
XRECORD
  5
791
102
{ACAD_REACTORS
330
773
102
}
330
773
100
AcDbXrecord
 10
0.0
 20
0.0
 30
0.0
  0
XRECORD
  5
78D
102
{ACAD_REACTORS
330
773
102
}
330
773
100
AcDbXrecord
 10
0.0
 20
0.0
 30
0.0
  0
XRECORD
  5
790
102
{ACAD_REACTORS
330
773
102
}
330
773
100
AcDbXrecord
 10
0.0
 20
0.0
 30
0.0
  0
XRECORD
  5
78E
102
{ACAD_REACTORS
330
773
102
}
330
773
100
AcDbXrecord
 10
0.0
 20
0.0
 30
0.0
  0
XRECORD
  5
78F
102
{ACAD_REACTORS
330
773
102
}
330
773
100
AcDbXrecord
 10
0.0
 20
0.0
 30
0.0
  0
XRECORD
  5
78C
102
{ACAD_REACTORS
330
773
102
}
330
773
100
AcDbXrecord
 10
0.0
 20
0.0
 30
0.0
  0
XRECORD
  5
789
102
{ACAD_REACTORS
330
773
102
}
330
773
100
AcDbXrecord
340
0
  0
XRECORD
  5
78A
102
{ACAD_REACTORS
330
773
102
}
330
773
100
AcDbXrecord
 70
     0
  0
XRECORD
  5
77E
102
{ACAD_REACTORS
330
773
102
}
330
773
100
AcDbXrecord
  1
{FAEB1C32-E019-11D5-929B-00C0DF256EC4}
  0
DICTIONARYVAR
  5
796
102
{ACAD_REACTORS
330
793
102
}
330
793
100
DictionaryVariables
280
     0
  1
2
  0
DICTIONARYVAR
  5
797
102
{ACAD_REACTORS
330
793
102
}
330
793
100
DictionaryVariables
280
     0
  1
1
  0
DICTIONARY
  5
79A
330
3D
100
AcDbDictionary
280
     1
  3
ACAD_XREC_ROUNDTRIP
360
79B
  0
DICTIONARY
  5
798
330
3C
100
AcDbDictionary
280
     1
  3
ACAD_XREC_ROUNDTRIP
360
799
  0
DICTIONARY
  5
79C
330
3E
100
AcDbDictionary
280
     1
  3
ACAD_XREC_ROUNDTRIP
360
79D
  0
XRECORD
  5
79B
102
{ACAD_REACTORS
330
79A
102
}
330
79A
100
AcDbXrecord
102
MATERIAL
148
0.0
149
0.0
149
0.0
 93
        0
 94
      127
282
     0
 72
     1
 77
     1
171
     1
175
     1
179
     1
273
     0
  0
XRECORD
  5
799
102
{ACAD_REACTORS
330
798
102
}
330
798
100
AcDbXrecord
102
MATERIAL
148
0.0
149
0.0
149
0.0
 93
        0
 94
      127
282
     0
 72
     1
 77
     1
171
     1
175
     1
179
     1
273
     0
  0
XRECORD
  5
79D
102
{ACAD_REACTORS
330
79C
102
}
330
79C
100
AcDbXrecord
102
MATERIAL
148
0.0
149
0.0
149
0.0
 93
        0
 94
      127
282
     0
 72
     1
 77
     1
171
     1
175
     1
179
     1
273
     0
  0
ENDSEC
  0
EOF
