ISO-10303-21;
HEADER;
/* Generated by software containing ST-Developer
 * from STEP Tools, Inc. (www.steptools.com) 
 */

FILE_DESCRIPTION(
/* description */ (''),
/* implementation_level */ '2;1');

FILE_NAME(
/* name */ 
'C:\\Users\\jdtag\\OneDrive\\Documents\\Projects\\CAD Projects\\CNC Ma
chine\\Version 2\\Rev 2\\Z Axis Bottom Plate.stp',
/* time_stamp */ '2019-03-14T19:30:39-07:00',
/* author */ ('jdtag'),
/* organization */ (''),
/* preprocessor_version */ 'ST-DEVELOPER v16.13',
/* originating_system */ 'Autodesk Inventor 2018',
/* authorisation */ '');

FILE_SCHEMA (('AUTOMOTIVE_DESIGN { 1 0 10303 214 3 1 1 }'));
ENDSEC;

DATA;
#10=MECHANICAL_DESIGN_GEOMETRIC_PRESENTATION_REPRESENTATION('',(#13),#499);
#11=SHAPE_REPRESENTATION_RELATIONSHIP('SRR','None',#509,#12);
#12=ADVANCED_BREP_SHAPE_REPRESENTATION('',(#14),#498);
#13=STYLED_ITEM('',(#518),#14);
#14=MANIFOLD_SOLID_BREP('Solid1',#283);
#15=FACE_BOUND('',#49,.T.);
#16=FACE_BOUND('',#54,.T.);
#17=FACE_BOUND('',#55,.T.);
#18=FACE_BOUND('',#60,.T.);
#19=FACE_BOUND('',#62,.T.);
#20=FACE_BOUND('',#64,.T.);
#21=FACE_BOUND('',#67,.T.);
#22=FACE_BOUND('',#68,.T.);
#23=FACE_BOUND('',#69,.T.);
#24=PLANE('',#309);
#25=PLANE('',#312);
#26=PLANE('',#316);
#27=PLANE('',#317);
#28=PLANE('',#323);
#29=PLANE('',#332);
#30=PLANE('',#333);
#31=FACE_OUTER_BOUND('',#46,.T.);
#32=FACE_OUTER_BOUND('',#47,.T.);
#33=FACE_OUTER_BOUND('',#48,.T.);
#34=FACE_OUTER_BOUND('',#50,.T.);
#35=FACE_OUTER_BOUND('',#51,.T.);
#36=FACE_OUTER_BOUND('',#52,.T.);
#37=FACE_OUTER_BOUND('',#53,.T.);
#38=FACE_OUTER_BOUND('',#56,.T.);
#39=FACE_OUTER_BOUND('',#57,.T.);
#40=FACE_OUTER_BOUND('',#58,.T.);
#41=FACE_OUTER_BOUND('',#59,.T.);
#42=FACE_OUTER_BOUND('',#61,.T.);
#43=FACE_OUTER_BOUND('',#63,.T.);
#44=FACE_OUTER_BOUND('',#65,.T.);
#45=FACE_OUTER_BOUND('',#66,.T.);
#46=EDGE_LOOP('',(#188,#189,#190,#191));
#47=EDGE_LOOP('',(#192,#193,#194,#195));
#48=EDGE_LOOP('',(#196,#197,#198,#199,#200,#201));
#49=EDGE_LOOP('',(#202));
#50=EDGE_LOOP('',(#203,#204,#205,#206));
#51=EDGE_LOOP('',(#207,#208,#209,#210));
#52=EDGE_LOOP('',(#211,#212,#213,#214));
#53=EDGE_LOOP('',(#215,#216,#217,#218,#219,#220));
#54=EDGE_LOOP('',(#221));
#55=EDGE_LOOP('',(#222));
#56=EDGE_LOOP('',(#223,#224,#225,#226));
#57=EDGE_LOOP('',(#227,#228,#229,#230,#231,#232));
#58=EDGE_LOOP('',(#233,#234,#235,#236));
#59=EDGE_LOOP('',(#237));
#60=EDGE_LOOP('',(#238));
#61=EDGE_LOOP('',(#239));
#62=EDGE_LOOP('',(#240));
#63=EDGE_LOOP('',(#241));
#64=EDGE_LOOP('',(#242));
#65=EDGE_LOOP('',(#243,#244,#245,#246,#247,#248));
#66=EDGE_LOOP('',(#249,#250,#251,#252,#253,#254,#255,#256));
#67=EDGE_LOOP('',(#257));
#68=EDGE_LOOP('',(#258));
#69=EDGE_LOOP('',(#259));
#70=LINE('',#424,#90);
#71=LINE('',#427,#91);
#72=LINE('',#433,#92);
#73=LINE('',#436,#93);
#74=LINE('',#438,#94);
#75=LINE('',#440,#95);
#76=LINE('',#443,#96);
#77=LINE('',#448,#97);
#78=LINE('',#449,#98);
#79=LINE('',#455,#99);
#80=LINE('',#458,#100);
#81=LINE('',#461,#101);
#82=LINE('',#463,#102);
#83=LINE('',#464,#103);
#84=LINE('',#466,#104);
#85=LINE('',#468,#105);
#86=LINE('',#476,#106);
#87=LINE('',#480,#107);
#88=LINE('',#481,#108);
#89=LINE('',#494,#109);
#90=VECTOR('',#340,0.393700787401575);
#91=VECTOR('',#343,0.393700787401575);
#92=VECTOR('',#348,0.393700787401575);
#93=VECTOR('',#351,0.393700787401575);
#94=VECTOR('',#354,0.393700787401575);
#95=VECTOR('',#355,0.393700787401575);
#96=VECTOR('',#358,0.393700787401575);
#97=VECTOR('',#363,0.393700787401575);
#98=VECTOR('',#364,0.393700787401575);
#99=VECTOR('',#369,0.393700787401575);
#100=VECTOR('',#372,0.393700787401575);
#101=VECTOR('',#375,0.393700787401575);
#102=VECTOR('',#376,0.393700787401575);
#103=VECTOR('',#377,0.393700787401575);
#104=VECTOR('',#380,0.393700787401575);
#105=VECTOR('',#381,0.393700787401575);
#106=VECTOR('',#390,0.393700787401575);
#107=VECTOR('',#395,0.393700787401575);
#108=VECTOR('',#396,0.393700787401575);
#109=VECTOR('',#415,0.393700787401575);
#110=CIRCLE('',#304,0.125);
#111=CIRCLE('',#305,0.125);
#112=CIRCLE('',#307,0.125);
#113=CIRCLE('',#308,0.125);
#114=CIRCLE('',#310,0.125);
#115=CIRCLE('',#311,0.177165354330709);
#116=CIRCLE('',#314,0.125);
#117=CIRCLE('',#315,0.125);
#118=CIRCLE('',#318,0.125);
#119=CIRCLE('',#319,0.104330708661417);
#120=CIRCLE('',#320,0.104330708661417);
#121=CIRCLE('',#322,0.125);
#122=CIRCLE('',#325,0.125);
#123=CIRCLE('',#327,0.104330708661417);
#124=CIRCLE('',#329,0.104330708661417);
#125=CIRCLE('',#331,0.177165354330709);
#126=VERTEX_POINT('',#420);
#127=VERTEX_POINT('',#421);
#128=VERTEX_POINT('',#423);
#129=VERTEX_POINT('',#425);
#130=VERTEX_POINT('',#429);
#131=VERTEX_POINT('',#430);
#132=VERTEX_POINT('',#432);
#133=VERTEX_POINT('',#434);
#134=VERTEX_POINT('',#439);
#135=VERTEX_POINT('',#441);
#136=VERTEX_POINT('',#444);
#137=VERTEX_POINT('',#447);
#138=VERTEX_POINT('',#451);
#139=VERTEX_POINT('',#452);
#140=VERTEX_POINT('',#454);
#141=VERTEX_POINT('',#456);
#142=VERTEX_POINT('',#460);
#143=VERTEX_POINT('',#462);
#144=VERTEX_POINT('',#467);
#145=VERTEX_POINT('',#470);
#146=VERTEX_POINT('',#472);
#147=VERTEX_POINT('',#475);
#148=VERTEX_POINT('',#479);
#149=VERTEX_POINT('',#485);
#150=VERTEX_POINT('',#488);
#151=VERTEX_POINT('',#491);
#152=EDGE_CURVE('',#126,#127,#110,.T.);
#153=EDGE_CURVE('',#128,#127,#70,.T.);
#154=EDGE_CURVE('',#128,#129,#111,.T.);
#155=EDGE_CURVE('',#129,#126,#71,.T.);
#156=EDGE_CURVE('',#130,#131,#112,.T.);
#157=EDGE_CURVE('',#131,#132,#72,.T.);
#158=EDGE_CURVE('',#132,#133,#113,.T.);
#159=EDGE_CURVE('',#133,#130,#73,.T.);
#160=EDGE_CURVE('',#129,#131,#74,.T.);
#161=EDGE_CURVE('',#130,#134,#75,.T.);
#162=EDGE_CURVE('',#135,#134,#114,.T.);
#163=EDGE_CURVE('',#135,#126,#76,.T.);
#164=EDGE_CURVE('',#136,#136,#115,.T.);
#165=EDGE_CURVE('',#133,#137,#77,.T.);
#166=EDGE_CURVE('',#134,#137,#78,.T.);
#167=EDGE_CURVE('',#138,#139,#116,.T.);
#168=EDGE_CURVE('',#139,#140,#79,.T.);
#169=EDGE_CURVE('',#140,#141,#117,.T.);
#170=EDGE_CURVE('',#141,#138,#80,.T.);
#171=EDGE_CURVE('',#142,#139,#81,.T.);
#172=EDGE_CURVE('',#143,#142,#82,.T.);
#173=EDGE_CURVE('',#143,#140,#83,.T.);
#174=EDGE_CURVE('',#138,#128,#84,.T.);
#175=EDGE_CURVE('',#127,#144,#85,.T.);
#176=EDGE_CURVE('',#142,#144,#118,.T.);
#177=EDGE_CURVE('',#145,#145,#119,.T.);
#178=EDGE_CURVE('',#146,#146,#120,.T.);
#179=EDGE_CURVE('',#144,#147,#86,.T.);
#180=EDGE_CURVE('',#147,#143,#121,.T.);
#181=EDGE_CURVE('',#148,#135,#87,.T.);
#182=EDGE_CURVE('',#148,#147,#88,.T.);
#183=EDGE_CURVE('',#137,#148,#122,.T.);
#184=EDGE_CURVE('',#149,#149,#123,.T.);
#185=EDGE_CURVE('',#150,#150,#124,.T.);
#186=EDGE_CURVE('',#151,#151,#125,.T.);
#187=EDGE_CURVE('',#141,#132,#89,.T.);
#188=ORIENTED_EDGE('',*,*,#152,.T.);
#189=ORIENTED_EDGE('',*,*,#153,.F.);
#190=ORIENTED_EDGE('',*,*,#154,.T.);
#191=ORIENTED_EDGE('',*,*,#155,.T.);
#192=ORIENTED_EDGE('',*,*,#156,.T.);
#193=ORIENTED_EDGE('',*,*,#157,.T.);
#194=ORIENTED_EDGE('',*,*,#158,.T.);
#195=ORIENTED_EDGE('',*,*,#159,.T.);
#196=ORIENTED_EDGE('',*,*,#155,.F.);
#197=ORIENTED_EDGE('',*,*,#160,.T.);
#198=ORIENTED_EDGE('',*,*,#156,.F.);
#199=ORIENTED_EDGE('',*,*,#161,.T.);
#200=ORIENTED_EDGE('',*,*,#162,.F.);
#201=ORIENTED_EDGE('',*,*,#163,.T.);
#202=ORIENTED_EDGE('',*,*,#164,.T.);
#203=ORIENTED_EDGE('',*,*,#159,.F.);
#204=ORIENTED_EDGE('',*,*,#165,.T.);
#205=ORIENTED_EDGE('',*,*,#166,.F.);
#206=ORIENTED_EDGE('',*,*,#161,.F.);
#207=ORIENTED_EDGE('',*,*,#167,.T.);
#208=ORIENTED_EDGE('',*,*,#168,.T.);
#209=ORIENTED_EDGE('',*,*,#169,.T.);
#210=ORIENTED_EDGE('',*,*,#170,.T.);
#211=ORIENTED_EDGE('',*,*,#168,.F.);
#212=ORIENTED_EDGE('',*,*,#171,.F.);
#213=ORIENTED_EDGE('',*,*,#172,.F.);
#214=ORIENTED_EDGE('',*,*,#173,.T.);
#215=ORIENTED_EDGE('',*,*,#167,.F.);
#216=ORIENTED_EDGE('',*,*,#174,.T.);
#217=ORIENTED_EDGE('',*,*,#153,.T.);
#218=ORIENTED_EDGE('',*,*,#175,.T.);
#219=ORIENTED_EDGE('',*,*,#176,.F.);
#220=ORIENTED_EDGE('',*,*,#171,.T.);
#221=ORIENTED_EDGE('',*,*,#177,.T.);
#222=ORIENTED_EDGE('',*,*,#178,.T.);
#223=ORIENTED_EDGE('',*,*,#176,.T.);
#224=ORIENTED_EDGE('',*,*,#179,.T.);
#225=ORIENTED_EDGE('',*,*,#180,.T.);
#226=ORIENTED_EDGE('',*,*,#172,.T.);
#227=ORIENTED_EDGE('',*,*,#179,.F.);
#228=ORIENTED_EDGE('',*,*,#175,.F.);
#229=ORIENTED_EDGE('',*,*,#152,.F.);
#230=ORIENTED_EDGE('',*,*,#163,.F.);
#231=ORIENTED_EDGE('',*,*,#181,.F.);
#232=ORIENTED_EDGE('',*,*,#182,.T.);
#233=ORIENTED_EDGE('',*,*,#162,.T.);
#234=ORIENTED_EDGE('',*,*,#166,.T.);
#235=ORIENTED_EDGE('',*,*,#183,.T.);
#236=ORIENTED_EDGE('',*,*,#181,.T.);
#237=ORIENTED_EDGE('',*,*,#178,.F.);
#238=ORIENTED_EDGE('',*,*,#184,.F.);
#239=ORIENTED_EDGE('',*,*,#177,.F.);
#240=ORIENTED_EDGE('',*,*,#185,.F.);
#241=ORIENTED_EDGE('',*,*,#164,.F.);
#242=ORIENTED_EDGE('',*,*,#186,.F.);
#243=ORIENTED_EDGE('',*,*,#157,.F.);
#244=ORIENTED_EDGE('',*,*,#160,.F.);
#245=ORIENTED_EDGE('',*,*,#154,.F.);
#246=ORIENTED_EDGE('',*,*,#174,.F.);
#247=ORIENTED_EDGE('',*,*,#170,.F.);
#248=ORIENTED_EDGE('',*,*,#187,.T.);
#249=ORIENTED_EDGE('',*,*,#158,.F.);
#250=ORIENTED_EDGE('',*,*,#187,.F.);
#251=ORIENTED_EDGE('',*,*,#169,.F.);
#252=ORIENTED_EDGE('',*,*,#173,.F.);
#253=ORIENTED_EDGE('',*,*,#180,.F.);
#254=ORIENTED_EDGE('',*,*,#182,.F.);
#255=ORIENTED_EDGE('',*,*,#183,.F.);
#256=ORIENTED_EDGE('',*,*,#165,.F.);
#257=ORIENTED_EDGE('',*,*,#184,.T.);
#258=ORIENTED_EDGE('',*,*,#185,.T.);
#259=ORIENTED_EDGE('',*,*,#186,.T.);
#260=CYLINDRICAL_SURFACE('',#303,0.125);
#261=CYLINDRICAL_SURFACE('',#306,0.125);
#262=CYLINDRICAL_SURFACE('',#313,0.125);
#263=CYLINDRICAL_SURFACE('',#321,0.125);
#264=CYLINDRICAL_SURFACE('',#324,0.125);
#265=CYLINDRICAL_SURFACE('',#326,0.104330708661417);
#266=CYLINDRICAL_SURFACE('',#328,0.104330708661417);
#267=CYLINDRICAL_SURFACE('',#330,0.177165354330709);
#268=ADVANCED_FACE('',(#31),#260,.F.);
#269=ADVANCED_FACE('',(#32),#261,.T.);
#270=ADVANCED_FACE('',(#33,#15),#24,.T.);
#271=ADVANCED_FACE('',(#34),#25,.T.);
#272=ADVANCED_FACE('',(#35),#262,.T.);
#273=ADVANCED_FACE('',(#36),#26,.T.);
#274=ADVANCED_FACE('',(#37,#16,#17),#27,.T.);
#275=ADVANCED_FACE('',(#38),#263,.T.);
#276=ADVANCED_FACE('',(#39),#28,.T.);
#277=ADVANCED_FACE('',(#40),#264,.T.);
#278=ADVANCED_FACE('',(#41,#18),#265,.F.);
#279=ADVANCED_FACE('',(#42,#19),#266,.F.);
#280=ADVANCED_FACE('',(#43,#20),#267,.F.);
#281=ADVANCED_FACE('',(#44),#29,.T.);
#282=ADVANCED_FACE('',(#45,#21,#22,#23),#30,.F.);
#283=CLOSED_SHELL('',(#268,#269,#270,#271,#272,#273,#274,#275,#276,#277,
#278,#279,#280,#281,#282));
#284=DERIVED_UNIT_ELEMENT(#286,0.);
#285=DERIVED_UNIT_ELEMENT(#503,0.);
#286=(
MASS_UNIT()
NAMED_UNIT(*)
SI_UNIT($,.GRAM.)
);
#287=DERIVED_UNIT((#284,#285));
#288=MEASURE_REPRESENTATION_ITEM('density measure',
POSITIVE_RATIO_MEASURE(0.357272727273),#287);
#289=PROPERTY_DEFINITION_REPRESENTATION(#294,#291);
#290=PROPERTY_DEFINITION_REPRESENTATION(#295,#292);
#291=REPRESENTATION('material name',(#293),#498);
#292=REPRESENTATION('density',(#288),#498);
#293=DESCRIPTIVE_REPRESENTATION_ITEM('PC/ABS Plastic','PC/ABS Plastic');
#294=PROPERTY_DEFINITION('material property','material name',#511);
#295=PROPERTY_DEFINITION('material property','density of part',#511);
#296=DATE_TIME_ROLE('creation_date');
#297=APPLIED_DATE_AND_TIME_ASSIGNMENT(#298,#296,(#511));
#298=DATE_AND_TIME(#299,#300);
#299=CALENDAR_DATE(2019,2,2);
#300=LOCAL_TIME(1,47,59.,#301);
#301=COORDINATED_UNIVERSAL_TIME_OFFSET(0,0,.BEHIND.);
#302=AXIS2_PLACEMENT_3D('placement',#418,#334,#335);
#303=AXIS2_PLACEMENT_3D('',#419,#336,#337);
#304=AXIS2_PLACEMENT_3D('',#422,#338,#339);
#305=AXIS2_PLACEMENT_3D('',#426,#341,#342);
#306=AXIS2_PLACEMENT_3D('',#428,#344,#345);
#307=AXIS2_PLACEMENT_3D('',#431,#346,#347);
#308=AXIS2_PLACEMENT_3D('',#435,#349,#350);
#309=AXIS2_PLACEMENT_3D('',#437,#352,#353);
#310=AXIS2_PLACEMENT_3D('',#442,#356,#357);
#311=AXIS2_PLACEMENT_3D('',#445,#359,#360);
#312=AXIS2_PLACEMENT_3D('',#446,#361,#362);
#313=AXIS2_PLACEMENT_3D('',#450,#365,#366);
#314=AXIS2_PLACEMENT_3D('',#453,#367,#368);
#315=AXIS2_PLACEMENT_3D('',#457,#370,#371);
#316=AXIS2_PLACEMENT_3D('',#459,#373,#374);
#317=AXIS2_PLACEMENT_3D('',#465,#378,#379);
#318=AXIS2_PLACEMENT_3D('',#469,#382,#383);
#319=AXIS2_PLACEMENT_3D('',#471,#384,#385);
#320=AXIS2_PLACEMENT_3D('',#473,#386,#387);
#321=AXIS2_PLACEMENT_3D('',#474,#388,#389);
#322=AXIS2_PLACEMENT_3D('',#477,#391,#392);
#323=AXIS2_PLACEMENT_3D('',#478,#393,#394);
#324=AXIS2_PLACEMENT_3D('',#482,#397,#398);
#325=AXIS2_PLACEMENT_3D('',#483,#399,#400);
#326=AXIS2_PLACEMENT_3D('',#484,#401,#402);
#327=AXIS2_PLACEMENT_3D('',#486,#403,#404);
#328=AXIS2_PLACEMENT_3D('',#487,#405,#406);
#329=AXIS2_PLACEMENT_3D('',#489,#407,#408);
#330=AXIS2_PLACEMENT_3D('',#490,#409,#410);
#331=AXIS2_PLACEMENT_3D('',#492,#411,#412);
#332=AXIS2_PLACEMENT_3D('',#493,#413,#414);
#333=AXIS2_PLACEMENT_3D('',#495,#416,#417);
#334=DIRECTION('axis',(0.,0.,1.));
#335=DIRECTION('refdir',(1.,0.,0.));
#336=DIRECTION('center_axis',(-2.77555756156289E-16,0.,-1.));
#337=DIRECTION('ref_axis',(0.707106781186548,-0.707106781186547,-4.94517309821661E-16));
#338=DIRECTION('center_axis',(2.18935872512376E-16,0.,1.));
#339=DIRECTION('ref_axis',(0.707106781186548,-0.707106781186547,-4.94517309821661E-16));
#340=DIRECTION('',(2.77555756156289E-16,0.,1.));
#341=DIRECTION('center_axis',(-4.37871745024752E-16,0.,-1.));
#342=DIRECTION('ref_axis',(0.707106781186548,-0.707106781186547,-4.94517309821661E-16));
#343=DIRECTION('',(2.77555756156289E-16,0.,1.));
#344=DIRECTION('center_axis',(0.,1.,0.));
#345=DIRECTION('ref_axis',(-0.707106781186548,0.,-0.707106781186548));
#346=DIRECTION('center_axis',(0.,-1.,0.));
#347=DIRECTION('ref_axis',(-0.707106781186548,0.,-0.707106781186548));
#348=DIRECTION('',(0.,-1.,0.));
#349=DIRECTION('center_axis',(0.,1.,0.));
#350=DIRECTION('ref_axis',(-0.707106781186548,0.,-0.707106781186548));
#351=DIRECTION('',(0.,1.,0.));
#352=DIRECTION('center_axis',(0.,1.,0.));
#353=DIRECTION('ref_axis',(0.,0.,1.));
#354=DIRECTION('',(-1.,0.,2.22044604925031E-16));
#355=DIRECTION('',(1.11022302462516E-16,0.,1.));
#356=DIRECTION('center_axis',(0.,-1.,0.));
#357=DIRECTION('ref_axis',(-0.707106781186548,0.,0.707106781186548));
#358=DIRECTION('',(1.,0.,-2.18935872512376E-16));
#359=DIRECTION('center_axis',(0.,-1.,0.));
#360=DIRECTION('ref_axis',(1.,0.,0.));
#361=DIRECTION('center_axis',(-1.,0.,1.11022302462516E-16));
#362=DIRECTION('ref_axis',(1.11022302462516E-16,0.,1.));
#363=DIRECTION('',(1.11022302462516E-16,0.,1.));
#364=DIRECTION('',(0.,-1.,0.));
#365=DIRECTION('center_axis',(0.,1.,0.));
#366=DIRECTION('ref_axis',(0.707106781186547,0.,-0.707106781186548));
#367=DIRECTION('center_axis',(0.,-1.,0.));
#368=DIRECTION('ref_axis',(0.707106781186547,0.,-0.707106781186548));
#369=DIRECTION('',(0.,-1.,0.));
#370=DIRECTION('center_axis',(0.,1.,0.));
#371=DIRECTION('ref_axis',(0.707106781186547,0.,-0.707106781186548));
#372=DIRECTION('',(0.,1.,0.));
#373=DIRECTION('center_axis',(1.,0.,-2.77555756156289E-16));
#374=DIRECTION('ref_axis',(-2.77555756156289E-16,0.,-1.));
#375=DIRECTION('',(-2.77555756156289E-16,0.,-1.));
#376=DIRECTION('',(0.,1.,0.));
#377=DIRECTION('',(-2.77555756156289E-16,0.,-1.));
#378=DIRECTION('center_axis',(0.,1.,0.));
#379=DIRECTION('ref_axis',(0.,0.,1.));
#380=DIRECTION('',(-1.,0.,3.30718921606872E-16));
#381=DIRECTION('',(1.,0.,-2.20479281071248E-16));
#382=DIRECTION('center_axis',(0.,-1.,0.));
#383=DIRECTION('ref_axis',(0.707106781186548,0.,0.707106781186548));
#384=DIRECTION('center_axis',(0.,-1.,0.));
#385=DIRECTION('ref_axis',(-1.,0.,0.));
#386=DIRECTION('center_axis',(0.,-1.,0.));
#387=DIRECTION('ref_axis',(-1.,0.,0.));
#388=DIRECTION('center_axis',(0.,1.,0.));
#389=DIRECTION('ref_axis',(0.707106781186548,0.,0.707106781186548));
#390=DIRECTION('',(0.,-1.,0.));
#391=DIRECTION('center_axis',(0.,1.,0.));
#392=DIRECTION('ref_axis',(0.707106781186548,0.,0.707106781186548));
#393=DIRECTION('center_axis',(2.18935872512376E-16,0.,1.));
#394=DIRECTION('ref_axis',(1.,0.,-2.18935872512376E-16));
#395=DIRECTION('',(0.,1.,0.));
#396=DIRECTION('',(1.,0.,-2.18935872512376E-16));
#397=DIRECTION('center_axis',(0.,1.,0.));
#398=DIRECTION('ref_axis',(-0.707106781186548,0.,0.707106781186548));
#399=DIRECTION('center_axis',(0.,1.,0.));
#400=DIRECTION('ref_axis',(-0.707106781186548,0.,0.707106781186548));
#401=DIRECTION('center_axis',(0.,1.,0.));
#402=DIRECTION('ref_axis',(1.,0.,0.));
#403=DIRECTION('center_axis',(0.,1.,0.));
#404=DIRECTION('ref_axis',(1.,0.,0.));
#405=DIRECTION('center_axis',(0.,1.,0.));
#406=DIRECTION('ref_axis',(1.,0.,0.));
#407=DIRECTION('center_axis',(0.,1.,0.));
#408=DIRECTION('ref_axis',(1.,0.,0.));
#409=DIRECTION('center_axis',(0.,1.,0.));
#410=DIRECTION('ref_axis',(1.,0.,0.));
#411=DIRECTION('center_axis',(0.,1.,0.));
#412=DIRECTION('ref_axis',(1.,0.,0.));
#413=DIRECTION('center_axis',(-4.37871745024752E-16,0.,-1.));
#414=DIRECTION('ref_axis',(-1.,0.,4.37871745024752E-16));
#415=DIRECTION('',(-1.,0.,2.22044604925031E-16));
#416=DIRECTION('center_axis',(0.,1.,0.));
#417=DIRECTION('ref_axis',(0.,0.,1.));
#418=CARTESIAN_POINT('',(0.,0.,0.));
#419=CARTESIAN_POINT('Origin',(-0.518700787401575,0.25,-0.393700787401575));
#420=CARTESIAN_POINT('',(-0.518700787401574,0.125,0.78740157480315));
#421=CARTESIAN_POINT('',(-0.393700787401574,0.25,0.78740157480315));
#422=CARTESIAN_POINT('Origin',(-0.518700787401574,0.25,0.78740157480315));
#423=CARTESIAN_POINT('',(-0.393700787401575,0.25,-0.787401574803149));
#424=CARTESIAN_POINT('',(-0.393700787401575,0.25,-0.787401574803149));
#425=CARTESIAN_POINT('',(-0.518700787401575,0.125,-0.78740157480315));
#426=CARTESIAN_POINT('Origin',(-0.518700787401575,0.25,-0.78740157480315));
#427=CARTESIAN_POINT('',(-0.518700787401575,0.125,-0.393700787401575));
#428=CARTESIAN_POINT('Origin',(-1.0672829,0.,-0.662401574803149));
#429=CARTESIAN_POINT('',(-1.1922829,0.125,-0.662401574803149));
#430=CARTESIAN_POINT('',(-1.0672829,0.125,-0.787401574803149));
#431=CARTESIAN_POINT('Origin',(-1.0672829,0.125,-0.662401574803149));
#432=CARTESIAN_POINT('',(-1.0672829,0.,-0.787401574803149));
#433=CARTESIAN_POINT('',(-1.0672829,0.,-0.787401574803149));
#434=CARTESIAN_POINT('',(-1.1922829,0.,-0.662401574803149));
#435=CARTESIAN_POINT('Origin',(-1.0672829,0.,-0.662401574803149));
#436=CARTESIAN_POINT('',(-1.1922829,0.,-0.662401574803149));
#437=CARTESIAN_POINT('Origin',(-0.792991843700787,0.125,2.62257407391769E-16));
#438=CARTESIAN_POINT('',(0.393700787401575,0.125,-0.78740157480315));
#439=CARTESIAN_POINT('',(-1.1922829,0.125,0.66240157480315));
#440=CARTESIAN_POINT('',(-1.1922829,0.125,-0.787401574803149));
#441=CARTESIAN_POINT('',(-1.0672829,0.125,0.78740157480315));
#442=CARTESIAN_POINT('Origin',(-1.0672829,0.125,0.66240157480315));
#443=CARTESIAN_POINT('',(-1.1922829,0.125,0.78740157480315));
#444=CARTESIAN_POINT('',(-0.994448254330709,0.125,1.96534770004604E-16));
#445=CARTESIAN_POINT('Origin',(-0.8172829,0.125,1.74838271594513E-16));
#446=CARTESIAN_POINT('Origin',(-1.1922829,0.,-0.787401574803149));
#447=CARTESIAN_POINT('',(-1.1922829,0.,0.66240157480315));
#448=CARTESIAN_POINT('',(-1.1922829,0.,-0.787401574803149));
#449=CARTESIAN_POINT('',(-1.1922829,0.,0.66240157480315));
#450=CARTESIAN_POINT('Origin',(0.268700787401575,0.,-0.66240157480315));
#451=CARTESIAN_POINT('',(0.268700787401575,0.25,-0.78740157480315));
#452=CARTESIAN_POINT('',(0.393700787401575,0.25,-0.66240157480315));
#453=CARTESIAN_POINT('Origin',(0.268700787401575,0.25,-0.66240157480315));
#454=CARTESIAN_POINT('',(0.393700787401575,0.,-0.66240157480315));
#455=CARTESIAN_POINT('',(0.393700787401575,0.,-0.66240157480315));
#456=CARTESIAN_POINT('',(0.268700787401575,0.,-0.78740157480315));
#457=CARTESIAN_POINT('Origin',(0.268700787401575,0.,-0.66240157480315));
#458=CARTESIAN_POINT('',(0.268700787401575,0.,-0.78740157480315));
#459=CARTESIAN_POINT('Origin',(0.393700787401575,0.,0.78740157480315));
#460=CARTESIAN_POINT('',(0.393700787401575,0.25,0.66240157480315));
#461=CARTESIAN_POINT('',(0.393700787401575,0.25,0.78740157480315));
#462=CARTESIAN_POINT('',(0.393700787401575,0.,0.66240157480315));
#463=CARTESIAN_POINT('',(0.393700787401575,0.,0.66240157480315));
#464=CARTESIAN_POINT('',(0.393700787401575,0.,0.78740157480315));
#465=CARTESIAN_POINT('Origin',(1.74838271594513E-16,0.25,0.));
#466=CARTESIAN_POINT('',(0.393700787401575,0.25,-0.78740157480315));
#467=CARTESIAN_POINT('',(0.268700787401575,0.25,0.78740157480315));
#468=CARTESIAN_POINT('',(-1.1922829,0.25,0.78740157480315));
#469=CARTESIAN_POINT('Origin',(0.268700787401575,0.25,0.66240157480315));
#470=CARTESIAN_POINT('',(0.104330708661417,0.25,0.393700787401575));
#471=CARTESIAN_POINT('Origin',(0.,0.25,0.393700787401575));
#472=CARTESIAN_POINT('',(0.104330708661417,0.25,-0.393700787401575));
#473=CARTESIAN_POINT('Origin',(0.,0.25,-0.393700787401575));
#474=CARTESIAN_POINT('Origin',(0.268700787401575,0.,0.66240157480315));
#475=CARTESIAN_POINT('',(0.268700787401575,0.,0.78740157480315));
#476=CARTESIAN_POINT('',(0.268700787401575,0.,0.78740157480315));
#477=CARTESIAN_POINT('Origin',(0.268700787401575,0.,0.66240157480315));
#478=CARTESIAN_POINT('Origin',(-1.1922829,0.,0.78740157480315));
#479=CARTESIAN_POINT('',(-1.0672829,0.,0.78740157480315));
#480=CARTESIAN_POINT('',(-1.0672829,0.,0.78740157480315));
#481=CARTESIAN_POINT('',(-1.1922829,0.,0.78740157480315));
#482=CARTESIAN_POINT('Origin',(-1.0672829,0.,0.66240157480315));
#483=CARTESIAN_POINT('Origin',(-1.0672829,0.,0.66240157480315));
#484=CARTESIAN_POINT('Origin',(0.,0.,-0.393700787401575));
#485=CARTESIAN_POINT('',(-0.104330708661417,0.,-0.393700787401575));
#486=CARTESIAN_POINT('Origin',(0.,0.,-0.393700787401575));
#487=CARTESIAN_POINT('Origin',(0.,0.,0.393700787401575));
#488=CARTESIAN_POINT('',(-0.104330708661417,0.,0.393700787401575));
#489=CARTESIAN_POINT('Origin',(0.,0.,0.393700787401575));
#490=CARTESIAN_POINT('Origin',(-0.8172829,0.,1.74838271594513E-16));
#491=CARTESIAN_POINT('',(-0.994448254330709,0.,1.96534770004604E-16));
#492=CARTESIAN_POINT('Origin',(-0.8172829,0.,1.74838271594513E-16));
#493=CARTESIAN_POINT('Origin',(-0.393700787401575,0.,-0.78740157480315));
#494=CARTESIAN_POINT('',(0.393700787401575,0.,-0.78740157480315));
#495=CARTESIAN_POINT('Origin',(-0.792991843700787,0.,2.82773796288256E-16));
#496=UNCERTAINTY_MEASURE_WITH_UNIT(LENGTH_MEASURE(0.000393700787401575),
#501,'DISTANCE_ACCURACY_VALUE',
'Maximum model space distance between geometric entities at asserted c
onnectivities');
#497=UNCERTAINTY_MEASURE_WITH_UNIT(LENGTH_MEASURE(0.000393700787401575),
#501,'DISTANCE_ACCURACY_VALUE',
'Maximum model space distance between geometric entities at asserted c
onnectivities');
#498=(
GEOMETRIC_REPRESENTATION_CONTEXT(3)
GLOBAL_UNCERTAINTY_ASSIGNED_CONTEXT((#496))
GLOBAL_UNIT_ASSIGNED_CONTEXT((#501,#506,#505))
REPRESENTATION_CONTEXT('','3D')
);
#499=(
GEOMETRIC_REPRESENTATION_CONTEXT(3)
GLOBAL_UNCERTAINTY_ASSIGNED_CONTEXT((#497))
GLOBAL_UNIT_ASSIGNED_CONTEXT((#501,#506,#505))
REPRESENTATION_CONTEXT('','3D')
);
#500=DIMENSIONAL_EXPONENTS(1.,0.,0.,0.,0.,0.,0.);
#501=(
CONVERSION_BASED_UNIT('inch',#504)
LENGTH_UNIT()
NAMED_UNIT(#500)
);
#502=(
LENGTH_UNIT()
NAMED_UNIT(*)
SI_UNIT(.MILLI.,.METRE.)
);
#503=(
LENGTH_UNIT()
NAMED_UNIT(*)
SI_UNIT(.CENTI.,.METRE.)
);
#504=LENGTH_MEASURE_WITH_UNIT(LENGTH_MEASURE(25.4),#502);
#505=(
NAMED_UNIT(*)
SI_UNIT($,.STERADIAN.)
SOLID_ANGLE_UNIT()
);
#506=(
NAMED_UNIT(*)
PLANE_ANGLE_UNIT()
SI_UNIT($,.RADIAN.)
);
#507=SHAPE_DEFINITION_REPRESENTATION(#508,#509);
#508=PRODUCT_DEFINITION_SHAPE('',$,#511);
#509=SHAPE_REPRESENTATION('',(#302),#498);
#510=PRODUCT_DEFINITION_CONTEXT('part definition',#515,'design');
#511=PRODUCT_DEFINITION('Z Axis Bottom Plate','Z Axis Bottom Plate',#512,
#510);
#512=PRODUCT_DEFINITION_FORMATION('',$,#517);
#513=PRODUCT_RELATED_PRODUCT_CATEGORY('Z Axis Bottom Plate',
'Z Axis Bottom Plate',(#517));
#514=APPLICATION_PROTOCOL_DEFINITION('international standard',
'automotive_design',2009,#515);
#515=APPLICATION_CONTEXT(
'Core Data for Automotive Mechanical Design Process');
#516=PRODUCT_CONTEXT('part definition',#515,'mechanical');
#517=PRODUCT('Z Axis Bottom Plate','Z Axis Bottom Plate',$,(#516));
#518=PRESENTATION_STYLE_ASSIGNMENT((#519));
#519=SURFACE_STYLE_USAGE(.BOTH.,#520);
#520=SURFACE_SIDE_STYLE('',(#521));
#521=SURFACE_STYLE_FILL_AREA(#522);
#522=FILL_AREA_STYLE('',(#523));
#523=FILL_AREA_STYLE_COLOUR('',#524);
#524=COLOUR_RGB('',0.184313725490196,0.623529411764706,0.764705882352941);
ENDSEC;
END-ISO-10303-21;
