0
SECTION
2
HEADER
9
$INSUNITS
70
1
9
$ACADVER
1
AC1014
9
$HANDSEED
5
FFFF
0
ENDSEC
0
SECTION
2
TABLES
0
TABLE
2
VPORT
5
8
100
AcDbSymbolTable
0
ENDTAB
0
TABLE
2
LTYPE
5
5
100
AcDbSymbolTable
0
LTYPE
5
14
100
AcDbSymbolTableRecord
100
AcDbLinetypeTableRecord
2
BYBLOCK
70
0
0
LTYPE
5
15
100
AcDbSymbolTableRecord
100
AcDbLinetypeTableRecord
2
BYLAYER
70
0
0
ENDTAB
0
TABLE
2
LAYER
5
2
100
AcDbSymbolTable
70
2
0
LAYER
5
50
100
AcDbSymbolTableRecord
100
AcDbLayerTableRecord
2
0
70
0
6
CONTINUOUS
0
ENDTAB
0
TABLE
2
STYLE
5
3
100
AcDbSymbolTable
70
1
0
STYLE
5
11
100
AcDbSymbolTableRecord
100
AcDbTextStyleTableRecord
2
STANDARD
70
0
0
ENDTAB
0
TABLE
2
VIEW
5
6
100
AcDbSymbolTable
70
0
0
ENDTAB
0
TABLE
2
UCS
5
7
100
AcDbSymbolTable
70
0
0
ENDTAB
0
TABLE
2
APPID
5
9
100
AcDbSymbolTable
70
2
0
APPID
5
12
100
AcDbSymbolTableRecord
100
AcDbRegAppTableRecord
2
ACAD
70
0
0
ENDTAB
0
TABLE
2
DIMSTYLE
5
A
100
AcDbSymbolTable
70
1
0
ENDTAB
0
TABLE
2
BLOCK_RECORD
5
1
100
AcDbSymbolTable
70
1
0
BLOCK_RECORD
5
1F
100
AcDbSymbolTableRecord
100
AcDbBlockTableRecord
2
*MODEL_SPACE
0
BLOCK_RECORD
5
1B
100
AcDbSymbolTableRecord
100
AcDbBlockTableRecord
2
*PAPER_SPACE
0
ENDTAB
0
ENDSEC
0
SECTION
2
BLOCKS
0
BLOCK
5
20
100
AcDbEntity
100
AcDbBlockBegin
2
*MODEL_SPACE
0
ENDBLK
5
21
100
AcDbEntity
100
AcDbBlockEnd
0
BLOCK
5
1C
100
AcDbEntity
100
AcDbBlockBegin
2
*PAPER_SPACE
0
ENDBLK
5
1D
100
AcDbEntity
100
AcDbBlockEnd
0
ENDSEC
0
SECTION
2
ENTITIES
0
SPLINE
5
100
100
AcDbEntity
8
0
100
AcDbSpline
70
0
71
3
72
8
73
4
74
0
42
0.000000001
43
0.0000000001
44
0.0000000001
40
0
40
0
40
0
40
0
40
1
40
1
40
1
40
1
10
4.8216518825955621
20
-11.175306532118061
30
0
10
4.8174777560763875
20
-11.176323784722221
30
0
10
4.8133104112413942
20
-11.177374945746529
30
0
10
4.8090837266709681
20
-11.17821926540806
30
0
0
SPLINE
5
101
100
AcDbEntity
8
0
100
AcDbSpline
70
0
71
3
72
8
73
4
74
0
42
0.000000001
43
0.0000000001
44
0.0000000001
40
1
40
1
40
1
40
1
40
2
40
2
40
2
40
2
10
4.8090837266709681
20
-11.17821926540806
30
0
10
4.8047349717881938
20
-11.179083930121527
30
0
10
4.800294664170969
20
-11.179755316840277
30
0
10
4.7958458794487466
20
-11.180443657769169
30
0
0
LINE
5
102
100
AcDbEntity
8
0
100
AcDbLine
10
4.7958458794487466
20
-11.180443657769169
30
0
11
4.7782406277126341
21
-11.183356391059027
31
0
0
SPLINE
5
103
100
AcDbEntity
8
0
100
AcDbSpline
70
0
71
3
72
8
73
4
74
0
42
0.000000001
43
0.0000000001
44
0.0000000001
40
3
40
3
40
3
40
3
40
4
40
4
40
4
40
4
10
4.7782406277126341
20
-11.183356391059027
30
0
10
4.7740410698784714
20
-11.184102376302079
30
0
10
4.7698398166233389
20
-11.18487209743931
30
0
10
4.765586005316802
20
-11.185434977213619
30
0
0
SPLINE
5
104
100
AcDbEntity
8
0
100
AcDbSpline
70
0
71
3
72
8
73
4
74
0
42
0.000000001
43
0.0000000001
44
0.0000000001
40
4
40
4
40
4
40
4
40
5
40
5
40
5
40
5
10
4.765586005316802
20
-11.185434977213619
30
0
10
4.7608964708116694
20
-11.186052110460139
30
0
10
4.7561001247830612
20
-11.186445448133748
30
0
10
4.7513105604383306
20
-11.186869303385418
30
0
0
LINE
5
105
100
AcDbEntity
8
0
100
AcDbLine
10
4.7513105604383306
20
-11.186869303385418
30
0
11
4.7331220838758297
21
-11.188656277126809
31
0
0
SPLINE
5
106
100
AcDbEntity
8
0
100
AcDbSpline
70
0
71
3
72
8
73
4
74
0
42
0.000000001
43
0.0000000001
44
0.0000000001
40
6
40
6
40
6
40
6
40
7
40
7
40
7
40
7
10
4.7331220838758297
20
-11.188656277126809
30
0
10
4.7289547390408364
20
-11.189114040798609
30
0
10
4.7247823079427844
20
-11.18959554036458
30
0
10
4.7204674614799966
20
-11.189870198567778
30
0
0
SPLINE
5
107
100
AcDbEntity
8
0
100
AcDbSpline
70
0
71
3
72
8
73
4
74
0
42
0.000000001
43
0.0000000001
44
0.0000000001
40
7
40
7
40
7
40
7
40
8
40
8
40
8
40
8
10
4.7204674614799966
20
-11.189870198567778
30
0
10
4.7157508002387516
20
-11.19017876519097
30
0
10
4.7109273274740344
20
-11.190260145399311
30
0
10
4.706098768446255
20
-11.190365261501809
30
0
0
LINE
5
108
100
AcDbEntity
8
0
100
AcDbLine
10
4.706098768446255
20
-11.190365261501809
30
0
11
4.6868642171223565
21
-11.190995958116391
31
0
0
SPLINE
5
109
100
AcDbEntity
8
0
100
AcDbSpline
70
0
71
3
72
8
73
4
74
0
42
0.000000001
43
0.0000000001
44
0.0000000001
40
9
40
9
40
9
40
9
40
10
40
10
40
10
40
10
10
4.6868642171223565
20
-11.190995958116391
30
0
10
4.6826782226562491
20
-11.191175672743059
30
0
10
4.6784973144532005
20
-11.19138929579
30
0
10
4.6730109320747282
20
-11.19138929579
30
0
0
SPLINE
5
110
100
AcDbEntity
8
0
100
AcDbSpline
70
0
71
3
72
11
73
7
74
0
42
0.000000001
43
0.0000000001
44
0.0000000001
40
10
40
10
40
10
40
10
40
11
40
11
40
11
40
12
40
12
40
12
40
12
10
4.6730109320747282
20
-11.19138929579
30
0
10
4.4726850721570806
20
-11.191053602430559
30
0
10
4.2828162701263928
20
-11.176539246902465
30
0
10
4.1086866590712559
20
-11.148240831163188
30
0
10
3.9955849295649388
20
-11.129860271171081
30
0
10
3.8864881727430554
20
-11.105231391059029
30
0
10
3.7844340006511166
20
-11.07505289713542
30
0
0
ELLIPSE
5
111
100
AcDbEntity
8
0
100
AcDbEllipse
10
3.7806678509582117
20
-11.036593158102534
30
0
11
0.27878144284507028
21
-0.084402535461302941
31
0.0
40
0.12278404554315336
41
4.4918515530093446
42
4.7630457943650164
0
ELLIPSE
5
112
100
AcDbEntity
8
0
100
AcDbEllipse
10
3.7398124675907836
20
-10.910611617000415
30
0
11
0.53179986281289782
21
-0.18174132058137724
31
0.0
40
0.25479106297793103
41
4.4696519412620805
42
4.7425618819751509
0
ELLIPSE
5
113
100
AcDbEntity
8
0
100
AcDbEllipse
10
3.5529278124968275
20
-10.954770243425621
30
0
11
0.24480701904223334
21
-0.10557443350907518
31
0.0
40
0.13033813675820452
41
4.5480605856211325
42
4.8261274901502906
0
ELLIPSE
5
114
100
AcDbEntity
8
0
100
AcDbEllipse
10
3.5466642752356976
20
-10.829296236967323
30
0
11
0.48624232513345605
21
-0.227295604330749
31
0.0
40
0.27324138137166482
41
4.472132477337297
42
4.7426639165815718
0
ELLIPSE
5
115
100
AcDbEntity
8
0
100
AcDbEllipse
10
3.4121603431827086
20
-10.761711645299306
30
0
11
0.44674119326125011
21
-0.25762525015786308
31
0.0
40
0.28032364799846565
41
4.5081624738300947
42
4.7807786274155619
0
ELLIPSE
5
116
100
AcDbEntity
8
0
100
AcDbEllipse
10
3.284834648369424
20
-10.685408878721818
30
0
11
0.40730679285257765
21
-0.28662885920514986
31
0.0
40
0.28196403071904091
41
4.5507695368319947
42
4.8263081647738941
0
ELLIPSE
5
117
100
AcDbEntity
8
0
100
AcDbEllipse
10
3.1839363364455728
20
-10.608832914790767
30
0
11
0.37966586265112423
21
-0.31507966586930575
31
0.0
40
0.28371606713268532
41
4.5557006852277526
42
4.8295242330564978
0
ELLIPSE
5
118
100
AcDbEntity
8
0
100
AcDbEllipse
10
3.301297647223115
20
-10.155409521237422
30
0
11
-0.64071215576664309
21
0.74615676845823264
31
0.0
40
0.5560362547933011
41
1.5184155995425945
42
1.7910233256376478
0
ELLIPSE
5
119
100
AcDbEntity
8
0
100
AcDbEllipse
10
2.8710390828189518
20
-10.437491638316025
30
0
11
-0.15825274113211096
21
0.19919629722471083
31
0.0
40
0.13912663824889041
41
1.3702131581662083
42
1.6343409759007546
0
ELLIPSE
5
120
100
AcDbEntity
8
0
100
AcDbEllipse
10
4.0063284112743016
20
-8.602846995268365
30
0
11
0.32212125153177479
21
2.3676732301093182
31
0.0
40
0.68709205013215491
41
2.2605825919075491
42
2.5333272485265197
0
ELLIPSE
5
121
100
AcDbEntity
8
0
100
AcDbEllipse
10
2.5983019133892298
20
-9.7662371608873748
30
0
11
-0.17171829316660986
21
0.51160815573472429
31
0.0
40
0.20045984512494483
41
1.5756143648458345
42
1.8469333025836772
0
ELLIPSE
5
122
100
AcDbEntity
8
0
100
AcDbEllipse
10
2.5510994769535387
20
-9.6383550059524481
30
0
11
-0.14826235745844343
21
0.52640786597743627
31
0.0
40
0.18412789970693397
41
1.5629751542313186
42
1.8368984386485387
0
ELLIPSE
5
123
100
AcDbEntity
8
0
100
AcDbEllipse
10
2.8753121198342795
20
-8.8913909507029913
30
0
11
-0.11235271618143716
21
1.5094602100793679
31
0.0
40
0.36172308341599396
41
1.8064548924226518
42
2.079095810107773
0
ELLIPSE
5
124
100
AcDbEntity
8
0
100
AcDbEllipse
10
2.4330155451764361
20
-9.135751260688961
30
0
11
-0.075853653624182851
21
0.59155426652123133
31
0.0
40
0.13902912238393561
41
1.5313673269151011
42
1.8050904700011212
0
SPLINE
5
125
100
AcDbEntity
8
0
100
AcDbSpline
70
0
71
3
72
11
73
7
74
0
42
0.000000001
43
0.0000000001
44
0.0000000001
40
26
40
26
40
26
40
26
40
27
40
27
40
27
40
28
40
28
40
28
40
28
10
2.3478461371527781
20
-9.1229705810547355
30
0
10
2.2910224066840277
20
-8.6600375705295889
30
0
10
2.2979626762915863
20
-8.1263901574162745
30
0
10
2.3690694173177835
20
-7.4915228949652768
30
0
10
2.5578253385563468
20
-5.8062402725484565
30
0
10
3.740214029947917
20
-4.2022264268663951
30
0
10
4.953108045790005
20
-3.8447536892361107
30
0
0
SPLINE
5
126
100
AcDbEntity
8
0
100
AcDbSpline
70
0
71
3
72
11
73
7
74
0
42
0.000000001
43
0.0000000001
44
0.0000000001
40
28
40
28
40
28
40
28
40
29
40
29
40
29
40
30
40
30
40
30
40
30
10
4.953108045790005
20
-3.8447536892361107
30
0
10
4.9744093153212559
20
-3.86553955078125
30
0
10
4.9976092013866564
20
-3.8861884003081357
30
0
10
5.0230068630643121
20
-3.9066128200955617
30
0
10
5.0684402990546609
20
-3.9431497100198989
30
0
10
5.11471048990889
20
-3.9722035725911078
30
0
10
5.161276923285552
20
-3.9949544270833326
30
0
0
LINE
5
127
100
AcDbEntity
8
0
100
AcDbLine
10
4.8311174180772181
20
-11.173034667968748
30
0
11
4.8216518825955621
21
-11.175306532118061
31
0
0
SPLINE
5
128
100
AcDbEntity
8
0
100
AcDbSpline
70
0
71
3
72
8
73
4
74
0
42
0.000000001
43
0.0000000001
44
0.0000000001
40
0
40
0
40
0
40
0
40
1
40
1
40
1
40
1
10
10.661610921224028
20
-10.14251708984375
30
0
10
10.276872422960141
20
-10.576609293619869
30
0
10
9.7867414686415408
20
-10.82623291015625
30
0
10
9.2729831271701375
20
-10.851982964409721
30
0
0
ELLIPSE
5
129
100
AcDbEntity
8
0
100
AcDbEllipse
10
6.3538558851183913
20
-5.1512339054330782
30
0
11
2.6636971701786059
21
-5.8416271581102244
31
0.0
40
0.5451657057074657
41
0.083195405530240463
42
0.26487779660151506
0
SPLINE
5
130
100
AcDbEntity
8
0
100
AcDbSpline
70
0
71
3
72
17
73
13
74
0
42
0.000000001
43
0.0000000001
44
0.0000000001
40
2
40
2
40
2
40
2
40
3
40
3
40
3
40
4
40
4
40
4
40
5
40
5
40
5
40
6
40
6
40
6
40
6
10
9.7583702935112324
20
-10.408969455295141
30
0
10
10.02876790364583
20
-10.075456407335141
30
0
10
10.219487588296344
20
-9.6451978845826964
30
0
10
10.309906005859448
20
-9.1647067599826375
30
0
10
10.407815100844882
20
-8.6444095414951363
30
0
10
10.392120811132955
20
-8.0713981909038051
30
0
10
10.26326497395833
20
-7.4615919325087559
30
0
10
9.9840973608489136
20
-6.1404398500879749
30
0
10
9.4558161138641434
20
-5.1278511556249029
30
0
10
8.693069458007761
20
-4.4519687228733398
30
0
10
8.2827049298589621
20
-4.0883379242712135
30
0
10
7.8082784016927826
20
-3.8330451117622277
30
0
10
7.3100552029080621
20
-3.7061089409722214
30
0
0
SPLINE
5
131
100
AcDbEntity
8
0
100
AcDbSpline
70
0
71
3
72
20
73
16
74
0
42
0.000000001
43
0.0000000001
44
0.0000000001
40
6
40
6
40
6
40
6
40
7
40
7
40
7
40
8
40
8
40
8
40
9
40
9
40
9
40
10
40
10
40
10
40
11
40
11
40
11
40
11
10
7.3100552029080621
20
-3.7061089409722214
30
0
10
7.3810390896268112
20
-3.6690911187066728
30
0
10
7.4600829282446854
20
-3.638522393626558
30
0
10
7.5483703613282005
20
-3.6138153076172252
30
0
10
7.6654797664185912
20
-3.5810424424085037
30
0
10
7.793880886474069
20
-3.5644287770287635
30
0
10
7.9300028483073666
20
-3.5644226074219496
30
0
10
8.594424777425429
20
-3.5643924930891417
30
0
10
9.3704895082119126
20
-3.9453216531544499
30
0
10
10.005991617838619
20
-4.5834045410157005
30
0
10
10.531610275791429
20
-5.1111577397852388
30
0
10
11.195061799887615
20
-6.0452494746235974
30
0
10
11.370856391059027
20
-7.4982367621527768
30
0
10
11.495613392568112
20
-8.5293853089599185
30
0
10
11.237108018663188
20
-9.4931861029730378
30
0
10
10.661610921224028
20
-10.14251708984375
30
0
0
ELLIPSE
5
132
100
AcDbEntity
8
0
100
AcDbEllipse
10
8.199045685551031
20
-9.06480484541175
30
0
11
-0.18623488526469689
21
1.7823452437354466
31
0.0
40
0.85209588429751393
41
2.8541624857962424
42
3.0527927588456572
0
SPLINE
5
133
100
AcDbEntity
8
0
100
AcDbSpline
70
0
71
3
72
11
73
7
74
0
42
0.000000001
43
0.0000000001
44
0.0000000001
40
4
40
4
40
4
40
4
40
5
40
5
40
5
40
6
40
6
40
6
40
6
10
6.9042392306858389
20
-3.9390597873263888
30
0
10
8.0955301920573657
20
-4.0859510633680554
30
0
10
9.4488645766412684
20
-5.0852725008692286
30
0
10
9.9643419053819429
20
-7.5247599283854161
30
0
10
10.056478197942386
20
-7.9607933187738267
30
0
10
10.087083604600688
20
-8.3785196940104161
30
0
10
10.055324978298607
20
-8.7663404676650067
30
0
0
ELLIPSE
5
134
100
AcDbEntity
8
0
100
AcDbEllipse
10
9.9565932154561771
20
-8.7881745059739984
30
0
11
0.052588713588791039
21
0.57831280395119289
31
0.0
40
0.16615072532689246
41
4.4924113751654309
42
4.7652560848300363
0
ELLIPSE
5
135
100
AcDbEntity
8
0
100
AcDbEllipse
10
9.821168723269901
20
-8.9236928662187047
30
0
11
0.11463252931937984
21
0.83154971149606394
31
0.0
40
0.25698252327747079
41
4.47554904250687
42
4.7487604196095354
0
ELLIPSE
5
136
100
AcDbEntity
8
0
100
AcDbEllipse
10
9.8998287930661277
20
-9.1627621935753716
30
0
11
0.11332762003171587
21
0.52935388465016742
31
0.0
40
0.17903195243939576
41
4.5078652831602621
42
4.779631752995015
0
ELLIPSE
5
137
100
AcDbEntity
8
0
100
AcDbEllipse
10
9.756897490603011
20
-9.2651539482676597
30
0
11
0.19943729382450132
21
0.75432015637465155
31
0.0
40
0.27195509031037074
41
4.4774603263557449
42
4.7511228932646468
0
ELLIPSE
5
138
100
AcDbEntity
8
0
100
AcDbEllipse
10
7.5863551914238823
20
-7.7931471653961406
30
0
11
-1.2397961099205388
21
2.9522398178803884
31
0.0
40
0.72718564511665273
41
3.5597027085301876
42
3.8326351147988902
0
ELLIPSE
5
139
100
AcDbEntity
8
0
100
AcDbEllipse
10
9.4973107860165413
20
-10.095332746907058
30
0
11
0.26210901747205512
21
0.35180037465079539
31
0.0
40
0.21230892626636294
41
4.511971346405713
42
4.7858505541721419
0
SPLINE
5
140
100
AcDbEntity
8
0
100
AcDbSpline
70
0
71
3
72
8
73
4
74
0
42
0.000000001
43
0.0000000001
44
0.0000000001
40
12
40
12
40
12
40
12
40
13
40
13
40
13
40
13
10
9.5183258056640092
20
-10.21990288628472
30
0
10
9.1852230495876235
20
-10.628933376736109
30
0
10
8.7347378200955621
20
-10.854200575086811
30
0
10
8.2498609754775085
20
-10.854200575086811
30
0
0
SPLINE
5
141
100
AcDbEntity
8
0
100
AcDbSpline
70
0
71
3
72
11
73
7
74
0
42
0.000000001
43
0.0000000001
44
0.0000000001
40
0
40
0
40
0
40
0
40
1
40
1
40
1
40
2
40
2
40
2
40
2
10
0.59844631618931188
20
-7.1171349419487324
30
0
10
0.59844631618931188
20
-5.0565066867404136
30
0
10
2.1739959716797252
20
-3.3800625271268112
30
0
10
4.1106024848090286
20
-3.3800625271268112
30
0
10
4.334474351670969
20
-3.3800625271268112
30
0
10
4.555501302083333
20
-3.4023132324219501
30
0
10
4.77215576171875
20
-3.4462585449219496
30
0
0
ELLIPSE
5
142
100
AcDbEntity
8
0
100
AcDbEllipse
10
5.919018681182509
20
-3.5344997416703094
30
0
11
1.1466058380608752
21
-0.091648123297356304
31
0.0
40
0.57804795580121859
41
3.1467311067537098
42
3.3454519344504381
0
SPLINE
5
143
100
AcDbEntity
8
0
100
AcDbSpline
70
0
71
3
72
14
73
10
74
0
42
0.000000001
43
0.0000000001
44
0.0000000001
40
3
40
3
40
3
40
3
40
4
40
4
40
4
40
5
40
5
40
5
40
6
40
6
40
6
40
6
10
4.7854309082031996
20
-3.5789320203993054
30
0
10
4.2530822753906996
20
-3.758280436197917
30
0
10
3.7187940809462559
20
-4.1445685492622273
30
0
10
3.2557762993706985
20
-4.6966484917534714
30
0
10
2.6095208062066733
20
-5.4672122531466636
30
0
10
2.1756571186126208
20
-6.4735142819716609
30
0
10
2.0654432508680549
20
-7.4575127495659723
30
0
10
1.8930006699869517
20
-8.9970942814315915
30
0
10
2.0902099609374996
20
-10.066748725043478
30
0
10
2.6683993869358384
20
-10.726623535156248
30
0
0
SPLINE
5
144
100
AcDbEntity
8
0
100
AcDbSpline
70
0
71
3
72
8
73
4
74
0
42
0.000000001
43
0.0000000001
44
0.0000000001
40
6
40
6
40
6
40
6
40
7
40
7
40
7
40
7
10
2.6683993869358384
20
-10.726623535156248
30
0
10
0.9673292371962563
20
-10.22829182942708
30
0
10
0.59844631618931188
20
-8.5115729437934764
30
0
10
0.59844631618931188
20
-7.1171349419487324
30
0
0
SPLINE
5
145
100
AcDbEntity
8
0
100
AcDbSpline
70
0
71
3
72
20
73
16
74
0
42
0.000000001
43
0.0000000001
44
0.0000000001
40
0
40
0
40
0
40
0
40
1
40
1
40
1
40
2
40
2
40
2
40
3
40
3
40
3
40
4
40
4
40
4
40
5
40
5
40
5
40
5
10
11.753134311350495
20
-7.4931508568825897
30
0
10
11.686847824828552
20
-6.8589318743246945
30
0
10
11.522076436345236
20
-6.2582856716253215
30
0
10
11.263392947323052
20
-5.7078813504961872
30
0
10
11.028388795283147
20
-5.2078598715259563
30
0
10
10.721742447827943
20
-4.7598489282368206
30
0
10
10.351982995762691
20
-4.3762847758013566
30
0
10
9.6718017389119346
20
-3.6707094461397145
30
0
10
8.8216664703089247
20
-3.2422377515587302
30
0
10
8.0778105513980272
20
-3.2301498543831593
30
0
10
7.9138815922499335
20
-3.2274859562385037
30
0
10
7.7574739698565045
20
-3.2453728349701425
30
0
10
7.6129324569716372
20
-3.2832950120706204
30
0
10
7.5130393207826387
20
-3.3095031589626407
30
0
10
7.4216016106038207
20
-3.3423408361034177
30
0
10
7.337733779654152
20
-3.3820159280355404
30
0
0
SPLINE
5
146
100
AcDbEntity
8
0
100
AcDbSpline
70
0
71
3
72
20
73
16
74
0
42
0.000000001
43
0.0000000001
44
0.0000000001
40
32
40
32
40
32
40
32
40
33
40
33
40
33
40
34
40
34
40
34
40
35
40
35
40
35
40
36
40
36
40
36
40
37
40
37
40
37
40
37
10
4.8952523759892417
20
-3.1619718367879335
30
0
10
4.6338348837422974
20
-3.1040071224699339
30
0
10
4.3653255539651639
20
-3.0752256120135892
30
0
10
4.091133623080915
20
-3.0761987506497745
30
0
10
3.0689080054838342
20
-3.0798267467041218
30
0
10
2.1100902180255989
20
-3.5054088357069357
30
0
10
1.3913070494752435
20
-4.2745326708987692
30
0
10
0.67589153354479303
20
-5.0400529966986944
30
0
10
0.28399698215076696
20
-6.0549698694567322
30
0
10
0.28782063367111332
20
-7.1323234493148435
30
0
10
0.2919694910997942
20
-8.3013071758196428
30
0
10
0.54167640530395611
20
-9.2423933804225467
30
0
10
1.0299981342160112
20
-9.9294540524128614
30
0
10
1.5240014915435216
20
-10.624508682496787
30
0
10
2.2469330480031542
20
-11.033382753860668
30
0
10
3.1788601110741195
20
-11.144920389210021
30
0
0
ELLIPSE
5
147
100
AcDbEntity
8
0
100
AcDbEllipse
10
11.940642221827384
20
-1.6560681323884803
30
0
11
9.1753728782572335
21
9.171747458369607
31
0.0
40
0.38854558469156247
41
3.2442709416787463
42
3.5109600380394359
0
SPLINE
5
148
100
AcDbEntity
8
0
100
AcDbSpline
70
0
71
3
72
8
73
4
74
0
42
0.000000001
43
0.0000000001
44
0.0000000001
40
38
40
38
40
38
40
38
40
39
40
39
40
39
40
39
10
4.6706597251276101
20
-11.496309923191914
30
0
10
4.826563859242194
20
-11.496309923191914
30
0
10
4.9719428197456654
20
-11.462340467896773
30
0
10
5.1134019668810815
20
-11.392675618721354
30
0
0
SPLINE
5
149
100
AcDbEntity
8
0
100
AcDbSpline
70
0
71
3
72
14
73
10
74
0
42
0.000000001
43
0.0000000001
44
0.0000000001
40
39
40
39
40
39
40
39
40
40
40
40
40
40
40
41
40
41
40
41
40
42
40
42
40
42
40
42
10
5.1134019560138615
20
-11.392675619562574
30
0
10
5.4802741077066477
20
-11.629403863920212
30
0
10
5.924381163370672
20
-11.749392199423681
30
0
10
6.4343417617865093
20
-11.749392199423681
30
0
10
6.9339925050590034
20
-11.749392199423681
30
0
10
7.3513748430831374
20
-11.566204014684644
30
0
10
7.6748914850937249
20
-11.204917915569514
30
0
10
7.7069008861101533
20
-11.169171526894218
30
0
10
7.7389495769991576
20
-11.130095595691042
30
0
10
7.7705895238306528
20
-11.088252605239655
30
0
0
SPLINE
5
150
100
AcDbEntity
8
0
100
AcDbSpline
70
0
71
3
72
11
73
7
74
0
42
0.000000001
43
0.0000000001
44
0.0000000001
40
42
40
42
40
42
40
42
40
43
40
43
40
43
40
44
40
44
40
44
40
44
10
7.7705895157150913
20
-11.088252614026599
30
0
10
7.9283575461688409
20
-11.129333992313718
30
0
10
8.0893903403942176
20
-11.14703338246443
30
0
10
8.2502234930422738
20
-11.140909233320903
30
0
10
8.4023705169494498
20
-11.135115831582455
30
0
10
8.5542818697366503
20
-11.110077823262987
30
0
10
8.7021214369485804
20
-11.06646384669801
30
0
0
SPLINE
5
151
100
AcDbEntity
8
0
100
AcDbSpline
70
0
71
3
72
14
73
10
74
0
42
0.000000001
43
0.0000000001
44
0.0000000001
40
44
40
44
40
44
40
44
40
45
40
45
40
45
40
46
40
46
40
46
40
47
40
47
40
47
40
47
10
8.7021214309845227
20
-11.066463848034092
30
0
10
8.8584245063621037
20
-11.107944994432566
30
0
10
9.0194129376562895
20
-11.130809311994208
30
0
10
9.1809965812425123
20
-11.13444251238205
30
0
10
9.8152272135031886
20
-11.148703157382799
30
0
10
10.427347363077583
20
-10.873108929388644
30
0
10
10.90458159430527
20
-10.358436505063143
30
0
10
11.553931679349821
20
-9.6581460383752891
30
0
10
11.863221463995206
20
-8.613791321662239
30
0
10
11.753134310161947
20
-7.4931508447836608
30
0
0
LINE
5
152
100
AcDbEntity
8
0
100
AcDbLine
10
7.4924858940972214
20
-10.951300726996529
30
0
11
7.4924858940972214
21
-10.951293945312498
31
0
0
SPLINE
5
153
100
AcDbEntity
8
0
100
AcDbSpline
70
0
71
3
72
17
73
13
74
0
42
0.000000001
43
0.0000000001
44
0.0000000001
40
1
40
1
40
1
40
1
40
2
40
2
40
2
40
3
40
3
40
3
40
4
40
4
40
4
40
5
40
5
40
5
40
5
10
7.4924858940972214
20
-10.951293945312498
30
0
10
7.4687177870008172
20
-10.980238172743061
30
0
10
7.443910821757874
20
-11.008321539968346
30
0
10
7.41876220703125
20
-11.034762912326389
30
0
10
7.3935805543171949
20
-11.061239020980535
30
0
10
7.3673539491536548
20
-11.086802494975565
30
0
10
7.3408101399740335
20
-11.110744900173609
30
0
10
7.3141753748705352
20
-11.134769347235723
30
0
10
7.2865189162653587
20
-11.15779224317855
30
0
10
7.2586195203993036
20
-11.17917887369792
30
0
10
7.2306022341244764
20
-11.200655874583235
30
0
10
7.2015007866754237
20
-11.22111341688375
30
0
10
7.1721259223090268
20
-11.240000406901119
30
0
0
ELLIPSE
5
154
100
AcDbEntity
8
0
100
AcDbEllipse
10
7.0709801006210755
20
-11.162298012464921
30
0
11
0.33349276593942301
21
0.19694103689911016
31
0.0
40
0.30787877095060973
41
4.5628655449006033
42
4.8355549254109667
0
SPLINE
5
155
100
AcDbEntity
8
0
100
AcDbSpline
70
0
71
3
72
14
73
10
74
0
42
0.000000001
43
0.0000000001
44
0.0000000001
40
6
40
6
40
6
40
6
40
7
40
7
40
7
40
8
40
8
40
8
40
9
40
9
40
9
40
9
10
7.0812581380208321
20
-11.293165418836811
30
0
10
6.891645643446255
20
-11.393564860026117
30
0
10
6.6746588812934782
20
-11.444471571180559
30
0
10
6.4363301595052826
20
-11.444471571180559
30
0
10
6.0908542209201366
20
-11.444471571180559
30
0
10
5.7802340239498884
20
-11.383450908050357
30
0
10
5.513105604383755
20
-11.26310560438375
30
0
10
5.4703097202209108
20
-11.24382542564566
30
0
10
5.4280124240451366
20
-11.222744411892357
30
0
10
5.3873833550347214
20
-11.200446234809027
30
0
0
SPLINE
5
156
100
AcDbEntity
8
0
100
AcDbSpline
70
0
71
3
72
11
73
7
74
0
42
0.000000001
43
0.0000000001
44
0.0000000001
40
9
40
9
40
9
40
9
40
10
40
10
40
10
40
11
40
11
40
11
40
11
10
5.3873833550347214
20
-11.200446234809027
30
0
10
5.3672587076823666
20
-11.189405653211811
30
0
10
5.3470462054088896
20
-11.17779829043206
30
0
10
5.3273247612847214
20
-11.165941026475689
30
0
10
5.3149110818953469
20
-11.158477461826831
30
0
10
5.302778455946255
20
-11.150692409939309
30
0
10
5.2906392415365335
20
-11.14292060004348
30
0
0
LINE
5
157
100
AcDbEntity
8
0
100
AcDbLine
10
5.2906392415365335
20
-11.14292060004348
30
0
11
5.2862040201823657
21
-11.140089246961811
31
0
0
SPLINE
5
158
100
AcDbEntity
8
0
100
AcDbSpline
70
0
71
3
72
8
73
4
74
0
42
0.000000001
43
0.0000000001
44
0.0000000001
40
12
40
12
40
12
40
12
40
13
40
13
40
13
40
13
10
5.2862040201823657
20
-11.140089246961811
30
0
10
5.2574259440104161
20
-11.121676974826391
30
0
10
5.234052870008755
20
-11.105990939670139
30
0
10
5.2126413981119413
20
-11.090701633029589
30
0
0
ELLIPSE
5
159
100
AcDbEntity
8
0
100
AcDbEllipse
10
5.2351469067622602
20
-10.932721951123613
30
0
11
0.3917509877501455
21
-0.30750941183251568
31
0.0
40
0.28105786964988472
41
4.5991860704245182
42
4.873401261175947
0
SPLINE
5
160
100
AcDbEntity
8
0
100
AcDbSpline
70
0
71
3
72
11
73
7
74
0
42
0.000000001
43
0.0000000001
44
0.0000000001
40
14
40
14
40
14
40
14
40
15
40
15
40
15
40
16
40
16
40
16
40
16
10
5.1050194634331962
20
-11.007385253906248
30
0
10
5.0877414279513875
20
-10.992899576822918
30
0
10
5.0705058561618968
20
-10.977895014573106
30
0
10
5.0537906222873632
20
-10.962761773003471
30
0
10
5.0205283130997671
20
-10.932647533269938
30
0
10
4.9877573649088909
20
-10.900668674045139
30
0
10
4.9563971625434782
20
-10.86771986219625
30
0
0
ELLIPSE
5
161
100
AcDbEntity
8
0
100
AcDbEllipse
10
4.9896411879283651
20
-10.710441425469108
30
0
11
-0.32735937771142587
21
0.38143022575776642
31
0.0
40
0.25890987139260724
41
1.4925663717215238
42
1.7664107113575402
0
ELLIPSE
5
162
100
AcDbEntity
8
0
100
AcDbEllipse
10
4.903534405208692
20
-10.604920780257995
30
0
11
-0.30564901195109007
21
0.41385552260415009
31
0.0
40
0.24969102623108122
41
1.50820484512181
42
1.778985768178988
0
SPLINE
5
163
100
AcDbEntity
8
0
100
AcDbSpline
70
0
71
3
72
8
73
4
74
0
42
0.000000001
43
0.0000000001
44
0.0000000001
40
18
40
18
40
18
40
18
40
19
40
19
40
19
40
19
10
4.7812822129991686
20
-10.655202229817776
30
0
10
4.7608829074436123
20
-10.626664903428891
30
0
10
4.7398410373263875
20
-10.5953199598525
30
0
10
4.7169562445747273
20
-10.559377034505278
30
0
0
ELLIPSE
5
164
100
AcDbEntity
8
0
100
AcDbEllipse
10
4.83726025824331
20
-10.237195838896742
30
0
11
-0.36379286056043608
21
0.71915503248600421
31
0.0
40
0.3276644566321763
41
1.5924790202895842
42
1.8643299116305498
0
SPLINE
5
165
100
AcDbEntity
8
0
100
AcDbSpline
70
0
71
3
72
11
73
7
74
0
42
0.000000001
43
0.0000000001
44
0.0000000001
40
20
40
20
40
20
40
20
40
21
40
21
40
21
40
22
40
22
40
22
40
22
10
4.6095614963108398
20
-10.371961805555559
30
0
10
4.592366536458333
20
-10.338568793402779
30
0
10
4.5785516851885788
20
-10.310577654822794
30
0
10
4.5660637749566728
20
-10.283867730034721
30
0
10
4.5556941143160223
20
-10.261688450183561
30
0
10
4.5454372829861107
20
-10.23894924587681
30
0
10
4.53558349609375
20
-10.216274685329859
30
0
0
SPLINE
5
166
100
AcDbEntity
8
0
100
AcDbSpline
70
0
71
3
72
8
73
4
74
0
42
0.000000001
43
0.0000000001
44
0.0000000001
40
39
40
39
40
39
40
39
40
40
40
40
40
40
40
40
10
5.5468368074373346
20
-4.0596272892825258
30
0
10
5.7566329329796178
20
-4.0378326147862449
30
0
10
5.9393603950624101
20
-3.9384983028576355
30
0
10
6.0373750377210822
20
-3.8750625242111112
30
0
0
SPLINE
5
167
100
AcDbEntity
8
0
100
AcDbSpline
70
0
71
3
72
11
73
7
74
0
42
0.000000001
43
0.0000000001
44
0.0000000001
40
40
40
40
40
40
40
40
40
41
40
41
40
41
40
42
40
42
40
42
40
42
10
6.0370448113784274
20
-3.8750745744495569
30
0
10
6.0444213895396492
20
-3.874804648007625
30
0
10
6.0518136125430857
20
-3.8745837672995664
30
0
10
6.0592528900293106
20
-3.8745252821107825
30
0
10
6.1171514236282718
20
-3.8740701026025444
30
0
10
6.1752418007567993
20
-3.8811955719260478
30
0
10
6.2333253647037479
20
-3.8952182806024993
30
0
0
SPLINE
5
168
100
AcDbEntity
8
0
100
AcDbSpline
70
0
71
3
72
8
73
4
74
0
42
0.000000001
43
0.0000000001
44
0.0000000001
40
42
40
42
40
42
40
42
40
43
40
43
40
43
40
43
10
6.2327165409012322
20
-3.8948855166280514
30
0
10
6.2881341632402776
20
-3.9251989158955212
30
0
10
6.359469022275273
20
-3.9576996515385692
30
0
10
6.4392829476836333
20
-3.9787193532361891
30
0
0
ELLIPSE
5
169
100
AcDbEntity
8
0
100
AcDbEllipse
10
3.0597866390970334
20
-2.910664951832644
30
0
11
-3.9690771673474949
21
8.4092905809180181
31
0.0
40
0.36457173501484252
41
3.312512461582882
42
3.5858135612599171
0
SPLINE
5
170
100
AcDbEntity
8
0
100
AcDbSpline
70
4
71
5
72
36
73
30
74
0
42
0.000000001
43
0.0000000001
44
0.0000000001
40
0
40
0
40
0
40
0
40
0
40
0
40
0.040000000000000001
40
0.080000000000000002
40
0.12
40
0.16
40
0.20000000000000001
40
0.24000000000000002
40
0.28000000000000003
40
0.32000000000000001
40
0.35999999999999999
40
0.39999999999999997
40
0.43999999999999995
40
0.47999999999999993
40
0.51999999999999991
40
0.55999999999999994
40
0.59999999999999998
40
0.64000000000000001
40
0.68000000000000005
40
0.72000000000000008
40
0.76000000000000012
40
0.80000000000000016
40
0.84000000000000019
40
0.88000000000000023
40
0.92000000000000026
40
0.9600000000000003
40
1
40
1
40
1
40
1
40
1
40
1
41
1
41
1
41
1
41
1
41
1
41
1
41
1
41
1
41
1
41
1
41
1
41
1
41
1
41
1
41
1
41
1
41
1
41
1
41
1
41
1
41
1
41
1
41
1
41
1
41
1
41
1
41
1
41
1
41
1
41
1
10
5.4027725414377485
20
-3.2188164958375771
30
0
10
5.4069615042642258
20
-3.202167860584713
30
0
10
5.4166870773905957
20
-3.1665773236762229
30
0
10
5.4353183496749882
20
-3.10631169551035
30
0
10
5.4682672170784388
20
-3.0121621743520368
30
0
10
5.5233445411141666
20
-2.8718218548468259
30
0
10
5.5932423534318811
20
-2.7102192884950149
30
0
10
5.6796510693126274
20
-2.5304240437728649
30
0
10
5.7852674523120271
20
-2.3378647023682717
30
0
10
5.912769088858945
20
-2.1398675273097889
30
0
10
6.0637173189999478
20
-1.9451815516845075
30
0
10
6.2375177964264816
20
-1.7635207819389667
30
0
10
6.4302143775798584
20
-1.6051280416186322
30
0
10
6.6335698685038906
20
-1.4802925901786828
30
0
10
6.8333385903888697
20
-1.3989770871047469
30
0
10
7.0100182270123046
20
-1.3700435790276773
30
0
10
7.1438022740569007
20
-1.399794583464222
30
0
10
7.2185195688846937
20
-1.4906503732091267
30
0
10
7.2261220221389353
20
-1.6396627148751359
30
0
10
7.1707701600534897
20
-1.8371410734971394
30
0
10
7.0655330713103499
20
-2.0686947377657097
30
0
10
6.9294021459547013
20
-2.317116095859808
30
0
10
6.7843369907616831
20
-2.5642340776522139
30
0
10
6.6522371850106587
20
-2.7928370903601452
30
0
10
6.5522410148517336
20
-2.9883737599917599
30
0
10
6.4971768335560425
20
-3.1412559232451325
30
0
10
6.4936694543963602
20
-3.2260330122272358
30
0
10
6.5146293163704838
20
-3.2679494969274034
30
0
10
6.5390539657916529
20
-3.2862935481142723
30
0
10
6.5538794841650825
20
-3.2930652665700331
30
0
0
SPLINE
5
171
100
AcDbEntity
8
0
100
AcDbSpline
70
4
71
5
72
16
73
10
74
0
42
0.000000001
43
0.0000000001
44
0.0000000001
40
0
40
0
40
0
40
0
40
0
40
0
40
0.20000000000000001
40
0.40000000000000002
40
0.60000000000000009
40
0.80000000000000004
40
1
40
1
40
1
40
1
40
1
40
1
41
1
41
1
41
1
41
1
41
1
41
1
41
1
41
1
41
1
41
1
10
4.8952523759892417
20
-3.1619718367879335
30
0
10
4.9155531826067209
20
-3.1642456231495686
30
0
10
4.9561547958418171
20
-3.1687931958729365
30
0
10
5.0170572156948987
20
-3.1756145549583032
30
0
10
5.0982604421664357
20
-3.1847097004060152
30
0
10
5.1997644752566456
20
-3.1960786322162673
30
0
10
5.2809677017290788
20
-3.2051737776647236
30
0
10
5.3418701215834243
20
-3.2119951367511321
30
0
10
5.3824717348196423
20
-3.2165427094754255
30
0
10
5.4027725414377485
20
-3.2188164958375771
30
0
0
SPLINE
5
172
100
AcDbEntity
8
0
100
AcDbSpline
70
4
71
5
72
16
73
10
74
0
42
0.000000001
43
0.0000000001
44
0.0000000001
40
0
40
0
40
0
40
0
40
0
40
0
40
0.20000000000000001
40
0.40000000000000002
40
0.60000000000000009
40
0.80000000000000004
40
1
40
1
40
1
40
1
40
1
40
1
41
1
41
1
41
1
41
1
41
1
41
1
41
1
41
1
41
1
41
1
10
7.337733779654152
20
-3.3820159280355404
30
0
10
7.3063796078339527
20
-3.3784579015762168
30
0
10
7.2436712641937273
20
-3.3713418486577549
30
0
10
7.1496087487339466
20
-3.360667769280647
30
0
10
7.0241920614552242
20
-3.3464356634455421
30
0
10
6.8674212023579537
20
-3.3286455311528926
30
0
10
6.74200451508064
20
-3.3144134253194308
30
0
10
6.6479419996228151
20
-3.3037393459446251
30
0
10
6.5852336559843154
20
-3.2966232930282104
30
0
10
6.5538794841650825
20
-3.2930652665700331
30
0
0
LWPOLYLINE
5
173
100
AcDbEntity
8
0
100
AcDbPolyline
90
3
70
1
43
0.0
10
4.3421416964286141
20
-6.80000021701722
10
4.7710709311914794
20
-5.8966621232971903
10
5.2000001659543464
20
-6.8000002170172218
0
LWPOLYLINE
5
174
100
AcDbEntity
8
0
100
AcDbPolyline
90
3
70
1
43
0.0
10
7.9000002521229531
20
-6.8000002170172253
10
7.0055730611230365
20
-6.8000002170172253
10
7.4527866566229939
20
-5.9055730260173105
0
SPLINE
5
175
100
AcDbEntity
8
0
100
AcDbSpline
70
4
71
5
72
21
73
15
74
0
42
0.000000001
43
0.0000000001
44
0.0000000001
40
0
40
0
40
0
40
0
40
0
40
0
40
0.10000000000000001
40
0.20000000000000001
40
0.30000000000000004
40
0.40000000000000002
40
0.5
40
0.59999999999999998
40
0.69999999999999996
40
0.79999999999999993
40
0.89999999999999991
40
1
40
1
40
1
40
1
40
1
40
1
41
1
41
1
41
1
41
1
41
1
41
1
41
1
41
1
41
1
41
1
41
1
41
1
41
1
41
1
41
1
10
6.4392829476836333
20
-3.9787193532361882
30
0
10
6.4481045465387714
20
-3.9832989953188114
30
0
10
6.4657414404044991
20
-3.9917041803951703
30
0
10
6.492177859389578
20
-4.0020495892987249
30
0
10
6.5273880354971814
20
-4.011244879677121
30
0
10
6.5713675563554341
20
-4.0147652579841608
30
0
10
6.6154165376660519
20
-4.0102456109142128
30
0
10
6.6597480194265213
20
-3.9982771246651989
30
0
10
6.7047397703537905
20
-3.9808040223079195
30
0
10
6.7509590072763181
20
-3.9615378023404477
30
0
10
6.7990624073998251
20
-3.9448977191779657
30
0
10
6.839576067463339
20
-3.9371889416666459
30
0
10
6.8713419596953775
20
-3.9361129724938411
30
0
10
6.8931657182408506
20
-3.9376943758307501
30
0
10
6.9042392306858389
20
-3.9390597873263888
30
0
0
SPLINE
5
176
100
AcDbEntity
8
0
100
AcDbSpline
70
4
71
5
72
21
73
15
74
0
42
0.000000001
43
0.0000000001
44
0.0000000001
40
0
40
0
40
0
40
0
40
0
40
0
40
0.10000000000000001
40
0.20000000000000001
40
0.30000000000000004
40
0.40000000000000002
40
0.5
40
0.59999999999999998
40
0.69999999999999996
40
0.79999999999999993
40
0.89999999999999991
40
1
40
1
40
1
40
1
40
1
40
1
41
1
41
1
41
1
41
1
41
1
41
1
41
1
41
1
41
1
41
1
41
1
41
1
41
1
41
1
41
1
10
5.546914813530571
20
-4.0596191819152843
30
0
10
5.5390050553986097
20
-4.0607625479842682
30
0
10
5.5232028181560109
20
-4.0628355590575573
30
0
10
5.4995512981528698
20
-4.0653039273560703
30
0
10
5.4681213258615102
20
-4.0672915636778955
30
0
10
5.4290213619501788
20
-4.0674569377756615
30
0
10
5.3901253997186886
20
-4.0650990522543129
30
0
10
5.3514496874540702
20
-4.0600169349990098
30
0
10
5.3130023596451919
20
-4.0521099719866776
30
0
10
5.2747735122603627
20
-4.0415006643708073
30
0
10
5.2367462977989225
20
-4.0283973958088755
30
0
10
5.2064724168000716
20
-4.0160855493917369
30
0
10
5.1838448803648873
20
-4.005888451348075
30
0
10
5.1687939012380602
20
-3.9986692875501659
30
0
10
5.161276923285552
20
-3.9949544270833326
30
0
0
LINE
5
177
100
AcDbEntity
8
0
100
AcDbLine
10
6.7655278032871138
20
-9.614312904726626
30
0
11
6.9999998948705473
21
-8.9999998648335602
31
0
0
LINE
5
178
100
AcDbEntity
8
0
100
AcDbLine
10
6.9999998948705473
20
-8.9999998648335602
30
0
11
7.2124700369403847
21
-9.44746848565606
31
0
0
LINE
5
179
100
AcDbEntity
8
0
100
AcDbLine
10
6.7747764826545405
20
-8.221886199653385
30
0
11
7.0000002234000851
21
-8.6000002744629622
31
0
0
LINE
5
180
100
AcDbEntity
8
0
100
AcDbLine
10
7.0000002234000851
20
-8.6000002744629622
30
0
11
7.1893960558022778
21
-8.2218952037856976
31
0
0
LINE
5
181
100
AcDbEntity
8
0
100
AcDbLine
10
5.0000002234000851
20
-8.6000002744629622
30
0
11
5.1893960558022769
21
-8.2218952037856976
31
0
0
LINE
5
182
100
AcDbEntity
8
0
100
AcDbLine
10
4.7747764826545405
20
-8.221886199653385
30
0
11
5.0000002234000851
21
-8.6000002744629622
31
0
0
LINE
5
183
100
AcDbEntity
8
0
100
AcDbLine
10
5.0000001595714894
20
-9.0000002872286817
30
0
11
5.1972113003983935
21
-9.5499780865796566
31
0
0
LINE
5
184
100
AcDbEntity
8
0
100
AcDbLine
10
5.0000001595714894
20
-9.0000002872286817
30
0
11
4.7499514191179824
21
-9.3379194300260018
31
0
0
LINE
5
185
100
AcDbEntity
8
0
100
AcDbLine
10
5.6747764826545399
20
-8.221886199653385
30
0
11
5.8000002202086547
21
-8.6000002744629622
31
0
0
LINE
5
186
100
AcDbEntity
8
0
100
AcDbLine
10
5.8000002202086547
20
-8.6000002744629622
30
0
11
6.0893960558022764
21
-8.2218952037856976
31
0
0
LINE
5
187
100
AcDbEntity
8
0
100
AcDbLine
10
7.385228731820848
20
-8.2218994566078969
30
0
11
7.6050591024731533
21
-8.4926971064048438
31
0
0
LINE
5
188
100
AcDbEntity
8
0
100
AcDbLine
10
7.6050591024731533
20
-8.4926971064048438
30
0
11
7.7895839279267367
21
-8.2218711766900192
31
0
0
LINE
5
189
100
AcDbEntity
8
0
100
AcDbLine
10
4.1747764826545399
20
-8.221886199653385
30
0
11
4.3537009736688104
21
-8.5424037320903494
31
0
0
LINE
5
190
100
AcDbEntity
8
0
100
AcDbLine
10
4.3537009736688104
20
-8.5424037320903494
30
0
11
4.5893960558022764
21
-8.2218952037856976
31
0
0
LINE
5
191
100
AcDbEntity
8
0
100
AcDbLine
10
6.1747764826545408
20
-8.221886199653385
30
0
11
6.4000002234000766
21
-8.5000002712715386
31
0
0
LINE
5
192
100
AcDbEntity
8
0
100
AcDbLine
10
6.4000002234000766
20
-8.5000002712715386
30
0
11
6.5893960558022773
21
-8.2218952037856976
31
0
0
LINE
5
193
100
AcDbEntity
8
0
100
AcDbLine
10
5.2247764826545406
20
-8.221886199653385
30
0
11
5.416360982507352
21
-8.4802244500338908
31
0
0
LINE
5
194
100
AcDbEntity
8
0
100
AcDbLine
10
5.416360982507352
20
-8.4802244500338908
30
0
11
5.6393960558022771
21
-8.2218952037856976
31
0
0
LINE
5
195
100
AcDbEntity
8
0
100
AcDbLine
10
5.3922838856509117
20
-9.6120569956898798
30
0
11
5.6417026677198603
21
-9.2749891869041683
31
0
0
LINE
5
196
100
AcDbEntity
8
0
100
AcDbLine
10
5.6417026677198603
20
-9.2749891869041683
30
0
11
5.7901208970172329
21
-9.6888944601573783
31
0
0
LINE
5
197
100
AcDbEntity
8
0
100
AcDbLine
10
6.1521598189839519
20
-9.6888944601573783
30
0
11
6.3739575540351208
21
-9.2749891869041683
31
0
0
LINE
5
198
100
AcDbEntity
8
0
100
AcDbLine
10
6.3739575540351208
20
-9.2749891869041683
30
0
11
6.5967919747498156
21
-9.6542003417751268
31
0
0
LINE
5
199
100
AcDbEntity
8
0
100
AcDbLine
10
8.5331205081512973
20
-11.107886627006309
30
0
11
8.533120508151292
21
-12.497443860281784
31
0
0
LINE
5
200
100
AcDbEntity
8
0
100
AcDbLine
10
8.533120508151292
20
-12.497443860281784
30
0
11
9.7731205081512922
21
-12.497443860281784
31
0
0
LINE
5
201
100
AcDbEntity
8
0
100
AcDbLine
10
9.7731205081512922
20
-12.497443860281784
30
0
11
9.7731205081512957
21
-11.062448320232443
31
0
0
LINE
5
202
100
AcDbEntity
8
0
100
AcDbLine
10
2.2319545932744549
20
-12.499706496378085
30
0
11
3.4719545932744529
21
-12.499706496378085
31
0
0
LINE
5
203
100
AcDbEntity
8
0
100
AcDbLine
10
3.4719545932744529
20
-12.499706496378085
30
0
11
3.4719545932744742
21
-11.287505332532922
31
0
0
LINE
5
204
100
AcDbEntity
8
0
100
AcDbLine
10
2.2319545932744549
20
-12.499706496378085
30
0
11
2.2319545932744553
21
-10.899856283551241
31
0
0
SPLINE
5
205
100
AcDbEntity
8
0
100
AcDbSpline
70
4
71
5
72
21
73
15
74
0
42
0.000000001
43
0.0000000001
44
0.0000000001
40
0
40
0
40
0
40
0
40
0
40
0
40
0.10000000000000001
40
0.20000000000000001
40
0.30000000000000004
40
0.40000000000000002
40
0.5
40
0.59999999999999998
40
0.69999999999999996
40
0.79999999999999993
40
0.89999999999999991
40
1
40
1
40
1
40
1
40
1
40
1
41
1
41
1
41
1
41
1
41
1
41
1
41
1
41
1
41
1
41
1
41
1
41
1
41
1
41
1
41
1
10
5.7000001819114985
20
-3.3000001053171832
30
0
10
5.7056493775141597
20
-3.2791897992204433
30
0
10
5.717723689366693
20
-3.2370869830514546
30
0
10
5.7381630081461905
20
-3.1724860915247599
30
0
10
5.770146961270445
20
-3.0834111120325249
30
0
10
5.8184997959398563
20
-2.9668639658563252
30
0
10
5.8758050212480368
20
-2.8447532631831356
30
0
10
5.9425037281541186
20
-2.7168048834368475
30
0
10
6.0183693888540848
20
-2.5831596046823684
30
0
10
6.1026584383777962
20
-2.444279523122205
30
0
10
6.1945411176020846
20
-2.3006803012140105
30
0
10
6.2735407616022592
20
-2.1823869304515964
30
0
10
6.3356693234481734
20
-2.0918778241788556
30
0
10
6.3783468221046293
20
-2.030756338509029
30
0
10
6.4000002042515067
20
-2.0000000638285957
30
0
0
SPLINE
5
206
100
AcDbEntity
8
0
100
AcDbSpline
70
4
71
5
72
21
73
15
74
0
42
0.000000001
43
0.0000000001
44
0.0000000001
40
0
40
0
40
0
40
0
40
0
40
0
40
0.10000000000000001
40
0.20000000000000001
40
0.30000000000000004
40
0.40000000000000002
40
0.5
40
0.59999999999999998
40
0.69999999999999996
40
0.79999999999999993
40
0.89999999999999991
40
1
40
1
40
1
40
1
40
1
40
1
41
1
41
1
41
1
41
1
41
1
41
1
41
1
41
1
41
1
41
1
41
1
41
1
41
1
41
1
41
1
10
6.1000001946772171
20
-3.3000001053171832
30
0
10
6.1098439606332535
20
-3.2709155630846865
30
0
10
6.1300820788789565
20
-3.2126646040488249
30
0
10
6.1620910342486361
20
-3.1250425389570191
30
0
10
6.2081273818055021
20
-3.007713808304417
30
0
10
6.2716372271077434
20
-2.8601659612785575
30
0
10
6.3415987330081238
20
-2.7116587243965267
30
0
10
6.4184673574173106
20
-2.5621243690951778
30
0
10
6.5023593765037511
20
-2.4115456046045631
30
0
10
6.5928632332189201
20
-2.2599836312388222
30
0
10
6.6894207911984038
20
-2.1075214462908338
30
0
10
6.7710840773009107
20
-1.9848948356652896
30
0
10
6.83465386178315
20
-1.8925795386734034
30
0
10
6.8780488944843556
20
-1.8308850462233293
30
0
10
6.9000002202086552
20
-1.8000000574457362
30
0
0
LINE
5
207
100
AcDbEntity
8
0
100
AcDbLine
10
4.1747764826545399
20
-8.221886199653385
30
0
11
3.733982417182891
21
-8.2218201639091486
31
0
0
LINE
5
208
100
AcDbEntity
8
0
100
AcDbLine
10
4.5893960558022764
20
-8.2218952037856976
30
0
11
4.7747764826545405
21
-8.221886199653385
31
0
0
LINE
5
209
100
AcDbEntity
8
0
100
AcDbLine
10
5.1893960558022769
20
-8.2218952037856976
30
0
11
5.2247764826545406
21
-8.221886199653385
31
0
0
LINE
5
210
100
AcDbEntity
8
0
100
AcDbLine
10
5.6393960558022771
20
-8.2218952037856976
30
0
11
5.6747764826545399
21
-8.221886199653385
31
0
0
LINE
5
211
100
AcDbEntity
8
0
100
AcDbLine
10
6.0893960558022764
20
-8.2218952037856976
30
0
11
6.1747764826545408
21
-8.221886199653385
31
0
0
LINE
5
212
100
AcDbEntity
8
0
100
AcDbLine
10
6.7747764826545405
20
-8.221886199653385
30
0
11
6.5893960558022773
21
-8.2218952037856976
31
0
0
LINE
5
213
100
AcDbEntity
8
0
100
AcDbLine
10
7.1893960558022778
20
-8.2218952037856976
30
0
11
7.385228731820848
21
-8.2218994566078969
31
0
0
LINE
5
214
100
AcDbEntity
8
0
100
AcDbLine
10
7.7895839279267367
20
-8.2218711766900192
30
0
11
8.4320247613175141
21
-8.2219221894708863
31
0
0
SPLINE
5
215
100
AcDbEntity
8
0
100
AcDbSpline
70
4
71
5
72
21
73
15
74
0
42
0.000000001
43
0.0000000001
44
0.0000000001
40
0
40
0
40
0
40
0
40
0
40
0
40
0.10000000000000001
40
0.20000000000000001
40
0.30000000000000004
40
0.40000000000000002
40
0.5
40
0.59999999999999998
40
0.69999999999999996
40
0.79999999999999993
40
0.89999999999999991
40
1
40
1
40
1
40
1
40
1
40
1
41
1
41
1
41
1
41
1
41
1
41
1
41
1
41
1
41
1
41
1
41
1
41
1
41
1
41
1
41
1
10
8.4320247613175141
20
-8.2219221894708863
30
0
10
8.4270411233230043
20
-8.2578418809543841
30
0
10
8.4153276689674392
20
-8.3286547646676272
30
0
10
8.3925188420901957
20
-8.4317945276686252
30
0
10
8.3514583680450301
20
-8.5630543198870903
30
0
10
8.2812271719587542
20
-8.7160153112514607
30
0
10
8.1905833752119328
20
-8.8569766582793985
30
0
10
8.0781463996051706
20
-8.9851267815127915
30
0
10
7.9436897932865849
20
-9.1003325601533422
30
0
10
7.7885948633083846
20
-9.2034060021173953
30
0
10
7.6146498945747165
20
-9.2953983591862634
30
0
10
7.4617598769908096
20
-9.3609186226084944
30
0
10
7.3398754020864061
20
-9.4058162949200099
30
0
10
7.2554643198483113
20
-9.4338935324842819
30
0
10
7.2124700369403847
20
-9.44746848565606
30
0
0
SPLINE
5
216
100
AcDbEntity
8
0
100
AcDbSpline
70
4
71
5
72
21
73
15
74
0
42
0.000000001
43
0.0000000001
44
0.0000000001
40
0
40
0
40
0
40
0
40
0
40
0
40
0.10000000000000001
40
0.20000000000000001
40
0.30000000000000004
40
0.40000000000000002
40
0.5
40
0.59999999999999998
40
0.69999999999999996
40
0.79999999999999993
40
0.89999999999999991
40
1
40
1
40
1
40
1
40
1
40
1
41
1
41
1
41
1
41
1
41
1
41
1
41
1
41
1
41
1
41
1
41
1
41
1
41
1
41
1
41
1
10
3.733982417182891
20
-8.2218201639091486
30
0
10
3.7497369427705851
20
-8.2515934421973736
30
0
10
3.7816378152829913
20
-8.3105004218493708
30
0
10
3.8306645240171919
20
-8.3969422650966141
30
0
10
3.8984234979174288
20
-8.5082967694540876
30
0
10
3.9873818876776181
20
-8.6405367610428296
30
0
10
4.0810028107809666
20
-8.7651660166768774
30
0
10
4.179702861506124
20
-8.8815045221169484
30
0
10
4.2837713609832671
20
-8.9890800133434361
30
0
10
4.3930844260051014
20
-9.0880947071129583
30
0
10
4.5072822658407645
20
-9.179135896221311
30
0
10
4.6022462081045044
20
-9.2460832476989001
30
0
10
4.6753711308105279
20
-9.2931891484193532
30
0
10
4.7249527168040686
20
-9.3232355855372262
30
0
10
4.7499514191179824
20
-9.3379194300260018
30
0
0
SPLINE
5
217
100
AcDbEntity
8
0
100
AcDbSpline
70
4
71
5
72
21
73
15
74
0
42
0.000000001
43
0.0000000001
44
0.0000000001
40
0
40
0
40
0
40
0
40
0
40
0
40
0.10000000000000001
40
0.20000000000000001
40
0.30000000000000004
40
0.40000000000000002
40
0.5
40
0.59999999999999998
40
0.69999999999999996
40
0.79999999999999993
40
0.89999999999999991
40
1
40
1
40
1
40
1
40
1
40
1
41
1
41
1
41
1
41
1
41
1
41
1
41
1
41
1
41
1
41
1
41
1
41
1
41
1
41
1
41
1
10
5.1972113003983935
20
-9.5499780865796566
30
0
10
5.2012420450086285
20
-9.5525593728654172
30
0
10
5.2092924311471371
20
-9.5576068974446553
30
0
10
5.2213347029070487
20
-9.5648330589674302
30
0
10
5.2373233388667417
20
-9.573766173250414
30
0
10
5.2571884319818922
20
-9.5836818770033272
30
0
10
5.2769214245887195
20
-9.5922287808092168
30
0
10
5.2965105420337615
20
-9.599284877993945
30
0
10
5.3159476479853263
20
-9.6047658614696729
30
0
10
5.3352363239593741
20
-9.6087088422186149
30
0
10
5.35438678195991
20
-9.6112196350568908
30
0
10
5.3696051384219903
20
-9.6121712620780695
30
0
10
5.3809650983970716
20
-9.6123274407700059
30
0
10
5.38851487777975
20
-9.612187774905097
30
0
10
5.3922838856509117
20
-9.6120569956898798
30
0
0
SPLINE
5
218
100
AcDbEntity
8
0
100
AcDbSpline
70
4
71
5
72
21
73
15
74
0
42
0.000000001
43
0.0000000001
44
0.0000000001
40
0
40
0
40
0
40
0
40
0
40
0
40
0.10000000000000001
40
0.20000000000000001
40
0.30000000000000004
40
0.40000000000000002
40
0.5
40
0.59999999999999998
40
0.69999999999999996
40
0.79999999999999993
40
0.89999999999999991
40
1
40
1
40
1
40
1
40
1
40
1
41
1
41
1
41
1
41
1
41
1
41
1
41
1
41
1
41
1
41
1
41
1
41
1
41
1
41
1
41
1
10
5.7901208970172329
20
-9.6888944601573783
30
0
10
5.7965315972911569
20
-9.6888944601558844
30
0
10
5.8094268717377844
20
-9.6888944601533247
30
0
10
5.8289914057647687
20
-9.6888944601508147
30
0
10
5.8555279822303063
20
-9.6888944601498448
30
0
10
5.8894993207247337
20
-9.6888944601515039
30
0
10
5.9243379754516452
20
-9.6888944601546712
30
0
10
5.9601072168404254
20
-9.6888944601581759
30
0
10
5.9968275629043601
20
-9.6888944601610447
30
0
10
6.0344466853295788
20
-9.6888944601627305
30
0
10
6.0728903628469473
20
-9.6888944601628832
30
0
10
6.1042477184606696
20
-9.6888944601616203
30
0
10
6.1280825753216401
20
-9.6888944601598297
30
0
10
6.1441109855315119
20
-9.6888944601582576
30
0
10
6.1521598189839519
20
-9.6888944601573783
30
0
0
SPLINE
5
219
100
AcDbEntity
8
0
100
AcDbSpline
70
4
71
5
72
21
73
15
74
0
42
0.000000001
43
0.0000000001
44
0.0000000001
40
0
40
0
40
0
40
0
40
0
40
0
40
0.10000000000000001
40
0.20000000000000001
40
0.30000000000000004
40
0.40000000000000002
40
0.5
40
0.59999999999999998
40
0.69999999999999996
40
0.79999999999999993
40
0.89999999999999991
40
1
40
1
40
1
40
1
40
1
40
1
41
1
41
1
41
1
41
1
41
1
41
1
41
1
41
1
41
1
41
1
41
1
41
1
41
1
41
1
41
1
10
6.5967919747498156
20
-9.6542003417751268
30
0
10
6.5996109029975294
20
-9.6537735902557369
30
0
10
6.6052983740255016
20
-9.6528869687569205
30
0
10
6.6139784254048815
20
-9.6514576803010446
30
0
10
6.6258544036668674
20
-9.6493499879649764
30
0
10
6.6412369332615047
20
-9.6463565451697377
30
0
10
6.6572012640780649
20
-9.6429747411448563
30
0
10
6.6737889920232636
20
-9.639176809982315
30
0
10
6.6910118491188912
20
-9.6349549203753178
30
0
10
6.7088334668174889
20
-9.6303333488849194
30
0
10
6.7272037170801156
20
-9.6253455567439836
30
0
10
6.7423004300729872
20
-9.6210879746050715
30
0
10
6.7538335625838561
20
-9.6177542107609657
30
0
10
6.7616143786429408
20
-9.6154702493670019
30
0
10
6.7655278032871138
20
-9.614312904726626
30
0
0
LWPOLYLINE
5
220
100
AcDbEntity
8
0
100
AcDbPolyline
90
4
70
1
43
0.0
10
12.015965841619938
20
-0.96122895542385223
10
0.015965841619938418
20
-0.96122895542385223
10
0.015965841619938418
20
-12.961228955423852
10
12.015965841619938
20
-12.961228955423852
0
ENDSEC
0
SECTION
2
OBJECTS
0
DICTIONARY
5
C
100
AcDbDictionary
3
ACAD_GROUP
350
D
3
ACAD_MLINESTYLE
350
17
0
DICTIONARY
5
D
100
AcDbDictionary
0
DICTIONARY
5
1A
330
C
100
AcDbDictionary
0
DICTIONARY
5
17
100
AcDbDictionary
0
ENDSEC
0
EOF
