0
SECTION
2
HEADER
9
$INSUNITS
70
4
9
$ACADVER
1
AC1014
9
$HANDSEED
5
FFFF
0
ENDSEC
0
SECTION
2
TABLES
0
TABLE
2
VPORT
5
8
100
AcDbSymbolTable
0
ENDTAB
0
TABLE
2
LTYPE
5
5
100
AcDbSymbolTable
0
LTYPE
5
14
100
AcDbSymbolTableRecord
100
AcDbLinetypeTableRecord
2
BYBLOCK
70
0
0
LTYPE
5
15
100
AcDbSymbolTableRecord
100
AcDbLinetypeTableRecord
2
BYLAYER
70
0
0
ENDTAB
0
TABLE
2
LAYER
5
2
100
AcDbSymbolTable
70
2
0
LAYER
5
50
100
AcDbSymbolTableRecord
100
AcDbLayerTableRecord
2
0
70
0
6
CONTINUOUS
0
ENDTAB
0
TABLE
2
STYLE
5
3
100
AcDbSymbolTable
70
1
0
STYLE
5
11
100
AcDbSymbolTableRecord
100
AcDbTextStyleTableRecord
2
STANDARD
70
0
0
ENDTAB
0
TABLE
2
VIEW
5
6
100
AcDbSymbolTable
70
0
0
ENDTAB
0
TABLE
2
UCS
5
7
100
AcDbSymbolTable
70
0
0
ENDTAB
0
TABLE
2
APPID
5
9
100
AcDbSymbolTable
70
2
0
APPID
5
12
100
AcDbSymbolTableRecord
100
AcDbRegAppTableRecord
2
ACAD
70
0
0
ENDTAB
0
TABLE
2
DIMSTYLE
5
A
100
AcDbSymbolTable
70
1
0
ENDTAB
0
TABLE
2
BLOCK_RECORD
5
1
100
AcDbSymbolTable
70
1
0
BLOCK_RECORD
5
1F
100
AcDbSymbolTableRecord
100
AcDbBlockTableRecord
2
*MODEL_SPACE
0
BLOCK_RECORD
5
1B
100
AcDbSymbolTableRecord
100
AcDbBlockTableRecord
2
*PAPER_SPACE
0
ENDTAB
0
ENDSEC
0
SECTION
2
BLOCKS
0
BLOCK
5
20
100
AcDbEntity
100
AcDbBlockBegin
2
*MODEL_SPACE
0
ENDBLK
5
21
100
AcDbEntity
100
AcDbBlockEnd
0
BLOCK
5
1C
100
AcDbEntity
100
AcDbBlockBegin
2
*PAPER_SPACE
0
ENDBLK
5
1D
100
AcDbEntity
100
AcDbBlockEnd
0
ENDSEC
0
SECTION
2
ENTITIES
0
CIRCLE
5
100
100
AcDbEntity
8
0
100
AcDbCircle
10
0
20
0
30
0
40
30.000000000000004
0
CIRCLE
5
101
100
AcDbEntity
8
0
100
AcDbCircle
10
0
20
0
30
0
40
40
0
LWPOLYLINE
5
102
100
AcDbEntity
8
0
100
AcDbPolyline
90
12
70
1
43
0.0
10
-23.278601441162948
20
-23.206799948615018
10
-26.85169463324408
20
-27.681900599745401
10
-26.259491718439889
20
-28.15473827830867
10
-24.575312156084617
20
-26.045396973463852
10
-22.249236720660825
20
-27.902625436131061
10
-23.933416283016093
20
-30.011966740975872
10
-23.341213542882642
20
-30.484804280075281
10
-19.76812035080151
20
-26.009703628944898
10
-20.360323090934966
20
-25.536866089845493
10
-21.827582419476347
20
-27.374526857016317
10
-24.153657854900136
20
-25.517298394349108
10
-22.686398526358754
20
-23.679637627178284
0
LWPOLYLINE
5
103
100
AcDbEntity
8
0
100
AcDbPolyline
90
8
70
1
43
0.0
10
-17.143613629213188
20
-27.430847535597607
10
-21.94967869686737
20
-31.242910294120616
10
-21.256840523977964
20
-31.652174648221497
10
-19.833246627343108
20
-30.478734667377694
10
-17.771548838869521
20
-31.696593969546303
10
-18.078529859006089
20
-33.529624985588093
10
-17.335242397637977
20
-33.968690087211272
10
-16.440685568156933
20
-27.846072057202448
0
LINE
5
104
100
AcDbEntity
8
0
100
AcDbLine
10
-19.331000805541031
20
-30.058591248452757
30
0
11
-17.659444827610997
21
-31.045991054670139
31
0
0
LINE
5
105
100
AcDbEntity
8
0
100
AcDbLine
10
-17.659444827610997
20
-31.045991054670139
30
0
11
-17.367419873090434
21
-29.376526255549457
31
0
0
SPLINE
5
106
100
AcDbEntity
8
0
100
AcDbSpline
70
1064
71
3
72
9
73
5
74
3
42
0.000000001
43
0.0000000001
44
0.0000000001
40
0
40
0
40
0
40
0
40
0.070000657210634087
40
0.12553159756076068
40
0.12553159756076068
40
0.12553159756076068
40
0.12553159756076068
10
-17.367419873090434
20
-29.376526255549457
30
0
10
-17.326769494565561
20
-29.146691213522196
30
0
10
-17.253871508160628
20
-28.734529940317124
30
0
10
-17.156370612437502
20
-28.327516019663442
30
0
10
-17.113239508160234
20
-28.147466803460723
30
0
11
-17.367419873090434
21
-29.376526255549457
31
0
11
-17.237818329652978
21
-28.68862172661343
31
0
11
-17.113239508160234
21
-28.147466803460723
31
0
0
SPLINE
5
107
100
AcDbEntity
8
0
100
AcDbSpline
70
1064
71
3
72
9
73
5
74
3
42
0.000000001
43
0.0000000001
44
0.0000000001
40
0
40
0
40
0
40
0
40
0.056444027933105455
40
0.11373128765174306
40
0.11373128765174306
40
0.11373128765174306
40
0.11373128765174306
10
-17.113239508160234
20
-28.147466803460723
30
0
10
-17.241609038289589
20
-28.285260115510674
30
0
10
-17.500265843827336
20
-28.562905269180646
30
0
10
-17.789521048710885
20
-28.80851970348435
30
0
10
-17.935220955827674
20
-28.932237443599
30
0
11
-17.113239508160234
21
-28.147466803460723
31
0
11
-17.505884686855779
21
-28.552957361400686
31
0
11
-17.935220955827674
21
-28.932237443599
31
0
0
LINE
5
108
100
AcDbEntity
8
0
100
AcDbLine
10
-17.935220955827674
20
-28.932237443598993
30
0
11
-19.331000805541031
21
-30.058591248452757
31
0
0
LINE
5
109
100
AcDbEntity
8
0
100
AcDbLine
10
-15.68157683854259
20
-32.492424864062876
30
0
11
-15.001519839352547
21
-32.721401458315086
31
0
0
SPLINE
5
110
100
AcDbEntity
8
0
100
AcDbSpline
70
1064
71
3
72
9
73
5
74
3
42
0.000000001
43
0.0000000001
44
0.0000000001
40
0
40
0
40
0
40
0
40
0.040013138480440635
40
0.074889174807194911
40
0.074889174807194911
40
0.074889174807194911
40
0.074889174807194911
10
-15.001519839352548
20
-32.721401458315086
30
0
10
-15.036348626907333
20
-32.851460344450885
30
0
10
-15.101534694748228
20
-33.094880456667632
30
0
10
-15.078178987644279
20
-33.345433177458773
30
0
10
-15.067302188807979
20
-33.462116073412382
30
0
11
-15.001519839352548
21
-32.721401458315086
31
0
11
-15.080729793390333
21
-33.113614293758836
31
0
11
-15.067302188807979
21
-33.462116073412382
31
0
0
SPLINE
5
111
100
AcDbEntity
8
0
100
AcDbSpline
70
1064
71
3
72
9
73
5
74
3
42
0.000000001
43
0.0000000001
44
0.0000000001
40
0
40
0
40
0
40
0
40
0.034364906910026895
40
0.073568449066380603
40
0.073568449066380603
40
0.073568449066380603
40
0.073568449066380603
10
-15.067302188807979
20
-33.462116073412382
30
0
10
-15.034933745000288
20
-33.57338732480445
30
0
10
-14.965639327417293
20
-33.811597002253095
30
0
10
-14.803865335803184
20
-34.000318845765385
30
0
10
-14.717658360115509
20
-34.100885934535782
30
0
11
-15.067302188807979
21
-33.462116073412382
31
0
11
-14.950018167629366
21
-33.785131771281158
31
0
11
-14.717658360115509
21
-34.100885934535782
31
0
0
SPLINE
5
112
100
AcDbEntity
8
0
100
AcDbSpline
70
1064
71
3
72
9
73
5
74
3
42
0.000000001
43
0.0000000001
44
0.0000000001
40
0
40
0
40
0
40
0
40
0.043416437560383929
40
0.089997269267096378
40
0.089997269267096378
40
0.089997269267096378
40
0.089997269267096378
10
-14.717658360115509
20
-34.100885934535782
30
0
10
-14.612002582611805
20
-34.201124864066756
30
0
10
-14.392990337666543
20
-34.408908607712178
30
0
10
-14.121074265979981
20
-34.540449591352541
30
0
10
-13.980335809394242
20
-34.608532639553729
30
0
11
-14.717658360115509
21
-34.100885934535782
31
0
11
-14.388378795494628
21
-34.383858854382453
31
0
11
-13.980335809394242
21
-34.608532639553729
31
0
0
SPLINE
5
113
100
AcDbEntity
8
0
100
AcDbSpline
70
1064
71
3
72
9
73
5
74
3
42
0.000000001
43
0.0000000001
44
0.0000000001
40
0
40
0
40
0
40
0
40
0.040947312193078088
40
0.077973984662009027
40
0.077973984662009027
40
0.077973984662009027
40
0.077973984662009027
10
-13.980335809394242
20
-34.608532639553729
30
0
10
-13.852932256126063
20
-34.659618759540798
30
0
10
-13.610323836272364
20
-34.756899585142506
30
0
10
-13.350523755077081
20
-34.784084453051193
30
0
10
-13.227155268068028
20
-34.796993440638893
30
0
11
-13.980335809394242
21
-34.608532639553729
31
0
11
-13.593384157942733
21
-34.742460444817205
31
0
11
-13.227155268068028
21
-34.796993440638893
31
0
0
SPLINE
5
114
100
AcDbEntity
8
0
100
AcDbSpline
70
1064
71
3
72
9
73
5
74
3
42
0.000000001
43
0.0000000001
44
0.0000000001
40
0
40
0
40
0
40
0
40
0.032741002284199433
40
0.061399471879134818
40
0.061399471879134818
40
0.061399471879134818
40
0.061399471879134818
10
-13.227155268068028
20
-34.796993440638893
30
0
10
-13.116489403710595
20
-34.797172003792866
30
0
10
-12.908956794671518
20
-34.797506864749657
30
0
10
-12.720680869710087
20
-34.711207936913418
30
0
10
-12.632802265777027
20
-34.670927538340301
30
0
11
-13.227155268068028
21
-34.796993440638893
31
0
11
-12.900633331223752
21
-34.772894730780102
31
0
11
-12.632802265777027
21
-34.670927538340301
31
0
0
SPLINE
5
115
100
AcDbEntity
8
0
100
AcDbSpline
70
1064
71
3
72
9
73
5
74
3
42
0.000000001
43
0.0000000001
44
0.0000000001
40
0
40
0
40
0
40
0
40
0.026446710896734636
40
0.052303431920481189
40
0.052303431920481189
40
0.052303431920481189
40
0.052303431920481189
10
-12.632802265777027
20
-34.670927538340301
30
0
10
-12.559018052233995
20
-34.620156567502363
30
0
10
-12.413095649825506
20
-34.519747256600624
30
0
10
-12.329351212693556
20
-34.363746968468156
30
0
10
-12.28795131848578
20
-34.286626676706078
30
0
11
-12.632802265777027
21
-34.670927538340301
31
0
11
-12.427346782351869
21
-34.504401576232041
31
0
11
-12.28795131848578
21
-34.286626676706078
31
0
0
SPLINE
5
116
100
AcDbEntity
8
0
100
AcDbSpline
70
1064
71
3
72
9
73
5
74
3
42
0.000000001
43
0.0000000001
44
0.0000000001
40
0
40
0
40
0
40
0
40
0.025544553650894277
40
0.050317773897973289
40
0.050317773897973289
40
0.050317773897973289
40
0.050317773897973289
10
-12.28795131848578
20
-34.286626676706078
30
0
10
-12.258919659471555
20
-34.204954062678063
30
0
10
-12.201732970123796
20
-34.044074989100118
30
0
10
-12.229146017556815
20
-33.875658667907715
30
0
10
-12.242642430635007
20
-33.792741354702194
30
0
11
-12.28795131848578
21
-34.286626676706078
31
0
11
-12.222659670549131
21
-34.039666309780415
31
0
11
-12.242642430635007
21
-33.792741354702194
31
0
0
SPLINE
5
117
100
AcDbEntity
8
0
100
AcDbSpline
70
1064
71
3
72
9
73
5
74
3
42
0.000000001
43
0.0000000001
44
0.0000000001
40
0
40
0
40
0
40
0
40
0.027768416316383653
40
0.062204975093677561
40
0.062204975093677561
40
0.062204975093677561
40
0.062204975093677561
10
-12.242642430635007
20
-33.792741354702194
30
0
10
-12.276485460592156
20
-33.70561377988335
30
0
10
-12.352298384584399
20
-33.510436332245426
30
0
10
-12.498747055522557
20
-33.359956129337505
30
0
10
-12.579820767987254
20
-33.276650568255718
30
0
11
-12.242642430635007
21
-33.792741354702194
31
0
11
-12.358247431910334
21
-33.540265656560507
31
0
11
-12.579820767987254
21
-33.276650568255718
31
0
0
SPLINE
5
118
100
AcDbEntity
8
0
100
AcDbSpline
70
1064
71
3
72
9
73
5
74
3
42
0.000000001
43
0.0000000001
44
0.0000000001
40
0
40
0
40
0
40
0
40
0.038749626371410412
40
0.10574332785137974
40
0.10574332785137974
40
0.10574332785137974
40
0.10574332785137974
10
-12.579820767987254
20
-33.276650568255718
30
0
10
-12.676767233074859
20
-33.191239537262661
30
0
10
-12.941323121782847
20
-32.958162537607109
30
0
10
-13.223457889545614
20
-32.7465421664009
30
0
10
-13.402204414670909
20
-32.61247004796337
30
0
11
-12.579820767987254
21
-33.276650568255718
31
0
11
-12.873020751651222
21
-33.023298789158268
31
0
11
-13.402204414670909
21
-32.61247004796337
31
0
0
SPLINE
5
119
100
AcDbEntity
8
0
100
AcDbSpline
70
1064
71
3
72
9
73
5
74
3
42
0.000000001
43
0.0000000001
44
0.0000000001
40
0
40
0
40
0
40
0
40
0.069569468128484746
40
0.11635601084512733
40
0.11635601084512733
40
0.11635601084512733
40
0.11635601084512733
10
-13.402204414670909
20
-32.61247004796337
30
0
10
-13.587750306982612
20
-32.472434315688574
30
0
10
-13.898078680030064
20
-32.238222388795883
30
0
10
-14.164802184782348
20
-31.955836256251494
30
0
10
-14.272051226391685
20
-31.842289300173213
30
0
11
-13.402204414670909
21
-32.61247004796337
31
0
11
-13.943253937221504
21
-32.175141220059466
31
0
11
-14.272051226391685
21
-31.842289300173213
31
0
0
SPLINE
5
120
100
AcDbEntity
8
0
100
AcDbSpline
70
1064
71
3
72
9
73
5
74
3
42
0.000000001
43
0.0000000001
44
0.0000000001
40
0
40
0
40
0
40
0
40
0.0431331665677782
40
0.08183272032663963
40
0.08183272032663963
40
0.08183272032663963
40
0.08183272032663963
10
-14.272051226391685
20
-31.842289300173213
30
0
10
-14.35831471314896
20
-31.725198804223709
30
0
10
-14.521974753621908
20
-31.503053421206509
30
0
10
-14.587654600380038
20
-31.235455489869913
30
0
10
-14.61871529041141
20
-31.108905614854336
30
0
11
-14.272051226391685
21
-31.842289300173213
31
0
11
-14.50362050324695
21
-31.478390034121333
31
0
11
-14.61871529041141
21
-31.108905614854336
31
0
0
SPLINE
5
121
100
AcDbEntity
8
0
100
AcDbSpline
70
1064
71
3
72
9
73
5
74
3
42
0.000000001
43
0.0000000001
44
0.0000000001
40
0
40
0
40
0
40
0
40
0.036960075617596309
40
0.074844231023783181
40
0.074844231023783181
40
0.074844231023783181
40
0.074844231023783181
10
-14.61871529041141
20
-31.108905614854336
30
0
10
-14.628396316572106
20
-30.984535971636845
30
0
10
-14.648000414951527
20
-30.732687181996269
30
0
10
-14.561416386086032
20
-30.495279085006082
30
0
10
-14.517589857837089
20
-30.375109432408472
30
0
11
-14.61871529041141
21
-31.108905614854336
31
0
11
-14.621862827066806
21
-30.739318261203206
31
0
11
-14.517589857837089
21
-30.375109432408472
31
0
0
SPLINE
5
122
100
AcDbEntity
8
0
100
AcDbSpline
70
1064
71
3
72
9
73
5
74
3
42
0.000000001
43
0.0000000001
44
0.0000000001
40
0
40
0
40
0
40
0
40
0.04239216043018211
40
0.085639785946325181
40
0.085639785946325181
40
0.085639785946325181
40
0.085639785946325181
10
-14.517589857837089
20
-30.375109432408472
30
0
10
-14.450647973991204
20
-30.248538635931421
30
0
10
-14.315413332839872
20
-29.992842870314501
30
0
10
-14.084253121569025
20
-29.818812599807654
30
0
10
-13.967518473755455
20
-29.730928260955256
30
0
11
-14.517589857837089
21
-30.375109432408472
31
0
11
-14.293259526299849
21
-30.015407571214759
31
0
11
-13.967518473755455
21
-29.730928260955256
31
0
0
SPLINE
5
123
100
AcDbEntity
8
0
100
AcDbSpline
70
1064
71
3
72
9
73
5
74
3
42
0.000000001
43
0.0000000001
44
0.0000000001
40
0
40
0
40
0
40
0
40
0.044896438587908503
40
0.092960606959215833
40
0.092960606959215833
40
0.092960606959215833
40
0.092960606959215833
10
-13.967518473755455
20
-29.730928260955256
30
0
10
-13.833691510106512
20
-29.659432693569407
30
0
10
-13.556595237894285
20
-29.511397091011112
30
0
10
-13.242272106267738
20
-29.500164450024272
30
0
10
-13.079755095937513
20
-29.494356747543552
30
0
11
-13.967518473755455
21
-29.730928260955256
31
0
11
-13.557354333273349
21
-29.548351160391249
31
0
11
-13.079755095937513
21
-29.494356747543552
31
0
0
SPLINE
5
124
100
AcDbEntity
8
0
100
AcDbSpline
70
1064
71
3
72
9
73
5
74
3
42
0.000000001
43
0.0000000001
44
0.0000000001
40
0
40
0
40
0
40
0
40
0.052007895821854784
40
0.1073993093663565
40
0.1073993093663565
40
0.1073993093663565
40
0.1073993093663565
10
-13.079755095937513
20
-29.494356747543552
30
0
10
-12.905934916459305
20
-29.508164886409858
30
0
10
-12.546986204251438
20
-29.536679490864451
30
0
10
-12.211641716893569
20
-29.668280334340331
30
0
10
-12.038687111424499
20
-29.736153738618114
30
0
11
-13.079755095937513
21
-29.494356747543552
31
0
11
-12.56382965572419
21
-29.559954483193334
31
0
11
-12.038687111424499
21
-29.736153738618114
31
0
0
SPLINE
5
125
100
AcDbEntity
8
0
100
AcDbSpline
70
1064
71
3
72
9
73
5
74
3
42
0.000000001
43
0.0000000001
44
0.0000000001
40
0
40
0
40
0
40
0
40
0.060131053884631698
40
0.11473467625504893
40
0.11473467625504893
40
0.11473467625504893
40
0.11473467625504893
10
-12.038687111424499
20
-29.736153738618114
30
0
10
-11.856629059188498
20
-29.823104462139433
30
0
10
-11.509248291124806
20
-29.989013131102745
30
0
10
-11.226359774105417
20
-30.249708548871951
30
0
10
-11.091729701834003
20
-30.373776656354327
30
0
11
-12.038687111424499
21
-29.736153738618114
31
0
11
-11.510226919539331
21
-30.023040806504312
31
0
11
-11.091729701834003
21
-30.373776656354327
31
0
0
SPLINE
5
126
100
AcDbEntity
8
0
100
AcDbSpline
70
1064
71
3
72
9
73
5
74
3
42
0.000000001
43
0.0000000001
44
0.0000000001
40
0
40
0
40
0
40
0
40
0.049927122087363739
40
0.097214568916820787
40
0.097214568916820787
40
0.097214568916820787
40
0.097214568916820787
10
-11.091729701834003
20
-30.373776656354327
30
0
10
-10.982761197710396
20
-30.502725226955665
30
0
10
-10.770585416071089
20
-30.753804784105256
30
0
10
-10.688076433963509
20
-31.071702856907461
30
0
10
-10.647942129529127
20
-31.226335936931541
30
0
11
-11.091729701834003
21
-30.373776656354327
31
0
11
-10.799025216536592
21
-30.778246477576417
31
0
11
-10.647942129529127
21
-31.226335936931541
31
0
0
SPLINE
5
127
100
AcDbEntity
8
0
100
AcDbSpline
70
1064
71
3
72
9
73
5
74
3
42
0.000000001
43
0.0000000001
44
0.0000000001
40
0
40
0
40
0
40
0
40
0.047003103067196329
40
0.095423791736136993
40
0.095423791736136993
40
0.095423791736136993
40
0.095423791736136993
10
-10.647942129529127
20
-31.226335936931541
30
0
10
-10.632637863340367
20
-31.384083643701448
30
0
10
-10.601567763407118
20
-31.704336634150717
30
0
10
-10.701065249112347
20
-32.01046240406022
30
0
10
-10.75155304351898
20
-32.165799142714619
30
0
11
-10.647942129529127
21
-31.226335936931541
31
0
11
-10.633708595823716
21
-31.696151407422676
31
0
11
-10.75155304351898
21
-32.165799142714619
31
0
0
LINE
5
128
100
AcDbEntity
8
0
100
AcDbLine
10
-10.75155304351898
20
-32.165799142714619
30
0
11
-11.439219968043835
21
-31.924971590546491
31
0
0
SPLINE
5
129
100
AcDbEntity
8
0
100
AcDbSpline
70
1064
71
3
72
9
73
5
74
3
42
0.000000001
43
0.0000000001
44
0.0000000001
40
0
40
0
40
0
40
0
40
0.049356169444921251
40
0.092947866089725995
40
0.092947866089725995
40
0.092947866089725995
40
0.092947866089725995
10
-11.439219968043835
20
-31.924971590546484
30
0
10
-11.397538279727852
20
-31.761389382423168
30
0
10
-11.319043047468975
20
-31.453330281680437
30
0
10
-11.424561919013478
20
-31.15462329195568
30
0
10
-11.474049301910787
20
-31.014532453622774
30
0
11
-11.439219968043835
21
-31.924971590546484
31
0
11
-11.366061496323756
21
-31.436861987851398
31
0
11
-11.474049301910787
21
-31.014532453622774
31
0
0
SPLINE
5
130
100
AcDbEntity
8
0
100
AcDbSpline
70
1064
71
3
72
9
73
5
74
3
42
0.000000001
43
0.0000000001
44
0.0000000001
40
0
40
0
40
0
40
0
40
0.046730434400508898
40
0.10510271047091911
40
0.10510271047091911
40
0.10510271047091911
40
0.10510271047091911
10
-11.474049301910787
20
-31.014532453622774
30
0
10
-11.566481864357767
20
-30.886139695421207
30
0
10
-11.774374493082068
20
-30.597367997384637
30
0
10
-12.097866527522559
20
-30.445236168818109
30
0
10
-12.277528557705537
20
-30.360744712257251
30
0
11
-11.474049301910787
21
-31.014532453622774
31
0
11
-11.774199157117998
21
-30.656365712641538
31
0
11
-12.277528557705537
21
-30.360744712257251
31
0
0
SPLINE
5
131
100
AcDbEntity
8
0
100
AcDbSpline
70
1064
71
3
72
9
73
5
74
3
42
0.000000001
43
0.0000000001
44
0.0000000001
40
0
40
0
40
0
40
0
40
0.05975671915904629
40
0.10469433710765809
40
0.10469433710765809
40
0.10469433710765809
40
0.10469433710765809
10
-12.277528557705537
20
-30.360744712257251
30
0
10
-12.464807896787596
20
-30.282269822220425
30
0
10
-12.792923070028127
20
-30.144781072710352
30
0
10
-13.145289394811508
20
-30.176700651501342
30
0
10
-13.296534473757745
20
-30.190401390972234
30
0
11
-12.277528557705537
21
-30.360744712257251
31
0
11
-12.847267164013548
21
-30.180510229020783
31
0
11
-13.296534473757745
21
-30.190401390972234
31
0
0
SPLINE
5
132
100
AcDbEntity
8
0
100
AcDbSpline
70
1064
71
3
72
9
73
5
74
3
42
0.000000001
43
0.0000000001
44
0.0000000001
40
0
40
0
40
0
40
0
40
0.036443267951751533
40
0.070326821156478841
40
0.070326821156478841
40
0.070326821156478841
40
0.070326821156478841
10
-13.296534473757745
20
-30.190401390972234
30
0
10
-13.414976070852681
20
-30.232484998320931
30
0
10
-13.643540123544417
20
-30.313696330179258
30
0
10
-13.767961403480822
20
-30.521136085733886
30
0
10
-13.827907736745978
20
-30.621080827704681
30
0
11
-13.296534473757745
21
-30.190401390972234
31
0
11
-13.623893816448295
21
-30.350548319302217
31
0
11
-13.827907736745978
21
-30.621080827704681
31
0
0
SPLINE
5
133
100
AcDbEntity
8
0
100
AcDbSpline
70
1064
71
3
72
9
73
5
74
3
42
0.000000001
43
0.0000000001
44
0.0000000001
40
0
40
0
40
0
40
0
40
0.028670538882441147
40
0.056816059132746038
40
0.056816059132746038
40
0.056816059132746038
40
0.056816059132746038
10
-13.827907736745978
20
-30.621080827704681
30
0
10
-13.858965239488818
20
-30.714450922782941
30
0
10
-13.920511515950103
20
-30.8994813076302
30
0
10
-13.858129392625202
20
-31.08410349153122
30
0
10
-13.827226557368789
20
-31.175561566852863
30
0
11
-13.827907736745978
21
-30.621080827704681
31
0
11
-13.889522908546962
21
-30.901087167963063
31
0
11
-13.827226557368789
21
-31.175561566852863
31
0
0
SPLINE
5
134
100
AcDbEntity
8
0
100
AcDbSpline
70
1064
71
3
72
9
73
5
74
3
42
0.000000001
43
0.0000000001
44
0.0000000001
40
0
40
0
40
0
40
0
40
0.044351685548915248
40
0.12190835168251465
40
0.12190835168251465
40
0.12190835168251465
40
0.12190835168251465
10
-13.827226557368789
20
-31.175561566852863
30
0
10
-13.737321262148692
20
-31.293736587176859
30
0
10
-13.490200860473676
20
-31.618561264287656
30
0
10
-13.156198486599095
20
-31.85604785012351
30
0
10
-12.943710086576409
20
-32.007134035726665
30
0
11
-13.827226557368789
21
-31.175561566852863
31
0
11
-13.546011064372774
21
-31.518526649043448
31
0
11
-12.943710086576409
21
-32.007134035726665
31
0
0
SPLINE
5
135
100
AcDbEntity
8
0
100
AcDbSpline
70
1064
71
3
72
9
73
5
74
3
42
0.000000001
43
0.0000000001
44
0.0000000001
40
0
40
0
40
0
40
0
40
0.080304465937731828
40
0.1320348817842224
40
0.1320348817842224
40
0.1320348817842224
40
0.1320348817842224
10
-12.943710086576409
20
-32.007134035726665
30
0
10
-12.727372261191849
20
-32.165463473154148
30
0
10
-12.371674245314937
20
-32.425785340806065
30
0
10
-12.053216259390823
20
-32.730142271822125
30
0
10
-11.928446472658155
20
-32.849387356109418
30
0
11
-12.943710086576409
21
-32.007134035726665
31
0
11
-12.308472259028221
21
-32.498411581932764
31
0
11
-11.928446472658155
21
-32.849387356109418
31
0
0
SPLINE
5
136
100
AcDbEntity
8
0
100
AcDbSpline
70
1064
71
3
72
9
73
5
74
3
42
0.000000001
43
0.0000000001
44
0.0000000001
40
0
40
0
40
0
40
0
40
0.050704300704306329
40
0.095022511048522385
40
0.095022511048522385
40
0.095022511048522385
40
0.095022511048522385
10
-11.928446472658155
20
-32.849387356109418
30
0
10
-11.819634127010319
20
-32.981481505840925
30
0
10
-11.615714101037868
20
-33.22903285016389
30
0
10
-11.527110855810934
20
-33.536662094405074
30
0
10
-11.485786571535364
20
-33.680139438919269
30
0
11
-11.928446472658155
21
-32.849387356109418
31
0
11
-11.634843836811566
21
-33.262775918136967
31
0
11
-11.485786571535364
21
-33.680139438919269
31
0
0
SPLINE
5
137
100
AcDbEntity
8
0
100
AcDbSpline
70
1064
71
3
72
9
73
5
74
3
42
0.000000001
43
0.0000000001
44
0.0000000001
40
0
40
0
40
0
40
0
40
0.042026173123696831
40
0.085841173422014166
40
0.085841173422014166
40
0.085841173422014166
40
0.085841173422014166
10
-11.485786571535364
20
-33.680139438919269
30
0
10
-11.471705884073138
20
-33.821456189311185
30
0
10
-11.442945170343899
20
-34.110104780800185
30
0
10
-11.542673202994131
20
-34.382714342019668
30
0
10
-11.593576325658109
20
-34.521859550897858
30
0
11
-11.485786571535364
21
-33.680139438919269
31
0
11
-11.47434186924327
21
-34.100245308351887
31
0
11
-11.593576325658109
21
-34.521859550897858
31
0
0
SPLINE
5
138
100
AcDbEntity
8
0
100
AcDbSpline
70
1064
71
3
72
9
73
5
74
3
42
0.000000001
43
0.0000000001
44
0.0000000001
40
0
40
0
40
0
40
0
40
0.044864447883269425
40
0.090996809435855766
40
0.090996809435855766
40
0.090996809435855766
40
0.090996809435855766
10
-11.593576325658109
20
-34.521859550897858
30
0
10
-11.664603006480059
20
-34.655673660349343
30
0
10
-11.808663652371269
20
-34.927083598331123
30
0
10
-12.053948688784823
20
-35.11237824974917
30
0
10
-12.178300059491352
20
-35.206316486770589
30
0
11
-11.593576325658109
21
-34.521859550897858
31
0
11
-11.831262168440134
21
-34.902368826117353
31
0
11
-12.178300059491352
21
-35.206316486770589
31
0
0
SPLINE
5
139
100
AcDbEntity
8
0
100
AcDbSpline
70
1064
71
3
72
9
73
5
74
3
42
0.000000001
43
0.0000000001
44
0.0000000001
40
0
40
0
40
0
40
0
40
0.048043140321024545
40
0.099055650849968382
40
0.099055650849968382
40
0.099055650849968382
40
0.099055650849968382
10
-12.178300059491352
20
-35.206316486770589
30
0
10
-12.320478085205778
20
-35.284225369166187
30
0
10
-12.613621638678751
20
-35.444858396089955
30
0
10
-12.94731885256053
20
-35.469040212853386
30
0
10
-13.119169044756092
20
-35.481493567827776
30
0
11
-12.178300059491352
21
-35.206316486770589
31
0
11
-12.614373827963066
21
-35.407944861860614
31
0
11
-13.119169044756092
21
-35.481493567827776
31
0
0
SPLINE
5
140
100
AcDbEntity
8
0
100
AcDbSpline
70
1064
71
3
72
9
73
5
74
3
42
0.000000001
43
0.0000000001
44
0.0000000001
40
0
40
0
40
0
40
0
40
0.05475531505252091
40
0.11327730816309026
40
0.11327730816309026
40
0.11327730816309026
40
0.11327730816309026
10
-13.119169044756092
20
-35.481493567827776
30
0
10
-13.302753849678581
20
-35.472738738039979
30
0
10
-13.682552459207509
20
-35.454626824140178
30
0
10
-14.037114400321581
20
-35.316688205461858
30
0
10
-14.220290287987218
20
-35.245425540212494
30
0
11
-13.119169044756092
21
-35.481493567827776
31
0
11
-13.664026899205872
21
-35.427231508389696
31
0
11
-14.220290287987218
21
-35.245425540212494
31
0
0
SPLINE
5
141
100
AcDbEntity
8
0
100
AcDbSpline
70
1064
71
3
72
9
73
5
74
3
42
0.000000001
43
0.0000000001
44
0.0000000001
40
0
40
0
40
0
40
0
40
0.071659737473106569
40
0.13290214614133114
40
0.13290214614133114
40
0.13290214614133114
40
0.13290214614133114
10
-14.220290287987218
20
-35.245425540212494
30
0
10
-14.438173008292001
20
-35.143551390305554
30
0
10
-14.842264373355745
20
-34.954612752844902
30
0
10
-15.171556426882024
20
-34.654470953499342
30
0
10
-15.323296929942142
20
-34.516163128775503
30
0
11
-14.220290287987218
21
-35.245425540212494
31
0
11
-14.852192215853188
21
-34.90747324915543
31
0
11
-15.323296929942142
21
-34.516163128775503
31
0
0
SPLINE
5
142
100
AcDbEntity
8
0
100
AcDbSpline
70
1064
71
3
72
9
73
5
74
3
42
0.000000001
43
0.0000000001
44
0.0000000001
40
0
40
0
40
0
40
0
40
0.054791177103874558
40
0.10815048468513205
40
0.10815048468513205
40
0.10815048468513205
40
0.10815048468513205
10
-15.323296929942142
20
-34.516163128775503
30
0
10
-15.440857475999849
20
-34.373103179454219
30
0
10
-15.672906333280025
20
-34.090721896993429
30
0
10
-15.761760354140861
20
-33.736352792957724
30
0
10
-15.80559916857381
20
-33.561514094133699
30
0
11
-15.323296929942142
21
-34.516163128775503
31
0
11
-15.639225662538461
21
-34.068506625680889
31
0
11
-15.80559916857381
21
-33.561514094133699
31
0
0
SPLINE
5
143
100
AcDbEntity
8
0
100
AcDbSpline
70
1064
71
3
72
9
73
5
74
3
42
0.000000001
43
0.0000000001
44
0.0000000001
40
0
40
0
40
0
40
0
40
0.0535806973075846
40
0.10870576883520477
40
0.10870576883520477
40
0.10870576883520477
40
0.10870576883520477
10
-15.80559916857381
20
-33.561514094133699
30
0
10
-15.822829208023057
20
-33.381578186802521
30
0
10
-15.857785914066639
20
-33.016520019768798
30
0
10
-15.740866883509504
20
-32.668770067942596
30
0
10
-15.68157683854259
20
-32.492424864062876
30
0
11
-15.80559916857381
21
-33.561514094133699
31
0
11
-15.820391532512021
21
-33.025911351080772
31
0
11
-15.68157683854259
21
-32.492424864062876
31
0
0
LWPOLYLINE
5
144
100
AcDbEntity
8
0
100
AcDbPolyline
90
8
70
1
43
0.0
10
-4.474418874592244
20
-31.919383308297707
10
-7.848501441998228
20
-37.042434229162232
10
-7.0624665628106502
20
-37.214687571802983
10
-6.0768738101225956
20
-35.655140234583783
10
-3.7378479950094667
20
-36.167719289081575
10
-3.4566273678612278
20
-38.004878784433473
10
-2.6133570447761514
20
-38.189674823066369
10
-3.6769368720552551
20
-32.094145197712614
0
LINE
5
145
100
AcDbEntity
8
0
100
AcDbLine
10
-5.7310779637524876
20
-35.099085749288712
30
0
11
-3.8346736480260235
21
-35.514667794095509
31
0
0
LINE
5
146
100
AcDbEntity
8
0
100
AcDbLine
10
-3.8346736480260235
20
-35.514667794095509
30
0
11
-4.0789864154200046
21
-33.83755641996018
31
0
0
SPLINE
5
147
100
AcDbEntity
8
0
100
AcDbSpline
70
1064
71
3
72
9
73
5
74
3
42
0.000000001
43
0.0000000001
44
0.0000000001
40
0
40
0
40
0
40
0
40
0.070000657210634087
40
0.12553159756076068
40
0.12553159756076068
40
0.12553159756076068
40
0.12553159756076068
10
-4.0789864154200046
20
-33.83755641996018
30
0
10
-4.1121959981300824
20
-33.606528881700967
30
0
10
-4.171750467159967
20
-33.192229114901025
30
0
10
-4.2063256558758058
20
-32.77513043041742
30
0
10
-4.2216205519775158
20
-32.590620055195238
30
0
11
-4.0789864154200046
21
-33.83755641996018
31
0
11
-4.1708477210884132
21
-33.143603466574312
31
0
11
-4.2216205519775158
21
-32.590620055195238
31
0
0
SPLINE
5
148
100
AcDbEntity
8
0
100
AcDbSpline
70
1064
71
3
72
9
73
5
74
3
42
0.000000001
43
0.0000000001
44
0.0000000001
40
0
40
0
40
0
40
0
40
0.056444027933105455
40
0.11373128765174306
40
0.11373128765174306
40
0.11373128765174306
40
0.11373128765174306
10
-4.2216205519775158
20
-32.590620055195238
30
0
10
-4.3005001583466518
20
-32.761628069072884
30
0
10
-4.4594377737212394
20
-33.106198829333323
30
0
10
-4.6574510104252607
20
-33.429905149908855
30
0
10
-4.7571916882370404
20
-33.592958329401199
30
0
11
-4.2216205519775158
21
-32.590620055195238
31
0
11
-4.4678839552826455
21
-33.098505047219902
31
0
11
-4.7571916882370404
21
-33.592958329401199
31
0
0
LINE
5
149
100
AcDbEntity
8
0
100
AcDbLine
10
-4.7571916882370404
20
-33.592958329401199
30
0
11
-5.7310779637524876
21
-35.099085749288712
31
0
0
LWPOLYLINE
5
150
100
AcDbEntity
8
0
100
AcDbPolyline
90
12
70
1
43
0.0
10
2.805429100792777
20
-32.451129865481299
10
3.5135986988135279
20
-38.133736364041901
10
4.2655943285169133
20
-38.040022248356557
10
3.9317981750017514
20
-35.361522357283548
10
6.8855130556140152
20
-34.993428757946532
10
7.2193092091291771
20
-37.671928649019534
10
7.9713046170308308
20
-37.578214560975248
10
7.2631350190100807
20
-31.895608062414638
10
6.5111396111084261
20
-31.989322150458932
10
6.8019432350352194
20
-34.322834585545067
10
3.8482283544229561
20
-34.690928184882083
10
3.5574247304961624
20
-32.357415749795948
0
LWPOLYLINE
5
151
100
AcDbEntity
8
0
100
AcDbPolyline
90
12
70
1
43
0.0
10
8.4927547788776856
20
-31.602488980733391
10
9.8742126615994064
20
-37.159924982642011
10
14.021439830603825
20
-36.129014386084314
10
13.858416470495062
20
-35.47319135886643
10
10.446620687768601
20
-36.321289686344336
10
9.9763973072383401
20
-34.42963857154561
10
13.050804077430191
20
-33.665407824504001
10
12.888723106231865
20
-33.013375912544987
10
9.8143163360400134
20
-33.777606659586596
10
9.3912095252644097
20
-32.075499738871478
10
12.674114908948228
20
-31.259440765099754
10
12.511091548839463
20
-30.603617737881873
0
LWPOLYLINE
5
152
100
AcDbEntity
8
0
100
AcDbPolyline
90
8
70
1
43
0.0
10
14.544414914854006
20
-29.332416196308468
10
15.118773813017018
20
-35.439804817113995
10
15.839659406854468
20
-35.082249218712882
10
15.632416044373507
20
-33.249046785841294
10
17.777575322129376
20
-32.18505866375844
10
19.146634196599315
20
-33.442006495106419
10
19.920011363082043
20
-33.058415342896723
10
15.275798854925146
20
-28.969653471420294
0
LINE
5
153
100
AcDbEntity
8
0
100
AcDbLine
10
15.554143433983674
20
-32.598935444264832
30
0
11
17.293367210810672
21
-31.73628927184453
31
0
0
LINE
5
154
100
AcDbEntity
8
0
100
AcDbLine
10
17.293367210810672
20
-31.73628927184453
30
0
11
16.053255350169259
21
-30.581077662371058
31
0
0
SPLINE
5
155
100
AcDbEntity
8
0
100
AcDbSpline
70
1064
71
3
72
9
73
5
74
3
42
0.000000001
43
0.0000000001
44
0.0000000001
40
0
40
0
40
0
40
0
40
0.070000657210634087
40
0.12553159756076068
40
0.12553159756076068
40
0.12553159756076068
40
0.12553159756076068
10
16.053255350169259
20
-30.581077662371058
30
0
10
15.882773232618042
20
-30.421664841640915
30
0
10
15.577049066238438
20
-30.135791153373855
30
0
10
15.289056524376686
20
-29.832102081946012
30
0
10
15.16165834754981
20
-29.69776029041196
30
0
11
16.053255350169259
21
-30.581077662371058
31
0
11
15.547322742165797
21
-30.097299410326915
31
0
11
15.16165834754981
21
-29.69776029041196
31
0
0
SPLINE
5
156
100
AcDbEntity
8
0
100
AcDbSpline
70
1064
71
3
72
9
73
5
74
3
42
0.000000001
43
0.0000000001
44
0.0000000001
40
0
40
0
40
0
40
0
40
0.056444027933105455
40
0.11373128765174306
40
0.11373128765174306
40
0.11373128765174306
40
0.11373128765174306
10
15.16165834754981
20
-29.69776029041196
30
0
10
15.207152837038329
20
-29.880505973090116
30
0
10
15.298821469842487
20
-30.248727422991166
30
0
10
15.346954904504615
20
-30.625129065333731
30
0
10
15.371200058407055
20
-30.8147252537584
30
0
11
15.16165834754981
21
-29.69776029041196
31
0
11
15.287418808528157
21
-30.248012173994226
31
0
11
15.371200058407055
21
-30.8147252537584
31
0
0
LINE
5
157
100
AcDbEntity
8
0
100
AcDbLine
10
15.371200058407057
20
-30.814725253758397
30
0
11
15.554143433983674
21
-32.598935444264832
31
0
0
LINE
5
158
100
AcDbEntity
8
0
100
AcDbLine
10
21.284712941131303
20
-31.916600183187139
30
0
11
17.886882214998188
21
-27.307015911955101
31
0
0
LINE
5
159
100
AcDbEntity
8
0
100
AcDbLine
10
17.886882214998188
20
-27.307015911955101
30
0
11
19.930694774310734
21
-25.800474605002748
31
0
0
SPLINE
5
160
100
AcDbEntity
8
0
100
AcDbSpline
70
1064
71
3
72
9
73
5
74
3
42
0.000000001
43
0.0000000001
44
0.0000000001
40
0
40
0
40
0
40
0
40
0.067493163485417978
40
0.11786391686343865
40
0.11786391686343865
40
0.11786391686343865
40
0.11786391686343865
10
19.930694774310734
20
-25.800474605002748
30
0
10
20.113828713952806
20
-25.667644911854666
30
0
10
20.43363715561091
20
-25.435683227119231
30
0
10
20.801881507706632
20
-25.294374317788929
30
0
10
20.959255757060262
20
-25.233984026922887
30
0
11
19.930694774310734
21
-25.800474605002748
31
0
11
20.495979328516626
21
-25.431711694038018
31
0
11
20.959255757060262
21
-25.233984026922887
31
0
0
SPLINE
5
161
100
AcDbEntity
8
0
100
AcDbSpline
70
1064
71
3
72
9
73
5
74
3
42
0.000000001
43
0.0000000001
44
0.0000000001
40
0
40
0
40
0
40
0
40
0.041710912490889616
40
0.084998672368674796
40
0.084998672368674796
40
0.084998672368674796
40
0.084998672368674796
10
20.959255757060262
20
-25.233984026922887
30
0
10
21.098413434111698
20
-25.208990204508027
30
0
10
21.381989531898206
20
-25.158057688391409
30
0
10
21.655709387919259
20
-25.248674829851737
30
0
10
21.795108264054971
20
-25.294823939608793
30
0
11
20.959255757060262
21
-25.233984026922887
31
0
11
21.374355303469244
21
-25.193089178184653
31
0
11
21.795108264054971
21
-25.294823939608793
31
0
0
SPLINE
5
162
100
AcDbEntity
8
0
100
AcDbSpline
70
1064
71
3
72
9
73
5
74
3
42
0.000000001
43
0.0000000001
44
0.0000000001
40
0
40
0
40
0
40
0
40
0.044829416298340044
40
0.090435004219193704
40
0.090435004219193704
40
0.090435004219193704
40
0.090435004219193704
10
21.795108264054971
20
-25.294823939608793
30
0
10
21.930731141341294
20
-25.36168547995166
30
0
10
22.204325055613651
20
-25.496566194051724
30
0
10
22.400305193321174
20
-25.730411175859203
30
0
10
22.499136276242318
20
-25.848337171105726
30
0
11
21.795108264054971
21
-25.294823939608793
31
0
11
22.182905088262356
21
-25.519726762400445
31
0
11
22.499136276242318
21
-25.848337171105726
31
0
0
SPLINE
5
163
100
AcDbEntity
8
0
100
AcDbSpline
70
1064
71
3
72
9
73
5
74
3
42
0.000000001
43
0.0000000001
44
0.0000000001
40
0
40
0
40
0
40
0
40
0.057012012377370386
40
0.11219755288245242
40
0.11219755288245242
40
0.11219755288245242
40
0.11219755288245242
10
22.499136276242318
20
-25.848337171105726
30
0
10
22.601880580998621
20
-26.013578962473204
30
0
10
22.804077610809852
20
-26.338768757610186
30
0
10
22.795398120838854
20
-26.721257435111113
30
0
10
22.791129022867885
20
-26.909388493790058
30
0
11
22.499136276242318
21
-25.848337171105726
31
0
11
22.752919652702083
21
-26.358857448239185
31
0
11
22.791129022867885
21
-26.909388493790058
31
0
0
SPLINE
5
164
100
AcDbEntity
8
0
100
AcDbSpline
70
1064
71
3
72
9
73
5
74
3
42
0.000000001
43
0.0000000001
44
0.0000000001
40
0
40
0
40
0
40
0
40
0.060727422439912547
40
0.13486851351285398
40
0.13486851351285398
40
0.13486851351285398
40
0.13486851351285398
10
22.791129022867885
20
-26.909388493790058
30
0
10
22.737502312456606
20
-27.107856496200235
30
0
10
22.618403651140795
20
-27.548630752532478
30
0
10
22.300225442967346
20
-27.878705362636772
30
0
10
22.125313753832696
20
-28.060156845204467
30
0
11
22.791129022867885
21
-26.909388493790058
31
0
11
22.589886657453739
21
-27.482348783846952
31
0
11
22.125313753832696
21
-28.060156845204467
31
0
0
SPLINE
5
165
100
AcDbEntity
8
0
100
AcDbSpline
70
1064
71
3
72
9
73
5
74
3
42
0.000000001
43
0.0000000001
44
0.0000000001
40
0
40
0
40
0
40
0
40
0.030107608598008685
40
0.053995303111189018
40
0.053995303111189018
40
0.053995303111189018
40
0.053995303111189018
10
22.125313753832696
20
-28.060156845204467
30
0
10
22.224448969706607
20
-28.04249757365023
30
0
10
22.402239112443461
20
-28.01082724961271
30
0
10
22.582602948514992
20
-28.016157254545959
30
0
10
22.662396485527459
20
-28.0185152657481
30
0
11
22.125313753832696
21
-28.060156845204467
31
0
11
22.423519599255997
21
-28.018682958185501
31
0
11
22.662396485527459
21
-28.0185152657481
31
0
0
SPLINE
5
166
100
AcDbEntity
8
0
100
AcDbSpline
70
1064
71
3
72
9
73
5
74
3
42
0.000000001
43
0.0000000001
44
0.0000000001
40
0
40
0
40
0
40
0
40
0.047114607007361149
40
0.098974611158199277
40
0.098974611158199277
40
0.098974611158199277
40
0.098974611158199277
10
22.662396485527459
20
-28.0185152657481
30
0
10
22.818049301181613
20
-28.041994773646035
30
0
10
23.145032330089013
20
-28.091318652417243
30
0
10
23.457087186032251
20
-28.201019769681544
30
0
10
23.620595442696562
20
-28.258500171272463
30
0
11
22.662396485527459
21
-28.0185152657481
31
0
11
23.125972180207185
21
-28.10263538609999
31
0
11
23.620595442696562
21
-28.258500171272463
31
0
0
LINE
5
167
100
AcDbEntity
8
0
100
AcDbLine
10
23.620595442696558
20
-28.258500171272463
30
0
11
25.347184123646585
21
-28.922059114890025
31
0
0
LINE
5
168
100
AcDbEntity
8
0
100
AcDbLine
10
25.347184123646585
20
-28.922059114890025
30
0
11
24.579967931713774
21
-29.487591839132719
31
0
0
LINE
5
169
100
AcDbEntity
8
0
100
AcDbLine
10
24.579967931713774
20
-29.487591839132719
30
0
11
23.263052713399887
21
-28.978216696622919
31
0
0
SPLINE
5
170
100
AcDbEntity
8
0
100
AcDbSpline
70
1064
71
3
72
9
73
5
74
3
42
0.000000001
43
0.0000000001
44
0.0000000001
40
0
40
0
40
0
40
0
40
0.054657477499611452
40
0.096027791391051248
40
0.096027791391051248
40
0.096027791391051248
40
0.096027791391051248
10
23.263052713399887
20
-28.978216696622919
30
0
10
23.092553250756271
20
-28.913816167040075
30
0
10
22.79300252906144
20
-28.800670795113628
30
0
10
22.486644249859047
20
-28.707631382437945
30
0
10
22.354660185764192
20
-28.667548510064115
30
0
11
23.263052713399887
21
-28.978216696622919
31
0
11
22.749348878560962
21
-28.791528842883491
31
0
11
22.354660185764192
21
-28.667548510064115
31
0
0
SPLINE
5
171
100
AcDbEntity
8
0
100
AcDbSpline
70
1064
71
3
72
9
73
5
74
3
42
0.000000001
43
0.0000000001
44
0.0000000001
40
0
40
0
40
0
40
0
40
0.030899557462660595
40
0.054443885921088474
40
0.054443885921088474
40
0.054443885921088474
40
0.054443885921088474
10
22.354660185764192
20
-28.667548510064115
30
0
10
22.254690288673178
20
-28.640872807961152
30
0
10
22.078546999911097
20
-28.593871200125392
30
0
10
21.896521123586105
20
-28.589565344375924
30
0
10
21.817803799360931
20
-28.587703271521555
30
0
11
22.354660185764192
21
-28.667548510064115
31
0
11
22.052855645133008
21
-28.601274198349635
31
0
11
21.817803799360931
21
-28.587703271521555
31
0
0
SPLINE
5
172
100
AcDbEntity
8
0
100
AcDbSpline
70
1064
71
3
72
9
73
5
74
3
42
0.000000001
43
0.0000000001
44
0.0000000001
40
0
40
0
40
0
40
0
40
0.019488529243556131
40
0.037909945991661954
40
0.037909945991661954
40
0.037909945991661954
40
0.037909945991661954
10
21.817803799360931
20
-28.587703271521555
30
0
10
21.752855092759333
20
-28.593993619278187
30
0
10
21.626514006229726
20
-28.60622988096538
30
0
10
21.507143523264052
20
-28.649277766483419
30
0
10
21.449138338698049
20
-28.670195840052472
30
0
11
21.817803799360931
21
-28.587703271521555
31
0
11
21.624799817647023
21
-28.6147169763817
31
0
11
21.449138338698049
21
-28.670195840052472
31
0
0
SPLINE
5
173
100
AcDbEntity
8
0
100
AcDbSpline
70
1064
71
3
72
9
73
5
74
3
42
0.000000001
43
0.0000000001
44
0.0000000001
40
0
40
0
40
0
40
0
40
0.017115485369091389
40
0.04232005812847503
40
0.04232005812847503
40
0.04232005812847503
40
0.04232005812847503
10
21.449138338698049
20
-28.670195840052472
30
0
10
21.398918535339856
20
-28.697393167857879
30
0
10
21.274744142882518
20
-28.764641771613071
30
0
10
21.161043579461271
20
-28.848537435251778
30
0
10
21.093326892616609
20
-28.89850320684782
30
0
11
21.449138338698049
21
-28.670195840052472
31
0
11
21.300192062916313
21
-28.754510671919164
31
0
11
21.093326892616609
21
-28.89850320684782
31
0
0
LINE
5
174
100
AcDbEntity
8
0
100
AcDbLine
10
21.093326892616609
20
-28.898503206847824
30
0
11
20.385853210593115
21
-29.41999835115233
31
0
0
LINE
5
175
100
AcDbEntity
8
0
100
AcDbLine
10
20.385853210593115
20
-29.41999835115233
30
0
11
21.894712459414684
21
-31.46695548982834
31
0
0
LINE
5
176
100
AcDbEntity
8
0
100
AcDbLine
10
21.894712459414684
20
-31.46695548982834
30
0
11
21.284712941131303
21
-31.916600183187139
31
0
0
LINE
5
177
100
AcDbEntity
8
0
100
AcDbLine
10
19.996470098780105
20
-28.891751239284197
30
0
11
21.307654560173056
21
-27.925246975905477
31
0
0
SPLINE
5
178
100
AcDbEntity
8
0
100
AcDbSpline
70
1064
71
3
72
9
73
5
74
3
42
0.000000001
43
0.0000000001
44
0.0000000001
40
0
40
0
40
0
40
0
40
0.046366894626857842
40
0.082244126620222999
40
0.082244126620222999
40
0.082244126620222999
40
0.082244126620222999
10
21.307654560173056
20
-27.925246975905477
30
0
10
21.431688517983982
20
-27.831717063858488
30
0
10
21.651696017159917
20
-27.665816673265692
30
0
10
21.823145211066848
20
-27.450578021624285
30
0
10
21.897936235759445
20
-27.356684787466229
30
0
11
21.307654560173056
21
-27.925246975905477
31
0
11
21.664322744206387
21
-27.628975650542756
31
0
11
21.897936235759445
21
-27.356684787466229
31
0
0
SPLINE
5
179
100
AcDbEntity
8
0
100
AcDbSpline
70
1064
71
3
72
9
73
5
74
3
42
0.000000001
43
0.0000000001
44
0.0000000001
40
0
40
0
40
0
40
0
40
0.029320454843680746
40
0.05703576466365301
40
0.05703576466365301
40
0.05703576466365301
40
0.05703576466365301
10
21.897936235759445
20
-27.356684787466229
30
0
10
21.94746936084173
20
-27.270462253046635
30
0
10
22.043823925609249
20
-27.102737427218443
30
0
10
22.049613621182939
20
-26.909607156000163
30
0
10
22.05242699990302
20
-26.815759631837118
30
0
11
21.897936235759445
21
-27.356684787466229
31
0
11
22.022602087867185
21
-27.091303302538805
31
0
11
22.05242699990302
21
-26.815759631837118
31
0
0
SPLINE
5
180
100
AcDbEntity
8
0
100
AcDbSpline
70
1064
71
3
72
9
73
5
74
3
42
0.000000001
43
0.0000000001
44
0.0000000001
40
0
40
0
40
0
40
0
40
0.02717672278248532
40
0.054155890777264806
40
0.054155890777264806
40
0.054155890777264806
40
0.054155890777264806
10
22.05242699990302
20
-26.815759631837118
30
0
10
22.040539029686435
20
-26.724745767349418
30
0
10
22.016849506053823
20
-26.543379642233372
30
0
10
21.919011548618101
20
-26.38886415129161
30
0
10
21.870271021003475
20
-26.311888233656745
30
0
11
22.05242699990302
21
-26.815759631837118
31
0
11
21.998090491424218
21
-26.549479760337338
31
0
11
21.870271021003475
21
-26.311888233656745
31
0
0
SPLINE
5
181
100
AcDbEntity
8
0
100
AcDbSpline
70
1064
71
3
72
9
73
5
74
3
42
0.000000001
43
0.0000000001
44
0.0000000001
40
0
40
0
40
0
40
0
40
0.037738952397344323
40
0.074839016344504433
40
0.074839016344504433
40
0.074839016344504433
40
0.074839016344504433
10
21.870271021003475
20
-26.311888233656745
30
0
10
21.784171312344402
20
-26.215077083168289
30
0
10
21.613429490055584
20
-26.023093712844371
30
0
10
21.3614512974689
20
-25.973689791215683
30
0
10
21.236537749497849
20
-25.949198707003305
30
0
11
21.870271021003475
21
-26.311888233656745
31
0
11
21.591314571566684
21
-26.057710830800946
31
0
11
21.236537749497849
21
-25.949198707003305
31
0
0
SPLINE
5
182
100
AcDbEntity
8
0
100
AcDbSpline
70
1064
71
3
72
9
73
5
74
3
42
0.000000001
43
0.0000000001
44
0.0000000001
40
0
40
0
40
0
40
0
40
0.042803206934283772
40
0.098317104935011695
40
0.098317104935011695
40
0.098317104935011695
40
0.098317104935011695
10
21.236537749497849
20
-25.949198707003305
30
0
10
21.091986356584648
20
-25.961320084133881
30
0
10
20.759958093203146
20
-25.989162360277657
30
0
10
20.486008933225484
20
-26.182274404171217
30
0
10
20.331325923240215
20
-26.291313439794827
30
0
11
21.236537749497849
21
-25.949198707003305
31
0
11
20.813891721230519
21
-26.016887606948309
31
0
11
20.331325923240215
21
-26.291313439794827
31
0
0
LINE
5
183
100
AcDbEntity
8
0
100
AcDbLine
10
20.331325923240215
20
-26.291313439794827
30
0
11
18.872358166448507
21
-27.366752173695964
31
0
0
LINE
5
184
100
AcDbEntity
8
0
100
AcDbLine
10
18.872358166448507
20
-27.366752173695964
30
0
11
19.996470098780105
21
-28.891751239284197
31
0
0
LWPOLYLINE
5
185
100
AcDbEntity
8
0
100
AcDbPolyline
90
8
70
1
43
0.0
10
23.917337922332898
20
-23.19520736350124
10
27.568591255272288
20
-26.685012736047202
10
28.092197245833745
20
-26.137183297412989
10
24.440943912894355
20
-22.647377924867023
10
25.749958271546202
20
-21.277804974612149
10
25.261430102081988
20
-20.810878121014792
10
22.125193437903484
20
-24.092205688177749
10
22.613721607367694
20
-24.559132541775107
0
LWPOLYLINE
5
186
100
AcDbEntity
8
0
100
AcDbPolyline
90
12
70
1
43
0.0
10
37.891822598911205
20
-0.67655390556396122
10
32.177369652411755
20
-0.30433311183007627
10
32.128112601485697
20
-1.0605431477517182
10
34.108291421644267
20
-1.1895255261307298
10
34.959484487283881
20
-2.1844561658629864
10
31.934639053288393
20
-4.0308110805965667
10
31.869640028496171
20
-5.0286969456432429
10
35.431692421769199
20
-2.7475899873791776
10
37.590948368208103
20
-5.2956715451773837
10
37.657724662640163
20
-4.2705004668888566
10
35.008726952672589
20
-1.2481769545707639
10
37.842565547985146
20
-1.432763941485603
0
LINE
5
187
100
AcDbEntity
8
0
100
AcDbLine
10
31.651370149411072
20
5.3293952139089225
30
0
11
37.355531328573825
21
5.8354248960192168
31
0
0
LINE
5
188
100
AcDbEntity
8
0
100
AcDbLine
10
37.355531328573825
20
5.8354248960192168
30
0
11
37.579896425039571
21
3.3062952452015044
31
0
0
SPLINE
5
189
100
AcDbEntity
8
0
100
AcDbSpline
70
1064
71
3
72
9
73
5
74
3
42
0.000000001
43
0.0000000001
44
0.0000000001
40
0
40
0
40
0
40
0
40
0.067493163485417978
40
0.11786391686343865
40
0.11786391686343865
40
0.11786391686343865
40
0.11786391686343865
10
37.579896425039571
20
3.3062952452015044
30
0
10
37.598153135973135
20
3.0807992147785073
30
0
10
37.630034994054036
20
2.6870134739670908
30
0
10
37.559296928467099
20
2.2989822422556037
30
0
10
37.5290660507656
20
2.1331517998636813
30
0
11
37.579896425039571
21
3.3062952452015044
31
0
11
37.601016213141236
21
2.6316941287797508
31
0
11
37.5290660507656
21
2.1331517998636813
31
0
0
SPLINE
5
190
100
AcDbEntity
8
0
100
AcDbSpline
70
1064
71
3
72
9
73
5
74
3
42
0.000000001
43
0.0000000001
44
0.0000000001
40
0
40
0
40
0
40
0
40
0.041710912490889616
40
0.084998672368674796
40
0.084998672368674796
40
0.084998672368674796
40
0.084998672368674796
10
37.5290660507656
20
2.1331517998636813
30
0
10
37.478069146739742
20
2.001284950272761
30
0
10
37.374147441884745
20
1.7325661312558893
30
0
10
37.154433959797643
20
1.5458577712508037
30
0
10
37.042539218509859
20
1.4507717372005391
30
0
11
37.5290660507656
21
2.1331517998636813
31
0
11
37.348191483620859
21
1.7573002160670086
31
0
11
37.042539218509859
21
1.4507717372005391
31
0
0
SPLINE
5
191
100
AcDbEntity
8
0
100
AcDbSpline
70
1064
71
3
72
9
73
5
74
3
42
0.000000001
43
0.0000000001
44
0.0000000001
40
0
40
0
40
0
40
0
40
0.044829416298340044
40
0.090435004219193704
40
0.090435004219193704
40
0.090435004219193704
40
0.090435004219193704
10
37.042539218509859
20
1.4507717372005391
30
0
10
36.914914417056615
20
1.3696795644927973
30
0
10
36.657455132262733
20
1.2060911980469069
30
0
10
36.355808598967712
20
1.1602538896235326
30
0
10
36.203690869621859
20
1.1371385327171424
30
0
11
37.042539218509859
21
1.4507717372005391
31
0
11
36.648806810051298
21
1.2364298442015009
31
0
11
36.203690869621859
21
1.1371385327171424
31
0
0
SPLINE
5
192
100
AcDbEntity
8
0
100
AcDbSpline
70
1064
71
3
72
9
73
5
74
3
42
0.000000001
43
0.0000000001
44
0.0000000001
40
0
40
0
40
0
40
0
40
0.057012012377370386
40
0.11219755288245242
40
0.11219755288245242
40
0.11219755288245242
40
0.11219755288245242
10
36.203690869621859
20
1.1371385327171424
30
0
10
36.009120095213618
20
1.1352796297159284
30
0
10
35.626211935323568
20
1.1316213766726635
30
0
10
35.303990990696803
20
1.3378896117608696
30
0
10
35.145503247119045
20
1.439344801735446
30
0
11
36.203690869621859
21
1.1371385327171424
31
0
11
35.635648336592006
21
1.1857660578523044
31
0
11
35.145503247119045
21
1.439344801735446
31
0
0
SPLINE
5
193
100
AcDbEntity
8
0
100
AcDbSpline
70
1064
71
3
72
9
73
5
74
3
42
0.000000001
43
0.0000000001
44
0.0000000001
40
0
40
0
40
0
40
0
40
0.060727422439912547
40
0.13486851351285398
40
0.13486851351285398
40
0.13486851351285398
40
0.13486851351285398
10
35.145503247119045
20
1.439344801735446
30
0
10
35.003846150502909
20
1.5883368788016694
30
0
10
34.689242281582416
20
1.9192308827254601
30
0
10
34.57270185231225
20
2.3626324487325001
30
0
10
34.508636234955418
20
2.6063830101567529
30
0
11
35.145503247119045
21
1.439344801735446
31
0
11
34.760688181553377
21
1.909131294658829
31
0
11
34.508636234955418
21
2.6063830101567529
31
0
0
SPLINE
5
194
100
AcDbEntity
8
0
100
AcDbSpline
70
1064
71
3
72
9
73
5
74
3
42
0.000000001
43
0.0000000001
44
0.0000000001
40
0
40
0
40
0
40
0
40
0.030107608598008685
40
0.053995303111189018
40
0.053995303111189018
40
0.053995303111189018
40
0.053995303111189018
10
34.508636234955418
20
2.6063830101567529
30
0
10
34.472181413952043
20
2.5125177507483554
30
0
10
34.406802953104396
20
2.344178803572655
30
0
10
34.308479644630914
20
2.1928776161157959
30
0
10
34.264981098998099
20
2.1259414876527645
30
0
11
34.508636234955418
21
2.6063830101567529
31
0
11
34.389028751035376
21
2.3300845133468617
31
0
11
34.264981098998099
21
2.1259414876527645
31
0
0
SPLINE
5
195
100
AcDbEntity
8
0
100
AcDbSpline
70
1064
71
3
72
9
73
5
74
3
42
0.000000001
43
0.0000000001
44
0.0000000001
40
0
40
0
40
0
40
0
40
0.047114607007361149
40
0.098974611158199277
40
0.098974611158199277
40
0.098974611158199277
40
0.098974611158199277
10
34.264981098998099
20
2.1259414876527645
30
0
10
34.1640010735996
20
2.0051850353087457
30
0
10
33.951870284797721
20
1.7515095050485541
30
0
10
33.695924519834868
20
1.5419758952281515
30
0
10
33.561815900684579
20
1.4321859829681516
30
0
11
34.264981098998099
21
2.1259414876527645
31
0
11
33.95211246617464
21
1.7736747734418012
31
0
11
33.561815900684579
21
1.4321859829681516
31
0
0
LINE
5
196
100
AcDbEntity
8
0
100
AcDbLine
10
33.561815900684586
20
1.4321859829681516
30
0
11
32.097339000420057
21
0.3022628203454808
31
0
0
LINE
5
197
100
AcDbEntity
8
0
100
AcDbLine
10
32.097339000420057
20
0.3022628203454808
30
0
11
32.013115751018461
21
1.2516596770990152
31
0
0
LINE
5
198
100
AcDbEntity
8
0
100
AcDbLine
10
32.013115751018461
20
1.2516596770990152
30
0
11
33.132897009714107
21
2.1117867960224883
31
0
0
SPLINE
5
199
100
AcDbEntity
8
0
100
AcDbSpline
70
1064
71
3
72
9
73
5
74
3
42
0.000000001
43
0.0000000001
44
0.0000000001
40
0
40
0
40
0
40
0
40
0.054657477499611452
40
0.096027791391051248
40
0.096027791391051248
40
0.096027791391051248
40
0.096027791391051248
10
33.132897009714107
20
2.1117867960224892
30
0
10
33.276551704044635
20
2.2239510673797942
30
0
10
33.528938818316703
20
2.4210126176773761
30
0
10
33.767690030738791
20
2.6343423767684819
30
0
10
33.870547885290925
20
2.7262482611810928
30
0
11
33.132897009714107
21
2.1117867960224892
31
0
11
33.559443464571011
21
2.4535500276771889
31
0
11
33.870547885290925
21
2.7262482611810928
31
0
0
SPLINE
5
200
100
AcDbEntity
8
0
100
AcDbSpline
70
1064
71
3
72
9
73
5
74
3
42
0.000000001
43
0.0000000001
44
0.0000000001
40
0
40
0
40
0
40
0
40
0.030899557462660595
40
0.054443885921088474
40
0.054443885921088474
40
0.054443885921088474
40
0.054443885921088474
10
33.870547885290925
20
2.7262482611810928
30
0
10
33.945308924985973
20
2.7977769991175987
30
0
10
34.077035132437899
20
2.9238080095293317
30
0
10
34.175347668205575
20
3.077061411959896
30
0
10
34.217863050686724
20
3.1433360428601724
30
0
11
33.870547885290925
21
2.7262482611810928
31
0
11
34.084068075024462
21
2.9496031216945404
31
0
11
34.217863050686724
21
3.1433360428601724
31
0
0
SPLINE
5
201
100
AcDbEntity
8
0
100
AcDbSpline
70
1064
71
3
72
9
73
5
74
3
42
0.000000001
43
0.0000000001
44
0.0000000001
40
0
40
0
40
0
40
0
40
0.019488529243556131
40
0.037909945991661954
40
0.037909945991661954
40
0.037909945991661954
40
0.037909945991661954
10
34.217863050686724
20
3.1433360428601724
30
0
10
34.246256153993301
20
3.2020875079375815
30
0
10
34.301487669898677
20
3.3163734471267614
30
0
10
34.32677498515816
20
3.4407236957714673
30
0
10
34.339062741330068
20
3.5011486764221527
30
0
11
34.217863050686724
21
3.1433360428601724
31
0
11
34.295128935017821
21
3.3222501572453353
31
0
11
34.339062741330068
21
3.5011486764221527
31
0
0
SPLINE
5
202
100
AcDbEntity
8
0
100
AcDbSpline
70
1064
71
3
72
9
73
5
74
3
42
0.000000001
43
0.0000000001
44
0.0000000001
40
0
40
0
40
0
40
0
40
0.017115485369091389
40
0.04232005812847503
40
0.04232005812847503
40
0.04232005812847503
40
0.04232005812847503
10
34.339062741330068
20
3.5011486764221527
30
0
10
34.34193898828471
20
3.5581877024705193
30
0
10
34.349050848432846
20
3.699223428066575
30
0
10
34.336496996383346
20
3.8399668161827054
30
0
10
34.329020294049151
20
3.9237894081887488
30
0
11
34.339062741330068
21
3.5011486764221527
31
0
11
34.344474892936823
21
3.6722179388772869
31
0
11
34.329020294049151
21
3.9237894081887488
31
0
0
LINE
5
203
100
AcDbEntity
8
0
100
AcDbLine
10
34.329020294049151
20
3.9237894081887488
30
0
11
34.251355441569935
21
4.7992574926889455
31
0
0
LINE
5
204
100
AcDbEntity
8
0
100
AcDbLine
10
34.251355441569935
20
4.7992574926889455
30
0
11
31.71833450978751
21
4.5745471914494011
31
0
0
LINE
5
205
100
AcDbEntity
8
0
100
AcDbLine
10
31.71833450978751
20
4.5745471914494011
30
0
11
31.651370149411072
21
5.3293952139089225
31
0
0
LINE
5
206
100
AcDbEntity
8
0
100
AcDbLine
10
34.905038396739712
20
4.8572472597407295
30
0
11
35.048977246133887
21
3.2347131952099897
31
0
0
SPLINE
5
207
100
AcDbEntity
8
0
100
AcDbSpline
70
1064
71
3
72
9
73
5
74
3
42
0.000000001
43
0.0000000001
44
0.0000000001
40
0
40
0
40
0
40
0
40
0.046366894626857842
40
0.082244126620222999
40
0.082244126620222999
40
0.082244126620222999
40
0.082244126620222999
10
35.048977246133887
20
3.2347131952099897
30
0
10
35.064388683713993
20
3.0801339122207274
30
0
10
35.091725002739423
20
2.8059460843460515
30
0
10
35.186452773260712
20
2.5475875103760566
30
0
10
35.227775726508185
20
2.4348841371783712
30
0
11
35.048977246133887
21
3.2347131952099897
31
0
11
35.116631143532345
21
2.7760064894593413
31
0
11
35.227775726508185
21
2.4348841371783712
31
0
0
SPLINE
5
208
100
AcDbEntity
8
0
100
AcDbSpline
70
1064
71
3
72
9
73
5
74
3
42
0.000000001
43
0.0000000001
44
0.0000000001
40
0
40
0
40
0
40
0
40
0.029320454843680746
40
0.05703576466365301
40
0.05703576466365301
40
0.05703576466365301
40
0.05703576466365301
10
35.227775726508185
20
2.4348841371783712
30
0
10
35.275677592455544
20
2.3477447823441939
30
0
10
35.368858942052242
20
2.1782365069179734
30
0
10
35.53082661271047
20
2.0728833109662954
30
0
10
35.60953133771212
20
2.0216891789415219
30
0
11
35.227775726508185
21
2.4348841371783712
31
0
11
35.389659443762731
21
2.1904202966786324
31
0
11
35.60953133771212
21
2.0216891789415219
31
0
0
SPLINE
5
209
100
AcDbEntity
8
0
100
AcDbSpline
70
1064
71
3
72
9
73
5
74
3
42
0.000000001
43
0.0000000001
44
0.0000000001
40
0
40
0
40
0
40
0
40
0.02717672278248532
40
0.054155890777264806
40
0.054155890777264806
40
0.054155890777264806
40
0.054155890777264806
10
35.60953133771212
20
2.0216891789415219
30
0
10
35.693458623005384
20
1.984526588233146
30
0
10
35.860703103951536
20
1.9104715515198845
30
0
10
36.043560363456081
20
1.913715854627227
30
0
10
36.134655471530813
20
1.9153320887488108
30
0
11
35.60953133771212
21
2.0216891789415219
31
0
11
35.865244917029102
21
1.92966748871306
31
0
11
36.134655471530813
21
1.9153320887488108
31
0
0
SPLINE
5
210
100
AcDbEntity
8
0
100
AcDbSpline
70
1064
71
3
72
9
73
5
74
3
42
0.000000001
43
0.0000000001
44
0.0000000001
40
0
40
0
40
0
40
0
40
0.037738952397344323
40
0.074839016344504433
40
0.074839016344504433
40
0.074839016344504433
40
0.074839016344504433
10
36.134655471530813
20
1.9153320887488108
30
0
10
36.262117285558418
20
1.9385494239720695
30
0
10
36.514883093227816
20
1.9845910446284947
30
0
10
36.688087617301321
20
2.1741535669054906
30
0
10
36.773950569982105
20
2.2681256959095335
30
0
11
36.134655471530813
21
1.9153320887488108
31
0
11
36.496809542319298
21
2.0214795419270759
31
0
11
36.773950569982105
21
2.2681256959095335
31
0
0
SPLINE
5
211
100
AcDbEntity
8
0
100
AcDbSpline
70
1064
71
3
72
9
73
5
74
3
42
0.000000001
43
0.0000000001
44
0.0000000001
40
0
40
0
40
0
40
0
40
0.042803206934283772
40
0.098317104935011695
40
0.098317104935011695
40
0.098317104935011695
40
0.098317104935011695
10
36.773950569982105
20
2.2681256959095335
30
0
10
36.838747671069754
20
2.3979077003143248
30
0
10
36.98758379442144
20
2.696011320571849
30
0
10
36.965046460174442
20
3.0304249451660832
30
0
10
36.952320950453398
20
3.2192486890919181
30
0
11
36.773950569982105
21
2.2681256959095335
31
0
11
36.935860228425518
21
2.6643538055744691
31
0
11
36.952320950453398
21
3.2192486890919181
31
0
0
LINE
5
212
100
AcDbEntity
8
0
100
AcDbLine
10
36.952320950453398
20
3.2192486890919181
30
0
11
36.792158786853086
21
5.0246581903086298
31
0
0
LINE
5
213
100
AcDbEntity
8
0
100
AcDbLine
10
36.792158786853086
20
5.0246581903086298
30
0
11
34.905038396739712
21
4.8572472597407295
31
0
0
LWPOLYLINE
5
214
100
AcDbEntity
8
0
100
AcDbPolyline
90
8
70
1
43
0.0
10
36.117294594893323
20
10.701515841872336
10
30.016660053023084
20
11.343654530929122
10
30.224928515069656
20
10.566386048957092
10
32.062979384422462
20
10.407798619284653
10
32.682729629735157
20
8.0948592157744041
10
31.18033469792956
20
7.0007616326584579
10
31.403768311282654
20
6.1668960355060136
10
36.328596096360869
20
9.9129279026798578
0
LINE
5
215
100
AcDbEntity
8
0
100
AcDbLine
10
32.715752920435285
20
10.356242158342258
30
0
11
33.218225801362713
21
8.4809878372955794
31
0
0
LINE
5
216
100
AcDbEntity
8
0
100
AcDbLine
10
33.218225801362713
20
8.4809878372955794
30
0
11
34.595439248143592
21
9.4687501627422055
31
0
0
SPLINE
5
217
100
AcDbEntity
8
0
100
AcDbSpline
70
1064
71
3
72
9
73
5
74
3
42
0.000000001
43
0.0000000001
44
0.0000000001
40
0
40
0
40
0
40
0
40
0.070000657210634087
40
0.12553159756076068
40
0.12553159756076068
40
0.12553159756076068
40
0.12553159756076068
10
34.595439248143592
20
9.4687501627422055
30
0
10
34.785359524955254
20
9.6044221505424492
30
0
10
35.125941980997226
20
9.8477216001684926
30
0
10
35.480490423826019
20
10.070122494861771
30
0
10
35.637330684067486
20
10.168505141597779
30
0
11
34.595439248143592
21
9.4687501627422055
31
0
11
35.169542877787585
21
9.8692676073331587
31
0
11
35.637330684067486
21
10.168505141597779
31
0
0
SPLINE
5
218
100
AcDbEntity
8
0
100
AcDbSpline
70
1064
71
3
72
9
73
5
74
3
42
0.000000001
43
0.0000000001
44
0.0000000001
40
0
40
0
40
0
40
0
40
0.056444027933105455
40
0.11373128765174306
40
0.11373128765174306
40
0.11373128765174306
40
0.11373128765174306
10
35.637330684067486
20
10.168505141597779
30
0
10
35.449200833754567
20
10.15996742922465
30
0
10
35.070130613125116
20
10.14276445740721
30
0
10
34.691632086730792
20
10.169854850683738
30
0
10
34.50097968287276
20
10.183500474746875
30
0
11
35.637330684067486
21
10.168505141597779
31
0
11
35.073081945203228
21
10.153801753504606
31
0
11
34.50097968287276
21
10.183500474746875
31
0
0
LINE
5
219
100
AcDbEntity
8
0
100
AcDbLine
10
34.50097968287276
20
10.183500474746875
30
0
11
32.715752920435285
21
10.356242158342258
31
0
0
LWPOLYLINE
5
220
100
AcDbEntity
8
0
100
AcDbPolyline
90
8
70
1
43
0.0
10
32.734960883953818
20
16.625550652336464
10
28.39507527621571
20
14.041796532591444
10
28.782738481126572
20
13.390645577171462
10
33.122624088864676
20
15.974399696916482
10
34.091781643775725
20
14.346523076596196
10
34.672447014897912
20
14.692222636546617
10
32.35046526046704
20
18.592413881710272
10
31.769799889344853
20
18.24671432175985
0
LINE
5
221
100
AcDbEntity
8
0
100
AcDbLine
10
26.036062754879694
20
21.074660481921761
30
0
11
26.529811298583653
21
20.553968463111289
31
0
0
SPLINE
5
222
100
AcDbEntity
8
0
100
AcDbSpline
70
1064
71
3
72
9
73
5
74
3
42
0.000000001
43
0.0000000001
44
0.0000000001
40
0
40
0
40
0
40
0
40
0.040013138480440635
40
0.074889174807194911
40
0.074889174807194911
40
0.074889174807194911
40
0.074889174807194911
10
26.529811298583653
20
20.553968463111289
30
0
10
26.438150125698211
20
20.455344998911904
30
0
10
26.26659573481718
20
20.270759881847692
30
0
10
26.169943187796395
20
20.038422971081093
30
0
10
26.124931906130541
20
19.930223213762321
30
0
11
26.529811298583653
21
20.553968463111289
31
0
11
26.276210337634978
21
20.244466156639433
31
0
11
26.124931906130541
21
19.930223213762321
31
0
0
SPLINE
5
223
100
AcDbEntity
8
0
100
AcDbSpline
70
1064
71
3
72
9
73
5
74
3
42
0.000000001
43
0.0000000001
44
0.0000000001
40
0
40
0
40
0
40
0
40
0.034364906910026895
40
0.073568449066380603
40
0.073568449066380603
40
0.073568449066380603
40
0.073568449066380603
10
26.124931906130541
20
19.930223213762321
30
0
10
26.101445280823739
20
19.816744643218861
30
0
10
26.051165074852332
20
19.573809533311252
30
0
10
26.105772072350007
20
19.331312452079889
30
0
10
26.134871336444874
20
19.202089331741053
30
0
11
26.124931906130541
21
19.930223213762321
31
0
11
26.077358017308402
21
19.589883078315708
31
0
11
26.134871336444874
21
19.202089331741053
31
0
0
SPLINE
5
224
100
AcDbEntity
8
0
100
AcDbSpline
70
1064
71
3
72
9
73
5
74
3
42
0.000000001
43
0.0000000001
44
0.0000000001
40
0
40
0
40
0
40
0
40
0.043416437560383929
40
0.089997269267096378
40
0.089997269267096378
40
0.089997269267096378
40
0.089997269267096378
10
26.134871336444874
20
19.202089331741053
30
0
10
26.181310350024724
20
19.064051640036364
30
0
10
26.277573070885492
20
18.777915420497923
30
0
10
26.456276252536945
20
18.534386052071493
30
0
10
26.548769534808162
20
18.408339999577979
30
0
11
26.134871336444874
21
19.202089331741053
31
0
11
26.293374627991088
21
18.797892088291167
31
0
11
26.548769534808162
21
18.408339999577979
31
0
0
SPLINE
5
225
100
AcDbEntity
8
0
100
AcDbSpline
70
1064
71
3
72
9
73
5
74
3
42
0.000000001
43
0.0000000001
44
0.0000000001
40
0
40
0
40
0
40
0
40
0.040947312193078088
40
0.077973984662009027
40
0.077973984662009027
40
0.077973984662009027
40
0.077973984662009027
10
26.548769534808162
20
18.408339999577979
30
0
10
26.637436055050475
20
18.303555910953747
30
0
10
26.806279417877516
20
18.104020642785656
30
0
10
27.023128330975467
20
17.958378450682794
30
0
10
27.126101055985288
20
17.889218899993867
30
0
11
26.548769534808162
21
18.408339999577979
31
0
11
26.828007717930006
21
18.108849975252376
31
0
11
27.126101055985288
21
17.889218899993867
31
0
0
SPLINE
5
226
100
AcDbEntity
8
0
100
AcDbSpline
70
1064
71
3
72
9
73
5
74
3
42
0.000000001
43
0.0000000001
44
0.0000000001
40
0
40
0
40
0
40
0
40
0.032741002284199433
40
0.061399471879134818
40
0.061399471879134818
40
0.061399471879134818
40
0.061399471879134818
10
27.126101055985288
20
17.889218899993867
30
0
10
27.223808464992775
20
17.837255185309282
30
0
10
27.407039975734687
20
17.739807202171281
30
0
10
27.613810933288448
20
17.727928650994084
30
0
10
27.710322173838442
20
17.722384285752415
30
0
11
27.126101055985288
21
17.889218899993867
31
0
11
27.425916746847093
21
17.757659504394564
31
0
11
27.710322173838442
21
17.722384285752415
31
0
0
SPLINE
5
227
100
AcDbEntity
8
0
100
AcDbSpline
70
1064
71
3
72
9
73
5
74
3
42
0.000000001
43
0.0000000001
44
0.0000000001
40
0
40
0
40
0
40
0
40
0.026446710896734636
40
0.052303431920481189
40
0.052303431920481189
40
0.052303431920481189
40
0.052303431920481189
10
27.710322173838442
20
17.722384285752415
30
0
10
27.799289708616985
20
17.732708015864112
30
0
10
27.975240034409566
20
17.753125167818123
30
0
10
28.122269939528699
20
17.851773166523714
30
0
10
28.194955633358379
20
17.900540784410804
30
0
11
27.710322173838442
21
17.722384285752415
31
0
11
27.969830639884002
21
17.773356903658765
31
0
11
28.194955633358379
21
17.900540784410804
31
0
0
SPLINE
5
228
100
AcDbEntity
8
0
100
AcDbSpline
70
1064
71
3
72
9
73
5
74
3
42
0.000000001
43
0.0000000001
44
0.0000000001
40
0
40
0
40
0
40
0
40
0.025544553650894277
40
0.050317773897973289
40
0.050317773897973289
40
0.050317773897973289
40
0.050317773897973289
10
28.194955633358379
20
17.900540784410804
30
0
10
28.258843087364582
20
17.959121039854871
30
0
10
28.384688874671529
20
18.074512684140537
30
0
10
28.439305662992563
20
18.236168302190283
30
0
10
28.466195440131919
20
18.315757082056507
30
0
11
28.194955633358379
21
17.900540784410804
31
0
11
28.368260617849831
21
18.088204857884548
31
0
11
28.466195440131919
21
18.315757082056507
31
0
0
SPLINE
5
229
100
AcDbEntity
8
0
100
AcDbSpline
70
1064
71
3
72
9
73
5
74
3
42
0.000000001
43
0.0000000001
44
0.0000000001
40
0
40
0
40
0
40
0
40
0.027768416316383653
40
0.062204975093677561
40
0.062204975093677561
40
0.062204975093677561
40
0.062204975093677561
10
28.466195440131919
20
18.315757082056507
30
0
10
28.477076671958784
20
18.408591147810544
30
0
10
28.501452089954068
20
18.616551900137182
30
0
10
28.442485435928674
20
18.81808214203604
30
0
10
28.409841605685386
20
18.929648909969007
30
0
11
28.466195440131919
21
18.315757082056507
31
0
11
28.48223117614863
21
18.59297784181739
31
0
11
28.409841605685386
21
18.929648909969007
31
0
0
SPLINE
5
230
100
AcDbEntity
8
0
100
AcDbSpline
70
1064
71
3
72
9
73
5
74
3
42
0.000000001
43
0.0000000001
44
0.0000000001
40
0
40
0
40
0
40
0
40
0.038749626371410412
40
0.10574332785137974
40
0.10574332785137974
40
0.10574332785137974
40
0.10574332785137974
10
28.409841605685386
20
18.929648909969007
30
0
10
28.364157290583552
20
19.050506696900399
30
0
10
28.239489985067454
20
19.3803138662492
30
0
10
28.089244452082113
20
19.699389857994039
30
0
10
27.994056371755516
20
19.901540501204572
30
0
11
28.409841605685386
21
18.929648909969007
31
0
11
28.269353875551012
21
19.290781229312039
31
0
11
27.994056371755516
21
19.901540501204572
31
0
0
SPLINE
5
231
100
AcDbEntity
8
0
100
AcDbSpline
70
1064
71
3
72
9
73
5
74
3
42
0.000000001
43
0.0000000001
44
0.0000000001
40
0
40
0
40
0
40
0
40
0.069569468128484746
40
0.11635601084512733
40
0.11635601084512733
40
0.11635601084512733
40
0.11635601084512733
10
27.994056371755516
20
19.901540501204572
30
0
10
27.895651704439011
20
20.112143934029902
30
0
10
27.731068377219323
20
20.464381430924195
30
0
10
27.627568682347224
20
20.83877583393004
30
0
10
27.585951641163689
20
20.989319150101473
30
0
11
27.994056371755516
21
19.901540501204572
31
0
11
27.720678947432052
21
20.541271595835976
31
0
11
27.585951641163689
21
20.989319150101473
31
0
0
SPLINE
5
232
100
AcDbEntity
8
0
100
AcDbSpline
70
1064
71
3
72
9
73
5
74
3
42
0.000000001
43
0.0000000001
44
0.0000000001
40
0
40
0
40
0
40
0
40
0.0431331665677782
40
0.08183272032663963
40
0.08183272032663963
40
0.08183272032663963
40
0.08183272032663963
10
27.585951641163689
20
20.989319150101473
30
0
10
27.564537530330398
20
21.133169799201312
30
0
10
27.523910442585496
20
21.40608484053255
30
0
10
27.591142200858251
20
21.673297089139069
30
0
10
27.622936806160308
20
21.799664570736862
30
0
11
27.585951641163689
21
20.989319150101473
31
0
11
27.551675012131302
21
21.419286728551924
31
0
11
27.622936806160308
21
21.799664570736862
31
0
0
SPLINE
5
233
100
AcDbEntity
8
0
100
AcDbSpline
70
1064
71
3
72
9
73
5
74
3
42
0.000000001
43
0.0000000001
44
0.0000000001
40
0
40
0
40
0
40
0
40
0.036960075617596309
40
0.074844231023783181
40
0.074844231023783181
40
0.074844231023783181
40
0.074844231023783181
10
27.622936806160308
20
21.799664570736862
30
0
10
27.672603135386389
20
21.914097023139043
30
0
10
27.773177556747427
20
22.145822980434691
30
0
10
27.960826070200465
20
22.315078509059155
30
0
10
28.055808747531145
20
22.400751147578593
30
0
11
27.622936806160308
21
21.799664570736862
31
0
11
27.793170096131007
21
22.127727592047698
31
0
11
28.055808747531145
21
22.400751147578593
31
0
0
SPLINE
5
234
100
AcDbEntity
8
0
100
AcDbSpline
70
1064
71
3
72
9
73
5
74
3
42
0.000000001
43
0.0000000001
44
0.0000000001
40
0
40
0
40
0
40
0
40
0.04239216043018211
40
0.085639785946325181
40
0.085639785946325181
40
0.085639785946325181
40
0.085639785946325181
10
28.055808747531145
20
22.400751147578593
30
0
10
28.174214102931789
20
22.481259247457537
30
0
10
28.413414209472961
20
22.643900084126702
30
0
10
28.699149901869099
20
22.689470824941029
30
0
10
28.843444870437672
20
22.712483800878012
30
0
11
28.055808747531145
21
22.400751147578593
31
0
11
28.422427446553002
21
22.613589715797204
31
0
11
28.843444870437672
21
22.712483800878012
31
0
0
SPLINE
5
235
100
AcDbEntity
8
0
100
AcDbSpline
70
1064
71
3
72
9
73
5
74
3
42
0.000000001
43
0.0000000001
44
0.0000000001
40
0
40
0
40
0
40
0
40
0.044896438587908503
40
0.092960606959215833
40
0.092960606959215833
40
0.092960606959215833
40
0.092960606959215833
10
28.843444870437672
20
22.712483800878012
30
0
10
28.99517157219482
20
22.713013262129511
30
0
10
29.309330261188549
20
22.714109541497077
30
0
10
29.592343372738938
20
22.576891532512732
30
0
10
29.738671912211714
20
22.505944604527496
30
0
11
28.843444870437672
21
22.712483800878012
31
0
11
29.291360199009837
21
22.681810062633794
31
0
11
29.738671912211714
21
22.505944604527496
31
0
0
SPLINE
5
236
100
AcDbEntity
8
0
100
AcDbSpline
70
1064
71
3
72
9
73
5
74
3
42
0.000000001
43
0.0000000001
44
0.0000000001
40
0
40
0
40
0
40
0
40
0.052007895821854784
40
0.1073993093663565
40
0.1073993093663565
40
0.1073993093663565
40
0.1073993093663565
10
29.738671912211714
20
22.505944604527496
30
0
10
29.885805861680343
20
22.412372597994818
30
0
10
30.189645967255899
20
22.219140998853469
30
0
10
30.424370281673223
20
21.945866039469717
30
0
10
30.545429827079502
20
21.804923920047443
30
0
11
29.738671912211714
21
22.505944604527496
31
0
11
30.163866378458899
21
22.206458730646162
31
0
11
30.545429827079502
21
21.804923920047443
31
0
0
SPLINE
5
237
100
AcDbEntity
8
0
100
AcDbSpline
70
1064
71
3
72
9
73
5
74
3
42
0.000000001
43
0.0000000001
44
0.0000000001
40
0
40
0
40
0
40
0
40
0.060131053884631698
40
0.11473467625504893
40
0.11473467625504893
40
0.11473467625504893
40
0.11473467625504893
10
30.545429827079502
20
21.804923920047443
30
0
10
30.665603073699984
20
21.642862346867553
30
0
10
30.894902872302758
20
21.333636399026133
30
0
10
31.022840999744538
20
20.970841898717794
30
0
10
31.083728304486478
20
20.79818360098691
30
0
11
30.545429827079502
21
21.804923920047443
31
0
11
30.878108748109902
21
21.304025627347521
31
0
11
31.083728304486478
21
20.79818360098691
31
0
0
SPLINE
5
238
100
AcDbEntity
8
0
100
AcDbSpline
70
1064
71
3
72
9
73
5
74
3
42
0.000000001
43
0.0000000001
44
0.0000000001
40
0
40
0
40
0
40
0
40
0.049927122087363739
40
0.097214568916820787
40
0.097214568916820787
40
0.097214568916820787
40
0.097214568916820787
10
31.083728304486478
20
20.79818360098691
30
0
10
31.119654820040417
20
20.633225563197847
30
0
10
31.189608395897398
20
20.312030912623609
30
0
10
31.113700905307709
20
19.992492230001048
30
0
10
31.076777721208735
20
19.837061118874093
30
0
11
31.083728304486478
21
20.79818360098691
31
0
11
31.153035410241937
21
20.303746267157376
31
0
11
31.076777721208735
21
19.837061118874093
31
0
0
SPLINE
5
239
100
AcDbEntity
8
0
100
AcDbSpline
70
1064
71
3
72
9
73
5
74
3
42
0.000000001
43
0.0000000001
44
0.0000000001
40
0
40
0
40
0
40
0
40
0.047003103067196329
40
0.095423791736136993
40
0.095423791736136993
40
0.095423791736136993
40
0.095423791736136993
10
31.076777721208735
20
19.837061118874093
30
0
10
31.016455177266515
20
19.690501403238866
30
0
10
30.893990797374236
20
19.392961818209979
30
0
10
30.66276242730147
20
19.169028396100103
30
0
10
30.545430714580604
20
19.055398343077947
30
0
11
31.076777721208735
21
19.837061118874093
31
0
11
30.869420972700429
21
19.41524083884644
31
0
11
30.545430714580604
21
19.055398343077947
31
0
0
LINE
5
240
100
AcDbEntity
8
0
100
AcDbLine
10
30.545430714580604
20
19.055398343077947
30
0
11
30.050505363893208
21
19.590125008034651
31
0
0
SPLINE
5
241
100
AcDbEntity
8
0
100
AcDbSpline
70
1064
71
3
72
9
73
5
74
3
42
0.000000001
43
0.0000000001
44
0.0000000001
40
0
40
0
40
0
40
0
40
0.049356169444921251
40
0.092947866089725995
40
0.092947866089725995
40
0.092947866089725995
40
0.092947866089725995
10
30.050505363893208
20
19.590125008034647
30
0
10
30.163915418002397
20
19.715163648391631
30
0
10
30.377489985095437
20
19.950637246335891
30
0
10
30.424080649490612
20
20.263989137910951
30
0
10
30.445931243745612
20
20.410948300883341
30
0
11
30.050505363893208
21
19.590125008034647
31
0
11
30.343650951420233
21
19.987200329278632
31
0
11
30.445931243745612
21
20.410948300883341
31
0
0
SPLINE
5
242
100
AcDbEntity
8
0
100
AcDbSpline
70
1064
71
3
72
9
73
5
74
3
42
0.000000001
43
0.0000000001
44
0.0000000001
40
0
40
0
40
0
40
0
40
0.046730434400508898
40
0.10510271047091911
40
0.10510271047091911
40
0.10510271047091911
40
0.10510271047091911
10
30.445931243745612
20
20.410948300883341
30
0
10
30.424356686674422
20
20.567674231878506
30
0
10
30.375832754584316
20
20.92017085126561
30
0
10
30.161193133105023
20
21.206039741669361
30
0
10
30.041985900632131
20
21.364806511011682
30
0
11
30.445931243745612
21
20.410948300883341
31
0
11
30.348369137112559
21
20.867954849277723
31
0
11
30.041985900632131
21
21.364806511011682
31
0
0
SPLINE
5
243
100
AcDbEntity
8
0
100
AcDbSpline
70
1064
71
3
72
9
73
5
74
3
42
0.000000001
43
0.0000000001
44
0.0000000001
40
0
40
0
40
0
40
0
40
0.05975671915904629
40
0.10469433710765809
40
0.10469433710765809
40
0.10469433710765809
40
0.10469433710765809
10
30.041985900632131
20
21.364806511011682
30
0
10
29.913231026206294
20
21.521822566002538
30
0
10
29.68765126853059
20
21.796916179304411
30
0
10
29.361336748039626
20
21.933663099080675
30
0
10
29.22127380234441
20
21.99235854533233
30
0
11
30.041985900632131
21
21.364806511011682
31
0
11
29.622903703152463
21
21.790783811135679
31
0
11
29.22127380234441
21
21.99235854533233
31
0
0
SPLINE
5
244
100
AcDbEntity
8
0
100
AcDbSpline
70
1064
71
3
72
9
73
5
74
3
42
0.000000001
43
0.0000000001
44
0.0000000001
40
0
40
0
40
0
40
0
40
0.036443267951751533
40
0.070326821156478841
40
0.070326821156478841
40
0.070326821156478841
40
0.070326821156478841
10
29.22127380234441
20
21.99235854533233
30
0
10
29.096911131990332
20
22.010616917447123
30
0
10
28.856920819153618
20
22.0458512238772
30
0
10
28.649866096273989
20
21.920790243476382
30
0
10
28.550106863542965
20
21.860535701701803
30
0
11
29.22127380234441
21
21.99235854533233
31
0
11
28.857029982035876
21
22.004089583963292
31
0
11
28.550106863542965
21
21.860535701701803
31
0
0
SPLINE
5
245
100
AcDbEntity
8
0
100
AcDbSpline
70
1064
71
3
72
9
73
5
74
3
42
0.000000001
43
0.0000000001
44
0.0000000001
40
0
40
0
40
0
40
0
40
0.028670538882441147
40
0.056816059132746038
40
0.056816059132746038
40
0.056816059132746038
40
0.056816059132746038
10
28.550106863542965
20
21.860535701701803
30
0
10
28.478953319667163
20
21.792567206606954
30
0
10
28.337949204853395
20
21.657874864328107
30
0
10
28.30664675276148
20
21.465528726878098
30
0
10
28.291140154579814
20
21.370244362047046
30
0
11
28.550106863542965
21
21.860535701701803
31
0
11
28.36458084805799
21
21.641949156920965
31
0
11
28.291140154579814
21
21.370244362047046
31
0
0
SPLINE
5
246
100
AcDbEntity
8
0
100
AcDbSpline
70
1064
71
3
72
9
73
5
74
3
42
0.000000001
43
0.0000000001
44
0.0000000001
40
0
40
0
40
0
40
0
40
0.044351685548915248
40
0.12190835168251465
40
0.12190835168251465
40
0.12190835168251465
40
0.12190835168251465
10
28.291140154579814
20
21.370244362047046
30
0
10
28.315264688385863
20
21.223730525137935
30
0
10
28.381575181775361
20
20.821011662591623
30
0
10
28.565545313420536
20
20.454797988805016
30
0
10
28.68258495739601
20
20.221817136882791
30
0
11
28.291140154579814
21
21.370244362047046
31
0
11
28.379087063151896
21
20.935534640076629
31
0
11
28.68258495739601
21
20.221817136882791
31
0
0
SPLINE
5
247
100
AcDbEntity
8
0
100
AcDbSpline
70
1064
71
3
72
9
73
5
74
3
42
0.000000001
43
0.0000000001
44
0.0000000001
40
0
40
0
40
0
40
0
40
0.080304465937731828
40
0.1320348817842224
40
0.1320348817842224
40
0.1320348817842224
40
0.1320348817842224
10
28.68258495739601
20
20.221817136882791
30
0
10
28.799635406774957
20
19.980633684406438
30
0
10
28.992087246981733
20
19.584085020964515
30
0
10
29.131017461482717
20
19.166057479102655
30
0
10
29.185449424253914
20
19.002276981982654
30
0
11
28.68258495739601
21
20.221817136882791
31
0
11
29.013937849155333
21
19.490321418455697
31
0
11
29.185449424253914
21
19.002276981982654
31
0
0
SPLINE
5
248
100
AcDbEntity
8
0
100
AcDbSpline
70
1064
71
3
72
9
73
5
74
3
42
0.000000001
43
0.0000000001
44
0.0000000001
40
0
40
0
40
0
40
0
40
0.050704300704306329
40
0.095022511048522385
40
0.095022511048522385
40
0.095022511048522385
40
0.095022511048522385
10
29.185449424253914
20
19.002276981982654
30
0
10
29.219765411278942
20
18.834612424030858
30
0
10
29.284075365482686
20
18.520400274585569
30
0
10
29.218360270326968
20
18.20708284250459
30
0
10
29.187710949679001
20
18.060952544470435
30
0
11
29.185449424253914
21
19.002276981982654
31
0
11
29.251375066498085
21
18.499538062974025
31
0
11
29.187710949679001
21
18.060952544470435
31
0
0
SPLINE
5
249
100
AcDbEntity
8
0
100
AcDbSpline
70
1064
71
3
72
9
73
5
74
3
42
0.000000001
43
0.0000000001
44
0.0000000001
40
0
40
0
40
0
40
0
40
0.042026173123696831
40
0.085841173422014166
40
0.085841173422014166
40
0.085841173422014166
40
0.085841173422014166
10
29.187710949679001
20
18.060952544470435
30
0
10
29.13399898905007
20
17.929485001000053
30
0
10
29.024288839767291
20
17.660954050889739
30
0
10
28.80854666145154
20
17.46674548810185
30
0
10
28.698427668077663
20
17.367617669861836
30
0
11
29.187710949679001
21
18.060952544470435
31
0
11
29.001160339485619
21
17.684364184880327
31
0
11
28.698427668077663
21
17.367617669861836
31
0
0
SPLINE
5
250
100
AcDbEntity
8
0
100
AcDbSpline
70
1064
71
3
72
9
73
5
74
3
42
0.000000001
43
0.0000000001
44
0.0000000001
40
0
40
0
40
0
40
0
40
0.044864447883269425
40
0.090996809435855766
40
0.090996809435855766
40
0.090996809435855766
40
0.090996809435855766
10
28.698427668077663
20
17.367617669861836
30
0
10
28.573021934404053
20
17.282621156764773
30
0
10
28.318666376993601
20
17.110226045046709
30
0
10
28.015175955432721
20
17.061313664677979
30
0
10
27.861316386707266
20
17.036516711580862
30
0
11
28.698427668077663
21
17.367617669861836
31
0
11
28.310266679106032
21
17.142644526958897
31
0
11
27.861316386707266
21
17.036516711580862
31
0
0
SPLINE
5
251
100
AcDbEntity
8
0
100
AcDbSpline
70
1064
71
3
72
9
73
5
74
3
42
0.000000001
43
0.0000000001
44
0.0000000001
40
0
40
0
40
0
40
0
40
0.048043140321024545
40
0.099055650849968382
40
0.099055650849968382
40
0.099055650849968382
40
0.099055650849968382
10
27.861316386707266
20
17.036516711580862
30
0
10
27.699207925099248
20
17.034229436506834
30
0
10
27.364971672731659
20
17.02951351827965
30
0
10
27.058776571666016
20
17.164358432525027
30
0
10
26.901089648375994
20
17.233801998325585
30
0
11
27.861316386707266
21
17.036516711580862
31
0
11
27.381587297389412
21
17.062484654372497
31
0
11
26.901089648375994
21
17.233801998325585
31
0
0
SPLINE
5
252
100
AcDbEntity
8
0
100
AcDbSpline
70
1064
71
3
72
9
73
5
74
3
42
0.000000001
43
0.0000000001
44
0.0000000001
40
0
40
0
40
0
40
0
40
0.05475531505252091
40
0.11327730816309026
40
0.11327730816309026
40
0.11327730816309026
40
0.11327730816309026
10
26.901089648375994
20
17.233801998325585
30
0
10
26.742961488142054
20
17.327479704232967
30
0
10
26.41582735844338
20
17.521279307977441
30
0
10
26.167088246310861
20
17.80915095768437
30
0
10
26.038583174619092
20
17.957872912452416
30
0
11
26.901089648375994
21
17.233801998325585
31
0
11
26.445022203111897
21
17.536815097085952
31
0
11
26.038583174619092
21
17.957872912452416
31
0
0
SPLINE
5
253
100
AcDbEntity
8
0
100
AcDbSpline
70
1064
71
3
72
9
73
5
74
3
42
0.000000001
43
0.0000000001
44
0.0000000001
40
0
40
0
40
0
40
0
40
0.071659737473106569
40
0.13290214614133114
40
0.13290214614133114
40
0.13290214614133114
40
0.13290214614133114
10
26.038583174619092
20
17.957872912452416
30
0
10
25.893739193246574
20
18.149892295033531
30
0
10
25.625107508860523
20
18.506016793191804
30
0
10
25.474630435660547
20
18.92539133542239
30
0
10
25.405289355176329
20
19.118642594683635
30
0
11
26.038583174619092
21
17.957872912452416
31
0
11
25.638402050820336
21
18.552319601085312
31
0
11
25.405289355176329
21
19.118642594683635
31
0
0
SPLINE
5
254
100
AcDbEntity
8
0
100
AcDbSpline
70
1064
71
3
72
9
73
5
74
3
42
0.000000001
43
0.0000000001
44
0.0000000001
40
0
40
0
40
0
40
0
40
0.054791177103874558
40
0.10815048468513205
40
0.10815048468513205
40
0.10815048468513205
40
0.10815048468513205
10
25.405289355176329
20
19.118642594683635
30
0
10
25.368376344511866
20
19.300092479590965
30
0
10
25.295514978767152
20
19.658250380845491
30
0
10
25.382888767969295
20
20.012987353655866
30
0
10
25.425997265412931
20
20.188007551648887
30
0
11
25.405289355176329
21
19.118642594683635
31
0
11
25.335676858658012
21
19.662114221515527
31
0
11
25.425997265412931
21
20.188007551648887
31
0
0
SPLINE
5
255
100
AcDbEntity
8
0
100
AcDbSpline
70
1064
71
3
72
9
73
5
74
3
42
0.000000001
43
0.0000000001
44
0.0000000001
40
0
40
0
40
0
40
0
40
0.0535806973075846
40
0.10870576883520477
40
0.10870576883520477
40
0.10870576883520477
40
0.10870576883520477
10
25.425997265412931
20
20.188007551648887
30
0
10
25.495005025704884
20
20.355075603729482
30
0
10
25.635009579864917
20
20.694027165799774
30
0
10
25.901118168682689
20
20.946586678903039
30
0
10
26.036062754879694
20
21.074660481921761
30
0
11
25.425997265412931
21
20.188007551648887
31
0
11
25.663657143055293
21
20.668223018867209
31
0
11
26.036062754879694
21
21.074660481921761
31
0
0
LINE
5
256
100
AcDbEntity
8
0
100
AcDbLine
10
20.253801207146562
20
24.211825732033986
30
0
11
21.845592542902498
21
26.042294571694082
31
0
0
LINE
5
257
100
AcDbEntity
8
0
100
AcDbLine
10
21.845592542902498
20
26.042294571694082
30
0
11
22.346154076387638
21
29.981276970811926
31
0
0
LINE
5
258
100
AcDbEntity
8
0
100
AcDbLine
10
22.346154076387638
20
29.981276970811926
30
0
11
23.041791197392204
21
29.376344989423544
31
0
0
LINE
5
259
100
AcDbEntity
8
0
100
AcDbLine
10
23.041791197392204
20
29.376344989423544
30
0
11
22.760685982522375
21
27.332713948924507
31
0
0
SPLINE
5
260
100
AcDbEntity
8
0
100
AcDbSpline
70
1064
71
3
72
9
73
5
74
3
42
0.000000001
43
0.0000000001
44
0.0000000001
40
0
40
0
40
0
40
0
40
0.057068119798211157
40
0.11302993400731973
40
0.11302993400731973
40
0.11302993400731973
40
0.11302993400731973
10
22.760685982522375
20
27.332713948924511
30
0
10
22.732179675646151
20
27.144602602884142
30
0
10
22.675719676676405
20
26.772026581382953
30
0
10
22.601122829206346
20
26.402655728575418
30
0
10
22.564189472079612
20
26.21977795181111
30
0
11
22.760685982522375
21
27.332713948924511
31
0
11
22.67054365617641
21
26.769196965390528
31
0
11
22.564189472079612
21
26.21977795181111
31
0
0
SPLINE
5
261
100
AcDbEntity
8
0
100
AcDbSpline
70
1064
71
3
72
9
73
5
74
3
42
0.000000001
43
0.0000000001
44
0.0000000001
40
0
40
0
40
0
40
0
40
0.055619914079452035
40
0.11893199522102124
40
0.11893199522102124
40
0.11893199522102124
40
0.11893199522102124
10
22.564189472079612
20
26.21977795181111
30
0
10
22.740002435124111
20
26.278691425577847
30
0
10
23.115943082042996
20
26.404666035507496
30
0
10
23.496898009394446
20
26.514577003279957
30
0
10
23.699694987843625
20
26.573086844109802
30
0
11
22.564189472079612
21
26.21977795181111
31
0
11
23.0927250207931
21
26.393005137803058
31
0
11
23.699694987843625
21
26.573086844109802
31
0
0
LINE
5
262
100
AcDbEntity
8
0
100
AcDbLine
10
23.699694987843625
20
26.573086844109802
30
0
11
25.641587456018403
21
27.115539959833232
31
0
0
LINE
5
263
100
AcDbEntity
8
0
100
AcDbLine
10
25.641587456018403
20
27.115539959833232
30
0
11
26.307748533034328
21
26.53624059803219
31
0
0
LINE
5
264
100
AcDbEntity
8
0
100
AcDbLine
10
26.307748533034328
20
26.53624059803219
30
0
11
22.417429930582784
21
25.545019895693692
31
0
0
LINE
5
265
100
AcDbEntity
8
0
100
AcDbLine
10
22.417429930582784
20
25.545019895693692
30
0
11
20.825638594826845
21
23.714551056033592
31
0
0
LINE
5
266
100
AcDbEntity
8
0
100
AcDbLine
10
20.825638594826845
20
23.714551056033592
30
0
11
20.253801207146562
21
24.211825732033986
31
0
0
LWPOLYLINE
5
267
100
AcDbEntity
8
0
100
AcDbPolyline
90
10
70
1
43
0.0
10
16.983832445495761
20
33.500582203098908
10
14.120551076286464
20
28.541233395263042
10
14.749772671628381
20
28.177952137812461
10
16.999772761035352
20
32.075066609699846
10
17.354614577400916
20
26.674045962318267
10
18.027814322088794
20
26.285373908504333
10
20.891095691298098
20
31.244722716340199
10
20.261873902384416
20
31.608004085549489
10
18.013826908175123
20
27.714272473776511
10
17.657031867564037
20
33.111910335549496
0
SPLINE
5
268
100
AcDbEntity
8
0
100
AcDbSpline
70
1064
71
3
72
9
73
5
74
3
42
0.000000001
43
0.0000000001
44
0.0000000001
40
0
40
0
40
0
40
0
40
0.12853276880422101
40
0.24051789845851895
40
0.24051789845851895
40
0.24051789845851895
40
0.24051789845851895
10
9.1514705464099571
20
33.393348084961126
30
0
10
9.3062949227396601
20
33.804293593325738
30
0
10
9.596011187093163
20
34.573278428651086
30
0
10
10.254663254653451
20
35.059587592582176
30
0
10
10.561331646717134
20
35.286013131487707
30
0
11
9.1514705464099571
21
33.393348084961126
31
0
11
9.7213056080445597
21
34.545457137169208
31
0
11
10.561331646717134
21
35.286013131487707
31
0
0
SPLINE
5
269
100
AcDbEntity
8
0
100
AcDbSpline
70
1064
71
3
72
9
73
5
74
3
42
0.000000001
43
0.0000000001
44
0.0000000001
40
0
40
0
40
0
40
0
40
0.10653864314328866
40
0.21833344191543907
40
0.21833344191543907
40
0.21833344191543907
40
0.21833344191543907
10
10.561331646717134
20
35.286013131487707
30
0
10
10.898213308356306
20
35.425151250705539
30
0
10
11.588596915034577
20
35.710291961852136
30
0
10
12.316839120973134
20
35.539177901829376
30
0
10
12.689726069285063
20
35.451561173308512
30
0
11
10.561331646717134
21
35.286013131487707
31
0
11
11.58099106310797
21
35.594789624839777
31
0
11
12.689726069285063
21
35.451561173308512
31
0
0
SPLINE
5
270
100
AcDbEntity
8
0
100
AcDbSpline
70
1064
71
3
72
9
73
5
74
3
42
0.000000001
43
0.0000000001
44
0.0000000001
40
0
40
0
40
0
40
0
40
0.075983414606824409
40
0.14929358444332827
40
0.14929358444332827
40
0.14929358444332827
40
0.14929358444332827
10
12.689726069285063
20
35.451561173308512
30
0
10
12.928922225268554
20
35.359622951321484
30
0
10
13.398899149793785
20
35.178981073369378
30
0
10
13.75898122413904
20
34.82740714941756
30
0
10
13.935798453919951
20
34.654767821538222
30
0
11
12.689726069285063
21
35.451561173308512
31
0
11
13.378848129647356
21
35.131469443560171
31
0
11
13.935798453919951
21
34.654767821538222
31
0
0
SPLINE
5
271
100
AcDbEntity
8
0
100
AcDbSpline
70
1064
71
3
72
9
73
5
74
3
42
0.000000001
43
0.0000000001
44
0.0000000001
40
0
40
0
40
0
40
0
40
0.072147424944232028
40
0.14504940842907288
40
0.14504940842907288
40
0.14504940842907288
40
0.14504940842907288
10
13.935798453919951
20
34.654767821538222
30
0
10
14.083704947755663
20
34.461111922787062
30
0
10
14.381064825121655
20
34.071774762460571
30
0
10
14.48556909660093
20
33.593064491953456
30
0
10
14.538093052099882
20
33.352464212279799
30
0
11
13.935798453919951
21
34.654767821538222
31
0
11
14.331804354296613
21
34.051688706102091
31
0
11
14.538093052099882
21
33.352464212279799
31
0
0
SPLINE
5
272
100
AcDbEntity
8
0
100
AcDbSpline
70
1064
71
3
72
9
73
5
74
3
42
0.000000001
43
0.0000000001
44
0.0000000001
40
0
40
0
40
0
40
0
40
0.076529894261914297
40
0.15835351198061695
40
0.15835351198061695
40
0.15835351198061695
40
0.15835351198061695
10
14.538093052099882
20
33.352464212279799
30
0
10
14.558275996097995
20
33.096128908034977
30
0
10
14.600037978066393
20
32.565727081882336
30
0
10
14.459899290852078
20
32.052109369590873
30
0
10
14.38748754433124
20
31.786715449251197
30
0
11
14.538093052099882
21
33.352464212279799
31
0
11
14.556156345908953
21
32.587378472646165
31
0
11
14.38748754433124
21
31.786715449251197
31
0
0
SPLINE
5
273
100
AcDbEntity
8
0
100
AcDbSpline
70
1064
71
3
72
9
73
5
74
3
42
0.000000001
43
0.0000000001
44
0.0000000001
40
0
40
0
40
0
40
0
40
0.082986297518908916
40
0.16092189760525502
40
0.16092189760525502
40
0.16092189760525502
40
0.16092189760525502
10
14.38748754433124
20
31.786715449251197
30
0
10
14.290342059912323
20
31.525003659766195
30
0
10
14.101963542447894
20
31.017508337661994
30
0
10
13.748577695525528
20
30.607909396200945
30
0
10
13.577430459184363
20
30.409537765164096
30
0
11
14.38748754433124
21
31.786715449251197
31
0
11
14.052169160836261
21
31.027614573688531
31
0
11
13.577430459184363
21
30.409537765164096
31
0
0
SPLINE
5
274
100
AcDbEntity
8
0
100
AcDbSpline
70
1064
71
3
72
9
73
5
74
3
42
0.000000001
43
0.0000000001
44
0.0000000001
40
0
40
0
40
0
40
0
40
0.073843005550254207
40
0.14577008218047449
40
0.14577008218047449
40
0.14577008218047449
40
0.14577008218047449
10
13.577430459184363
20
30.409537765164096
30
0
10
13.390185480045265
20
30.244312596918434
30
0
10
13.020553775680096
20
29.918149188834221
30
0
10
12.545671873250795
20
29.786685389312165
30
0
10
12.311351726925785
20
29.721817436705706
30
0
11
13.577430459184363
21
30.409537765164096
31
0
11
12.988686748783817
21
29.963825088282125
31
0
11
12.311351726925785
21
29.721817436705706
31
0
0
SPLINE
5
275
100
AcDbEntity
8
0
100
AcDbSpline
70
1064
71
3
72
9
73
5
74
3
42
0.000000001
43
0.0000000001
44
0.0000000001
40
0
40
0
40
0
40
0
40
0.072048109241051067
40
0.14465830564121979
40
0.14465830564121979
40
0.14465830564121979
40
0.14465830564121979
10
12.311351726925785
20
29.721817436705706
30
0
10
12.070812706137309
20
29.690564318570441
30
0
10
11.587858086586609
20
29.627814259435283
30
0
10
11.116001348306394
20
29.748552486518037
30
0
10
10.879156251252343
20
29.809156171474989
30
0
11
12.311351726925785
21
29.721817436705706
31
0
11
11.592487615694115
21
29.673574363584883
31
0
11
10.879156251252343
21
29.809156171474989
31
0
0
SPLINE
5
276
100
AcDbEntity
8
0
100
AcDbSpline
70
1064
71
3
72
9
73
5
74
3
42
0.000000001
43
0.0000000001
44
0.0000000001
40
0
40
0
40
0
40
0
40
0.077182789047782779
40
0.15119668399969194
40
0.15119668399969194
40
0.15119668399969194
40
0.15119668399969194
10
10.879156251252343
20
29.809156171474989
30
0
10
10.6360288974653
20
29.902606759742195
30
0
10
10.159756270682358
20
30.08567113507948
30
0
10
9.798579653771565
20
30.44565503906782
30
0
10
9.621776251236783
20
30.621874584029705
30
0
11
10.879156251252343
21
29.809156171474989
31
0
11
10.179766966372041
21
30.135611253705413
31
0
11
9.621776251236783
21
30.621874584029705
31
0
0
SPLINE
5
277
100
AcDbEntity
8
0
100
AcDbSpline
70
1064
71
3
72
9
73
5
74
3
42
0.000000001
43
0.0000000001
44
0.0000000001
40
0
40
0
40
0
40
0
40
0.072559179914791758
40
0.14533676661059042
40
0.14533676661059042
40
0.14533676661059042
40
0.14533676661059042
10
9.621776251236783
20
30.621874584029705
30
0
10
9.4751878088698298
20
30.818177861806518
30
0
10
9.1815696855515299
20
31.21137530009959
30
0
10
9.079267546372952
20
31.691346347689894
30
0
10
9.0280396088257842
20
31.931692512959067
30
0
11
9.621776251236783
21
30.621874584029705
31
0
11
9.2296962768486619
21
31.232412668570319
31
0
11
9.0280396088257842
21
31.931692512959067
31
0
0
SPLINE
5
278
100
AcDbEntity
8
0
100
AcDbSpline
70
1064
71
3
72
9
73
5
74
3
42
0.000000001
43
0.0000000001
44
0.0000000001
40
0
40
0
40
0
40
0
40
0.073757831847731783
40
0.14765204721086767
40
0.14765204721086767
40
0.14765204721086767
40
0.14765204721086767
10
9.0280396088257842
20
31.931692512959067
30
0
10
9.0066066689390176
20
32.178617795828053
30
0
10
8.9637011581240884
20
32.6729249441048
30
0
10
9.0888422201389787
20
33.153059207574884
30
0
10
9.1514705464099571
20
33.393348084961126
30
0
11
9.0280396088257842
21
31.931692512959067
31
0
11
9.0056748574325454
21
32.668931682959517
31
0
11
9.1514705464099571
21
33.393348084961126
31
0
0
SPLINE
5
279
100
AcDbEntity
8
0
100
AcDbSpline
70
1064
71
3
72
9
73
5
74
3
42
0.000000001
43
0.0000000001
44
0.0000000001
40
0
40
0
40
0
40
0
40
0.093569870983571127
40
0.17555242372598456
40
0.17555242372598456
40
0.17555242372598456
40
0.17555242372598456
10
9.8919443114827263
20
33.143973756205803
30
0
10
9.8102879725277976
20
32.835070789590269
30
0
10
9.657087288745247
20
32.255518163136109
30
0
10
9.8395824113485766
20
31.686690161446556
30
0
10
9.9248071874952934
20
31.421048875156686
30
0
11
9.8919443114827263
21
33.143973756205803
31
0
11
9.7423436553282912
21
32.220311632230604
31
0
11
9.9248071874952934
21
31.421048875156686
31
0
0
SPLINE
5
280
100
AcDbEntity
8
0
100
AcDbSpline
70
1064
71
3
72
9
73
5
74
3
42
0.000000001
43
0.0000000001
44
0.0000000001
40
0
40
0
40
0
40
0
40
0.077025496633600699
40
0.15535850219988395
40
0.15535850219988395
40
0.15535850219988395
40
0.15535850219988395
10
9.9248071874952934
20
31.421048875156686
30
0
10
10.060884710897948
20
31.195051820583384
30
0
10
10.335349675654616
20
30.739221408127747
30
0
10
10.825842783041368
20
30.532258695111267
30
0
10
11.073153350323466
20
30.427906431661434
30
0
11
9.9248071874952934
21
31.421048875156686
31
0
11
10.386141564084008
21
30.804231798429086
31
0
11
11.073153350323466
21
30.427906431661434
31
0
0
SPLINE
5
281
100
AcDbEntity
8
0
100
AcDbSpline
70
1064
71
3
72
9
73
5
74
3
42
0.000000001
43
0.0000000001
44
0.0000000001
40
0
40
0
40
0
40
0
40
0.079415503233671955
40
0.15677604787497645
40
0.15677604787497645
40
0.15677604787497645
40
0.15677604787497645
10
11.073153350323466
20
30.427906431661434
30
0
10
11.338766462792087
20
30.367778783907685
30
0
10
11.863119672694635
20
30.249079353708069
30
0
10
12.355003996960255
20
30.464931219194831
30
0
10
12.597722446248209
20
30.571442501385171
30
0
11
11.073153350323466
21
30.427906431661434
31
0
11
11.861661277033292
21
30.333368265286644
31
0
11
12.597722446248209
21
30.571442501385171
31
0
0
SPLINE
5
282
100
AcDbEntity
8
0
100
AcDbSpline
70
1064
71
3
72
9
73
5
74
3
42
0.000000001
43
0.0000000001
44
0.0000000001
40
0
40
0
40
0
40
0
40
0.0837356278136724
40
0.18265478595688403
40
0.18265478595688403
40
0.18265478595688403
40
0.18265478595688403
10
12.597722446248209
20
30.571442501385171
30
0
10
12.822558106784053
20
30.745946633205605
30
0
10
13.312998204062975
20
31.126597207859188
30
0
10
13.528126603232881
20
31.711751204707099
30
0
10
13.644632283755303
20
32.028649228753366
30
0
11
12.597722446248209
21
30.571442501385171
31
0
11
13.214368803663133
21
31.137934166303456
31
0
11
13.644632283755303
21
32.028649228753366
31
0
0
SPLINE
5
283
100
AcDbEntity
8
0
100
AcDbSpline
70
1064
71
3
72
9
73
5
74
3
42
0.000000001
43
0.0000000001
44
0.0000000001
40
0
40
0
40
0
40
0
40
0.06574451437669844
40
0.12504708974629875
40
0.12504708974629875
40
0.12504708974629875
40
0.12504708974629875
10
13.644632283755303
20
32.028649228753366
30
0
10
13.704626956635401
20
32.241136640423925
30
0
10
13.818737758351149
20
32.64529100507378
30
0
10
13.800442794345793
20
33.064483548607242
30
0
10
13.791766554986582
20
33.263282236827038
30
0
11
13.644632283755303
21
32.028649228753366
31
0
11
13.788016498083797
21
32.670268340177103
31
0
11
13.791766554986582
21
33.263282236827038
31
0
0
SPLINE
5
284
100
AcDbEntity
8
0
100
AcDbSpline
70
1064
71
3
72
9
73
5
74
3
42
0.000000001
43
0.0000000001
44
0.0000000001
40
0
40
0
40
0
40
0
40
0.054677040300431586
40
0.1075753411578613
40
0.1075753411578613
40
0.1075753411578613
40
0.1075753411578613
10
13.791766554986582
20
33.263282236827038
30
0
10
13.759064704837421
20
33.445153375324701
30
0
10
13.694724852735705
20
33.802979067116944
30
0
10
13.483635533876035
20
34.098749624635701
30
0
10
13.379836036922148
20
34.244189646187088
30
0
11
13.791766554986582
21
33.263282236827038
31
0
11
13.655750369129819
21
33.792864591882868
31
0
11
13.379836036922148
21
34.244189646187088
31
0
0
SPLINE
5
285
100
AcDbEntity
8
0
100
AcDbSpline
70
1064
71
3
72
9
73
5
74
3
42
0.000000001
43
0.0000000001
44
0.0000000001
40
0
40
0
40
0
40
0
40
0.052874401241168489
40
0.10720800954580356
40
0.10720800954580356
40
0.10720800954580356
40
0.10720800954580356
10
13.379836036922148
20
34.244189646187088
30
0
10
13.255288812967052
20
34.37198734053748
30
0
10
13.002757159440076
20
34.631109640066811
30
0
10
12.665474643884259
20
34.762501103343396
30
0
10
12.494538011762739
20
34.829091018877577
30
0
11
13.379836036922148
21
34.244189646187088
31
0
11
12.985579495869297
21
34.596513375870821
31
0
11
12.494538011762739
21
34.829091018877577
31
0
0
SPLINE
5
286
100
AcDbEntity
8
0
100
AcDbSpline
70
1064
71
3
72
9
73
5
74
3
42
0.000000001
43
0.0000000001
44
0.0000000001
40
0
40
0
40
0
40
0
40
0.07611830943338381
40
0.15205522947843658
40
0.15205522947843658
40
0.15205522947843658
40
0.15205522947843658
10
12.494538011762739
20
34.829091018877577
30
0
10
12.241116278456152
20
34.886159806610053
30
0
10
11.734876714025468
20
35.000161387560965
30
0
10
11.249551695644168
20
34.816588245703407
30
0
10
11.007178662877735
20
34.724911168607989
30
0
11
12.494538011762739
21
34.829091018877577
31
0
11
11.73951393046298
21
34.925726104416363
31
0
11
11.007178662877735
21
34.724911168607989
31
0
0
SPLINE
5
287
100
AcDbEntity
8
0
100
AcDbSpline
70
1064
71
3
72
9
73
5
74
3
42
0.000000001
43
0.0000000001
44
0.0000000001
40
0
40
0
40
0
40
0
40
0.08565128689988509
40
0.19738739835003033
40
0.19738739835003033
40
0.19738739835003033
40
0.19738739835003033
10
11.007178662877735
20
34.724911168607989
30
0
10
10.774226727452479
20
34.549730259267477
30
0
10
10.237378092265686
20
34.14601765684349
30
0
10
10.016805171962604
20
33.506173606459726
30
0
10
9.8919443114827263
20
33.143973756205803
30
0
11
11.007178662877735
21
34.724911168607989
31
0
11
10.367874641860571
21
34.154907077857814
31
0
11
9.8919443114827263
21
33.143973756205803
31
0
0
LWPOLYLINE
5
288
100
AcDbEntity
8
0
100
AcDbPolyline
90
8
70
1
43
0.0
10
6.2654036728893843
20
36.190954611431479
10
5.4299081389326371
20
31.209755995406422
10
6.1772808881539909
20
31.08439930070114
10
7.012776422110738
20
36.065597916726205
10
8.8812074134117172
20
35.75220632785917
10
8.9929945359641881
20
36.418677706240736
10
4.5164647403395266
20
37.169525231138927
10
4.4046776177870566
20
36.503053852757368
0
LWPOLYLINE
5
289
100
AcDbEntity
8
0
100
AcDbPolyline
90
8
70
1
43
0.0
10
-3.7390787778006662
20
36.407742612919847
10
-3.2800341487976041
20
31.377864834272032
10
-2.5253576394968769
20
31.44673931064597
10
-2.9844022684999376
20
36.476617089293789
10
-1.0977118856175165
20
36.648803198970342
10
-1.1591308592850358
20
37.321787722302055
10
-5.6794079010455514
20
36.909251078482484
10
-5.6179889273780326
20
36.236266555150763
0
LWPOLYLINE
5
290
100
AcDbEntity
8
0
100
AcDbPolyline
90
8
70
1
43
0.0
10
-10.031901449197612
20
35.855157411406019
10
-10.674040138254394
20
29.75452286953578
10
-9.8967716562823664
20
29.962791331582352
10
-9.7381842266099294
20
31.800842200935161
10
-7.4252448230996819
20
32.420592446247852
10
-6.331147239983733
20
30.918197514442262
10
-5.4972816428312887
20
31.14163112779536
10
-9.2433135100051356
20
36.066458912873564
0
LINE
5
291
100
AcDbEntity
8
0
100
AcDbLine
10
-9.6866277656675344
20
32.453615736947981
30
0
11
-7.8113734446208554
21
32.956088617875409
31
0
0
LINE
5
292
100
AcDbEntity
8
0
100
AcDbLine
10
-7.8113734446208554
20
32.956088617875409
30
0
11
-8.7991357700674815
21
34.333302064656294
31
0
0
SPLINE
5
293
100
AcDbEntity
8
0
100
AcDbSpline
70
1064
71
3
72
9
73
5
74
3
42
0.000000001
43
0.0000000001
44
0.0000000001
40
0
40
0
40
0
40
0
40
0.070000657210634087
40
0.12553159756076068
40
0.12553159756076068
40
0.12553159756076068
40
0.12553159756076068
10
-8.7991357700674815
20
34.333302064656287
30
0
10
-8.934807757867727
20
34.523222341467957
30
0
10
-9.1781072074937704
20
34.863804797509921
30
0
10
-9.4005081021870467
20
35.218353240338722
30
0
10
-9.4988907489230563
20
35.375193500580181
30
0
11
-8.7991357700674815
21
34.333302064656287
31
0
11
-9.1996532146584364
21
34.90740569430028
31
0
11
-9.4988907489230563
21
35.375193500580181
31
0
0
SPLINE
5
294
100
AcDbEntity
8
0
100
AcDbSpline
70
1064
71
3
72
9
73
5
74
3
42
0.000000001
43
0.0000000001
44
0.0000000001
40
0
40
0
40
0
40
0
40
0.056444027933105455
40
0.11373128765174306
40
0.11373128765174306
40
0.11373128765174306
40
0.11373128765174306
10
-9.4988907489230563
20
35.375193500580181
30
0
10
-9.4903530365499282
20
35.187063650267262
30
0
10
-9.4731500647324847
20
34.807993429637811
30
0
10
-9.5002404580090136
20
34.42949490324348
30
0
10
-9.5138860820721547
20
34.238842499385463
30
0
11
-9.4988907489230563
21
35.375193500580181
31
0
11
-9.4841873608298819
21
34.810944761715923
31
0
11
-9.5138860820721547
21
34.238842499385463
31
0
0
LINE
5
295
100
AcDbEntity
8
0
100
AcDbLine
10
-9.5138860820721547
20
34.238842499385463
30
0
11
-9.6866277656675344
21
32.453615736947981
31
0
0
LWPOLYLINE
5
296
100
AcDbEntity
8
0
100
AcDbPolyline
90
12
70
1
43
0.0
10
-17.921895698599531
20
32.470889918143364
10
-15.425145351227695
20
27.317273857556124
10
-14.743152544632263
20
27.647675997869662
10
-15.919997278675682
20
30.076835937135478
10
-13.241241948533668
20
31.374601083477046
10
-12.064397214490247
20
28.945441144211227
10
-11.382404609049159
20
29.275843187072379
10
-13.879154956420997
20
34.429459247659622
10
-14.561147561862089
20
34.09905720479847
10
-13.535878966478336
20
31.982770045712915
10
-16.214634296620353
20
30.685004899371346
10
-17.239902892004103
20
32.801292058456902
0
LWPOLYLINE
5
297
100
AcDbEntity
8
0
100
AcDbPolyline
90
8
70
1
43
0.0
10
-21.299994056265149
20
29.030808737387815
10
-18.116345186977011
20
25.109740985278446
10
-17.528033133659275
20
25.587411640758965
10
-20.711682002947413
20
29.508479392868328
10
-19.240902563745234
20
30.702655468012484
10
-19.666866475999459
20
31.227284102788985
10
-23.190672285812258
20
28.366185776710225
10
-22.764708373558037
20
27.841557141933727
0
LWPOLYLINE
5
298
100
AcDbEntity
8
0
100
AcDbPolyline
90
10
70
1
43
0.0
10
-29.699983408732091
20
21.679716558585458
10
-25.37135274706046
20
17.930519658997454
10
-24.875210759382476
20
18.503339779658926
10
-26.841696321864674
20
20.206590102959918
10
-25.082182258453173
20
22.238034897273703
10
-25.592996177546567
20
22.680470880248453
10
-27.352510240958061
20
20.649026085934668
10
-28.693027501960721
20
21.81010069627218
10
-26.659868188114348
20
24.157482277363791
10
-27.170682107207739
20
24.599918260338537
0
SPLINE
5
299
100
AcDbEntity
8
0
100
AcDbSpline
70
1064
71
3
72
9
73
5
74
3
42
0.000000001
43
0.0000000001
44
0.0000000001
40
0
40
0
40
0
40
0
40
0.12853276880422101
40
0.24051789845851895
40
0.24051789845851895
40
0.24051789845851895
40
0.24051789845851895
10
-33.135740698932182
20
14.73412564262607
30
0
10
-33.227860469643232
20
15.163498145466061
30
0
10
-33.400240274918033
20
15.966964631092393
30
0
10
-33.109408392791167
20
16.732298522517137
30
0
10
-32.973997073150031
20
17.088637970056464
30
0
11
-33.135740698932182
21
14.73412564262607
31
0
11
-33.279814453024052
21
16.011353116113003
31
0
11
-32.973997073150031
21
17.088637970056464
31
0
0
SPLINE
5
300
100
AcDbEntity
8
0
100
AcDbSpline
70
1064
71
3
72
9
73
5
74
3
42
0.000000001
43
0.0000000001
44
0.0000000001
40
0
40
0
40
0
40
0
40
0.10653864314328866
40
0.21833344191543907
40
0.21833344191543907
40
0.21833344191543907
40
0.21833344191543907
10
-32.973997073150031
20
17.088637970056464
30
0
10
-32.765952014548937
20
17.387913635221391
30
0
10
-32.33959785442709
20
18.001229931817267
30
0
10
-31.634562270710404
20
18.251313033487488
30
0
10
-31.273557971427017
20
18.379364832525976
30
0
11
-32.973997073150031
21
17.088637970056464
31
0
11
-32.283505649493733
21
17.899976273194184
31
0
11
-31.273557971427017
21
18.379364832525976
31
0
0
SPLINE
5
301
100
AcDbEntity
8
0
100
AcDbSpline
70
1064
71
3
72
9
73
5
74
3
42
0.000000001
43
0.0000000001
44
0.0000000001
40
0
40
0
40
0
40
0
40
0.075983414606824409
40
0.14929358444332827
40
0.14929358444332827
40
0.14929358444332827
40
0.14929358444332827
10
-31.273557971427017
20
18.379364832525976
30
0
10
-31.022651119959569
20
18.431453118983747
30
0
10
-30.529664809581242
20
18.533797124356902
30
0
10
-30.036624031424488
20
18.432930304528774
30
0
10
-29.794517826273289
20
18.383399953174159
30
0
11
-31.273557971427017
21
18.379364832525976
31
0
11
-30.520823308065257
21
18.48299135473393
31
0
11
-29.794517826273289
21
18.383399953174159
31
0
0
SPLINE
5
302
100
AcDbEntity
8
0
100
AcDbSpline
70
1064
71
3
72
9
73
5
74
3
42
0.000000001
43
0.0000000001
44
0.0000000001
40
0
40
0
40
0
40
0
40
0.072147424944232028
40
0.14504940842907288
40
0.14504940842907288
40
0.14504940842907288
40
0.14504940842907288
10
-29.794517826273289
20
18.383399953174159
30
0
10
-29.565355536224839
20
18.300553209969348
30
0
10
-29.104634247398906
20
18.133993265502561
30
0
10
-28.757754244540422
20
17.787931234266384
30
0
10
-28.583411994451371
20
17.614000097565146
30
0
11
-29.794517826273289
21
18.383399953174159
31
0
11
-29.135195942097795
21
18.090449879517173
31
0
11
-28.583411994451371
21
17.614000097565146
31
0
0
SPLINE
5
303
100
AcDbEntity
8
0
100
AcDbSpline
70
1064
71
3
72
9
73
5
74
3
42
0.000000001
43
0.0000000001
44
0.0000000001
40
0
40
0
40
0
40
0
40
0.076529894261914297
40
0.15835351198061695
40
0.15835351198061695
40
0.15835351198061695
40
0.15835351198061695
10
-28.583411994451371
20
17.614000097565146
30
0
10
-28.427755969752905
20
17.409338568679555
30
0
10
-28.105676886674775
20
16.985858670021379
30
0
10
-27.945658804970623
20
16.478082912859428
30
0
10
-27.862975079288283
20
16.215707617729063
30
0
11
-28.583411994451371
21
17.614000097565146
31
0
11
-28.154295616521541
21
16.980326991171669
31
0
11
-27.862975079288283
21
16.215707617729063
31
0
0
SPLINE
5
304
100
AcDbEntity
8
0
100
AcDbSpline
70
1064
71
3
72
9
73
5
74
3
42
0.000000001
43
0.0000000001
44
0.0000000001
40
0
40
0
40
0
40
0
40
0.082986297518908916
40
0.16092189760525502
40
0.16092189760525502
40
0.16092189760525502
40
0.16092189760525502
10
-27.862975079288283
20
16.215707617729063
30
0
10
-27.803084802009302
20
15.94304764526175
30
0
10
-27.686949278965361
20
15.41432228357853
30
0
10
-27.762550443529086
20
14.878656983631204
30
0
10
-27.799164616088458
20
14.619230533793814
30
0
11
-27.862975079288283
21
16.215707617729063
31
0
11
-27.734294563926056
21
15.395882098148341
31
0
11
-27.799164616088458
21
14.619230533793814
31
0
0
SPLINE
5
305
100
AcDbEntity
8
0
100
AcDbSpline
70
1064
71
3
72
9
73
5
74
3
42
0.000000001
43
0.0000000001
44
0.0000000001
40
0
40
0
40
0
40
0
40
0.073843005550254207
40
0.14577008218047449
40
0.14577008218047449
40
0.14577008218047449
40
0.14577008218047449
10
-27.799164616088458
20
14.619230533793814
30
0
10
-27.867249994343879
20
14.378971465905789
30
0
10
-28.001654209199778
20
13.90468708636754
30
0
10
-28.329910957534004
20
13.537205033727297
30
0
10
-28.491882110589891
20
13.355879007391104
30
0
11
-27.799164616088458
21
14.619230533793814
31
0
11
-28.053166206590163
21
13.92586040255647
31
0
11
-28.491882110589891
21
13.355879007391104
31
0
0
SPLINE
5
306
100
AcDbEntity
8
0
100
AcDbSpline
70
1064
71
3
72
9
73
5
74
3
42
0.000000001
43
0.0000000001
44
0.0000000001
40
0
40
0
40
0
40
0
40
0.072048109241051067
40
0.14465830564121979
40
0.14465830564121979
40
0.14465830564121979
40
0.14465830564121979
10
-28.491882110589891
20
13.355879007391104
30
0
10
-28.677269627906348
20
13.199458911692705
30
0
10
-29.049490973123152
20
12.885398400593616
30
0
10
-29.511649291037987
20
12.731657741945162
30
0
10
-29.743626335722837
20
12.65448872375659
30
0
11
-28.491882110589891
21
13.355879007391104
31
0
11
-29.070354514746299
21
12.926387817550665
31
0
11
-29.743626335722837
21
12.65448872375659
31
0
0
SPLINE
5
307
100
AcDbEntity
8
0
100
AcDbSpline
70
1064
71
3
72
9
73
5
74
3
42
0.000000001
43
0.0000000001
44
0.0000000001
40
0
40
0
40
0
40
0
40
0.077182789047782779
40
0.15119668399969194
40
0.15119668399969194
40
0.15119668399969194
40
0.15119668399969194
10
-29.743626335722837
20
12.65448872375659
30
0
10
-29.998657585497117
20
12.601545506574929
30
0
10
-30.498249265946718
20
12.497832762103013
30
0
10
-30.996760514909511
20
12.605180302323413
30
0
10
-31.240792052090264
20
12.657729137093064
30
0
11
-29.743626335722837
21
12.65448872375659
31
0
11
-30.508438536275033
21
12.550659101750332
31
0
11
-31.240792052090264
21
12.657729137093064
31
0
0
SPLINE
5
308
100
AcDbEntity
8
0
100
AcDbSpline
70
1064
71
3
72
9
73
5
74
3
42
0.000000001
43
0.0000000001
44
0.0000000001
40
0
40
0
40
0
40
0
40
0.072559179914791758
40
0.14533676661059042
40
0.14533676661059042
40
0.14533676661059042
40
0.14533676661059042
10
-31.240792052090264
20
12.657729137093064
30
0
10
-31.470278125079865
20
12.743515444889237
30
0
10
-31.929941035681093
20
12.915346281582792
30
0
10
-32.275651123380683
20
13.263660033060088
30
0
10
-32.448765927472763
20
13.438078625386405
30
0
11
-31.240792052090264
21
12.657729137093064
31
0
11
-31.900847623067534
21
12.959076282778206
31
0
11
-32.448765927472763
21
13.438078625386405
31
0
0
SPLINE
5
309
100
AcDbEntity
8
0
100
AcDbSpline
70
1064
71
3
72
9
73
5
74
3
42
0.000000001
43
0.0000000001
44
0.0000000001
40
0
40
0
40
0
40
0
40
0.073757831847731783
40
0.14765204721086767
40
0.14765204721086767
40
0.14765204721086767
40
0.14765204721086767
10
-32.448765927472763
20
13.438078625386405
30
0
10
-32.600382224351506
20
13.634149951063812
30
0
10
-32.903895167504331
20
14.026655152347164
30
0
10
-33.058411280546764
20
14.498156973309113
30
0
10
-33.135740698932182
20
14.73412564262607
30
0
11
-32.448765927472763
21
13.438078625386405
31
0
11
-32.866434391634279
21
14.046005290316305
31
0
11
-33.135740698932182
21
14.73412564262607
31
0
0
SPLINE
5
310
100
AcDbEntity
8
0
100
AcDbSpline
70
1064
71
3
72
9
73
5
74
3
42
0.000000001
43
0.0000000001
44
0.0000000001
40
0
40
0
40
0
40
0
40
0.093569870983571127
40
0.17555242372598456
40
0.17555242372598456
40
0.17555242372598456
40
0.17555242372598456
10
-32.378078044621873
20
14.925008472830019
30
0
10
-32.279629959425563
20
14.621040094546059
30
0
10
-32.094925205793594
20
14.050745565090354
30
0
10
-31.633698734567833
20
13.671087946279972
30
0
10
-31.418307099972786
20
13.49378876636797
30
0
11
-32.378078044621873
21
14.925008472830019
31
0
11
-32.004176290231719
21
14.067261684055982
31
0
11
-31.418307099972786
21
13.49378876636797
31
0
0
SPLINE
5
311
100
AcDbEntity
8
0
100
AcDbSpline
70
1064
71
3
72
9
73
5
74
3
42
0.000000001
43
0.0000000001
44
0.0000000001
40
0
40
0
40
0
40
0
40
0.077025496633600699
40
0.15535850219988395
40
0.15535850219988395
40
0.15535850219988395
40
0.15535850219988395
10
-31.418307099972786
20
13.49378876636797
30
0
10
-31.18159596790505
20
13.377343066548608
30
0
10
-30.704155528838282
20
13.142474999451178
30
0
10
-30.179674840806406
20
13.233782506561322
30
0
10
-29.915227462174045
20
13.279820485567457
30
0
11
-31.418307099972786
21
13.49378876636797
31
0
11
-30.696610755709962
21
13.224628777062424
31
0
11
-29.915227462174045
21
13.279820485567457
31
0
0
SPLINE
5
312
100
AcDbEntity
8
0
100
AcDbSpline
70
1064
71
3
72
9
73
5
74
3
42
0.000000001
43
0.0000000001
44
0.0000000001
40
0
40
0
40
0
40
0
40
0.079415503233671955
40
0.15677604787497645
40
0.15677604787497645
40
0.15677604787497645
40
0.15677604787497645
10
-29.915227462174045
20
13.279820485567457
30
0
10
-29.659313739169725
20
13.37295386260134
30
0
10
-29.154108326423849
20
13.556810693850778
30
0
10
-28.857207790465758
20
14.004462665855993
30
0
10
-28.710703350040458
20
14.225354829126328
30
0
11
-29.915227462174045
21
13.279820485567457
31
0
11
-29.200936648615617
21
13.626909593797279
31
0
11
-28.710703350040458
21
14.225354829126328
31
0
0
SPLINE
5
313
100
AcDbEntity
8
0
100
AcDbSpline
70
1064
71
3
72
9
73
5
74
3
42
0.000000001
43
0.0000000001
44
0.0000000001
40
0
40
0
40
0
40
0
40
0.0837356278136724
40
0.18265478595688403
40
0.18265478595688403
40
0.18265478595688403
40
0.18265478595688403
10
-28.710703350040458
20
14.225354829126328
30
0
10
-28.616023871839257
20
14.493754834116162
30
0
10
-28.409496969529151
20
15.079223012265286
30
0
10
-28.545150262199236
20
15.687732348548842
30
0
10
-28.61861512894216
20
16.017278771064497
30
0
11
-28.710703350040458
21
14.225354829126328
31
0
11
-28.498578894406474
21
15.035397267432479
31
0
11
-28.61861512894216
21
16.017278771064497
31
0
0
SPLINE
5
314
100
AcDbEntity
8
0
100
AcDbSpline
70
1064
71
3
72
9
73
5
74
3
42
0.000000001
43
0.0000000001
44
0.0000000001
40
0
40
0
40
0
40
0
40
0.06574451437669844
40
0.12504708974629875
40
0.12504708974629875
40
0.12504708974629875
40
0.12504708974629875
10
-28.61861512894216
20
16.017278771064497
30
0
10
-28.683118393588437
20
16.228441243446351
30
0
10
-28.805804607025749
20
16.630075552944618
30
0
10
-29.047981472399201
20
16.972723273117829
30
0
10
-29.162831900671623
20
17.135221195236767
30
0
11
-28.61861512894216
21
16.017278771064497
31
0
11
-28.845154711683119
21
16.634461024952554
31
0
11
-29.162831900671623
21
17.135221195236767
31
0
0
SPLINE
5
315
100
AcDbEntity
8
0
100
AcDbSpline
70
1064
71
3
72
9
73
5
74
3
42
0.000000001
43
0.0000000001
44
0.0000000001
40
0
40
0
40
0
40
0
40
0.054677040300431586
40
0.1075753411578613
40
0.1075753411578613
40
0.1075753411578613
40
0.1075753411578613
10
-29.162831900671623
20
17.135221195236767
30
0
10
-29.288730032042423
20
17.270484577343503
30
0
10
-29.536430609084157
20
17.53661098792363
30
0
10
-29.873976202304753
20
17.671154273631061
30
0
10
-30.039958370254205
20
17.73731359164108
30
0
11
-29.162831900671623
21
17.135221195236767
31
0
11
-29.563736475556368
21
17.507018714644822
31
0
11
-30.039958370254205
21
17.73731359164108
31
0
0
SPLINE
5
316
100
AcDbEntity
8
0
100
AcDbSpline
70
1064
71
3
72
9
73
5
74
3
42
0.000000001
43
0.0000000001
44
0.0000000001
40
0
40
0
40
0
40
0
40
0.052874401241168489
40
0.10720800954580356
40
0.10720800954580356
40
0.10720800954580356
40
0.10720800954580356
10
-30.039958370254205
20
17.73731359164108
30
0
10
-30.213844797070529
20
17.777410627008372
30
0
10
-30.56641650036001
20
17.858711280056113
30
0
10
-30.921159980651119
20
17.786737151978219
30
0
10
-31.100945925641778
20
17.750260268398165
30
0
11
-30.039958370254205
21
17.73731359164108
31
0
11
-30.562145915522215
21
17.820322014275003
31
0
11
-31.100945925641778
21
17.750260268398165
31
0
0
SPLINE
5
317
100
AcDbEntity
8
0
100
AcDbSpline
70
1064
71
3
72
9
73
5
74
3
42
0.000000001
43
0.0000000001
44
0.0000000001
40
0
40
0
40
0
40
0
40
0.07611830943338381
40
0.15205522947843658
40
0.15205522947843658
40
0.15205522947843658
40
0.15205522947843658
10
-31.100945925641778
20
17.750260268398165
30
0
10
-31.344951664859249
20
17.661150108066671
30
0
10
-31.832381679358441
20
17.483142136280023
30
0
10
-32.141229127267017
20
17.066185632794799
30
0
10
-32.29546863641378
20
16.857956078467545
30
0
11
-31.100945925641778
21
17.750260268398165
31
0
11
-31.788210920953084
21
17.423050046492751
31
0
11
-32.29546863641378
21
16.857956078467545
31
0
0
SPLINE
5
318
100
AcDbEntity
8
0
100
AcDbSpline
70
1064
71
3
72
9
73
5
74
3
42
0.000000001
43
0.0000000001
44
0.0000000001
40
0
40
0
40
0
40
0
40
0.08565128689988509
40
0.19738739835003033
40
0.19738739835003033
40
0.19738739835003033
40
0.19738739835003033
10
-32.29546863641378
20
16.857956078467545
30
0
10
-32.396607843986075
20
16.584595847440081
30
0
10
-32.629687880217325
20
15.95462440430293
30
0
10
-32.469025202443099
20
15.297174538569472
30
0
10
-32.378078044621873
20
14.925008472830019
30
0
11
-32.29546863641378
21
16.857956078467545
31
0
11
-32.524748156051146
21
16.032701453133342
31
0
11
-32.378078044621873
21
14.925008472830019
31
0
0
SPLINE
5
319
100
AcDbEntity
8
0
100
AcDbSpline
70
1064
71
3
72
9
73
5
74
3
42
0.000000001
43
0.0000000001
44
0.0000000001
40
0
40
0
40
0
40
0
40
0.12853276880422101
40
0.24051789845851895
40
0.24051789845851895
40
0.24051789845851895
40
0.24051789845851895
10
-36.241596872298167
20
7.9357113438276237
30
0
10
-36.333716643009218
20
8.3650838466676145
30
0
10
-36.506096448284012
20
9.168550332293945
30
0
10
-36.215264566157153
20
9.9338842237186888
30
0
10
-36.079853246516016
20
10.290223671258016
30
0
11
-36.241596872298167
21
7.9357113438276237
31
0
11
-36.385670626390038
21
9.212938817314555
31
0
11
-36.079853246516016
21
10.290223671258016
31
0
0
SPLINE
5
320
100
AcDbEntity
8
0
100
AcDbSpline
70
1064
71
3
72
9
73
5
74
3
42
0.000000001
43
0.0000000001
44
0.0000000001
40
0
40
0
40
0
40
0
40
0.10653864314328866
40
0.21833344191543907
40
0.21833344191543907
40
0.21833344191543907
40
0.21833344191543907
10
-36.079853246516016
20
10.290223671258016
30
0
10
-35.871808187914922
20
10.589499336422945
30
0
10
-35.445454027793076
20
11.202815633018819
30
0
10
-34.740418444076383
20
11.452898734689041
30
0
10
-34.379414144793003
20
11.580950533727529
30
0
11
-36.079853246516016
21
10.290223671258016
31
0
11
-35.389361822859719
21
11.101561974395736
31
0
11
-34.379414144793003
21
11.580950533727529
31
0
0
SPLINE
5
321
100
AcDbEntity
8
0
100
AcDbSpline
70
1064
71
3
72
9
73
5
74
3
42
0.000000001
43
0.0000000001
44
0.0000000001
40
0
40
0
40
0
40
0
40
0.075983414606824409
40
0.14929358444332827
40
0.14929358444332827
40
0.14929358444332827
40
0.14929358444332827
10
-34.379414144793003
20
11.580950533727529
30
0
10
-34.128507293325555
20
11.6330388201853
30
0
10
-33.635520982947227
20
11.735382825558457
30
0
10
-33.142480204790473
20
11.634516005730326
30
0
10
-32.900373999639271
20
11.584985654375712
30
0
11
-34.379414144793003
21
11.580950533727529
31
0
11
-33.626679481431239
21
11.684577055935483
31
0
11
-32.900373999639271
21
11.584985654375712
31
0
0
SPLINE
5
322
100
AcDbEntity
8
0
100
AcDbSpline
70
1064
71
3
72
9
73
5
74
3
42
0.000000001
43
0.0000000001
44
0.0000000001
40
0
40
0
40
0
40
0
40
0.072147424944232028
40
0.14504940842907288
40
0.14504940842907288
40
0.14504940842907288
40
0.14504940842907288
10
-32.900373999639271
20
11.584985654375712
30
0
10
-32.671211709590821
20
11.502138911170901
30
0
10
-32.210490420764884
20
11.335578966704112
30
0
10
-31.863610417906404
20
10.989516935467936
30
0
10
-31.689268167817353
20
10.815585798766701
30
0
11
-32.900373999639271
21
11.584985654375712
31
0
11
-32.241052115463781
21
11.292035580718725
31
0
11
-31.689268167817353
21
10.815585798766701
31
0
0
SPLINE
5
323
100
AcDbEntity
8
0
100
AcDbSpline
70
1064
71
3
72
9
73
5
74
3
42
0.000000001
43
0.0000000001
44
0.0000000001
40
0
40
0
40
0
40
0
40
0.076529894261914297
40
0.15835351198061695
40
0.15835351198061695
40
0.15835351198061695
40
0.15835351198061695
10
-31.689268167817353
20
10.815585798766701
30
0
10
-31.533612143118891
20
10.610924269881108
30
0
10
-31.211533060040757
20
10.187444371222931
30
0
10
-31.051514978336606
20
9.6796686140609811
30
0
10
-30.968831252654265
20
9.4172933189306143
30
0
11
-31.689268167817353
21
10.815585798766701
31
0
11
-31.260151789887523
21
10.181912692373221
31
0
11
-30.968831252654265
21
9.4172933189306143
31
0
0
SPLINE
5
324
100
AcDbEntity
8
0
100
AcDbSpline
70
1064
71
3
72
9
73
5
74
3
42
0.000000001
43
0.0000000001
44
0.0000000001
40
0
40
0
40
0
40
0
40
0.082986297518908916
40
0.16092189760525502
40
0.16092189760525502
40
0.16092189760525502
40
0.16092189760525502
10
-30.968831252654265
20
9.4172933189306143
30
0
10
-30.908940975375288
20
9.1446333464633032
30
0
10
-30.792805452331343
20
8.6159079847800832
30
0
10
-30.868406616895072
20
8.0802426848327578
30
0
10
-30.905020789454444
20
7.8208162349953669
30
0
11
-30.968831252654265
21
9.4172933189306143
31
0
11
-30.840150737292042
21
8.5974677993498929
31
0
11
-30.905020789454444
21
7.8208162349953669
31
0
0
SPLINE
5
325
100
AcDbEntity
8
0
100
AcDbSpline
70
1064
71
3
72
9
73
5
74
3
42
0.000000001
43
0.0000000001
44
0.0000000001
40
0
40
0
40
0
40
0
40
0.073843005550254207
40
0.14577008218047449
40
0.14577008218047449
40
0.14577008218047449
40
0.14577008218047449
10
-30.905020789454444
20
7.8208162349953669
30
0
10
-30.973106167709865
20
7.5805571671073402
30
0
10
-31.107510382565764
20
7.1062727875690923
30
0
10
-31.43576713089999
20
6.7387907349288492
30
0
10
-31.597738283955877
20
6.5574647085926578
30
0
11
-30.905020789454444
21
7.8208162349953669
31
0
11
-31.159022379956145
21
7.1274461037580208
31
0
11
-31.597738283955877
21
6.5574647085926578
31
0
0
SPLINE
5
326
100
AcDbEntity
8
0
100
AcDbSpline
70
1064
71
3
72
9
73
5
74
3
42
0.000000001
43
0.0000000001
44
0.0000000001
40
0
40
0
40
0
40
0
40
0.072048109241051067
40
0.14465830564121979
40
0.14465830564121979
40
0.14465830564121979
40
0.14465830564121979
10
-31.597738283955877
20
6.5574647085926578
30
0
10
-31.783125801272334
20
6.4010446128942586
30
0
10
-32.155347146489135
20
6.0869841017951671
30
0
10
-32.617505464403969
20
5.9332434431467149
30
0
10
-32.849482509088823
20
5.856074424958142
30
0
11
-31.597738283955877
21
6.5574647085926578
31
0
11
-32.176210688112278
21
6.1279735187522197
31
0
11
-32.849482509088823
21
5.856074424958142
31
0
0
SPLINE
5
327
100
AcDbEntity
8
0
100
AcDbSpline
70
1064
71
3
72
9
73
5
74
3
42
0.000000001
43
0.0000000001
44
0.0000000001
40
0
40
0
40
0
40
0
40
0.077182789047782779
40
0.15119668399969194
40
0.15119668399969194
40
0.15119668399969194
40
0.15119668399969194
10
-32.849482509088823
20
5.856074424958142
30
0
10
-33.104513758863099
20
5.8031312077764809
30
0
10
-33.604105439312704
20
5.6994184633045633
30
0
10
-34.102616688275496
20
5.8067660035249657
30
0
10
-34.346648225456249
20
5.8593148382946154
30
0
11
-32.849482509088823
21
5.856074424958142
31
0
11
-33.614294709641015
21
5.7522448029518838
31
0
11
-34.346648225456249
21
5.8593148382946154
31
0
0
SPLINE
5
328
100
AcDbEntity
8
0
100
AcDbSpline
70
1064
71
3
72
9
73
5
74
3
42
0.000000001
43
0.0000000001
44
0.0000000001
40
0
40
0
40
0
40
0
40
0.072559179914791758
40
0.14533676661059042
40
0.14533676661059042
40
0.14533676661059042
40
0.14533676661059042
10
-34.346648225456249
20
5.8593148382946154
30
0
10
-34.576134298445851
20
5.9451011460907903
30
0
10
-35.035797209047075
20
6.1169319827843429
30
0
10
-35.381507296746669
20
6.4652457342616394
30
0
10
-35.554622100838749
20
6.6396643265879582
30
0
11
-34.346648225456249
21
5.8593148382946154
31
0
11
-35.00670379643352
21
6.1606619839797583
31
0
11
-35.554622100838749
21
6.6396643265879582
31
0
0
SPLINE
5
329
100
AcDbEntity
8
0
100
AcDbSpline
70
1064
71
3
72
9
73
5
74
3
42
0.000000001
43
0.0000000001
44
0.0000000001
40
0
40
0
40
0
40
0
40
0.073757831847731783
40
0.14765204721086767
40
0.14765204721086767
40
0.14765204721086767
40
0.14765204721086767
10
-35.554622100838749
20
6.6396643265879582
30
0
10
-35.706238397717492
20
6.8357356522653649
30
0
10
-36.009751340870316
20
7.2282408535487175
30
0
10
-36.16426745391275
20
7.6997426745106665
30
0
10
-36.241596872298167
20
7.9357113438276237
30
0
11
-35.554622100838749
21
6.6396643265879582
31
0
11
-35.972290565000264
21
7.2475909915178587
31
0
11
-36.241596872298167
21
7.9357113438276237
31
0
0
SPLINE
5
330
100
AcDbEntity
8
0
100
AcDbSpline
70
1064
71
3
72
9
73
5
74
3
42
0.000000001
43
0.0000000001
44
0.0000000001
40
0
40
0
40
0
40
0
40
0.093569870983571127
40
0.17555242372598456
40
0.17555242372598456
40
0.17555242372598456
40
0.17555242372598456
10
-35.483934217987859
20
8.1265941740315721
30
0
10
-35.385486132791549
20
7.8226257957476104
30
0
10
-35.200781379159579
20
7.2523312662919075
30
0
10
-34.739554907933815
20
6.8726736474815242
30
0
10
-34.524163273338772
20
6.6953744675695228
30
0
11
-35.483934217987859
21
8.1265941740315721
31
0
11
-35.110032463597697
21
7.2688473852575353
31
0
11
-34.524163273338772
21
6.6953744675695228
31
0
0
SPLINE
5
331
100
AcDbEntity
8
0
100
AcDbSpline
70
1064
71
3
72
9
73
5
74
3
42
0.000000001
43
0.0000000001
44
0.0000000001
40
0
40
0
40
0
40
0
40
0.077025496633600699
40
0.15535850219988395
40
0.15535850219988395
40
0.15535850219988395
40
0.15535850219988395
10
-34.524163273338772
20
6.6953744675695228
30
0
10
-34.287452141271032
20
6.5789287677501616
30
0
10
-33.810011702204264
20
6.3440607006527294
30
0
10
-33.285531014172392
20
6.4353682077628758
30
0
10
-33.02108363554003
20
6.4814061867690089
30
0
11
-34.524163273338772
21
6.6953744675695228
31
0
11
-33.802466929075948
21
6.4262144782639758
31
0
11
-33.02108363554003
21
6.4814061867690089
31
0
0
SPLINE
5
332
100
AcDbEntity
8
0
100
AcDbSpline
70
1064
71
3
72
9
73
5
74
3
42
0.000000001
43
0.0000000001
44
0.0000000001
40
0
40
0
40
0
40
0
40
0.079415503233671955
40
0.15677604787497645
40
0.15677604787497645
40
0.15677604787497645
40
0.15677604787497645
10
-33.02108363554003
20
6.4814061867690089
30
0
10
-32.765169912535711
20
6.5745395638028921
30
0
10
-32.259964499789831
20
6.7583963950523298
30
0
10
-31.963063963831743
20
7.2060483670575444
30
0
10
-31.816559523406443
20
7.4269405303278822
30
0
11
-33.02108363554003
21
6.4814061867690089
31
0
11
-32.306792821981603
21
6.8284952949988309
31
0
11
-31.816559523406443
21
7.4269405303278822
31
0
0
SPLINE
5
333
100
AcDbEntity
8
0
100
AcDbSpline
70
1064
71
3
72
9
73
5
74
3
42
0.000000001
43
0.0000000001
44
0.0000000001
40
0
40
0
40
0
40
0
40
0.0837356278136724
40
0.18265478595688403
40
0.18265478595688403
40
0.18265478595688403
40
0.18265478595688403
10
-31.816559523406443
20
7.4269405303278822
30
0
10
-31.721880045205243
20
7.6953405353177136
30
0
10
-31.515353142895137
20
8.280808713466838
30
0
10
-31.651006435565222
20
8.8893180497503934
30
0
10
-31.724471302308146
20
9.2188644722660467
30
0
11
-31.816559523406443
21
7.4269405303278822
31
0
11
-31.604435067772457
21
8.2369829686340328
31
0
11
-31.724471302308146
21
9.2188644722660467
31
0
0
SPLINE
5
334
100
AcDbEntity
8
0
100
AcDbSpline
70
1064
71
3
72
9
73
5
74
3
42
0.000000001
43
0.0000000001
44
0.0000000001
40
0
40
0
40
0
40
0
40
0.06574451437669844
40
0.12504708974629875
40
0.12504708974629875
40
0.12504708974629875
40
0.12504708974629875
10
-31.724471302308146
20
9.2188644722660467
30
0
10
-31.788974566954419
20
9.4300269446479028
30
0
10
-31.911660780391735
20
9.8316612541461694
30
0
10
-32.153837645765186
20
10.174308974319381
30
0
10
-32.268688074037605
20
10.336806896438318
30
0
11
-31.724471302308146
21
9.2188644722660467
31
0
11
-31.951010885049101
21
9.8360467261541054
31
0
11
-32.268688074037605
21
10.336806896438318
31
0
0
SPLINE
5
335
100
AcDbEntity
8
0
100
AcDbSpline
70
1064
71
3
72
9
73
5
74
3
42
0.000000001
43
0.0000000001
44
0.0000000001
40
0
40
0
40
0
40
0
40
0.054677040300431586
40
0.1075753411578613
40
0.1075753411578613
40
0.1075753411578613
40
0.1075753411578613
10
-32.268688074037605
20
10.336806896438318
30
0
10
-32.394586205408409
20
10.472070278545056
30
0
10
-32.642286782450142
20
10.738196689125182
30
0
10
-32.979832375670739
20
10.872739974832616
30
0
10
-33.14581454362019
20
10.938899292842631
30
0
11
-32.268688074037605
21
10.336806896438318
31
0
11
-32.669592648922354
21
10.708604415846374
31
0
11
-33.14581454362019
21
10.938899292842631
31
0
0
SPLINE
5
336
100
AcDbEntity
8
0
100
AcDbSpline
70
1064
71
3
72
9
73
5
74
3
42
0.000000001
43
0.0000000001
44
0.0000000001
40
0
40
0
40
0
40
0
40
0.052874401241168489
40
0.10720800954580356
40
0.10720800954580356
40
0.10720800954580356
40
0.10720800954580356
10
-33.14581454362019
20
10.938899292842631
30
0
10
-33.319700970436514
20
10.978996328209924
30
0
10
-33.672272673725992
20
11.060296981257666
30
0
10
-34.027016154017105
20
10.988322853179772
30
0
10
-34.20680209900776
20
10.951845969599717
30
0
11
-33.14581454362019
21
10.938899292842631
31
0
11
-33.668002088888201
21
11.021907715476555
31
0
11
-34.20680209900776
21
10.951845969599717
31
0
0
SPLINE
5
337
100
AcDbEntity
8
0
100
AcDbSpline
70
1064
71
3
72
9
73
5
74
3
42
0.000000001
43
0.0000000001
44
0.0000000001
40
0
40
0
40
0
40
0
40
0.07611830943338381
40
0.15205522947843658
40
0.15205522947843658
40
0.15205522947843658
40
0.15205522947843658
10
-34.20680209900776
20
10.951845969599717
30
0
10
-34.450807838225231
20
10.862735809268225
30
0
10
-34.938237852724427
20
10.684727837481576
30
0
10
-35.247085300633003
20
10.26777133399635
30
0
10
-35.401324809779766
20
10.059541779669098
30
0
11
-34.20680209900776
21
10.951845969599717
31
0
11
-34.89406709431907
21
10.624635747694304
31
0
11
-35.401324809779766
21
10.059541779669098
31
0
0
SPLINE
5
338
100
AcDbEntity
8
0
100
AcDbSpline
70
1064
71
3
72
9
73
5
74
3
42
0.000000001
43
0.0000000001
44
0.0000000001
40
0
40
0
40
0
40
0
40
0.08565128689988509
40
0.19738739835003033
40
0.19738739835003033
40
0.19738739835003033
40
0.19738739835003033
10
-35.401324809779766
20
10.059541779669098
30
0
10
-35.502464017352054
20
9.7861815486416344
30
0
10
-35.735544053583311
20
9.1562101055044831
30
0
10
-35.574881375809085
20
8.4987602397710234
30
0
10
-35.483934217987859
20
8.1265941740315721
30
0
11
-35.401324809779766
21
10.059541779669098
31
0
11
-35.630604329417132
21
9.2342871543348934
31
0
11
-35.483934217987859
21
8.1265941740315721
31
0
0
LINE
5
339
100
AcDbEntity
8
0
100
AcDbLine
10
-31.816479466519063
20
-1.1469213797350795
30
0
11
-37.529239272369502
21
-0.74955983440922924
31
0
0
LINE
5
340
100
AcDbEntity
8
0
100
AcDbLine
10
-37.529239272369502
20
-0.74955983440922924
30
0
11
-37.353055810014062
21
1.7833823036487761
31
0
0
SPLINE
5
341
100
AcDbEntity
8
0
100
AcDbSpline
70
1064
71
3
72
9
73
5
74
3
42
0.000000001
43
0.0000000001
44
0.0000000001
40
0
40
0
40
0
40
0
40
0.067493163485417978
40
0.11786391686343865
40
0.11786391686343865
40
0.11786391686343865
40
0.11786391686343865
10
-37.353055810014062
20
1.7833823036487761
30
0
10
-37.335621544126298
20
2.0089434120065679
30
0
10
-37.305175929206882
20
2.4028427989993197
30
0
10
-37.174292443511909
20
2.7749202423882604
30
0
10
-37.11835759971374
20
2.9339326156168166
30
0
11
-37.353055810014062
21
1.7833823036487761
31
0
11
-37.267818189836454
21
2.4529099429836987
31
0
11
-37.11835759971374
21
2.9339326156168166
31
0
0
SPLINE
5
342
100
AcDbEntity
8
0
100
AcDbSpline
70
1064
71
3
72
9
73
5
74
3
42
0.000000001
43
0.0000000001
44
0.0000000001
40
0
40
0
40
0
40
0
40
0.041710912490889616
40
0.084998672368674796
40
0.084998672368674796
40
0.084998672368674796
40
0.084998672368674796
10
-37.11835759971374
20
2.9339326156168166
30
0
10
-37.047256607451871
20
3.0561381766221771
30
0
10
-36.902366707292664
20
3.3051691812494077
30
0
10
-36.656023779207999
20
3.454999711146689
30
0
10
-36.5305673076967
20
3.5313047617999849
30
0
11
-37.11835759971374
21
2.9339326156168166
31
0
11
-36.880623686687059
21
3.2766608004503488
31
0
11
-36.5305673076967
21
3.5313047617999849
31
0
0
SPLINE
5
343
100
AcDbEntity
8
0
100
AcDbSpline
70
1064
71
3
72
9
73
5
74
3
42
0.000000001
43
0.0000000001
44
0.0000000001
40
0
40
0
40
0
40
0
40
0.044829416298340044
40
0.090435004219193704
40
0.090435004219193704
40
0.090435004219193704
40
0.090435004219193704
10
-36.5305673076967
20
3.5313047617999849
30
0
10
-36.391777342752121
20
3.5913162277971193
30
0
10
-36.111794418553103
20
3.7123781917658945
30
0
10
-35.806692849273503
20
3.7102051028282861
30
0
10
-35.652832775260059
20
3.7091092329329989
30
0
11
-36.5305673076967
21
3.5313047617999849
31
0
11
-36.108025081240307
21
3.6810569685492185
31
0
11
-35.652832775260059
21
3.7091092329329989
31
0
0
SPLINE
5
344
100
AcDbEntity
8
0
100
AcDbSpline
70
1064
71
3
72
9
73
5
74
3
42
0.000000001
43
0.0000000001
44
0.0000000001
40
0
40
0
40
0
40
0
40
0.057012012377370386
40
0.11219755288245242
40
0.11219755288245242
40
0.11219755288245242
40
0.11219755288245242
10
-35.652832775260059
20
3.7091092329329989
30
0
10
-35.460390962389276
20
3.6803448376987107
30
0
10
-35.081672520853694
20
3.6237375610765681
30
0
10
-34.795901240205509
20
3.3693604844378462
30
0
10
-34.655341645292395
20
3.2442424572994306
30
0
11
-35.652832775260059
21
3.7091092329329989
31
0
11
-35.09950683150003
21
3.5717507403167441
31
0
11
-34.655341645292395
21
3.2442424572994306
31
0
0
SPLINE
5
345
100
AcDbEntity
8
0
100
AcDbSpline
70
1064
71
3
72
9
73
5
74
3
42
0.000000001
43
0.0000000001
44
0.0000000001
40
0
40
0
40
0
40
0
40
0.060727422439912547
40
0.13486851351285398
40
0.13486851351285398
40
0.13486851351285398
40
0.13486851351285398
10
-34.655341645292395
20
3.2442424572994306
30
0
10
-34.538879381519294
20
3.0748260673984973
30
0
10
-34.280230294099809
20
2.698572049812602
30
0
10
-34.23487394655686
20
2.2423600134418677
30
0
10
-34.209940261100336
20
1.9915671689436527
30
0
11
-34.655341645292395
21
3.2442424572994306
31
0
11
-34.349198731366535
21
2.7197822587404357
31
0
11
-34.209940261100336
21
1.9915671689436527
31
0
0
SPLINE
5
346
100
AcDbEntity
8
0
100
AcDbSpline
70
1064
71
3
72
9
73
5
74
3
42
0.000000001
43
0.0000000001
44
0.0000000001
40
0
40
0
40
0
40
0
40
0.030107608598008685
40
0.053995303111189018
40
0.053995303111189018
40
0.053995303111189018
40
0.053995303111189018
10
-34.209940261100336
20
1.9915671689436527
30
0
10
-34.15917689867549
20
2.0785310806169295
30
0
10
-34.068137348584685
20
2.2344930779056771
30
0
10
-33.947242459051346
20
2.3684481002070026
30
0
10
-33.893758173882503
20
2.427710229815776
30
0
11
-34.209940261100336
21
1.9915671689436527
31
0
11
-34.048367724877913
21
2.2456166229634196
31
0
11
-33.893758173882503
21
2.427710229815776
31
0
0
SPLINE
5
347
100
AcDbEntity
8
0
100
AcDbSpline
70
1064
71
3
72
9
73
5
74
3
42
0.000000001
43
0.0000000001
44
0.0000000001
40
0
40
0
40
0
40
0
40
0.047114607007361149
40
0.098974611158199277
40
0.098974611158199277
40
0.098974611158199277
40
0.098974611158199277
10
-33.893758173882503
20
2.427710229815776
30
0
10
-33.775043402179669
20
2.5310828049589946
30
0
10
-33.525656871879498
20
2.7482396715677568
30
0
10
-33.239942819637164
20
2.9149131505560231
30
0
10
-33.09023642764582
20
3.0022455200497546
30
0
11
-33.893758173882503
21
2.427710229815776
31
0
11
-33.52938197346085
21
2.7263883239440383
31
0
11
-33.09023642764582
21
3.0022455200497546
31
0
0
LINE
5
348
100
AcDbEntity
8
0
100
AcDbLine
10
-33.09023642764582
20
3.0022455200497546
30
0
11
-31.466280895033883
21
3.8877890666575352
31
0
0
LINE
5
349
100
AcDbEntity
8
0
100
AcDbLine
10
-31.466280895033883
20
3.8877890666575352
30
0
11
-31.532417490806314
21
2.9369610601006779
31
0
0
LINE
5
350
100
AcDbEntity
8
0
100
AcDbLine
10
-31.532417490806314
20
2.9369610601006779
30
0
11
-32.773536052122132
21
2.263645796059413
31
0
0
SPLINE
5
351
100
AcDbEntity
8
0
100
AcDbSpline
70
1064
71
3
72
9
73
5
74
3
42
0.000000001
43
0.0000000001
44
0.0000000001
40
0
40
0
40
0
40
0
40
0.054657477499611452
40
0.096027791391051248
40
0.096027791391051248
40
0.096027791391051248
40
0.096027791391051248
10
-32.773536052122132
20
2.263645796059413
30
0
10
-32.933043140063312
20
2.1754699270881512
30
0
10
-33.213281344731989
20
2.0205536313012273
30
0
10
-33.482611840647948
20
1.8474270547263076
30
0
10
-33.598643741363084
20
1.7728413466505271
30
0
11
-32.773536052122132
21
2.263645796059413
31
0
11
-33.248523541531547
21
1.9932185977849204
31
0
11
-33.598643741363084
21
1.7728413466505271
31
0
0
SPLINE
5
352
100
AcDbEntity
8
0
100
AcDbSpline
70
1064
71
3
72
9
73
5
74
3
42
0.000000001
43
0.0000000001
44
0.0000000001
40
0
40
0
40
0
40
0
40
0.030899557462660595
40
0.054443885921088474
40
0.054443885921088474
40
0.054443885921088474
40
0.054443885921088474
10
-33.598643741363084
20
1.7728413466505271
30
0
10
-33.683723758595647
20
1.7139604153163517
30
0
10
-33.833631625657226
20
1.6102143758347465
30
0
10
-33.954822901590518
20
1.4743297384275849
30
0
10
-34.007232224668684
20
1.4155662522905792
30
0
11
-33.598643741363084
21
1.7728413466505271
31
0
11
-33.844633847575793
21
1.5858463392725564
31
0
11
-34.007232224668684
21
1.4155662522905792
31
0
0
SPLINE
5
353
100
AcDbEntity
8
0
100
AcDbSpline
70
1064
71
3
72
9
73
5
74
3
42
0.000000001
43
0.0000000001
44
0.0000000001
40
0
40
0
40
0
40
0
40
0.019488529243556131
40
0.037909945991661954
40
0.037909945991661954
40
0.037909945991661954
40
0.037909945991661954
10
-34.007232224668684
20
1.4155662522905792
30
0
10
-34.04451184244067
20
1.3620112986177864
30
0
10
-34.117029797934563
20
1.2578338424358204
30
0
10
-34.161559004566342
20
1.1390079933634212
30
0
10
-34.183196890122993
20
1.0812674603990211
30
0
11
-34.007232224668684
21
1.4155662522905792
31
0
11
-34.111674424320093
21
1.2510302254160066
31
0
11
-34.183196890122993
21
1.0812674603990211
31
0
0
SPLINE
5
354
100
AcDbEntity
8
0
100
AcDbSpline
70
1064
71
3
72
9
73
5
74
3
42
0.000000001
43
0.0000000001
44
0.0000000001
40
0
40
0
40
0
40
0
40
0.017115485369091389
40
0.04232005812847503
40
0.04232005812847503
40
0.04232005812847503
40
0.04232005812847503
10
-34.183196890122993
20
1.0812674603990211
30
0
10
-34.195007877376391
20
1.0253905969474053
30
0
10
-34.224211937695998
20
0.88722845556988783
30
0
10
-34.233949037341844
20
0.74626218517098919
30
0
10
-34.239748165399376
20
0.6623068510809027
30
0
11
-34.183196890122993
21
1.0812674603990211
31
0
11
-34.215445771085903
21
0.91317821738032601
31
0
11
-34.239748165399376
21
0.6623068510809027
31
0
0
LINE
5
355
100
AcDbEntity
8
0
100
AcDbLine
10
-34.239748165399376
20
0.6623068510809027
30
0
11
-34.300734757470309
21
-0.21448094073456034
31
0
0
LINE
5
356
100
AcDbEntity
8
0
100
AcDbLine
10
-34.300734757470309
20
-0.21448094073456034
30
0
11
-31.763895472611875
21
-0.39093547632387993
31
0
0
LINE
5
357
100
AcDbEntity
8
0
100
AcDbLine
10
-31.763895472611875
20
-0.39093547632387993
30
0
11
-31.816479466519063
21
-1.1469213797350795
31
0
0
LINE
5
358
100
AcDbEntity
8
0
100
AcDbLine
10
-34.955403094281138
20
-0.16894427704976012
30
0
11
-34.842374618581509
21
1.4560356448596097
31
0
0
SPLINE
5
359
100
AcDbEntity
8
0
100
AcDbSpline
70
1064
71
3
72
9
73
5
74
3
42
0.000000001
43
0.0000000001
44
0.0000000001
40
0
40
0
40
0
40
0
40
0.046366894626857842
40
0.082244126620222999
40
0.082244126620222999
40
0.082244126620222999
40
0.082244126620222999
10
-34.842374618581509
20
1.4560356448596097
30
0
10
-34.83328357101967
20
1.6111150438524753
30
0
10
-34.81715815928348
20
1.8861899616273075
30
0
10
-34.870075023007203
20
2.1562312710327203
30
0
10
-34.893158867096695
20
2.2740309863858634
30
0
11
-34.842374618581509
21
1.4560356448596097
31
0
11
-34.837045755643324
21
1.9196739682902768
31
0
11
-34.893158867096695
21
2.2740309863858634
31
0
0
SPLINE
5
360
100
AcDbEntity
8
0
100
AcDbSpline
70
1064
71
3
72
9
73
5
74
3
42
0.000000001
43
0.0000000001
44
0.0000000001
40
0
40
0
40
0
40
0
40
0.029320454843680746
40
0.05703576466365301
40
0.05703576466365301
40
0.05703576466365301
40
0.05703576466365301
10
-34.893158867096695
20
2.2740309863858634
30
0
10
-34.926760209190036
20
2.3676194778347659
30
0
10
-34.992123391658943
20
2.5496729692271876
30
0
10
-35.135506568346067
20
2.6791877825837758
30
0
10
-35.205180556032388
20
2.7421227357595876
30
0
11
-34.893158867096695
21
2.2740309863858634
31
0
11
-35.014581190002751
21
2.540912096103523
31
0
11
-35.205180556032388
21
2.7421227357595876
31
0
0
SPLINE
5
361
100
AcDbEntity
8
0
100
AcDbSpline
70
1064
71
3
72
9
73
5
74
3
42
0.000000001
43
0.0000000001
44
0.0000000001
40
0
40
0
40
0
40
0
40
0.02717672278248532
40
0.054155890777264806
40
0.054155890777264806
40
0.054155890777264806
40
0.054155890777264806
10
-35.205180556032388
20
2.7421227357595876
30
0
10
-35.282218854439812
20
2.7920221139455359
30
0
10
-35.435735439482492
20
2.8914581385361551
30
0
10
-35.616827386819409
20
2.9170121884282345
30
0
10
-35.707043058643528
20
2.9297426041796983
30
0
11
-35.205180556032388
21
2.7421227357595876
31
0
11
-35.443239679523558
21
2.8732153741578648
31
0
11
-35.707043058643528
21
2.9297426041796983
31
0
0
SPLINE
5
362
100
AcDbEntity
8
0
100
AcDbSpline
70
1064
71
3
72
9
73
5
74
3
42
0.000000001
43
0.0000000001
44
0.0000000001
40
0
40
0
40
0
40
0
40
0.037738952397344323
40
0.074839016344504433
40
0.074839016344504433
40
0.074839016344504433
40
0.074839016344504433
10
-35.707043058643528
20
2.9297426041796983
30
0
10
-35.836570082899556
20
2.9268601265208547
30
0
10
-36.093431348768569
20
2.921143969104731
30
0
10
-36.294292968075879
20
2.7611803266706185
30
0
10
-36.39386641632283
20
2.6818812971883581
30
0
11
-35.707043058643528
21
2.9297426041796983
31
0
11
-36.081384169576729
21
2.8818720968688654
31
0
11
-36.39386641632283
21
2.6818812971883581
31
0
0
SPLINE
5
363
100
AcDbEntity
8
0
100
AcDbSpline
70
1064
71
3
72
9
73
5
74
3
42
0.000000001
43
0.0000000001
44
0.0000000001
40
0
40
0
40
0
40
0
40
0.042803206934283772
40
0.098317104935011695
40
0.098317104935011695
40
0.098317104935011695
40
0.098317104935011695
10
-36.39386641632283
20
2.6818812971883581
30
0
10
-36.478267987025973
20
2.5639049951632078
30
0
10
-36.672134724540321
20
2.2929185598743844
30
0
10
-36.702471117831429
20
1.959122054513257
30
0
10
-36.719600298394525
20
1.7706467615938219
30
0
11
-36.39386641632283
21
2.6818812971883581
31
0
11
-36.616076045338872
21
2.3160475464784707
31
0
11
-36.719600298394525
21
1.7706467615938219
31
0
0
LINE
5
364
100
AcDbEntity
8
0
100
AcDbLine
10
-36.719600298394525
20
1.7706467615938217
30
0
11
-36.845368187277138
21
-0.037484269017266925
31
0
0
LINE
5
365
100
AcDbEntity
8
0
100
AcDbLine
10
-36.845368187277138
20
-0.037484269017266925
30
0
11
-34.955403094281138
21
-0.16894427704976012
31
0
0
LINE
5
366
100
AcDbEntity
8
0
100
AcDbLine
10
-30.865593886540541
20
-7.6162940194800903
30
0
11
-36.550304808355577
21
-8.307367483332472
31
0
0
LINE
5
367
100
AcDbEntity
8
0
100
AcDbLine
10
-36.550304808355577
20
-8.307367483332472
30
0
11
-36.810989390713274
21
-6.1629985124611961
31
0
0
SPLINE
5
368
100
AcDbEntity
8
0
100
AcDbSpline
70
1064
71
3
72
9
73
5
74
3
42
0.000000001
43
0.0000000001
44
0.0000000001
40
0
40
0
40
0
40
0
40
0.050311548692083909
40
0.087355734226439927
40
0.087355734226439927
40
0.087355734226439927
40
0.087355734226439927
10
-36.810989390713274
20
-6.1629985124611961
30
0
10
-36.830735327904762
20
-5.9962403633397692
30
0
10
-36.865020117107107
20
-5.7066988776681811
30
0
10
-36.862775457188789
20
-5.4152594453233007
30
0
10
-36.86182358380335
20
-5.2916712630543987
30
0
11
-36.810989390713274
21
-6.1629985124611961
31
0
11
-36.858110186931498
21
-5.6620945059456229
31
0
11
-36.86182358380335
21
-5.2916712630543987
31
0
0
SPLINE
5
369
100
AcDbEntity
8
0
100
AcDbSpline
70
1064
71
3
72
9
73
5
74
3
42
0.000000001
43
0.0000000001
44
0.0000000001
40
0
40
0
40
0
40
0
40
0.040090153755303684
40
0.076058863598356383
40
0.076058863598356383
40
0.076058863598356383
40
0.076058863598356383
10
-36.86182358380335
20
-5.2916712630543987
30
0
10
-36.851177337588311
20
-5.1573824145171105
30
0
10
-36.830979326035489
20
-4.9026102009701216
30
0
10
-36.729510274900349
20
-4.6683155246055765
30
0
10
-36.681524929265919
20
-4.5575161143431488
30
0
11
-36.86182358380335
21
-5.2916712630543987
31
0
11
-36.807305486908589
21
-4.8944939475851452
31
0
11
-36.681524929265919
21
-4.5575161143431488
31
0
0
SPLINE
5
370
100
AcDbEntity
8
0
100
AcDbSpline
70
1064
71
3
72
9
73
5
74
3
42
0.000000001
43
0.0000000001
44
0.0000000001
40
0
40
0
40
0
40
0
40
0.0349710796405788
40
0.072450556080008055
40
0.072450556080008055
40
0.072450556080008055
40
0.072450556080008055
10
-36.681524929265919
20
-4.5575161143431488
30
0
10
-36.618814183969086
20
-4.4578816388226965
30
0
10
-36.488894592819975
20
-4.2514661311979109
30
0
10
-36.290731585389373
20
-4.1089224076536119
30
0
10
-36.188219663190189
20
-4.0351829580589493
30
0
11
-36.681524929265919
21
-4.5575161143431488
31
0
11
-36.477492756734947
21
-4.273494084044331
31
0
11
-36.188219663190189
21
-4.0351829580589493
31
0
0
SPLINE
5
371
100
AcDbEntity
8
0
100
AcDbSpline
70
1064
71
3
72
9
73
5
74
3
42
0.000000001
43
0.0000000001
44
0.0000000001
40
0
40
0
40
0
40
0
40
0.039517173167574374
40
0.080568140508213343
40
0.080568140508213343
40
0.080568140508213343
40
0.080568140508213343
10
-36.188219663190189
20
-4.0351829580589493
30
0
10
-36.072512443931444
20
-3.9700487939068694
30
0
10
-35.836607019737208
20
-3.8372523899982069
30
0
10
-35.569667364521074
20
-3.7916039431507373
30
0
10
-35.433656641187056
20
-3.7683452097498416
30
0
11
-36.188219663190189
21
-4.0351829580589493
31
0
11
-35.833632038719784
21
-3.8607458229986671
31
0
11
-35.433656641187056
21
-3.7683452097498416
31
0
0
SPLINE
5
372
100
AcDbEntity
8
0
100
AcDbSpline
70
1064
71
3
72
9
73
5
74
3
42
0.000000001
43
0.0000000001
44
0.0000000001
40
0
40
0
40
0
40
0
40
0.068425713371034383
40
0.13456208453626556
40
0.13456208453626556
40
0.13456208453626556
40
0.13456208453626556
10
-35.433656641187056
20
-3.7683452097498416
30
0
10
-35.200541313132604
20
-3.7581548565319656
30
0
10
-34.742110075298541
20
-3.7381150921860273
30
0
10
-34.345297869106929
20
-3.9677361932919264
30
0
10
-34.150267304278614
20
-4.080593439985484
30
0
11
-35.433656641187056
21
-3.7683452097498416
31
0
11
-34.750244044736711
21
-3.8023312075503202
31
0
11
-34.150267304278614
21
-4.080593439985484
31
0
0
SPLINE
5
373
100
AcDbEntity
8
0
100
AcDbSpline
70
1064
71
3
72
9
73
5
74
3
42
0.000000001
43
0.0000000001
44
0.0000000001
40
0
40
0
40
0
40
0
40
0.075464709769948804
40
0.17897455531413886
40
0.17897455531413886
40
0.17897455531413886
40
0.17897455531413886
10
-34.150267304278614
20
-4.080593439985484
30
0
10
-33.979270070470669
20
-4.2720124927213368
30
0
10
-33.573727480112609
20
-4.7259881317516932
30
0
10
-33.492424365569022
20
-5.3348334203456389
30
0
10
-33.44540274948568
20
-5.6869587918659139
30
0
11
-34.150267304278614
21
-4.080593439985484
31
0
11
-33.694921860284452
21
-4.682384739939228
31
0
11
-33.44540274948568
21
-5.6869587918659139
31
0
0
LINE
5
374
100
AcDbEntity
8
0
100
AcDbLine
10
-33.44540274948568
20
-5.6869587918659148
30
0
11
-33.268156073218542
21
-7.1449747180084326
31
0
0
LINE
5
375
100
AcDbEntity
8
0
100
AcDbLine
10
-33.268156073218542
20
-7.1449747180084326
30
0
11
-30.95704562621308
21
-6.8640198684261176
31
0
0
LINE
5
376
100
AcDbEntity
8
0
100
AcDbLine
10
-30.95704562621308
20
-6.8640198684261176
30
0
11
-30.865593886540541
21
-7.6162940194800903
31
0
0
LINE
5
377
100
AcDbEntity
8
0
100
AcDbLine
10
-33.938998288978169
20
-7.2265270185773751
30
0
11
-34.117659145784472
21
-5.7568781648564036
31
0
0
SPLINE
5
378
100
AcDbEntity
8
0
100
AcDbSpline
70
1064
71
3
72
9
73
5
74
3
42
0.000000001
43
0.0000000001
44
0.0000000001
40
0
40
0
40
0
40
0
40
0.063163986666408739
40
0.10945809652440197
40
0.10945809652440197
40
0.10945809652440197
40
0.10945809652440197
10
-34.117659145784479
20
-5.7568781648564036
30
0
10
-34.146065801384268
20
-5.5435078015805743
30
0
10
-34.195292245354608
20
-5.1737541642391083
30
0
10
-34.41994699486763
20
-4.8791354575653774
30
0
10
-34.514962274543699
20
-4.7545296841593601
30
0
11
-34.117659145784479
21
-5.7568781648564036
31
0
11
-34.26129661052795
21
-5.1417869522045789
31
0
11
-34.514962274543699
21
-4.7545296841593601
31
0
0
SPLINE
5
379
100
AcDbEntity
8
0
100
AcDbSpline
70
1064
71
3
72
9
73
5
74
3
42
0.000000001
43
0.0000000001
44
0.0000000001
40
0
40
0
40
0
40
0
40
0.040233656135526936
40
0.084947214968004794
40
0.084947214968004794
40
0.084947214968004794
40
0.084947214968004794
10
-34.514962274543699
20
-4.7545296841593601
30
0
10
-34.629448674320685
20
-4.6778466890687005
30
0
10
-34.871169207498404
20
-4.5159422664029014
30
0
10
-35.162672061861514
20
-4.5323962520319911
30
0
10
-35.31611005312832
20
-4.5410571157781661
30
0
11
-34.514962274543699
21
-4.7545296841593601
31
0
11
-34.869588971075721
21
-4.5644912282880146
31
0
11
-35.31611005312832
21
-4.5410571157781661
31
0
0
SPLINE
5
380
100
AcDbEntity
8
0
100
AcDbSpline
70
1064
71
3
72
9
73
5
74
3
42
0.000000001
43
0.0000000001
44
0.0000000001
40
0
40
0
40
0
40
0
40
0.033657344171520789
40
0.064951954858228772
40
0.064951954858228772
40
0.064951954858228772
40
0.064951954858228772
10
-35.31611005312832
20
-4.5410571157781661
30
0
10
-35.428303766741145
20
-4.5611480455203326
30
0
10
-35.644815235525527
20
-4.5999195289452555
30
0
10
-35.820352179623988
20
-4.7319851539314968
30
0
10
-35.904927930095027
20
-4.7956159149772919
30
0
11
-35.31611005312832
21
-4.5410571157781661
31
0
11
-35.641688750170658
21
-4.6263811669023012
31
0
11
-35.904927930095027
21
-4.7956159149772919
31
0
0
SPLINE
5
381
100
AcDbEntity
8
0
100
AcDbSpline
70
1064
71
3
72
9
73
5
74
3
42
0.000000001
43
0.0000000001
44
0.0000000001
40
0
40
0
40
0
40
0
40
0.029900441874467752
40
0.059498912842382588
40
0.059498912842382588
40
0.059498912842382588
40
0.059498912842382588
10
-35.904927930095027
20
-4.7956159149772919
30
0
10
-35.974475741894679
20
-4.8696446913698361
30
0
10
-36.112868987386449
20
-5.0169546118352359
30
0
10
-36.159436842987382
20
-5.2135912234881898
30
0
10
-36.182602599405378
20
-5.3114105409042445
30
0
11
-35.904927930095027
21
-4.7956159149772919
31
0
11
-36.090381409040361
21
-5.0301594068416229
31
0
11
-36.182602599405378
21
-5.3114105409042445
31
0
0
SPLINE
5
382
100
AcDbEntity
8
0
100
AcDbSpline
70
1064
71
3
72
9
73
5
74
3
42
0.000000001
43
0.0000000001
44
0.0000000001
40
0
40
0
40
0
40
0
40
0.027510993335222538
40
0.07098656443239397
40
0.07098656443239397
40
0.07098656443239397
40
0.07098656443239397
10
-36.182602599405378
20
-5.3114105409042445
30
0
10
-36.186191796089993
20
-5.4031710621827909
30
0
10
-36.195452993554156
20
-5.6399405628954398
30
0
10
-36.165831152820658
20
-5.8752735328906223
30
0
10
-36.147689319177417
20
-6.0194027121281675
30
0
11
-36.182602599405378
21
-5.3114105409042445
31
0
11
-36.187530087632453
21
-5.5864763426478241
31
0
11
-36.147689319177417
21
-6.0194027121281675
31
0
0
LINE
5
383
100
AcDbEntity
8
0
100
AcDbLine
10
-36.147689319177417
20
-6.0194027121281675
30
0
11
-35.970914036423324
21
-7.4735409957445338
31
0
0
LINE
5
384
100
AcDbEntity
8
0
100
AcDbLine
10
-35.970914036423324
20
-7.4735409957445338
30
0
11
-33.938998288978169
21
-7.2265270185773751
31
0
0
ENDSEC
0
SECTION
2
OBJECTS
0
DICTIONARY
5
C
100
AcDbDictionary
3
ACAD_GROUP
350
D
3
ACAD_MLINESTYLE
350
17
0
DICTIONARY
5
D
100
AcDbDictionary
0
DICTIONARY
5
1A
330
C
100
AcDbDictionary
0
DICTIONARY
5
17
100
AcDbDictionary
0
ENDSEC
0
EOF
