0
SECTION
2
HEADER
9
$INSUNITS
70
4
9
$ACADVER
1
AC1014
9
$HANDSEED
5
FFFF
0
ENDSEC
0
SECTION
2
TABLES
0
TABLE
2
VPORT
5
8
100
AcDbSymbolTable
0
ENDTAB
0
TABLE
2
LTYPE
5
5
100
AcDbSymbolTable
0
LTYPE
5
14
100
AcDbSymbolTableRecord
100
AcDbLinetypeTableRecord
2
BYBLOCK
70
0
0
LTYPE
5
15
100
AcDbSymbolTableRecord
100
AcDbLinetypeTableRecord
2
BYLAYER
70
0
0
ENDTAB
0
TABLE
2
LAYER
5
2
100
AcDbSymbolTable
70
2
0
LAYER
5
50
100
AcDbSymbolTableRecord
100
AcDbLayerTableRecord
2
0
70
0
6
CONTINUOUS
0
ENDTAB
0
TABLE
2
STYLE
5
3
100
AcDbSymbolTable
70
1
0
STYLE
5
11
100
AcDbSymbolTableRecord
100
AcDbTextStyleTableRecord
2
STANDARD
70
0
0
ENDTAB
0
TABLE
2
VIEW
5
6
100
AcDbSymbolTable
70
0
0
ENDTAB
0
TABLE
2
UCS
5
7
100
AcDbSymbolTable
70
0
0
ENDTAB
0
TABLE
2
APPID
5
9
100
AcDbSymbolTable
70
2
0
APPID
5
12
100
AcDbSymbolTableRecord
100
AcDbRegAppTableRecord
2
ACAD
70
0
0
ENDTAB
0
TABLE
2
DIMSTYLE
5
A
100
AcDbSymbolTable
70
1
0
ENDTAB
0
TABLE
2
BLOCK_RECORD
5
1
100
AcDbSymbolTable
70
1
0
BLOCK_RECORD
5
1F
100
AcDbSymbolTableRecord
100
AcDbBlockTableRecord
2
*MODEL_SPACE
0
BLOCK_RECORD
5
1B
100
AcDbSymbolTableRecord
100
AcDbBlockTableRecord
2
*PAPER_SPACE
0
ENDTAB
0
ENDSEC
0
SECTION
2
BLOCKS
0
BLOCK
5
20
100
AcDbEntity
100
AcDbBlockBegin
2
*MODEL_SPACE
0
ENDBLK
5
21
100
AcDbEntity
100
AcDbBlockEnd
0
BLOCK
5
1C
100
AcDbEntity
100
AcDbBlockBegin
2
*PAPER_SPACE
0
ENDBLK
5
1D
100
AcDbEntity
100
AcDbBlockEnd
0
ENDSEC
0
SECTION
2
ENTITIES
0
SPLINE
5
100
100
AcDbEntity
8
0
100
AcDbSpline
70
1064
71
5
72
21
73
15
74
0
42
0.000000001
43
0.0000000001
44
0.0000000001
40
-1
40
-1
40
-1
40
-1
40
-1
40
-1
40
-0.89999999999999991
40
-0.79999999999999993
40
-0.69999999999999996
40
-0.59999999999999998
40
-0.5
40
-0.40000000000000002
40
-0.30000000000000004
40
-0.20000000000000001
40
-0.10000000000000001
40
-0
40
-0
40
-0
40
-0
40
-0
40
-0
10
-121.32217530116461
20
-1.2921085889552586
30
0
10
-122.97587268337838
20
1.4762566950709299
30
0
10
-126.14860895916159
20
7.1178533892899765
30
0
10
-130.50372188978093
20
15.89485928255133
30
0
10
-135.48940171813967
20
28.23699961676251
30
0
10
-140.26801018615376
20
44.796590336784057
30
0
10
-143.49140093557327
20
62.567316419567511
30
0
10
-145.08050507113111
20
81.610753253562621
30
0
10
-145.07059025010517
20
101.89943593377031
30
0
10
-143.58942896433814
20
123.33386084638204
30
0
10
-140.78064842229347
20
145.80217741951836
30
0
10
-137.57270194686046
20
164.52515462763387
30
0
10
-134.66307212538933
20
178.95962361639613
30
0
10
-132.50314503725508
20
188.75406470051956
30
0
10
-131.36813470787357
20
193.69415326517642
30
0
0
LINE
5
101
100
AcDbEntity
8
0
100
AcDbLine
10
-131.36813470787357
20
193.69415326517645
30
0
11
-120.36813470787354
21
193.69415326517642
31
0
0
ARC
5
102
100
AcDbEntity
8
0
100
AcDbCircle
10
-120.36813470787352
20
198.6941532651764
30
0
40
4.9999999999999645
100
AcDbArc
50
269.99999999999983
51
360
0
LINE
5
103
100
AcDbEntity
8
0
100
AcDbLine
10
-115.36813470787357
20
198.6941532651764
30
-3.7916157968496903e-47
11
-131.40373803390273
21
198.69415326517642
31
0
0
LINE
5
104
100
AcDbEntity
8
0
100
AcDbLine
10
-131.40373803390273
20
198.69415326517642
30
0
11
-131.40373803390273
21
205.64836899330132
31
1.3717882188790761e-32
0
LINE
5
105
100
AcDbEntity
8
0
100
AcDbLine
10
-131.40373803390273
20
205.64836899330132
30
1.3717882188790761e-32
11
-121.42239310647641
21
205.64836899330132
31
0
0
ARC
5
106
100
AcDbEntity
8
0
100
AcDbCircle
10
-126.42239310647638
20
205.64836899330135
30
0
40
4.9999999999999645
100
AcDbArc
50
0
51
90.000000000000171
0
LINE
5
107
100
AcDbEntity
8
0
100
AcDbLine
10
-126.42239310647639
20
210.64836899330132
30
-3.6331510929219306e-33
11
-144.33238638192415
21
210.64836899330135
31
0
0
LINE
5
108
100
AcDbEntity
8
0
100
AcDbLine
10
-144.33238638192415
20
210.64836899330135
30
0
11
-144.33238638192418
21
190.6478914110447
31
1.453606756776419e-32
0
LINE
5
109
100
AcDbEntity
8
0
100
AcDbLine
10
-144.33238638192418
20
190.6478914110447
30
1.453606756776419e-32
11
-147.50738638192419
21
190.64789141104467
31
0
0
LINE
5
110
100
AcDbEntity
8
0
100
AcDbLine
10
-147.50738638192419
20
190.64789141104467
30
0
11
-147.50738638192419
21
210.64836899330135
31
-1.453606756776419e-32
0
LINE
5
111
100
AcDbEntity
8
0
100
AcDbLine
10
-147.50738638192419
20
210.64836899330135
30
-1.453606756776419e-32
11
-149.61655515629639
21
210.64836899330135
31
0
0
ARC
5
112
100
AcDbEntity
8
0
100
AcDbCircle
10
-149.61655515629639
20
200.64836899330135
30
0
40
10
100
AcDbArc
50
90
51
158.62554576042839
0
SPLINE
5
113
100
AcDbEntity
8
0
100
AcDbSpline
70
1064
71
5
72
21
73
15
74
0
42
0.000000001
43
0.0000000001
44
0.0000000001
40
0.023291367550821427
40
0.023291367550821427
40
0.023291367550821427
40
0.023291367550821427
40
0.023291367550821427
40
0.023291367550821427
40
0.10000000000000001
40
0.20000000000000001
40
0.30000000000000004
40
0.40000000000000002
40
0.5
40
0.59999999999999998
40
0.69999999999999996
40
0.79999999999999993
40
0.89999999999999991
40
0.94768138039789429
40
0.94768138039789429
40
0.94768138039789429
40
0.94768138039789429
40
0.94768138039789429
40
0.94768138039789429
10
-158.9287392205367
20
204.29298529048663
30
0
10
-160.5617670459404
20
200.12051432210771
30
0
10
-164.25583039388169
20
190.56082079553624
30
0
10
-169.79495352904539
20
175.77995183765452
30
0
10
-176.80320806353376
20
156.06692986402876
30
0
10
-184.69228722266325
20
131.87405869260667
30
0
10
-191.75993144043102
20
107.42703625084044
30
0
10
-197.48776541203438
20
84.010090829726764
30
0
10
-201.7560102455744
20
61.715311204146808
30
0
10
-204.5255032595885
20
40.572806546937429
30
0
10
-205.72472577496416
20
22.627056532437493
30
0
10
-205.84717529781241
20
9.3118053405893164
30
0
10
-205.54354079313552
20
0.12678828659876018
30
0
10
-205.22582732710188
20
-5.244753627531189
30
0
10
-205.10905549345625
20
-6.9681331938417657
30
0
0
ARC
5
114
100
AcDbEntity
8
0
100
AcDbCircle
10
-195.13193212378769
20
-6.2921085889552941
30
0
40
9.9999999999999218
100
AcDbArc
50
183.87629200505793
51
270
0
LINE
5
115
100
AcDbEntity
8
0
100
AcDbLine
10
-195.13193212378769
20
-16.292108588955287
30
-1.5372192525192397e-32
11
-188.50738638192422
21
-16.292108588955259
31
0
0
LINE
5
116
100
AcDbEntity
8
0
100
AcDbLine
10
-188.50738638192422
20
-16.292108588955259
30
0
11
-188.50738638192422
21
21.707891411044741
31
1.2106397952020534e-34
0
LINE
5
117
100
AcDbEntity
8
0
100
AcDbLine
10
-188.50738638192422
20
21.707891411044741
30
1.2106397952020534e-34
11
-185.33238638192418
21
21.707891411044749
31
0
0
LINE
5
118
100
AcDbEntity
8
0
100
AcDbLine
10
-185.33238638192418
20
21.707891411044749
30
0
11
-185.33238638192418
21
-16.292108588955251
31
-1.2106397952020534e-34
0
LINE
5
119
100
AcDbEntity
8
0
100
AcDbLine
10
-185.33238638192418
20
-16.292108588955251
30
-1.2106397952020534e-34
11
-158.50738638192419
21
-16.292108588955259
31
0
0
LINE
5
120
100
AcDbEntity
8
0
100
AcDbLine
10
-158.50738638192419
20
-16.292108588955259
30
0
11
-158.50738638192416
21
21.707891411044741
31
-1.5286375575577681e-32
0
LINE
5
121
100
AcDbEntity
8
0
100
AcDbLine
10
-158.50738638192416
20
21.707891411044741
30
-1.5286375575577681e-32
11
-155.33238638192415
21
21.707891411044749
31
0
0
LINE
5
122
100
AcDbEntity
8
0
100
AcDbLine
10
-155.33238638192415
20
21.707891411044749
30
0
11
-155.33238638192415
21
-16.292108588955251
31
1.5286375575577681e-32
0
LINE
5
123
100
AcDbEntity
8
0
100
AcDbLine
10
-155.33238638192415
20
-16.292108588955251
30
1.5286375575577681e-32
11
-81.322175301164606
21
-16.292108588955259
31
0
0
ARC
5
124
100
AcDbEntity
8
0
100
AcDbCircle
10
-81.32217530116462
20
-6.2921085889552586
30
0
40
10
100
AcDbArc
50
270.00000000000011
51
360
0
LINE
5
125
100
AcDbEntity
8
0
100
AcDbLine
10
-71.32217530116462
20
-6.2921085889552586
30
1.2907769946804968e-47
11
-71.322175301164606
21
-2.2921085889552737
31
3.2564416524928695e-33
0
ARC
5
126
100
AcDbEntity
8
0
100
AcDbCircle
10
-72.32217530116462
20
-2.2921085889552728
30
0
40
1.0000000000000142
100
AcDbArc
50
0
51
89.99999999999919
0
LINE
5
127
100
AcDbEntity
8
0
100
AcDbLine
10
-72.322175301164606
20
-1.2921085889552588
30
8.14103765518746e-34
11
-121.32217530116461
21
-1.2921085889552586
31
0
0
ENDSEC
0
SECTION
2
OBJECTS
0
DICTIONARY
5
C
100
AcDbDictionary
3
ACAD_GROUP
350
D
3
ACAD_MLINESTYLE
350
17
0
DICTIONARY
5
D
100
AcDbDictionary
0
DICTIONARY
5
1A
330
C
100
AcDbDictionary
0
DICTIONARY
5
17
100
AcDbDictionary
0
ENDSEC
0
EOF
