ISO-10303-21;
HEADER;
FILE_DESCRIPTION (( 'STEP AP214' ),
    '1' );
FILE_NAME ('Nameplate.STEP',
    '2018-06-07T22:39:11',
    ( 'John' ),
    ( 'Not Good' ),
    'SwSTEP 2.0',
    'SolidWorks 2007',
    '' );
FILE_SCHEMA (( 'AUTOMOTIVE_DESIGN' ));
ENDSEC;

DATA;
#1 = VECTOR ( 'NONE', #3, 39.37007874015748100 ) ;
#2 = DIRECTION ( 'NONE',  ( 0.0000000000000000000, 0.0000000000000000000, 1.000000000000000000 ) ) ;
#3 = DIRECTION ( 'NONE',  ( 0.0000000000000000000, 0.0000000000000000000, -1.000000000000000000 ) ) ;
#4 = DIRECTION ( 'NONE',  ( 1.000000000000000000, 0.0000000000000000000, 0.0000000000000000000 ) ) ;
#5 = CARTESIAN_POINT ( 'NONE',  ( 0.0000000000000000000, 0.0000000000000000000, 0.0000000000000000000 ) ) ;
#6 = ORIENTED_EDGE ( 'NONE', *, *, #170, .T. ) ;
#7 = ADVANCED_FACE ( 'NONE', ( #128 ), #127, .T. ) ;
#8 = EDGE_LOOP ( 'NONE', ( #9, #10, #130, #158, #159 ) ) ;
#9 = ORIENTED_EDGE ( 'NONE', *, *, #28, .F. ) ;
#10 = ORIENTED_EDGE ( 'NONE', *, *, #167, .F. ) ;
#11 = ORIENTED_EDGE ( 'NONE', *, *, #12, .T. ) ;
#12 = EDGE_CURVE ( 'NONE', #36, #13, #72, .T. ) ;
#13 = VERTEX_POINT ( 'NONE', #68 ) ;
#14 = ORIENTED_EDGE ( 'NONE', *, *, #46, .F. ) ;
#15 = EDGE_CURVE ( 'NONE', #16, #162, #67, .T. ) ;
#16 = VERTEX_POINT ( 'NONE', #63 ) ;
#17 = ORIENTED_EDGE ( 'NONE', *, *, #18, .F. ) ;
#18 = EDGE_CURVE ( 'NONE', #154, #16, #61, .T. ) ;
#19 = DIRECTION ( 'NONE',  ( -1.000000000000000000, 0.0000000000000000000, 0.0000000000000000000 ) ) ;
#20 = DIRECTION ( 'NONE',  ( 0.0000000000000000000, 0.0000000000000000000, -1.000000000000000000 ) ) ;
#21 = AXIS2_PLACEMENT_3D ( 'NONE', #25, #20, #19 ) ;
#22 = CYLINDRICAL_SURFACE ( 'NONE', #21, 0.1400000000000000100 ) ;
#23 = PLANE ( 'NONE',  #125 ) ;
#24 = CARTESIAN_POINT ( 'NONE',  ( -0.4375000000000000000, 0.1400000000000000100, 0.01600000000000000000 ) ) ;
#25 = CARTESIAN_POINT ( 'NONE',  ( -0.4375000000000000000, 0.0000000000000000000, 0.01600000000000000000 ) ) ;
#26 = FACE_OUTER_BOUND ( 'NONE', #45, .T. ) ;
#27 =( GEOMETRIC_REPRESENTATION_CONTEXT ( 3 ) GLOBAL_UNCERTAINTY_ASSIGNED_CONTEXT ( ( #92 ) ) GLOBAL_UNIT_ASSIGNED_CONTEXT ( ( #95, #94, #93 ) ) REPRESENTATION_CONTEXT ( 'NONE', 'WORKASPACE' ) );
#28 = EDGE_CURVE ( 'NONE', #13, #50, #55, .T. ) ;
#29 = ADVANCED_FACE ( 'NONE', ( #51 ), #56, .F. ) ;
#30 = EDGE_LOOP ( 'NONE', ( #31, #152, #155, #157 ) ) ;
#31 = ORIENTED_EDGE ( 'NONE', *, *, #150, .T. ) ;
#32 = MANIFOLD_SOLID_BREP ( 'NONE', #129 ) ;
#33 = ADVANCED_FACE ( 'NONE', ( #26 ), #22, .T. ) ;
#34 = ORIENTED_EDGE ( 'NONE', *, *, #143, .T. ) ;
#35 = ORIENTED_EDGE ( 'NONE', *, *, #49, .F. ) ;
#36 = VERTEX_POINT ( 'NONE', #24 ) ;
#37 = ORIENTED_EDGE ( 'NONE', *, *, #142, .F. ) ;
#38 = EDGE_LOOP ( 'NONE', ( #39, #168, #169, #171 ) ) ;
#39 = ORIENTED_EDGE ( 'NONE', *, *, #167, .T. ) ;
#40 = ADVANCED_FACE ( 'NONE', ( #126 ), #23, .F. ) ;
#41 = ORIENTED_EDGE ( 'NONE', *, *, #142, .T. ) ;
#42 = ORIENTED_EDGE ( 'NONE', *, *, #46, .T. ) ;
#43 = ORIENTED_EDGE ( 'NONE', *, *, #156, .T. ) ;
#44 = ORIENTED_EDGE ( 'NONE', *, *, #18, .T. ) ;
#45 = EDGE_LOOP ( 'NONE', ( #14, #48, #34, #145 ) ) ;
#46 = EDGE_CURVE ( 'NONE', #47, #166, #121, .T. ) ;
#47 = VERTEX_POINT ( 'NONE', #116 ) ;
#48 = ORIENTED_EDGE ( 'NONE', *, *, #49, .T. ) ;
#49 = EDGE_CURVE ( 'NONE', #47, #50, #115, .T. ) ;
#50 = VERTEX_POINT ( 'NONE', #111 ) ;
#51 = FACE_OUTER_BOUND ( 'NONE', #30, .T. ) ;
#52 = DIRECTION ( 'NONE',  ( -1.000000000000000000, 0.0000000000000000000, 0.0000000000000000000 ) ) ;
#53 = DIRECTION ( 'NONE',  ( 0.0000000000000000000, 0.0000000000000000000, 1.000000000000000000 ) ) ;
#54 = AXIS2_PLACEMENT_3D ( 'NONE', #62, #53, #52 ) ;
#55 = CIRCLE ( 'NONE', #54, 0.1400000000000000100 ) ;
#56 = PLANE ( 'NONE',  #90 ) ;
#57 = DIRECTION ( 'NONE',  ( 1.000000000000000000, 0.0000000000000000000, 0.0000000000000000000 ) ) ;
#58 = DIRECTION ( 'NONE',  ( 0.0000000000000000000, 0.0000000000000000000, 1.000000000000000000 ) ) ;
#59 = CARTESIAN_POINT ( 'NONE',  ( 0.4375000000000000000, 0.0000000000000000000, 0.01600000000000000000 ) ) ;
#60 = AXIS2_PLACEMENT_3D ( 'NONE', #59, #58, #57 ) ;
#61 = CIRCLE ( 'NONE', #60, 0.1400000000000000100 ) ;
#62 = CARTESIAN_POINT ( 'NONE',  ( -0.4375000000000000000, 0.0000000000000000000, 0.0000000000000000000 ) ) ;
#63 = CARTESIAN_POINT ( 'NONE',  ( 0.4375000000000000000, 0.1400000000000000100, 0.01600000000000000000 ) ) ;
#64 = DIRECTION ( 'NONE',  ( 0.0000000000000000000, 0.0000000000000000000, -1.000000000000000000 ) ) ;
#65 = VECTOR ( 'NONE', #64, 39.37007874015748100 ) ;
#66 = CARTESIAN_POINT ( 'NONE',  ( 0.4375000000000000000, 0.1400000000000000100, 0.01600000000000000000 ) ) ;
#67 = LINE ( 'NONE', #66, #65 ) ;
#68 = CARTESIAN_POINT ( 'NONE',  ( -0.4375000000000000000, 0.1400000000000000100, 0.0000000000000000000 ) ) ;
#69 = DIRECTION ( 'NONE',  ( 0.0000000000000000000, 0.0000000000000000000, -1.000000000000000000 ) ) ;
#70 = VECTOR ( 'NONE', #69, 39.37007874015748100 ) ;
#71 = CARTESIAN_POINT ( 'NONE',  ( -0.4375000000000000000, 0.1400000000000000100, 0.01600000000000000000 ) ) ;
#72 = LINE ( 'NONE', #71, #70 ) ;
#73 = DIRECTION ( 'NONE',  ( -1.000000000000000000, 0.0000000000000000000, 0.0000000000000000000 ) ) ;
#74 = DIRECTION ( 'NONE',  ( 0.0000000000000000000, 0.0000000000000000000, -1.000000000000000000 ) ) ;
#75 = CARTESIAN_POINT ( 'NONE',  ( -0.4375000000000000000, 0.0000000000000000000, 0.0000000000000000000 ) ) ;
#76 = AXIS2_PLACEMENT_3D ( 'NONE', #75, #74, #73 ) ;
#77 =( LENGTH_UNIT ( ) NAMED_UNIT ( * ) SI_UNIT ( $, .METRE. ) );
#78 = MECHANICAL_DESIGN_GEOMETRIC_PRESENTATION_REPRESENTATION (  '', ( #80 ), #27 ) ;
#79 = PRESENTATION_LAYER_ASSIGNMENT (  '', '', ( #80 ) ) ;
#80 = STYLED_ITEM ( 'NONE', ( #81 ), #32 ) ;
#81 = PRESENTATION_STYLE_ASSIGNMENT (( #82 ) ) ;
#82 = SURFACE_STYLE_USAGE ( .BOTH. , #83 ) ;
#83 = SURFACE_SIDE_STYLE ('',( #84 ) ) ;
#84 = SURFACE_STYLE_FILL_AREA ( #85 ) ;
#85 = FILL_AREA_STYLE ('',( #86 ) ) ;
#86 = FILL_AREA_STYLE_COLOUR ( '', #91 ) ;
#87 = DIRECTION ( 'NONE',  ( 0.0000000000000000000, 0.0000000000000000000, 1.000000000000000000 ) ) ;
#88 = DIRECTION ( 'NONE',  ( 0.0000000000000000000, 1.000000000000000000, 0.0000000000000000000 ) ) ;
#89 = CARTESIAN_POINT ( 'NONE',  ( -0.4375000000000000000, -0.1400000000000000100, 0.01600000000000000000 ) ) ;
#90 = AXIS2_PLACEMENT_3D ( 'NONE', #89, #88, #87 ) ;
#91 = COLOUR_RGB ( '',0.7960784313725489700, 0.8235294117647058400, 0.9372549019607843100 ) ;
#92 = UNCERTAINTY_MEASURE_WITH_UNIT (LENGTH_MEASURE( 1.000000000000000100E-005 ), #95, 'distance_accuracy_value', 'NONE');
#93 =( NAMED_UNIT ( * ) SI_UNIT ( $, .STERADIAN. ) SOLID_ANGLE_UNIT ( ) );
#94 =( NAMED_UNIT ( * ) PLANE_ANGLE_UNIT ( ) SI_UNIT ( $, .RADIAN. ) );
#95 =( CONVERSION_BASED_UNIT ( 'INCH', #96 ) LENGTH_UNIT ( ) NAMED_UNIT ( #97 ) );
#96 = LENGTH_MEASURE_WITH_UNIT ( LENGTH_MEASURE( 0.02539999999999999900 ), #77 );
#97 = DIMENSIONAL_EXPONENTS ( 1.000000000000000000, 0.0000000000000000000, 0.0000000000000000000, 0.0000000000000000000, 0.0000000000000000000, 0.0000000000000000000, 0.0000000000000000000 ) ;
#98 = CARTESIAN_POINT ( 'NONE',  ( 0.4375000000000000000, 0.0000000000000000000, 0.01600000000000000000 ) ) ;
#99 = FACE_OUTER_BOUND ( 'NONE', #149, .T. ) ;
#100 = CARTESIAN_POINT ( 'NONE',  ( -0.4375000000000000000, -0.1400000000000000100, 0.0000000000000000000 ) ) ;
#101 = DIRECTION ( 'NONE',  ( -1.000000000000000000, 0.0000000000000000000, 0.0000000000000000000 ) ) ;
#102 = DIRECTION ( 'NONE',  ( 0.0000000000000000000, 0.0000000000000000000, 1.000000000000000000 ) ) ;
#103 = CARTESIAN_POINT ( 'NONE',  ( -0.4375000000000000000, 0.0000000000000000000, 0.0000000000000000000 ) ) ;
#104 = AXIS2_PLACEMENT_3D ( 'NONE', #103, #102, #101 ) ;
#105 = CIRCLE ( 'NONE', #104, 0.1400000000000000100 ) ;
#106 = DIRECTION ( 'NONE',  ( -1.000000000000000000, 0.0000000000000000000, 0.0000000000000000000 ) ) ;
#107 = DIRECTION ( 'NONE',  ( 0.0000000000000000000, 0.0000000000000000000, 1.000000000000000000 ) ) ;
#108 = CARTESIAN_POINT ( 'NONE',  ( -0.4375000000000000000, 0.0000000000000000000, 0.01600000000000000000 ) ) ;
#109 = AXIS2_PLACEMENT_3D ( 'NONE', #108, #107, #106 ) ;
#110 = CIRCLE ( 'NONE', #109, 0.1400000000000000100 ) ;
#111 = CARTESIAN_POINT ( 'NONE',  ( -0.5775000000000000100, 0.0000000000000000000, 0.0000000000000000000 ) ) ;
#112 = DIRECTION ( 'NONE',  ( 0.0000000000000000000, 0.0000000000000000000, -1.000000000000000000 ) ) ;
#113 = VECTOR ( 'NONE', #112, 39.37007874015748100 ) ;
#114 = CARTESIAN_POINT ( 'NONE',  ( -0.5775000000000000100, 0.0000000000000000000, 0.01600000000000000000 ) ) ;
#115 = LINE ( 'NONE', #114, #113 ) ;
#116 = CARTESIAN_POINT ( 'NONE',  ( -0.5775000000000000100, 0.0000000000000000000, 0.01600000000000000000 ) ) ;
#117 = DIRECTION ( 'NONE',  ( -1.000000000000000000, 0.0000000000000000000, 0.0000000000000000000 ) ) ;
#118 = DIRECTION ( 'NONE',  ( 0.0000000000000000000, 0.0000000000000000000, 1.000000000000000000 ) ) ;
#119 = CARTESIAN_POINT ( 'NONE',  ( -0.4375000000000000000, 0.0000000000000000000, 0.01600000000000000000 ) ) ;
#120 = AXIS2_PLACEMENT_3D ( 'NONE', #119, #118, #117 ) ;
#121 = CIRCLE ( 'NONE', #120, 0.1400000000000000100 ) ;
#122 = DIRECTION ( 'NONE',  ( -1.000000000000000000, 0.0000000000000000000, 0.0000000000000000000 ) ) ;
#123 = DIRECTION ( 'NONE',  ( 0.0000000000000000000, 0.0000000000000000000, -1.000000000000000000 ) ) ;
#124 = CARTESIAN_POINT ( 'NONE',  ( -0.4375000000000000000, 0.0000000000000000000, 0.01600000000000000000 ) ) ;
#125 = AXIS2_PLACEMENT_3D ( 'NONE', #124, #123, #122 ) ;
#126 = FACE_OUTER_BOUND ( 'NONE', #172, .T. ) ;
#127 = PLANE ( 'NONE',  #76 ) ;
#128 = FACE_OUTER_BOUND ( 'NONE', #8, .T. ) ;
#129 = CLOSED_SHELL ( 'NONE', ( #33, #165, #29, #148, #174, #40, #7 ) ) ;
#130 = ORIENTED_EDGE ( 'NONE', *, *, #161, .F. ) ;
#131 = CARTESIAN_POINT ( 'NONE',  ( 0.4374999999999998900, -0.1400000000000000100, 0.01600000000000000000 ) ) ;
#132 = LINE ( 'NONE', #131, #1 ) ;
#133 = CARTESIAN_POINT ( 'NONE',  ( 0.4374999999999998900, -0.1400000000000000100, 0.0000000000000000000 ) ) ;
#134 = DIRECTION ( 'NONE',  ( 1.000000000000000000, 0.0000000000000000000, 0.0000000000000000000 ) ) ;
#135 = VECTOR ( 'NONE', #134, 39.37007874015748100 ) ;
#136 = CARTESIAN_POINT ( 'NONE',  ( -0.4375000000000000000, -0.1400000000000000100, 0.0000000000000000000 ) ) ;
#137 = LINE ( 'NONE', #136, #135 ) ;
#138 = DIRECTION ( 'NONE',  ( -1.000000000000000000, 0.0000000000000000000, 0.0000000000000000000 ) ) ;
#139 = DIRECTION ( 'NONE',  ( 0.0000000000000000000, 0.0000000000000000000, -1.000000000000000000 ) ) ;
#140 = AXIS2_PLACEMENT_3D ( 'NONE', #98, #139, #138 ) ;
#141 = CYLINDRICAL_SURFACE ( 'NONE', #140, 0.1400000000000000100 ) ;
#142 = EDGE_CURVE ( 'NONE', #36, #47, #110, .T. ) ;
#143 = EDGE_CURVE ( 'NONE', #50, #144, #105, .T. ) ;
#144 = VERTEX_POINT ( 'NONE', #100 ) ;
#145 = ORIENTED_EDGE ( 'NONE', *, *, #164, .F. ) ;
#146 = EDGE_LOOP ( 'NONE', ( #35, #37, #11, #147 ) ) ;
#147 = ORIENTED_EDGE ( 'NONE', *, *, #28, .T. ) ;
#148 = ADVANCED_FACE ( 'NONE', ( #99 ), #141, .T. ) ;
#149 = EDGE_LOOP ( 'NONE', ( #160, #163, #17, #173 ) ) ;
#150 = EDGE_CURVE ( 'NONE', #144, #151, #137, .T. ) ;
#151 = VERTEX_POINT ( 'NONE', #133 ) ;
#152 = ORIENTED_EDGE ( 'NONE', *, *, #153, .F. ) ;
#153 = EDGE_CURVE ( 'NONE', #154, #151, #132, .T. ) ;
#154 = VERTEX_POINT ( 'NONE', #190 ) ;
#155 = ORIENTED_EDGE ( 'NONE', *, *, #156, .F. ) ;
#156 = EDGE_CURVE ( 'NONE', #166, #154, #192, .T. ) ;
#157 = ORIENTED_EDGE ( 'NONE', *, *, #164, .T. ) ;
#158 = ORIENTED_EDGE ( 'NONE', *, *, #150, .F. ) ;
#159 = ORIENTED_EDGE ( 'NONE', *, *, #143, .F. ) ;
#160 = ORIENTED_EDGE ( 'NONE', *, *, #161, .T. ) ;
#161 = EDGE_CURVE ( 'NONE', #151, #162, #208, .T. ) ;
#162 = VERTEX_POINT ( 'NONE', #193 ) ;
#163 = ORIENTED_EDGE ( 'NONE', *, *, #15, .F. ) ;
#164 = EDGE_CURVE ( 'NONE', #166, #144, #185, .T. ) ;
#165 = ADVANCED_FACE ( 'NONE', ( #188 ), #213, .T. ) ;
#166 = VERTEX_POINT ( 'NONE', #177 ) ;
#167 = EDGE_CURVE ( 'NONE', #162, #13, #205, .T. ) ;
#168 = ORIENTED_EDGE ( 'NONE', *, *, #12, .F. ) ;
#169 = ORIENTED_EDGE ( 'NONE', *, *, #170, .F. ) ;
#170 = EDGE_CURVE ( 'NONE', #16, #36, #220, .T. ) ;
#171 = ORIENTED_EDGE ( 'NONE', *, *, #15, .T. ) ;
#172 = EDGE_LOOP ( 'NONE', ( #41, #42, #43, #44, #6 ) ) ;
#173 = ORIENTED_EDGE ( 'NONE', *, *, #153, .T. ) ;
#174 = ADVANCED_FACE ( 'NONE', ( #216 ), #215, .F. ) ;
#175 = DIRECTION ( 'NONE',  ( -1.000000000000000000, 0.0000000000000000000, 0.0000000000000000000 ) ) ;
#176 = DIRECTION ( 'NONE',  ( 0.0000000000000000000, 0.0000000000000000000, -1.000000000000000000 ) ) ;
#177 = CARTESIAN_POINT ( 'NONE',  ( -0.4375000000000000000, -0.1400000000000000100, 0.01600000000000000000 ) ) ;
#178 = CARTESIAN_POINT ( 'NONE',  ( 0.4375000000000000000, 0.0000000000000000000, 0.0000000000000000000 ) ) ;
#179 = DIRECTION ( 'NONE',  ( 0.0000000000000000000, 0.0000000000000000000, 1.000000000000000000 ) ) ;
#180 = DIRECTION ( 'NONE',  ( 1.000000000000000000, 0.0000000000000000000, 0.0000000000000000000 ) ) ;
#181 = DIRECTION ( 'NONE',  ( 1.000000000000000000, 0.0000000000000000000, 0.0000000000000000000 ) ) ;
#182 = CARTESIAN_POINT ( 'NONE',  ( -0.4375000000000000000, -0.1400000000000000100, 0.01600000000000000000 ) ) ;
#183 = VECTOR ( 'NONE', #189, 39.37007874015748100 ) ;
#184 = CARTESIAN_POINT ( 'NONE',  ( -0.4375000000000000000, -0.1400000000000000100, 0.01600000000000000000 ) ) ;
#185 = LINE ( 'NONE', #184, #183 ) ;
#186 = CARTESIAN_POINT ( 'NONE',  ( -0.4375000000000000000, 0.0000000000000000000, 0.01600000000000000000 ) ) ;
#187 = AXIS2_PLACEMENT_3D ( 'NONE', #186, #176, #175 ) ;
#188 = FACE_OUTER_BOUND ( 'NONE', #146, .T. ) ;
#189 = DIRECTION ( 'NONE',  ( 0.0000000000000000000, 0.0000000000000000000, -1.000000000000000000 ) ) ;
#190 = CARTESIAN_POINT ( 'NONE',  ( 0.4374999999999998900, -0.1400000000000000100, 0.01600000000000000000 ) ) ;
#191 = AXIS2_PLACEMENT_3D ( 'NONE', #178, #179, #181 ) ;
#192 = LINE ( 'NONE', #182, #214 ) ;
#193 = CARTESIAN_POINT ( 'NONE',  ( 0.4375000000000000000, 0.1400000000000000100, 0.0000000000000000000 ) ) ;
#194 = AXIS2_PLACEMENT_3D ( 'NONE', #5, #2, #4 ) ;
#195 = ADVANCED_BREP_SHAPE_REPRESENTATION ( 'Nameplate', ( #32, #194 ), #196 ) ;
#196 =( GEOMETRIC_REPRESENTATION_CONTEXT ( 3 ) GLOBAL_UNCERTAINTY_ASSIGNED_CONTEXT ( ( #206 ) ) GLOBAL_UNIT_ASSIGNED_CONTEXT ( ( #210, #209, #207 ) ) REPRESENTATION_CONTEXT ( 'NONE', 'WORKASPACE' ) );
#197 =( LENGTH_UNIT ( ) NAMED_UNIT ( * ) SI_UNIT ( $, .METRE. ) );
#198 = DIRECTION ( 'NONE',  ( 0.0000000000000000000, 0.0000000000000000000, -1.000000000000000000 ) ) ;
#199 = DIRECTION ( 'NONE',  ( 0.0000000000000000000, -1.000000000000000000, 0.0000000000000000000 ) ) ;
#200 = CARTESIAN_POINT ( 'NONE',  ( -0.4375000000000000000, 0.1400000000000000100, 0.01600000000000000000 ) ) ;
#201 = AXIS2_PLACEMENT_3D ( 'NONE', #200, #199, #198 ) ;
#202 = DIRECTION ( 'NONE',  ( -1.000000000000000000, 0.0000000000000000000, 0.0000000000000000000 ) ) ;
#203 = VECTOR ( 'NONE', #202, 39.37007874015748100 ) ;
#204 = CARTESIAN_POINT ( 'NONE',  ( -0.4375000000000000000, 0.1400000000000000100, 0.0000000000000000000 ) ) ;
#205 = LINE ( 'NONE', #204, #203 ) ;
#206 = UNCERTAINTY_MEASURE_WITH_UNIT (LENGTH_MEASURE( 1.000000000000000100E-005 ), #210, 'distance_accuracy_value', 'NONE');
#207 =( NAMED_UNIT ( * ) SI_UNIT ( $, .STERADIAN. ) SOLID_ANGLE_UNIT ( ) );
#208 = CIRCLE ( 'NONE', #191, 0.1400000000000000100 ) ;
#209 =( NAMED_UNIT ( * ) PLANE_ANGLE_UNIT ( ) SI_UNIT ( $, .RADIAN. ) );
#210 =( CONVERSION_BASED_UNIT ( 'INCH', #211 ) LENGTH_UNIT ( ) NAMED_UNIT ( #212 ) );
#211 = LENGTH_MEASURE_WITH_UNIT ( LENGTH_MEASURE( 0.02539999999999999900 ), #197 );
#212 = DIMENSIONAL_EXPONENTS ( 1.000000000000000000, 0.0000000000000000000, 0.0000000000000000000, 0.0000000000000000000, 0.0000000000000000000, 0.0000000000000000000, 0.0000000000000000000 ) ;
#213 = CYLINDRICAL_SURFACE ( 'NONE', #187, 0.1400000000000000100 ) ;
#214 = VECTOR ( 'NONE', #180, 39.37007874015748100 ) ;
#215 = PLANE ( 'NONE',  #201 ) ;
#216 = FACE_OUTER_BOUND ( 'NONE', #38, .T. ) ;
#217 = DIRECTION ( 'NONE',  ( -1.000000000000000000, 0.0000000000000000000, 0.0000000000000000000 ) ) ;
#218 = VECTOR ( 'NONE', #217, 39.37007874015748100 ) ;
#219 = CARTESIAN_POINT ( 'NONE',  ( -0.4375000000000000000, 0.1400000000000000100, 0.01600000000000000000 ) ) ;
#220 = LINE ( 'NONE', #219, #218 ) ;
#221 = PRODUCT_DEFINITION_SHAPE ( 'NONE', 'NONE',  #224 ) ;
#222 = PRODUCT_RELATED_PRODUCT_CATEGORY ( 'part', '', ( #229 ) ) ;
#223 = PRODUCT_DEFINITION_FORMATION_WITH_SPECIFIED_SOURCE ( 'ANY', '', #229, .NOT_KNOWN. ) ;
#224 = PRODUCT_DEFINITION ( 'UNKNOWN', '', #223, #225 ) ;
#225 = PRODUCT_DEFINITION_CONTEXT ( 'detailed design', #227, 'design' ) ;
#226 = APPLICATION_PROTOCOL_DEFINITION ( 'draft international standard', 'automotive_design', 1998, #227 ) ;
#227 = APPLICATION_CONTEXT ( 'automotive_design' ) ;
#228 = SHAPE_DEFINITION_REPRESENTATION ( #221, #195 ) ;
#229 = PRODUCT ( 'Nameplate', 'Nameplate', '', ( #230 ) ) ;
#230 = PRODUCT_CONTEXT ( 'NONE', #232, 'mechanical' ) ;
#231 = APPLICATION_PROTOCOL_DEFINITION ( 'draft international standard', 'automotive_design', 1998, #232 ) ;
#232 = APPLICATION_CONTEXT ( 'automotive_design' ) ;
ENDSEC;
END-ISO-10303-21;
