  0
SECTION
  2
HEADER
  9
$ACADVER
  1
AC1009
  9
$DWGCODEPAGE
  3
ansi_1252
  9
$INSBASE
 10
0.0
 20
0.0
 30
0.0
  9
$EXTMIN
 10
-15.2296530213
 20
-2.6226243986
 30
0.0
  9
$EXTMAX
 10
7.5874264496
 20
12.4643791232
 30
0.0
  9
$LIMMIN
 10
0.0
 20
0.0
  9
$LIMMAX
 10
12.0
 20
9.0
  9
$ORTHOMODE
 70
     0
  9
$REGENMODE
 70
     1
  9
$FILLMODE
 70
     1
  9
$QTEXTMODE
 70
     0
  9
$MIRRTEXT
 70
     1
  9
$DRAGMODE
 70
     2
  9
$LTSCALE
 40
1.0
  9
$OSMODE
 70
    37
  9
$ATTMODE
 70
     1
  9
$TEXTSIZE
 40
0.1377952756
  9
$TRACEWID
 40
0.05
  9
$TEXTSTYLE
  7
STANDARD
  9
$CLAYER
  8
0
  9
$CELTYPE
  6
BYLAYER
  9
$CECOLOR
 62
   256
  9
$DIMSCALE
 40
1.0
  9
$DIMASZ
 40
0.13
  9
$DIMEXO
 40
0.0393700787
  9
$DIMDLI
 40
0.38
  9
$DIMRND
 40
0.0
  9
$DIMDLE
 40
0.0
  9
$DIMEXE
 40
0.0393700787
  9
$DIMTP
 40
0.0
  9
$DIMTM
 40
0.0
  9
$DIMTXT
 40
0.1377952756
  9
$DIMCEN
 40
0.09
  9
$DIMTSZ
 40
0.0
  9
$DIMTOL
 70
     0
  9
$DIMLIM
 70
     0
  9
$DIMTIH
 70
     1
  9
$DIMTOH
 70
     1
  9
$DIMSE1
 70
     0
  9
$DIMSE2
 70
     0
  9
$DIMTAD
 70
     1
  9
$DIMZIN
 70
     0
  9
$DIMBLK
  1

  9
$DIMASO
 70
     1
  9
$DIMSHO
 70
     1
  9
$DIMPOST
  1

  9
$DIMAPOST
  1

  9
$DIMALT
 70
     0
  9
$DIMALTD
 70
     2
  9
$DIMALTF
 40
25.4
  9
$DIMLFAC
 40
1.0
  9
$DIMTOFL
 70
     0
  9
$DIMTVP
 40
0.0
  9
$DIMTIX
 70
     0
  9
$DIMSOXD
 70
     0
  9
$DIMSAH
 70
     0
  9
$DIMBLK1
  1

  9
$DIMBLK2
  1

  9
$DIMSTYLE
  2
STANDARD
  9
$DIMCLRD
 70
     0
  9
$DIMCLRE
 70
     0
  9
$DIMCLRT
 70
     0
  9
$DIMTFAC
 40
1.0
  9
$DIMGAP
 40
0.06
  9
$LUNITS
 70
     2
  9
$LUPREC
 70
     3
  9
$SKETCHINC
 40
0.1
  9
$FILLETRAD
 40
0.5
  9
$AUNITS
 70
     0
  9
$AUPREC
 70
     2
  9
$MENU
  1
.
  9
$ELEVATION
 40
0.0
  9
$PELEVATION
 40
0.0
  9
$THICKNESS
 40
0.0
  9
$LIMCHECK
 70
     0
  9
$CHAMFERA
 40
0.0
  9
$CHAMFERB
 40
0.0
  9
$SKPOLY
 70
     0
  9
$TDCREATE
 40
2457848.507592373
  9
$TDUPDATE
 40
2457848.507619676
  9
$TDINDWG
 40
0.0000000116
  9
$TDUSRTIMER
 40
0.0000000116
  9
$USRTIMER
 70
     1
  9
$ANGBASE
 50
0.0
  9
$ANGDIR
 70
     0
  9
$PDMODE
 70
     0
  9
$PDSIZE
 40
-1.0
  9
$PLINEWID
 40
0.0
  9
$COORDS
 70
     1
  9
$SPLFRAME
 70
     0
  9
$SPLINETYPE
 70
     6
  9
$SPLINESEGS
 70
     8
  9
$ATTDIA
 70
     0
  9
$ATTREQ
 70
     1
  9
$HANDLING
 70
     1
  9
$HANDSEED
  5
1E9
  9
$SURFTAB1
 70
     6
  9
$SURFTAB2
 70
     6
  9
$SURFTYPE
 70
     6
  9
$SURFU
 70
     6
  9
$SURFV
 70
     6
  9
$UCSNAME
  2

  9
$UCSORG
 10
0.0
 20
0.0
 30
0.0
  9
$UCSXDIR
 10
1.0
 20
0.0
 30
0.0
  9
$UCSYDIR
 10
0.0
 20
1.0
 30
0.0
  9
$PUCSNAME
  2

  9
$PUCSORG
 10
0.0
 20
0.0
 30
0.0
  9
$PUCSXDIR
 10
1.0
 20
0.0
 30
0.0
  9
$PUCSYDIR
 10
0.0
 20
1.0
 30
0.0
  9
$USERI1
 70
     0
  9
$USERI2
 70
     0
  9
$USERI3
 70
     0
  9
$USERI4
 70
     0
  9
$USERI5
 70
     0
  9
$USERR1
 40
0.0
  9
$USERR2
 40
0.0
  9
$USERR3
 40
0.0
  9
$USERR4
 40
0.0
  9
$USERR5
 40
0.0
  9
$WORLDVIEW
 70
     1
  9
$SHADEDGE
 70
     3
  9
$SHADEDIF
 70
    70
  9
$TILEMODE
 70
     1
  9
$MAXACTVP
 70
    64
  9
$PLIMCHECK
 70
     0
  9
$PEXTMIN
 10
1.0000000000E+20
 20
1.0000000000E+20
 30
1.0000000000E+20
  9
$PEXTMAX
 10
-1.0000000000E+20
 20
-1.0000000000E+20
 30
-1.0000000000E+20
  9
$PLIMMIN
 10
0.0
 20
0.0
  9
$PLIMMAX
 10
12.0
 20
9.0
  9
$UNITMODE
 70
     0
  9
$VISRETAIN
 70
     1
  9
$PLINEGEN
 70
     0
  9
$PSLTSCALE
 70
     1
  0
ENDSEC
  0
SECTION
  2
TABLES
  0
TABLE
  2
VPORT
 70
     1
  0
VPORT
  2
*ACTIVE
 70
     0
 10
0.0
 20
0.0
 11
1.0
 21
1.0
 12
-3.8211132859
 22
4.9208773623
 13
0.0
 23
0.0
 14
0.5
 24
0.5
 15
0.5
 25
0.5
 16
0.0
 26
0.0
 36
1.0
 17
0.0
 27
0.0
 37
0.0
 40
15.3887435923
 41
1.5123665503
 42
50.0
 43
0.0
 44
0.0
 50
0.0
 51
0.0
 71
     0
 72
   100
 73
     1
 74
     3
 75
     0
 76
     0
 77
     0
 78
     0
  0
ENDTAB
  0
TABLE
  2
LTYPE
 70
     6
  0
LTYPE
  2
CONTINUOUS
 70
     0
  3
Solid line
 72
    65
 73
     0
 40
0.0
  0
LTYPE
  2
HIDDEN
 70
     0
  3
Hidden __ __ __ __ __ __ __ __ __ __ __ __ __ __
 72
    65
 73
     2
 40
0.075
 49
0.05
 49
-0.025
  0
LTYPE
  2
PHANTOM
 70
     0
  3
Phantom ______  __  __  ______  __  __  ______
 72
    65
 73
     6
 40
0.5
 49
0.25
 49
-0.05
 49
0.05
 49
-0.05
 49
0.05
 49
-0.05
  0
LTYPE
  2
CENTER
 70
     0
  3
Center ____ _ ____ _ ____ _ ____ _ ____ _ ____
 72
    65
 73
     4
 40
0.4
 49
0.25
 49
-0.05
 49
0.05
 49
-0.05
  0
LTYPE
  2
CENTERX2
 70
     0
  3
Center (2x) ________  __  ________  __  _____
 72
    65
 73
     4
 40
0.8
 49
0.5
 49
-0.1
 49
0.1
 49
-0.1
  0
LTYPE
  2
DOT2
 70
     0
  3
Dot (.5x) ........................................
 72
    65
 73
     2
 40
0.025
 49
0.0
 49
-0.025
  0
ENDTAB
  0
TABLE
  2
LAYER
 70
     1
  0
LAYER
  2
0
 70
     0
 62
     7
  6
CONTINUOUS
  0
ENDTAB
  0
TABLE
  2
STYLE
 70
     1
  0
STYLE
  2
STANDARD
 70
     0
 40
0.0
 41
1.0
 50
0.0
 71
     0
 42
0.1377952756
  3
txt
  4

  0
ENDTAB
  0
TABLE
  2
VIEW
 70
     0
  0
ENDTAB
  0
TABLE
  2
UCS
 70
     0
  0
ENDTAB
  0
TABLE
  2
APPID
 70
     1
  0
APPID
  2
ACAD
 70
     0
  0
ENDTAB
  0
TABLE
  2
DIMSTYLE
 70
     1
  0
DIMSTYLE
  2
STANDARD
 70
     0
  3

  4

  5

  6

  7

 40
1.0
 41
0.18
 42
0.0625
 43
0.38
 44
0.18
 45
0.0
 46
0.0
 47
0.0
 48
0.0
140
0.18
141
0.09
142
0.0
143
25.4
144
1.0
145
0.0
146
1.0
147
0.09
 71
     0
 72
     0
 73
     1
 74
     1
 75
     0
 76
     0
 77
     0
 78
     0
170
     0
171
     2
172
     0
173
     0
174
     0
175
     0
176
     0
177
     0
178
     0
  0
ENDTAB
  0
ENDSEC
  0
SECTION
  2
BLOCKS
  0
BLOCK
  8
0
  2
$MODEL_SPACE
 70
     0
 10
0.0
 20
0.0
 30
0.0
  3
$MODEL_SPACE
  1

  0
ENDBLK
  5
21
  8
0
  0
BLOCK
 67
     1
  8
0
  2
$PAPER_SPACE
 70
     0
 10
0.0
 20
0.0
 30
0.0
  3
$PAPER_SPACE
  1

  0
ENDBLK
  5
1D
 67
     1
  8
0
  0
ENDSEC
  0
SECTION
  2
ENTITIES
  0
CIRCLE
  5
B3
  8
0
  6
CONTINUOUS
 62
     7
 10
1.0362479258
 20
1.7368873132
 30
0.0
 40
0.6299999999999999
  0
CIRCLE
  5
B4
  8
0
  6
CONTINUOUS
 62
     7
 10
1.0362479258
 20
1.7368873132
 30
0.0
 40
0.4299999999999993
  0
CIRCLE
  5
B5
  8
0
  6
CONTINUOUS
 62
     7
 10
2.418842829
 20
1.7712953206
 30
0.0
 40
0.6300000000000001
  0
CIRCLE
  5
B6
  8
0
  6
CONTINUOUS
 62
     7
 10
2.418842829
 20
1.7712953206
 30
0.0
 40
0.4299999999999999
  0
CIRCLE
  5
B7
  8
0
  6
CONTINUOUS
 62
     7
 10
-0.3996512694
 20
5.4948062373
 30
0.0
 40
0.6300000000000007
  0
CIRCLE
  5
B8
  8
0
  6
CONTINUOUS
 62
     7
 10
-0.3996512694
 20
5.4948062373
 30
0.0
 40
0.4299999999999974
  0
CIRCLE
  5
BC
  8
0
  6
CONTINUOUS
 62
     7
 10
-12.5780731572
 20
11.7143791232
 30
0.0
 40
0.495000000000001
  0
CIRCLE
  5
BD
  8
0
  6
CONTINUOUS
 62
     7
 10
-6.5780731572
 20
11.7143791232
 30
0.0
 40
0.495000000000001
  0
CIRCLE
  5
BE
  8
0
  6
CONTINUOUS
 62
     7
 10
-8.0780731572
 20
11.7143791232
 30
0.0
 40
0.3749999999999982
  0
CIRCLE
  5
BF
  8
0
  6
CONTINUOUS
 62
     7
 10
-11.0780731572
 20
11.7143791232
 30
0.0
 40
0.3749999999999982
  0
CIRCLE
  5
CD
  8
0
  6
CONTINUOUS
 62
     7
 10
-9.5780731572
 20
11.7143791232
 30
0.0
 40
0.3749999999999982
  0
CIRCLE
  5
CE
  8
0
  6
CONTINUOUS
 62
     7
 10
-7.9269973372
 20
3.6912957943
 30
0.0
 40
0.3749999999999991
  0
CIRCLE
  5
CF
  8
0
  6
CONTINUOUS
 62
     7
 10
-10.9269973372
 20
3.6912957943
 30
0.0
 40
0.3749999999999991
  0
CIRCLE
  5
D0
  8
0
  6
CONTINUOUS
 62
     7
 10
-6.4269973372
 20
3.6912957943
 30
0.0
 40
0.4949999999999983
  0
CIRCLE
  5
D1
  8
0
  6
CONTINUOUS
 62
     7
 10
-12.4269973372
 20
3.6912957943
 30
0.0
 40
0.4949999999999966
  0
CIRCLE
  5
E2
  8
0
  6
CONTINUOUS
 62
     7
 10
-9.4269973372
 20
3.6912957943
 30
0.0
 40
0.3750000000000009
  0
CIRCLE
  5
E5
  8
0
  6
CONTINUOUS
 62
     7
 10
-0.9314246017
 20
11.7143791232
 30
0.0
 40
0.495000000000001
  0
CIRCLE
  5
E6
  8
0
  6
CONTINUOUS
 62
     7
 10
5.0685753983
 20
11.7143791232
 30
0.0
 40
0.4949999999999974
  0
CIRCLE
  5
EF
  8
0
  6
CONTINUOUS
 62
     7
 10
2.0685753983
 20
11.7143791232
 30
0.0
 40
0.3750000000000018
  0
CIRCLE
  5
F6
  8
0
  6
CONTINUOUS
 62
     7
 10
0.5685753983
 20
11.7143791232
 30
0.0
 40
0.3749999999999982
  0
CIRCLE
  5
F7
  8
0
  6
CONTINUOUS
 62
     7
 10
3.5685753983
 20
11.7143791232
 30
0.0
 40
0.3749999999999982
  0
CIRCLE
  5
F9
  8
0
  6
CONTINUOUS
 62
     7
 10
-1.1978380882
 20
7.9811838106
 30
0.0
 40
0.4950000000000001
  0
CIRCLE
  5
100
  8
0
  6
CONTINUOUS
 62
     7
 10
4.8021619118
 20
7.9811838106
 30
0.0
 40
0.4949999999999983
  0
CIRCLE
  5
102
  8
0
  6
CONTINUOUS
 62
     7
 10
1.8021619118
 20
7.9811838106
 30
0.0
 40
0.3750000000000009
  0
CIRCLE
  5
109
  8
0
  6
CONTINUOUS
 62
     7
 10
3.3021619118
 20
7.9811838106
 30
0.0
 40
0.3750000000000009
  0
CIRCLE
  5
10B
  8
0
  6
CONTINUOUS
 62
     7
 10
0.3021619118
 20
7.9811838106
 30
0.0
 40
0.3750000000000009
  0
CIRCLE
  5
10D
  8
0
  6
CONTINUOUS
 62
     7
 10
3.3163826082
 20
3.6912957943
 30
0.0
 40
0.3749999999999996
  0
CIRCLE
  5
10E
  8
0
  6
CONTINUOUS
 62
     7
 10
0.3163826082
 20
3.6912957943
 30
0.0
 40
0.3750000000000013
  0
CIRCLE
  5
10F
  8
0
  6
CONTINUOUS
 62
     7
 10
4.8163826082
 20
3.6912957943
 30
0.0
 40
0.4950000000000001
  0
CIRCLE
  5
110
  8
0
  6
CONTINUOUS
 62
     7
 10
-1.1836173918
 20
3.6912957943
 30
0.0
 40
0.4950000000000001
  0
CIRCLE
  5
121
  8
0
  6
CONTINUOUS
 62
     7
 10
1.8163826082
 20
3.6912957943
 30
0.0
 40
0.3750000000000013
  0
CIRCLE
  5
123
  8
0
  6
CONTINUOUS
 62
     7
 10
-11.2801156276
 20
7.9811838106
 30
0.0
 40
0.3750000000000009
  0
CIRCLE
  5
125
  8
0
  6
CONTINUOUS
 62
     7
 10
-12.7801156276
 20
7.9811838106
 30
0.0
 40
0.4950000000000037
  0
CIRCLE
  5
127
  8
0
  6
CONTINUOUS
 62
     7
 10
-8.2801156276
 20
7.9811838106
 30
0.0
 40
0.375
  0
CIRCLE
  5
129
  8
0
  6
CONTINUOUS
 62
     7
 10
-6.7801156276
 20
7.9811838106
 30
0.0
 40
0.495000000000001
  0
CIRCLE
  5
136
  8
0
  6
CONTINUOUS
 62
     7
 10
-9.7801156276
 20
7.9811838106
 30
0.0
 40
0.3750000000000036
  0
CIRCLE
  5
137
  8
0
  6
CONTINUOUS
 62
     7
 10
-0.4391686166
 20
1.718053488
 30
0.0
 40
0.429999999999999
  0
CIRCLE
  5
138
  8
0
  6
CONTINUOUS
 62
     7
 10
-0.4391686166
 20
1.718053488
 30
0.0
 40
0.6299999999999997
  0
CIRCLE
  5
139
  8
0
  6
CONTINUOUS
 62
     7
 10
1.1700662552
 20
5.4857514825
 30
0.0
 40
0.629999999999999
  0
CIRCLE
  5
13A
  8
0
  6
CONTINUOUS
 62
     7
 10
1.1700662552
 20
5.4857514825
 30
0.0
 40
0.4299999999999979
  0
CIRCLE
  5
13B
  8
0
  6
CONTINUOUS
 62
     7
 10
2.7329563231
 20
5.4220194457
 30
0.0
 40
0.6299999999999999
  0
CIRCLE
  5
13C
  8
0
  6
CONTINUOUS
 62
     7
 10
2.7329563231
 20
5.4220194457
 30
0.0
 40
0.429999999999999
  0
CIRCLE
  5
13D
  8
0
  6
CONTINUOUS
 62
     7
 10
-8.3358052047
 20
5.8010957558
 30
0.0
 40
0.4950000000000037
  0
CIRCLE
  5
13E
  8
0
  6
CONTINUOUS
 62
     7
 10
-8.3358052047
 20
5.8010957558
 30
0.0
 40
0.7499999999999982
  0
CIRCLE
  5
13F
  8
0
  6
CONTINUOUS
 62
     7
 10
-8.2776228146
 20
9.7970665235
 30
0.0
 40
0.75
  0
CIRCLE
  5
140
  8
0
  6
CONTINUOUS
 62
     7
 10
-8.2776228146
 20
9.7970665235
 30
0.0
 40
0.4949999999999957
  0
CIRCLE
  5
141
  8
0
  6
CONTINUOUS
 62
     7
 10
-10.8343856944
 20
5.7785495588
 30
0.0
 40
0.4950000000000037
  0
CIRCLE
  5
142
  8
0
  6
CONTINUOUS
 62
     7
 10
-10.8343856944
 20
5.7785495588
 30
0.0
 40
0.7500000000000018
  0
CIRCLE
  5
143
  8
0
  6
CONTINUOUS
 62
     7
 10
-10.7601514912
 20
9.7483706464
 30
0.0
 40
0.75
  0
CIRCLE
  5
144
  8
0
  6
CONTINUOUS
 62
     7
 10
-10.7601514912
 20
9.7483706464
 30
0.0
 40
0.495000000000001
  0
CIRCLE
  5
145
  8
0
  6
CONTINUOUS
 62
     7
 10
3.9492433559
 20
1.7639149543
 30
0.0
 40
0.4299999999999999
  0
CIRCLE
  5
146
  8
0
  6
CONTINUOUS
 62
     7
 10
3.9492433559
 20
1.7639149543
 30
0.0
 40
0.630000000000001
  0
CIRCLE
  5
147
  8
0
  6
CONTINUOUS
 62
     7
 10
4.2323244424
 20
5.4587963735
 30
0.0
 40
0.6299999999999999
  0
CIRCLE
  5
148
  8
0
  6
CONTINUOUS
 62
     7
 10
4.2323244424
 20
5.4587963735
 30
0.0
 40
0.4300000000000015
  0
LINE
  5
149
  8
0
  6
CONTINUOUS
 62
     7
 10
4.8903286106
 20
-1.025936776
 30
0.0
 11
5.8343453754
 21
-2.4419619232
 31
0.0
  0
LINE
  5
14A
  8
0
  6
CONTINUOUS
 62
     7
 10
5.7303390886
 20
-2.5112994477
 30
0.0
 11
4.7863223238
 21
-1.0952743005
 31
0.0
  0
LINE
  5
14B
  8
0
  6
CONTINUOUS
 62
     7
 10
-0.0945190648
 20
-0.8726243986
 30
0.0
 11
4.3702971767
 21
-0.8726243986
 31
0.0
  0
LINE
  5
14C
  8
0
  6
CONTINUOUS
 62
     7
 10
-1.4545609768
 20
-2.5112994477
 30
0.0
 11
-0.510544212
 21
-1.0952743005
 31
0.0
  0
LINE
  5
14D
  8
0
  6
CONTINUOUS
 62
     7
 10
-3.0616483378
 20
-2.6226243986
 30
0.0
 11
-1.6625735504
 21
-2.6226243986
 31
0.0
  0
LINE
  5
14E
  8
0
  6
CONTINUOUS
 62
     7
 10
-1.6091039019
 20
0.2568861646
 30
0.0
 11
-3.2696609114
 21
-2.2339493496
 31
0.0
  0
LINE
  5
14F
  8
0
  6
CONTINUOUS
 62
     7
 10
5.1926161688
 20
0.6273756014
 30
0.0
 11
-0.916838057
 21
0.6273756014
 31
0.0
  0
LINE
  5
150
  8
0
  6
CONTINUOUS
 62
     7
 10
5.8848820137
 20
0.2568861646
 30
0.0
 11
7.5454390232
 21
-2.2339493496
 31
0.0
  0
LINE
  5
151
  8
0
  6
CONTINUOUS
 62
     7
 10
7.3374264496
 20
-2.6226243986
 30
0.0
 11
5.9383516622
 21
-2.6226243986
 31
0.0
  0
LINE
  5
152
  8
0
  6
CONTINUOUS
 62
     7
 10
7.4414327364
 20
-2.3032868741
 30
0.0
 11
5.7808757269
 21
0.1875486401
 31
0.0
  0
LINE
  5
153
  8
0
  6
CONTINUOUS
 62
     7
 10
5.1926161688
 20
0.5023756014
 30
0.0
 11
-0.916838057
 21
0.5023756014
 31
0.0
  0
LINE
  5
154
  8
0
  6
CONTINUOUS
 62
     7
 10
-1.5050976151
 20
0.1875486401
 30
0.0
 11
-3.1656546246
 21
-2.3032868741
 31
0.0
  0
LINE
  5
155
  8
0
  6
CONTINUOUS
 62
     7
 10
-3.0616483378
 20
-2.4976243986
 30
0.0
 11
-1.6625735504
 21
-2.4976243986
 31
0.0
  0
LINE
  5
156
  8
0
  6
CONTINUOUS
 62
     7
 10
-1.5585672636
 20
-2.4419619232
 30
0.0
 11
-0.6145504988
 21
-1.025936776
 31
0.0
  0
LINE
  5
157
  8
0
  6
CONTINUOUS
 62
     7
 10
-0.0945190648
 20
-0.7476243986
 30
0.0
 11
4.3702971767
 21
-0.7476243986
 31
0.0
  0
LINE
  5
158
  8
0
  6
CONTINUOUS
 62
     7
 10
5.9383516622
 20
-2.4976243986
 30
0.0
 11
7.3374264496
 21
-2.4976243986
 31
0.0
  0
LINE
  5
159
  8
0
  6
CONTINUOUS
 62
     7
 10
-6.3725840629
 20
-1.025936776
 30
0.0
 11
-5.4285672981
 21
-2.4419619232
 31
0.0
  0
LINE
  5
15A
  8
0
  6
CONTINUOUS
 62
     7
 10
-5.5325735849
 20
-2.5112994477
 30
0.0
 11
-6.4765903497
 21
-1.0952743005
 31
0.0
  0
LINE
  5
15B
  8
0
  6
CONTINUOUS
 62
     7
 10
-11.3574317383
 20
-0.8726243986
 30
0.0
 11
-6.8926154968
 21
-0.8726243986
 31
0.0
  0
LINE
  5
15C
  8
0
  6
CONTINUOUS
 62
     7
 10
-12.7174736503
 20
-2.5112994477
 30
0.0
 11
-11.7734568855
 21
-1.0952743005
 31
0.0
  0
LINE
  5
15D
  8
0
  6
CONTINUOUS
 62
     7
 10
-14.3245610113
 20
-2.6226243986
 30
0.0
 11
-12.9254862239
 21
-2.6226243986
 31
0.0
  0
LINE
  5
15E
  8
0
  6
CONTINUOUS
 62
     7
 10
-12.8720165754
 20
0.2568861646
 30
0.0
 11
-14.5325735849
 21
-2.2339493496
 31
0.0
  0
LINE
  5
15F
  8
0
  6
CONTINUOUS
 62
     7
 10
-6.0702965046
 20
0.6273756014
 30
0.0
 11
-12.1797507305
 21
0.6273756014
 31
0.0
  0
LINE
  5
160
  8
0
  6
CONTINUOUS
 62
     7
 10
-5.3780306598
 20
0.2568861646
 30
0.0
 11
-3.7174736503
 21
-2.2339493496
 31
0.0
  0
LINE
  5
161
  8
0
  6
CONTINUOUS
 62
     7
 10
-3.9254862239
 20
-2.6226243986
 30
0.0
 11
-5.3245610113
 21
-2.6226243986
 31
0.0
  0
LINE
  5
162
  8
0
  6
CONTINUOUS
 62
     7
 10
-3.8214799371
 20
-2.3032868741
 30
0.0
 11
-5.4820369466
 21
0.1875486401
 31
0.0
  0
LINE
  5
163
  8
0
  6
CONTINUOUS
 62
     7
 10
-6.0702965046
 20
0.5023756014
 30
0.0
 11
-12.1797507305
 21
0.5023756014
 31
0.0
  0
LINE
  5
164
  8
0
  6
CONTINUOUS
 62
     7
 10
-12.7680102886
 20
0.1875486401
 30
0.0
 11
-14.4285672981
 21
-2.3032868741
 31
0.0
  0
LINE
  5
165
  8
0
  6
CONTINUOUS
 62
     7
 10
-14.3245610113
 20
-2.4976243986
 30
0.0
 11
-12.9254862239
 21
-2.4976243986
 31
0.0
  0
LINE
  5
166
  8
0
  6
CONTINUOUS
 62
     7
 10
-12.8214799371
 20
-2.4419619232
 30
0.0
 11
-11.8774631723
 21
-1.025936776
 31
0.0
  0
LINE
  5
167
  8
0
  6
CONTINUOUS
 62
     7
 10
-11.3574317383
 20
-0.7476243986
 30
0.0
 11
-6.8926154968
 21
-0.7476243986
 31
0.0
  0
LINE
  5
168
  8
0
  6
CONTINUOUS
 62
     7
 10
-5.3245610113
 20
-2.4976243986
 30
0.0
 11
-3.9254862239
 21
-2.4976243986
 31
0.0
  0
LINE
  5
169
  8
0
  6
CONTINUOUS
 62
     7
 10
-5.9856231245
 20
9.3257040742
 30
0.0
 11
-6.9296398892
 21
10.7417292213
 31
0.0
  0
LINE
  5
16A
  8
0
  6
CONTINUOUS
 62
     7
 10
-11.8104812779
 20
10.9643791232
 30
0.0
 11
-7.3456650364
 21
10.9643791232
 31
0.0
  0
LINE
  5
16B
  8
0
  6
CONTINUOUS
 62
     7
 10
-13.1705231899
 20
9.3257040742
 30
0.0
 11
-12.2265064251
 21
10.7417292213
 31
0.0
  0
LINE
  5
16C
  8
0
  6
CONTINUOUS
 62
     7
 10
-14.7776105509
 20
9.2143791232
 30
0.0
 11
-13.3785357635
 21
9.2143791232
 31
0.0
  0
LINE
  5
16D
  8
0
  6
CONTINUOUS
 62
     7
 10
-13.325066115
 20
12.0938896865
 30
0.0
 11
-14.9856231245
 21
9.6030541723
 31
0.0
  0
LINE
  5
16E
  8
0
  6
CONTINUOUS
 62
     7
 10
-6.5233460442
 20
12.4643791232
 30
0.0
 11
-12.6328002701
 21
12.4643791232
 31
0.0
  0
LINE
  5
16F
  8
0
  6
CONTINUOUS
 62
     7
 10
-5.8310801993
 20
12.0938896865
 30
0.0
 11
-4.1705231899
 21
9.6030541723
 31
0.0
  0
LINE
  5
170
  8
0
  6
CONTINUOUS
 62
     7
 10
-4.3785357635
 20
9.2143791232
 30
0.0
 11
-5.7776105509
 21
9.2143791232
 31
0.0
  0
LINE
  5
171
  8
0
  6
CONTINUOUS
 62
     7
 10
-5.8345473044
 20
1.3026207453
 30
0.0
 11
-6.7785640692
 21
2.7186458924
 31
0.0
  0
LINE
  5
172
  8
0
  6
CONTINUOUS
 62
     7
 10
-11.6594054579
 20
2.9412957943
 30
0.0
 11
-7.1945892164
 21
2.9412957943
 31
0.0
  0
LINE
  5
173
  8
0
  6
CONTINUOUS
 62
     7
 10
-13.0194473699
 20
1.3026207453
 30
0.0
 11
-12.0754306051
 21
2.7186458924
 31
0.0
  0
LINE
  5
174
  8
0
  6
CONTINUOUS
 62
     7
 10
-14.6265347309
 20
1.1912957943
 30
0.0
 11
-13.2274599434
 21
1.1912957943
 31
0.0
  0
LINE
  5
175
  8
0
  6
CONTINUOUS
 62
     7
 10
-13.173990295
 20
4.0708063576
 30
0.0
 11
-14.8345473044
 21
1.5799708434
 31
0.0
  0
LINE
  5
176
  8
0
  6
CONTINUOUS
 62
     7
 10
-6.3722702242
 20
4.4412957943
 30
0.0
 11
-12.4817244501
 21
4.4412957943
 31
0.0
  0
LINE
  5
177
  8
0
  6
CONTINUOUS
 62
     7
 10
-5.6800043793
 20
4.0708063576
 30
0.0
 11
-4.0194473699
 21
1.5799708434
 31
0.0
  0
LINE
  5
178
  8
0
  6
CONTINUOUS
 62
     7
 10
-4.2274599434
 20
1.1912957943
 30
0.0
 11
-5.6265347309
 21
1.1912957943
 31
0.0
  0
LINE
  5
179
  8
0
  6
CONTINUOUS
 62
     7
 10
7.2681127921
 20
9.2143791232
 30
0.0
 11
5.8690380046
 21
9.2143791232
 31
0.0
  0
LINE
  5
17A
  8
0
  6
CONTINUOUS
 62
     7
 10
-1.6784175595
 20
12.0938896865
 30
0.0
 11
-3.338974569
 21
9.6030541723
 31
0.0
  0
LINE
  5
17B
  8
0
  6
CONTINUOUS
 62
     7
 10
-1.5238746344
 20
9.3257040742
 30
0.0
 11
-0.5798578696
 21
10.7417292213
 31
0.0
  0
LINE
  5
17C
  8
0
  6
CONTINUOUS
 62
     7
 10
-0.1638327224
 20
10.9643791232
 30
0.0
 11
4.3009835191
 21
10.9643791232
 31
0.0
  0
LINE
  5
17D
  8
0
  6
CONTINUOUS
 62
     7
 10
5.661025431
 20
9.3257040742
 30
0.0
 11
4.7170086663
 21
10.7417292213
 31
0.0
  0
LINE
  5
17E
  8
0
  6
CONTINUOUS
 62
     7
 10
5.8155683562
 20
12.0938896865
 30
0.0
 11
7.4761253656
 21
9.6030541723
 31
0.0
  0
LINE
  5
17F
  8
0
  6
CONTINUOUS
 62
     7
 10
5.1233025113
 20
12.4643791232
 30
0.0
 11
-0.9861517146
 21
12.4643791232
 31
0.0
  0
LINE
  5
180
  8
0
  6
CONTINUOUS
 62
     7
 10
-3.1309619954
 20
9.2143791232
 30
0.0
 11
-1.7318872079
 21
9.2143791232
 31
0.0
  0
LINE
  5
181
  8
0
  6
CONTINUOUS
 62
     7
 10
-1.7902881209
 20
5.5925087616
 30
0.0
 11
-0.8462713561
 21
7.0085339088
 31
0.0
  0
LINE
  5
182
  8
0
  6
CONTINUOUS
 62
     7
 10
-0.430246209
 20
7.2311838106
 30
0.0
 11
4.0345700326
 21
7.2311838106
 31
0.0
  0
LINE
  5
183
  8
0
  6
CONTINUOUS
 62
     7
 10
5.3946119445
 20
5.5925087616
 30
0.0
 11
4.4505951797
 21
7.0085339088
 31
0.0
  0
LINE
  5
184
  8
0
  6
CONTINUOUS
 62
     7
 10
5.5491548696
 20
8.3606943739
 30
0.0
 11
7.2097118791
 21
5.8698588597
 31
0.0
  0
LINE
  5
185
  8
0
  6
CONTINUOUS
 62
     7
 10
4.8568890247
 20
8.7311838106
 30
0.0
 11
-1.2525652011
 21
8.7311838106
 31
0.0
  0
LINE
  5
186
  8
0
  6
CONTINUOUS
 62
     7
 10
-1.944831046
 20
8.3606943739
 30
0.0
 11
-3.6053880555
 21
5.8698588597
 31
0.0
  0
LINE
  5
187
  8
0
  6
CONTINUOUS
 62
     7
 10
7.0016993055
 20
5.4811838106
 30
0.0
 11
5.6026245181
 21
5.4811838106
 31
0.0
  0
LINE
  5
188
  8
0
  6
CONTINUOUS
 62
     7
 10
-3.3973754819
 20
5.4811838106
 30
0.0
 11
-1.9983006945
 21
5.4811838106
 31
0.0
  0
LINE
  5
189
  8
0
  6
CONTINUOUS
 62
     7
 10
5.4088326409
 20
1.3026207453
 30
0.0
 11
4.4648158762
 21
2.7186458924
 31
0.0
  0
LINE
  5
18A
  8
0
  6
CONTINUOUS
 62
     7
 10
-0.4160255125
 20
2.9412957943
 30
0.0
 11
4.048790729
 21
2.9412957943
 31
0.0
  0
LINE
  5
18B
  8
0
  6
CONTINUOUS
 62
     7
 10
-1.7760674245
 20
1.3026207453
 30
0.0
 11
-0.8320506597
 21
2.7186458924
 31
0.0
  0
LINE
  5
18C
  8
0
  6
CONTINUOUS
 62
     7
 10
-3.3831547855
 20
1.1912957943
 30
0.0
 11
-1.9840799981
 21
1.1912957943
 31
0.0
  0
LINE
  5
18D
  8
0
  6
CONTINUOUS
 62
     7
 10
-1.9306103496
 20
4.0708063576
 30
0.0
 11
-3.5911673591
 21
1.5799708434
 31
0.0
  0
LINE
  5
18E
  8
0
  6
CONTINUOUS
 62
     7
 10
4.8711097212
 20
4.4412957943
 30
0.0
 11
-1.2383445047
 21
4.4412957943
 31
0.0
  0
LINE
  5
18F
  8
0
  6
CONTINUOUS
 62
     7
 10
5.5633755661
 20
4.0708063576
 30
0.0
 11
7.2239325755
 21
1.5799708434
 31
0.0
  0
LINE
  5
190
  8
0
  6
CONTINUOUS
 62
     7
 10
7.0159200019
 20
1.1912957943
 30
0.0
 11
5.6168452145
 21
1.1912957943
 31
0.0
  0
LINE
  5
191
  8
0
  6
CONTINUOUS
 62
     7
 10
-6.0331226698
 20
8.3606943739
 30
0.0
 11
-4.3725656603
 21
5.8698588597
 31
0.0
  0
LINE
  5
192
  8
0
  6
CONTINUOUS
 62
     7
 10
-6.1876655949
 20
5.5925087616
 30
0.0
 11
-7.1316823597
 21
7.0085339088
 31
0.0
  0
LINE
  5
193
  8
0
  6
CONTINUOUS
 62
     7
 10
-12.0125237484
 20
7.2311838106
 30
0.0
 11
-7.5477075069
 21
7.2311838106
 31
0.0
  0
LINE
  5
194
  8
0
  6
CONTINUOUS
 62
     7
 10
-13.3725656603
 20
5.5925087616
 30
0.0
 11
-12.4285488956
 21
7.0085339088
 31
0.0
  0
LINE
  5
195
  8
0
  6
CONTINUOUS
 62
     7
 10
-14.9796530213
 20
5.4811838106
 30
0.0
 11
-13.5805782339
 21
5.4811838106
 31
0.0
  0
LINE
  5
196
  8
0
  6
CONTINUOUS
 62
     7
 10
-13.5271085855
 20
8.3606943739
 30
0.0
 11
-15.1876655949
 21
5.8698588597
 31
0.0
  0
LINE
  5
197
  8
0
  6
CONTINUOUS
 62
     7
 10
-6.7253885147
 20
8.7311838106
 30
0.0
 11
-12.8348427406
 21
8.7311838106
 31
0.0
  0
LINE
  5
198
  8
0
  6
CONTINUOUS
 62
     7
 10
-4.5805782339
 20
5.4811838106
 30
0.0
 11
-5.9796530213
 21
5.4811838106
 31
0.0
  0
ARC
  5
199
  8
0
  6
CONTINUOUS
 62
     7
 10
5.9383516622
 20
-2.3726243986
 30
0.0
 40
0.1250000000000046
 50
213.690067526
 51
270.0
  0
ARC
  5
19A
  8
0
  6
CONTINUOUS
 62
     7
 10
5.9383516622
 20
-2.3726243986
 30
0.0
 40
0.2499999999999979
 50
213.690067526
 51
270.0
  0
ARC
  5
19B
  8
0
  6
CONTINUOUS
 62
     7
 10
4.3702971767
 20
-1.3726243986
 30
0.0
 40
0.5000000000000016
 50
33.690067526
 51
90.0
  0
ARC
  5
19C
  8
0
  6
CONTINUOUS
 62
     7
 10
-0.0945190648
 20
-1.3726243986
 30
0.0
 40
0.5000000000000026
 50
90.0
 51
146.309932474
  0
ARC
  5
19D
  8
0
  6
CONTINUOUS
 62
     7
 10
-1.6625735504
 20
-2.3726243986
 30
0.0
 40
0.25
 50
270.0
 51
326.309932474
  0
ARC
  5
19E
  8
0
  6
CONTINUOUS
 62
     7
 10
-3.0616483378
 20
-2.3726243986
 30
0.0
 40
0.2500000000000009
 50
146.309932474
 51
270.0
  0
ARC
  5
19F
  8
0
  6
CONTINUOUS
 62
     7
 10
-0.916838057
 20
-0.2046243986
 30
0.0
 40
0.8319999999999952
 50
90.0
 51
146.309932474
  0
ARC
  5
1A0
  8
0
  6
CONTINUOUS
 62
     7
 10
5.1926161688
 20
-0.2046243986
 30
0.0
 40
0.8320000000000058
 50
33.690067526
 51
90.0
  0
ARC
  5
1A1
  8
0
  6
CONTINUOUS
 62
     7
 10
7.3374264496
 20
-2.3726243986
 30
0.0
 40
0.2499999999999987
 50
270.0
 51
33.690067526
  0
ARC
  5
1A2
  8
0
  6
CONTINUOUS
 62
     7
 10
7.3374264496
 20
-2.3726243986
 30
0.0
 40
0.1250000000000007
 50
270.0
 51
33.690067526
  0
ARC
  5
1A3
  8
0
  6
CONTINUOUS
 62
     7
 10
5.1926161688
 20
-0.2046243986
 30
0.0
 40
0.7069999999999999
 50
33.690067526
 51
90.0
  0
ARC
  5
1A4
  8
0
  6
CONTINUOUS
 62
     7
 10
-0.916838057
 20
-0.2046243986
 30
0.0
 40
0.7070000000000004
 50
90.0
 51
146.309932474
  0
ARC
  5
1A5
  8
0
  6
CONTINUOUS
 62
     7
 10
-3.0616483378
 20
-2.3726243986
 30
0.0
 40
0.1249999999999996
 50
146.309932474
 51
270.0
  0
ARC
  5
1A6
  8
0
  6
CONTINUOUS
 62
     7
 10
-1.6625735504
 20
-2.3726243986
 30
0.0
 40
0.1250000000000014
 50
270.0
 51
326.309932474
  0
ARC
  5
1A7
  8
0
  6
CONTINUOUS
 62
     7
 10
-0.0945190648
 20
-1.3726243986
 30
0.0
 40
0.6249999999999966
 50
90.0
 51
146.309932474
  0
ARC
  5
1A8
  8
0
  6
CONTINUOUS
 62
     7
 10
4.3702971767
 20
-1.3726243986
 30
0.0
 40
0.6249999999999931
 50
33.690067526
 51
90.0
  0
ARC
  5
1A9
  8
0
  6
CONTINUOUS
 62
     7
 10
-5.3245610113
 20
-2.3726243986
 30
0.0
 40
0.1249999999999991
 50
213.690067526
 51
270.0
  0
ARC
  5
1AA
  8
0
  6
CONTINUOUS
 62
     7
 10
-5.3245610113
 20
-2.3726243986
 30
0.0
 40
0.2499999999999978
 50
213.690067526
 51
270.0
  0
ARC
  5
1AB
  8
0
  6
CONTINUOUS
 62
     7
 10
-6.8926154968
 20
-1.3726243986
 30
0.0
 40
0.5000000000000003
 50
33.690067526
 51
90.0
  0
ARC
  5
1AC
  8
0
  6
CONTINUOUS
 62
     7
 10
-11.3574317383
 20
-1.3726243986
 30
0.0
 40
0.5000000000000002
 50
90.0
 51
146.309932474
  0
ARC
  5
1AD
  8
0
  6
CONTINUOUS
 62
     7
 10
-12.9254862239
 20
-2.3726243986
 30
0.0
 40
0.2499999999999846
 50
270.0
 51
326.309932474
  0
ARC
  5
1AE
  8
0
  6
CONTINUOUS
 62
     7
 10
-14.3245610113
 20
-2.3726243986
 30
0.0
 40
0.2499999999999991
 50
146.309932474
 51
270.0
  0
ARC
  5
1AF
  8
0
  6
CONTINUOUS
 62
     7
 10
-12.1797507305
 20
-0.2046243986
 30
0.0
 40
0.8319999999999935
 50
90.0
 51
146.309932474
  0
ARC
  5
1B0
  8
0
  6
CONTINUOUS
 62
     7
 10
-6.0702965046
 20
-0.2046243986
 30
0.0
 40
0.832000000000006
 50
33.690067526
 51
90.0
  0
ARC
  5
1B1
  8
0
  6
CONTINUOUS
 62
     7
 10
-3.9254862239
 20
-2.3726243986
 30
0.0
 40
0.2499999999999996
 50
270.0
 51
33.690067526
  0
ARC
  5
1B2
  8
0
  6
CONTINUOUS
 62
     7
 10
-3.9254862239
 20
-2.3726243986
 30
0.0
 40
0.1250000000000013
 50
270.0
 51
33.690067526
  0
ARC
  5
1B3
  8
0
  6
CONTINUOUS
 62
     7
 10
-6.0702965046
 20
-0.2046243986
 30
0.0
 40
0.7070000000000034
 50
33.690067526
 51
90.0
  0
ARC
  5
1B4
  8
0
  6
CONTINUOUS
 62
     7
 10
-12.1797507305
 20
-0.2046243986
 30
0.0
 40
0.7070000000000085
 50
90.0
 51
146.309932474
  0
ARC
  5
1B5
  8
0
  6
CONTINUOUS
 62
     7
 10
-14.3245610113
 20
-2.3726243986
 30
0.0
 40
0.1250000000000024
 50
146.309932474
 51
270.0
  0
ARC
  5
1B6
  8
0
  6
CONTINUOUS
 62
     7
 10
-12.9254862239
 20
-2.3726243986
 30
0.0
 40
0.1249999999999956
 50
270.0
 51
326.309932474
  0
ARC
  5
1B7
  8
0
  6
CONTINUOUS
 62
     7
 10
-11.3574317383
 20
-1.3726243986
 30
0.0
 40
0.6249999999999927
 50
90.0
 51
146.309932474
  0
ARC
  5
1B8
  8
0
  6
CONTINUOUS
 62
     7
 10
-6.8926154968
 20
-1.3726243986
 30
0.0
 40
0.6250000000000042
 50
33.690067526
 51
90.0
  0
ARC
  5
1B9
  8
0
  6
CONTINUOUS
 62
     7
 10
-7.3456650364
 20
10.4643791232
 30
0.0
 40
0.5000000000000089
 50
33.690067526
 51
90.0
  0
ARC
  5
1BA
  8
0
  6
CONTINUOUS
 62
     7
 10
-5.7776105509
 20
9.4643791232
 30
0.0
 40
0.2500000000000053
 50
213.690067526
 51
270.0
  0
ARC
  5
1BB
  8
0
  6
CONTINUOUS
 62
     7
 10
-11.8104812779
 20
10.4643791232
 30
0.0
 40
0.5000000000000097
 50
90.0
 51
146.309932474
  0
ARC
  5
1BC
  8
0
  6
CONTINUOUS
 62
     7
 10
-13.3785357635
 20
9.4643791232
 30
0.0
 40
0.2500000000000018
 50
270.0
 51
326.309932474
  0
ARC
  5
1BD
  8
0
  6
CONTINUOUS
 62
     7
 10
-14.7776105509
 20
9.4643791232
 30
0.0
 40
0.2500000000000018
 50
146.309932474
 51
270.0
  0
ARC
  5
1BE
  8
0
  6
CONTINUOUS
 62
     7
 10
-12.6328002701
 20
11.6323791232
 30
0.0
 40
0.8319999999999919
 50
90.0
 51
146.309932474
  0
ARC
  5
1BF
  8
0
  6
CONTINUOUS
 62
     7
 10
-6.5233460442
 20
11.6323791232
 30
0.0
 40
0.8320000000000007
 50
33.690067526
 51
90.0
  0
ARC
  5
1C0
  8
0
  6
CONTINUOUS
 62
     7
 10
-4.3785357635
 20
9.4643791232
 30
0.0
 40
0.25
 50
270.0
 51
33.690067526
  0
ARC
  5
1C1
  8
0
  6
CONTINUOUS
 62
     7
 10
-5.6265347309
 20
1.4412957943
 30
0.0
 40
0.2500000000000004
 50
213.690067526
 51
270.0
  0
ARC
  5
1C2
  8
0
  6
CONTINUOUS
 62
     7
 10
-7.1945892164
 20
2.4412957943
 30
0.0
 40
0.4999999999999971
 50
33.690067526
 51
90.0
  0
ARC
  5
1C3
  8
0
  6
CONTINUOUS
 62
     7
 10
-11.6594054579
 20
2.4412957943
 30
0.0
 40
0.4999999999999978
 50
90.0
 51
146.309932474
  0
ARC
  5
1C4
  8
0
  6
CONTINUOUS
 62
     7
 10
-13.2274599434
 20
1.4412957943
 30
0.0
 40
0.2500000000000009
 50
270.0
 51
326.309932474
  0
ARC
  5
1C5
  8
0
  6
CONTINUOUS
 62
     7
 10
-14.6265347309
 20
1.4412957943
 30
0.0
 40
0.2499999999999996
 50
146.309932474
 51
270.0
  0
ARC
  5
1C6
  8
0
  6
CONTINUOUS
 62
     7
 10
-12.4817244501
 20
3.6092957943
 30
0.0
 40
0.831999999999995
 50
90.0
 51
146.309932474
  0
ARC
  5
1C7
  8
0
  6
CONTINUOUS
 62
     7
 10
-6.3722702242
 20
3.6092957943
 30
0.0
 40
0.8319999999999996
 50
33.690067526
 51
90.0
  0
ARC
  5
1C8
  8
0
  6
CONTINUOUS
 62
     7
 10
-4.2274599434
 20
1.4412957943
 30
0.0
 40
0.2499999999999996
 50
270.0
 51
33.690067526
  0
ARC
  5
1C9
  8
0
  6
CONTINUOUS
 62
     7
 10
7.2681127921
 20
9.4643791232
 30
0.0
 40
0.2500000000000006
 50
270.0
 51
33.690067526
  0
ARC
  5
1CA
  8
0
  6
CONTINUOUS
 62
     7
 10
-1.7318872079
 20
9.4643791232
 30
0.0
 40
0.2499999999999985
 50
270.0
 51
326.309932474
  0
ARC
  5
1CB
  8
0
  6
CONTINUOUS
 62
     7
 10
-0.1638327224
 20
10.4643791232
 30
0.0
 40
0.5000000000000093
 50
90.0
 51
146.309932474
  0
ARC
  5
1CC
  8
0
  6
CONTINUOUS
 62
     7
 10
4.3009835191
 20
10.4643791232
 30
0.0
 40
0.5000000000000089
 50
33.690067526
 51
90.0
  0
ARC
  5
1CD
  8
0
  6
CONTINUOUS
 62
     7
 10
5.8690380046
 20
9.4643791232
 30
0.0
 40
0.2500000000000026
 50
213.690067526
 51
270.0
  0
ARC
  5
1CE
  8
0
  6
CONTINUOUS
 62
     7
 10
5.1233025113
 20
11.6323791232
 30
0.0
 40
0.8320000000000007
 50
33.690067526
 51
90.0
  0
ARC
  5
1CF
  8
0
  6
CONTINUOUS
 62
     7
 10
-0.9861517146
 20
11.6323791232
 30
0.0
 40
0.8319999999999919
 50
90.0
 51
146.309932474
  0
ARC
  5
1D0
  8
0
  6
CONTINUOUS
 62
     7
 10
-3.1309619954
 20
9.4643791232
 30
0.0
 40
0.25
 50
146.309932474
 51
270.0
  0
ARC
  5
1D1
  8
0
  6
CONTINUOUS
 62
     7
 10
-0.430246209
 20
6.7311838106
 30
0.0
 40
0.5000000000000002
 50
90.0
 51
146.309932474
  0
ARC
  5
1D2
  8
0
  6
CONTINUOUS
 62
     7
 10
-1.9983006945
 20
5.7311838106
 30
0.0
 40
0.25
 50
270.0
 51
326.309932474
  0
ARC
  5
1D3
  8
0
  6
CONTINUOUS
 62
     7
 10
4.0345700326
 20
6.7311838106
 30
0.0
 40
0.5000000000000054
 50
33.690067526
 51
90.0
  0
ARC
  5
1D4
  8
0
  6
CONTINUOUS
 62
     7
 10
5.6026245181
 20
5.7311838106
 30
0.0
 40
0.2500000000000018
 50
213.690067526
 51
270.0
  0
ARC
  5
1D5
  8
0
  6
CONTINUOUS
 62
     7
 10
7.0016993055
 20
5.7311838106
 30
0.0
 40
0.2500000000000009
 50
270.0
 51
33.690067526
  0
ARC
  5
1D6
  8
0
  6
CONTINUOUS
 62
     7
 10
4.8568890247
 20
7.8991838106
 30
0.0
 40
0.832000000000007
 50
33.690067526
 51
90.0
  0
ARC
  5
1D7
  8
0
  6
CONTINUOUS
 62
     7
 10
-1.2525652011
 20
7.8991838106
 30
0.0
 40
0.8320000000000017
 50
90.0
 51
146.309932474
  0
ARC
  5
1D8
  8
0
  6
CONTINUOUS
 62
     7
 10
-3.3973754819
 20
5.7311838106
 30
0.0
 40
0.2500000000000001
 50
146.309932474
 51
270.0
  0
ARC
  5
1D9
  8
0
  6
CONTINUOUS
 62
     7
 10
5.6168452145
 20
1.4412957943
 30
0.0
 40
0.2499999999999944
 50
213.690067526
 51
270.0
  0
ARC
  5
1DA
  8
0
  6
CONTINUOUS
 62
     7
 10
4.048790729
 20
2.4412957943
 30
0.0
 40
0.5000000000000022
 50
33.690067526
 51
90.0
  0
ARC
  5
1DB
  8
0
  6
CONTINUOUS
 62
     7
 10
-0.4160255125
 20
2.4412957943
 30
0.0
 40
0.4999999999999978
 50
90.0
 51
146.309932474
  0
ARC
  5
1DC
  8
0
  6
CONTINUOUS
 62
     7
 10
-1.9840799981
 20
1.4412957943
 30
0.0
 40
0.2499999999999987
 50
270.0
 51
326.309932474
  0
ARC
  5
1DD
  8
0
  6
CONTINUOUS
 62
     7
 10
-3.3831547855
 20
1.4412957943
 30
0.0
 40
0.25
 50
146.309932474
 51
270.0
  0
ARC
  5
1DE
  8
0
  6
CONTINUOUS
 62
     7
 10
-1.2383445047
 20
3.6092957943
 30
0.0
 40
0.8319999999999935
 50
90.0
 51
146.309932474
  0
ARC
  5
1DF
  8
0
  6
CONTINUOUS
 62
     7
 10
4.8711097212
 20
3.6092957943
 30
0.0
 40
0.8320000000000087
 50
33.690067526
 51
90.0
  0
ARC
  5
1E0
  8
0
  6
CONTINUOUS
 62
     7
 10
7.0159200019
 20
1.4412957943
 30
0.0
 40
0.2500000000000015
 50
270.0
 51
33.690067526
  0
ARC
  5
1E1
  8
0
  6
CONTINUOUS
 62
     7
 10
-7.5477075069
 20
6.7311838106
 30
0.0
 40
0.5000000000000072
 50
33.690067526
 51
90.0
  0
ARC
  5
1E2
  8
0
  6
CONTINUOUS
 62
     7
 10
-14.9796530213
 20
5.7311838106
 30
0.0
 40
0.2500000000000009
 50
146.309932474
 51
270.0
  0
ARC
  5
1E3
  8
0
  6
CONTINUOUS
 62
     7
 10
-5.9796530213
 20
5.7311838106
 30
0.0
 40
0.250000000000008
 50
213.690067526
 51
270.0
  0
ARC
  5
1E4
  8
0
  6
CONTINUOUS
 62
     7
 10
-12.0125237484
 20
6.7311838106
 30
0.0
 40
0.4999999999999968
 50
90.0
 51
146.309932474
  0
ARC
  5
1E5
  8
0
  6
CONTINUOUS
 62
     7
 10
-13.5805782339
 20
5.7311838106
 30
0.0
 40
0.2500000000000009
 50
270.0
 51
326.309932474
  0
ARC
  5
1E6
  8
0
  6
CONTINUOUS
 62
     7
 10
-12.8348427406
 20
7.8991838106
 30
0.0
 40
0.8319999999999984
 50
90.0
 51
146.309932474
  0
ARC
  5
1E7
  8
0
  6
CONTINUOUS
 62
     7
 10
-6.7253885147
 20
7.8991838106
 30
0.0
 40
0.8320000000000052
 50
33.690067526
 51
90.0
  0
ARC
  5
1E8
  8
0
  6
CONTINUOUS
 62
     7
 10
-4.5805782339
 20
5.7311838106
 30
0.0
 40
0.2500000000000009
 50
270.0
 51
33.690067526
  0
ENDSEC
  0
EOF
