  0
SECTION
  2
HEADER
  9
$ACADVER
  1
AC1014
  9
$HANDSEED
  5
FFFF
  9
$MEASUREMENT
 70
     1
  0
ENDSEC
  0
SECTION
  2
TABLES
  0
TABLE
  2
VPORT
  5
8
330
0
100
AcDbSymbolTable
 70
     4
  0
VPORT
  5
2E
330
8
100
AcDbSymbolTableRecord
100
AcDbViewportTableRecord
  2
*ACTIVE
 70
     0
 10
0.0
 20
0.0
 11
1.0
 21
1.0
 12
210.0
 22
148.5
 13
0.0
 23
0.0
 14
10.0
 24
10.0
 15
10.0
 25
10.0
 16
0.0
 26
0.0
 36
1.0
 17
0.0
 27
0.0
 37
0.0
 40
341.0
 41
1.24
 42
50.0
 43
0.0
 44
0.0
 50
0.0
 51
0.0
 71
     0
 72
   100
 73
     1
 74
     3
 75
     0
 76
     0
 77
     0
 78
     0
  0
ENDTAB
  0
TABLE
  2
LTYPE
  5
5
330
0
100
AcDbSymbolTable
 70
     1
  0
LTYPE
  5
14
330
5
100
AcDbSymbolTableRecord
100
AcDbLinetypeTableRecord
  2
BYBLOCK
 70
     0
  3

 72
    65
 73
     0
 40
0.0
  0
LTYPE
  5
15
330
5
100
AcDbSymbolTableRecord
100
AcDbLinetypeTableRecord
  2
BYLAYER
 70
     0
  3

 72
    65
 73
     0
 40
0.0
  0
LTYPE
  5
16
330
5
100
AcDbSymbolTableRecord
100
AcDbLinetypeTableRecord
  2
CONTINUOUS
 70
     0
  3
Solid line
 72
    65
 73
     0
 40
0.0
  0
ENDTAB
  0
TABLE
  2
LAYER
  5
2
100
AcDbSymbolTable
 70
1
  0
LAYER
  5
50
100
AcDbSymbolTableRecord
100
AcDbLayerTableRecord
  2
0
 70
0
  6
CONTINUOUS
  0
ENDTAB
  0
TABLE
  2
STYLE
  5
3
330
0
100
AcDbSymbolTable
 70
     1
  0
STYLE
  5
11
330
3
100
AcDbSymbolTableRecord
100
AcDbTextStyleTableRecord
  2
STANDARD
 70
     0
 40
0.0
 41
1.0
 50
0.0
 71
     0
 42
2.5
  3
txt
  4

  0
ENDTAB
  0
TABLE
  2
VIEW
  5
6
330
0
100
AcDbSymbolTable
 70
     0
  0
ENDTAB
  0
TABLE
  2
UCS
  5
7
330
0
100
AcDbSymbolTable
 70
     0
  0
ENDTAB
  0
TABLE
  2
APPID
  5
9
330
0
100
AcDbSymbolTable
 70
     2
  0
APPID
  5
12
330
9
100
AcDbSymbolTableRecord
100
AcDbRegAppTableRecord
  2
ACAD
 70
     0
  0
ENDTAB
  0
TABLE
  2
DIMSTYLE
  5
A
330
0
100
AcDbSymbolTable
 70
     1
  0
DIMSTYLE
105
27
330
A
100
AcDbSymbolTableRecord
100
AcDbDimStyleTableRecord
  2
ISO-25
 70
     0
  3

  4

  5

  6

  7

 40
1.0
 41
2.5
 42
0.625
 43
3.75
 44
1.25
 45
0.0
 46
0.0
 47
0.0
 48
0.0
140
2.5
141
2.5
142
0.0
143
0.03937007874016
144
1.0
145
0.0
146
1.0
147
0.625
 71
     0
 72
     0
 73
     0
 74
     0
 75
     0
 76
     0
 77
     1
 78
     8
170
     0
171
     3
172
     1
173
     0
174
     0
175
     0
176
     0
177
     0
178
     0
270
     2
271
     2
272
     2
273
     2
274
     3
340
11
275
     0
280
     0
281
     0
282
     0
283
     0
284
     8
285
     0
286
     0
287
     3
288
     0
  0
ENDTAB
  0
TABLE
  2
BLOCK_RECORD
  5
1
330
0
100
AcDbSymbolTable
 70
     1
  0
BLOCK_RECORD
  5
1F
330
1
100
AcDbSymbolTableRecord
100
AcDbBlockTableRecord
  2
*MODEL_SPACE
  0
BLOCK_RECORD
  5
1B
330
1
100
AcDbSymbolTableRecord
100
AcDbBlockTableRecord
  2
*PAPER_SPACE
  0
ENDTAB
  0
ENDSEC
  0
SECTION
  2
BLOCKS
  0
BLOCK
  5
20
330
1F
100
AcDbEntity
  8
0
100
AcDbBlockBegin
  2
*MODEL_SPACE
 70
     0
 10
0.0
 20
0.0
 30
0.0
  3
*MODEL_SPACE
  1

  0
ENDBLK
  5
21
330
1F
100
AcDbEntity
  8
0
100
AcDbBlockEnd
  0
BLOCK
  5
1C
330
1B
100
AcDbEntity
 67
     1
  8
0
100
AcDbBlockBegin
  2
*PAPER_SPACE
  1

  0
ENDBLK
  5
1D
330
1B
100
AcDbEntity
 67
     1
  8
0
100
AcDbBlockEnd
  0
ENDSEC
  0
SECTION
  2
ENTITIES
  0
LWPOLYLINE
  5
100
100
AcDbEntity
  8
0
 62
7
100
AcDbPolyline
 90
2
 70
0
 10
668.246172
 20
370.786052
 30
0.0
 10
668.246172
 20
1311.888414
 30
0.0
  0
LWPOLYLINE
  5
101
100
AcDbEntity
  8
0
 62
7
100
AcDbPolyline
 90
3
 70
0
 10
668.246172
 20
370.786052
 30
0.0
 10
110.372690
 20
370.786052
 30
0.0
 10
110.372690
 20
1311.888257
 30
0.0
  0
LWPOLYLINE
  5
102
100
AcDbEntity
  8
0
 62
7
100
AcDbPolyline
 90
4
 70
0
 10
9.742631
 20
976.455341
 30
0.0
 10
45.175702
 20
976.455347
 30
0.0
 10
45.175706
 20
948.108890
 30
0.0
 10
9.742660
 20
948.108888
 30
0.0
  0
LWPOLYLINE
  5
103
100
AcDbEntity
  8
0
 62
7
100
AcDbPolyline
 90
4
 70
0
 10
769.427806
 20
976.455343
 30
0.0
 10
733.994736
 20
976.455343
 30
0.0
 10
733.994736
 20
948.108886
 30
0.0
 10
769.427806
 20
948.108886
 30
0.0
  0
LWPOLYLINE
  5
104
100
AcDbEntity
  8
0
 62
7
100
AcDbPolyline
 90
2
 70
0
 10
769.427808
 20
976.439588
 30
0.0
 10
769.427808
 20
1298.661132
 30
0.0
  0
LWPOLYLINE
  5
105
100
AcDbEntity
  8
0
 62
7
100
AcDbPolyline
 90
2
 70
0
 10
9.742584
 20
1297.715005
 30
0.0
 10
9.742631
 20
976.455341
 30
0.0
  0
LWPOLYLINE
  5
106
100
AcDbEntity
  8
0
 62
7
100
AcDbPolyline
 90
5
 70
0
 10
9.742698
 20
598.500757
 30
0.0
 10
45.175769
 20
598.500766
 30
0.0
 10
45.175749
 20
626.847223
 30
0.0
 10
9.742678
 20
626.847217
 30
0.0
 10
9.742660
 20
948.108888
 30
0.0
  0
LWPOLYLINE
  5
107
100
AcDbEntity
  8
0
 62
7
100
AcDbPolyline
 90
2
 70
0
 10
9.742782
 20
277.267791
 30
0.0
 10
9.742698
 20
598.500757
 30
0.0
  0
LWPOLYLINE
  5
108
100
AcDbEntity
  8
0
 62
7
100
AcDbPolyline
 90
2
 70
0
 10
141.732283
 20
263.069368
 30
0.0
 10
699.597907
 20
263.069514
 30
0.0
  0
LWPOLYLINE
  5
109
100
AcDbEntity
  8
0
 62
7
100
AcDbPolyline
 90
4
 70
0
 10
769.427806
 20
626.849043
 30
0.0
 10
733.994735
 20
626.849043
 30
0.0
 10
733.994735
 20
598.502586
 30
0.0
 10
769.427806
 20
598.502587
 30
0.0
  0
LWPOLYLINE
  5
10a
100
AcDbEntity
  8
0
 62
7
100
AcDbPolyline
 90
2
 70
0
 10
769.427806
 20
948.108886
 30
0.0
 10
769.427806
 20
626.849043
 30
0.0
  0
SPLINE
  5
10b
100
AcDbEntity
  8
0
 62
7
100
AcDbSpline
 70
8
 71
3
 72
8
 73
4
 74
0
 40
0
 40
0
 40
0
 40
0
 40
1
 40
1
 40
1
 40
1
 10
9.742782
 20
277.267791
 30
0.0
 10
9.727988
 20
269.518328
 30
0.0
 10
15.939973
 20
263.193741
 30
0.0
 10
23.688452
 20
263.069333
 30
0.0
  0
SPLINE
  5
10c
100
AcDbEntity
  8
0
 62
7
100
AcDbSpline
 70
8
 71
3
 72
8
 73
4
 74
0
 40
0
 40
0
 40
0
 40
0
 40
1
 40
1
 40
1
 40
1
 10
755.254578
 20
263.069516
 30
0.0
 10
759.019118
 20
263.069516
 30
0.0
 10
762.629002
 20
264.567175
 30
0.0
 10
765.287915
 20
267.232122
 30
0.0
  0
SPLINE
  5
10d
100
AcDbEntity
  8
0
 62
7
100
AcDbSpline
 70
8
 71
3
 72
8
 73
4
 74
0
 40
0
 40
0
 40
0
 40
0
 40
1
 40
1
 40
1
 40
1
 10
765.287915
 20
267.232122
 30
0.0
 10
767.946829
 20
269.897068
 30
0.0
 10
769.436303
 20
273.510337
 30
0.0
 10
769.427770
 20
277.274867
 30
0.0
  0
SPLINE
  5
10e
100
AcDbEntity
  8
0
 62
7
100
AcDbSpline
 70
8
 71
3
 72
8
 73
4
 74
0
 40
0
 40
0
 40
0
 40
0
 40
1
 40
1
 40
1
 40
1
 10
769.427806
 20
1297.715185
 30
0.0
 10
769.427807
 20
1301.474159
 30
0.0
 10
767.934560
 20
1305.079176
 30
0.0
 10
765.276564
 20
1307.737172
 30
0.0
  0
SPLINE
  5
10f
100
AcDbEntity
  8
0
 62
7
100
AcDbSpline
 70
8
 71
3
 72
8
 73
4
 74
0
 40
0
 40
0
 40
0
 40
0
 40
1
 40
1
 40
1
 40
1
 10
765.276564
 20
1307.737172
 30
0.0
 10
762.618568
 20
1310.395168
 30
0.0
 10
759.013552
 20
1311.888414
 30
0.0
 10
755.254578
 20
1311.888414
 30
0.0
  0
SPLINE
  5
110
100
AcDbEntity
  8
0
 62
7
100
AcDbSpline
 70
8
 71
3
 72
8
 73
4
 74
0
 40
0
 40
0
 40
0
 40
0
 40
1
 40
1
 40
1
 40
1
 10
23.915809
 20
1311.888235
 30
0.0
 10
16.088151
 20
1311.888233
 30
0.0
 10
9.742583
 20
1305.542662
 30
0.0
 10
9.742584
 20
1297.715005
 30
0.0
  0
LWPOLYLINE
  5
111
100
AcDbEntity
  8
0
 62
7
100
AcDbPolyline
 90
2
 70
0
 10
769.427806
 20
598.502587
 30
0.0
 10
769.427806
 20
277.269621
 30
0.0
  0
LWPOLYLINE
  5
112
100
AcDbEntity
  8
0
 62
7
100
AcDbPolyline
 90
2
 70
0
 10
700.157480
 20
1311.888414
 30
0.0
 10
755.254578
 20
1311.888414
 30
0.0
  0
LWPOLYLINE
  5
113
100
AcDbEntity
  8
0
 62
7
100
AcDbPolyline
 90
2
 70
0
 10
23.688452
 20
263.069333
 30
0.0
 10
141.732283
 20
263.069368
 30
0.0
  0
SPLINE
  5
114
100
AcDbEntity
  8
0
 62
7
100
AcDbSpline
 70
8
 71
3
 72
8
 73
4
 74
0
 40
0
 40
0
 40
0
 40
0
 40
1
 40
1
 40
1
 40
1
 10
46.680461
 20
1261.467828
 30
0.0
 10
46.680461
 20
1265.518713
 30
0.0
 10
44.519339
 20
1269.261886
 30
0.0
 10
41.011170
 20
1271.287328
 30
0.0
  0
SPLINE
  5
115
100
AcDbEntity
  8
0
 62
7
100
AcDbSpline
 70
8
 71
3
 72
8
 73
4
 74
0
 40
0
 40
0
 40
0
 40
0
 40
1
 40
1
 40
1
 40
1
 10
41.011170
 20
1271.287328
 30
0.0
 10
37.503000
 20
1273.312771
 30
0.0
 10
33.180757
 20
1273.312771
 30
0.0
 10
29.672587
 20
1271.287328
 30
0.0
  0
SPLINE
  5
116
100
AcDbEntity
  8
0
 62
7
100
AcDbSpline
 70
8
 71
3
 72
8
 73
4
 74
0
 40
0
 40
0
 40
0
 40
0
 40
1
 40
1
 40
1
 40
1
 10
29.672587
 20
1271.287328
 30
0.0
 10
26.164417
 20
1269.261886
 30
0.0
 10
24.003296
 20
1265.518713
 30
0.0
 10
24.003296
 20
1261.467828
 30
0.0
  0
SPLINE
  5
117
100
AcDbEntity
  8
0
 62
7
100
AcDbSpline
 70
8
 71
3
 72
8
 73
4
 74
0
 40
0
 40
0
 40
0
 40
0
 40
1
 40
1
 40
1
 40
1
 10
24.003296
 20
1261.467828
 30
0.0
 10
24.003296
 20
1257.416942
 30
0.0
 10
26.164418
 20
1253.673770
 30
0.0
 10
29.672587
 20
1251.648327
 30
0.0
  0
SPLINE
  5
118
100
AcDbEntity
  8
0
 62
7
100
AcDbSpline
 70
8
 71
3
 72
8
 73
4
 74
0
 40
0
 40
0
 40
0
 40
0
 40
1
 40
1
 40
1
 40
1
 10
29.672587
 20
1251.648327
 30
0.0
 10
33.180757
 20
1249.622885
 30
0.0
 10
37.503000
 20
1249.622885
 30
0.0
 10
41.011170
 20
1251.648327
 30
0.0
  0
SPLINE
  5
119
100
AcDbEntity
  8
0
 62
7
100
AcDbSpline
 70
8
 71
3
 72
8
 73
4
 74
0
 40
0
 40
0
 40
0
 40
0
 40
1
 40
1
 40
1
 40
1
 10
41.011170
 20
1251.648327
 30
0.0
 10
44.519339
 20
1253.673770
 30
0.0
 10
46.680461
 20
1257.416942
 30
0.0
 10
46.680461
 20
1261.467828
 30
0.0
  0
LWPOLYLINE
  5
11a
100
AcDbEntity
  8
0
 62
7
100
AcDbPolyline
 90
2
 70
0
 10
755.254578
 20
263.069516
 30
0.0
 10
699.597907
 20
263.069514
 30
0.0
  0
SPLINE
  5
11b
100
AcDbEntity
  8
0
 62
7
100
AcDbSpline
 70
8
 71
3
 72
8
 73
4
 74
0
 40
0
 40
0
 40
0
 40
0
 40
1
 40
1
 40
1
 40
1
 10
46.680461
 20
1210.444206
 30
0.0
 10
46.680461
 20
1214.495092
 30
0.0
 10
44.519339
 20
1218.238264
 30
0.0
 10
41.011170
 20
1220.263707
 30
0.0
  0
SPLINE
  5
11c
100
AcDbEntity
  8
0
 62
7
100
AcDbSpline
 70
8
 71
3
 72
8
 73
4
 74
0
 40
0
 40
0
 40
0
 40
0
 40
1
 40
1
 40
1
 40
1
 10
41.011170
 20
1220.263707
 30
0.0
 10
37.503000
 20
1222.289149
 30
0.0
 10
33.180757
 20
1222.289149
 30
0.0
 10
29.672587
 20
1220.263707
 30
0.0
  0
SPLINE
  5
11d
100
AcDbEntity
  8
0
 62
7
100
AcDbSpline
 70
8
 71
3
 72
8
 73
4
 74
0
 40
0
 40
0
 40
0
 40
0
 40
1
 40
1
 40
1
 40
1
 10
29.672587
 20
1220.263707
 30
0.0
 10
26.164417
 20
1218.238264
 30
0.0
 10
24.003296
 20
1214.495092
 30
0.0
 10
24.003296
 20
1210.444206
 30
0.0
  0
SPLINE
  5
11e
100
AcDbEntity
  8
0
 62
7
100
AcDbSpline
 70
8
 71
3
 72
8
 73
4
 74
0
 40
0
 40
0
 40
0
 40
0
 40
1
 40
1
 40
1
 40
1
 10
24.003296
 20
1210.444206
 30
0.0
 10
24.003296
 20
1206.393321
 30
0.0
 10
26.164418
 20
1202.650148
 30
0.0
 10
29.672587
 20
1200.624706
 30
0.0
  0
SPLINE
  5
11f
100
AcDbEntity
  8
0
 62
7
100
AcDbSpline
 70
8
 71
3
 72
8
 73
4
 74
0
 40
0
 40
0
 40
0
 40
0
 40
1
 40
1
 40
1
 40
1
 10
29.672587
 20
1200.624706
 30
0.0
 10
33.180757
 20
1198.599263
 30
0.0
 10
37.503000
 20
1198.599263
 30
0.0
 10
41.011170
 20
1200.624706
 30
0.0
  0
SPLINE
  5
120
100
AcDbEntity
  8
0
 62
7
100
AcDbSpline
 70
8
 71
3
 72
8
 73
4
 74
0
 40
0
 40
0
 40
0
 40
0
 40
1
 40
1
 40
1
 40
1
 10
41.011170
 20
1200.624706
 30
0.0
 10
44.519339
 20
1202.650148
 30
0.0
 10
46.680461
 20
1206.393321
 30
0.0
 10
46.680461
 20
1210.444206
 30
0.0
  0
LWPOLYLINE
  5
121
100
AcDbEntity
  8
0
 62
7
100
AcDbPolyline
 90
2
 70
0
 10
46.680461
 20
1261.467828
 30
0.0
 10
46.680461
 20
1261.467828
 30
0.0
  0
SPLINE
  5
122
100
AcDbEntity
  8
0
 62
7
100
AcDbSpline
 70
8
 71
3
 72
8
 73
4
 74
0
 40
0
 40
0
 40
0
 40
0
 40
1
 40
1
 40
1
 40
1
 10
46.680461
 20
1159.420584
 30
0.0
 10
46.680461
 20
1163.471469
 30
0.0
 10
44.519339
 20
1167.214642
 30
0.0
 10
41.011170
 20
1169.240084
 30
0.0
  0
SPLINE
  5
123
100
AcDbEntity
  8
0
 62
7
100
AcDbSpline
 70
8
 71
3
 72
8
 73
4
 74
0
 40
0
 40
0
 40
0
 40
0
 40
1
 40
1
 40
1
 40
1
 10
41.011170
 20
1169.240084
 30
0.0
 10
37.503000
 20
1171.265527
 30
0.0
 10
33.180757
 20
1171.265527
 30
0.0
 10
29.672587
 20
1169.240084
 30
0.0
  0
SPLINE
  5
124
100
AcDbEntity
  8
0
 62
7
100
AcDbSpline
 70
8
 71
3
 72
8
 73
4
 74
0
 40
0
 40
0
 40
0
 40
0
 40
1
 40
1
 40
1
 40
1
 10
29.672587
 20
1169.240084
 30
0.0
 10
26.164417
 20
1167.214642
 30
0.0
 10
24.003296
 20
1163.471469
 30
0.0
 10
24.003296
 20
1159.420584
 30
0.0
  0
SPLINE
  5
125
100
AcDbEntity
  8
0
 62
7
100
AcDbSpline
 70
8
 71
3
 72
8
 73
4
 74
0
 40
0
 40
0
 40
0
 40
0
 40
1
 40
1
 40
1
 40
1
 10
24.003296
 20
1159.420584
 30
0.0
 10
24.003296
 20
1155.369698
 30
0.0
 10
26.164418
 20
1151.626526
 30
0.0
 10
29.672587
 20
1149.601083
 30
0.0
  0
SPLINE
  5
126
100
AcDbEntity
  8
0
 62
7
100
AcDbSpline
 70
8
 71
3
 72
8
 73
4
 74
0
 40
0
 40
0
 40
0
 40
0
 40
1
 40
1
 40
1
 40
1
 10
29.672587
 20
1149.601083
 30
0.0
 10
33.180757
 20
1147.575641
 30
0.0
 10
37.503000
 20
1147.575641
 30
0.0
 10
41.011170
 20
1149.601083
 30
0.0
  0
SPLINE
  5
127
100
AcDbEntity
  8
0
 62
7
100
AcDbSpline
 70
8
 71
3
 72
8
 73
4
 74
0
 40
0
 40
0
 40
0
 40
0
 40
1
 40
1
 40
1
 40
1
 10
41.011170
 20
1149.601083
 30
0.0
 10
44.519339
 20
1151.626526
 30
0.0
 10
46.680461
 20
1155.369698
 30
0.0
 10
46.680461
 20
1159.420584
 30
0.0
  0
LWPOLYLINE
  5
128
100
AcDbEntity
  8
0
 62
7
100
AcDbPolyline
 90
2
 70
0
 10
46.680461
 20
1210.444206
 30
0.0
 10
46.680461
 20
1210.444206
 30
0.0
  0
SPLINE
  5
129
100
AcDbEntity
  8
0
 62
7
100
AcDbSpline
 70
8
 71
3
 72
8
 73
4
 74
0
 40
0
 40
0
 40
0
 40
0
 40
1
 40
1
 40
1
 40
1
 10
46.680461
 20
1108.396962
 30
0.0
 10
46.680461
 20
1112.447848
 30
0.0
 10
44.519339
 20
1116.191020
 30
0.0
 10
41.011170
 20
1118.216463
 30
0.0
  0
SPLINE
  5
12a
100
AcDbEntity
  8
0
 62
7
100
AcDbSpline
 70
8
 71
3
 72
8
 73
4
 74
0
 40
0
 40
0
 40
0
 40
0
 40
1
 40
1
 40
1
 40
1
 10
41.011170
 20
1118.216463
 30
0.0
 10
37.503000
 20
1120.241905
 30
0.0
 10
33.180757
 20
1120.241905
 30
0.0
 10
29.672587
 20
1118.216463
 30
0.0
  0
SPLINE
  5
12b
100
AcDbEntity
  8
0
 62
7
100
AcDbSpline
 70
8
 71
3
 72
8
 73
4
 74
0
 40
0
 40
0
 40
0
 40
0
 40
1
 40
1
 40
1
 40
1
 10
29.672587
 20
1118.216463
 30
0.0
 10
26.164417
 20
1116.191020
 30
0.0
 10
24.003296
 20
1112.447848
 30
0.0
 10
24.003296
 20
1108.396962
 30
0.0
  0
SPLINE
  5
12c
100
AcDbEntity
  8
0
 62
7
100
AcDbSpline
 70
8
 71
3
 72
8
 73
4
 74
0
 40
0
 40
0
 40
0
 40
0
 40
1
 40
1
 40
1
 40
1
 10
24.003296
 20
1108.396962
 30
0.0
 10
24.003296
 20
1104.346077
 30
0.0
 10
26.164418
 20
1100.602904
 30
0.0
 10
29.672587
 20
1098.577462
 30
0.0
  0
SPLINE
  5
12d
100
AcDbEntity
  8
0
 62
7
100
AcDbSpline
 70
8
 71
3
 72
8
 73
4
 74
0
 40
0
 40
0
 40
0
 40
0
 40
1
 40
1
 40
1
 40
1
 10
29.672587
 20
1098.577462
 30
0.0
 10
33.180757
 20
1096.552019
 30
0.0
 10
37.503000
 20
1096.552019
 30
0.0
 10
41.011170
 20
1098.577462
 30
0.0
  0
SPLINE
  5
12e
100
AcDbEntity
  8
0
 62
7
100
AcDbSpline
 70
8
 71
3
 72
8
 73
4
 74
0
 40
0
 40
0
 40
0
 40
0
 40
1
 40
1
 40
1
 40
1
 10
41.011170
 20
1098.577462
 30
0.0
 10
44.519339
 20
1100.602904
 30
0.0
 10
46.680461
 20
1104.346077
 30
0.0
 10
46.680461
 20
1108.396962
 30
0.0
  0
LWPOLYLINE
  5
12f
100
AcDbEntity
  8
0
 62
7
100
AcDbPolyline
 90
2
 70
0
 10
46.680461
 20
1159.420584
 30
0.0
 10
46.680461
 20
1159.420584
 30
0.0
  0
SPLINE
  5
130
100
AcDbEntity
  8
0
 62
7
100
AcDbSpline
 70
8
 71
3
 72
8
 73
4
 74
0
 40
0
 40
0
 40
0
 40
0
 40
1
 40
1
 40
1
 40
1
 10
46.680461
 20
1057.373340
 30
0.0
 10
46.680461
 20
1061.424225
 30
0.0
 10
44.519339
 20
1065.167398
 30
0.0
 10
41.011170
 20
1067.192840
 30
0.0
  0
SPLINE
  5
131
100
AcDbEntity
  8
0
 62
7
100
AcDbSpline
 70
8
 71
3
 72
8
 73
4
 74
0
 40
0
 40
0
 40
0
 40
0
 40
1
 40
1
 40
1
 40
1
 10
41.011170
 20
1067.192840
 30
0.0
 10
37.503000
 20
1069.218283
 30
0.0
 10
33.180757
 20
1069.218283
 30
0.0
 10
29.672587
 20
1067.192840
 30
0.0
  0
SPLINE
  5
132
100
AcDbEntity
  8
0
 62
7
100
AcDbSpline
 70
8
 71
3
 72
8
 73
4
 74
0
 40
0
 40
0
 40
0
 40
0
 40
1
 40
1
 40
1
 40
1
 10
29.672587
 20
1067.192840
 30
0.0
 10
26.164417
 20
1065.167398
 30
0.0
 10
24.003296
 20
1061.424225
 30
0.0
 10
24.003296
 20
1057.373340
 30
0.0
  0
SPLINE
  5
133
100
AcDbEntity
  8
0
 62
7
100
AcDbSpline
 70
8
 71
3
 72
8
 73
4
 74
0
 40
0
 40
0
 40
0
 40
0
 40
1
 40
1
 40
1
 40
1
 10
24.003296
 20
1057.373340
 30
0.0
 10
24.003296
 20
1053.322454
 30
0.0
 10
26.164418
 20
1049.579282
 30
0.0
 10
29.672587
 20
1047.553839
 30
0.0
  0
SPLINE
  5
134
100
AcDbEntity
  8
0
 62
7
100
AcDbSpline
 70
8
 71
3
 72
8
 73
4
 74
0
 40
0
 40
0
 40
0
 40
0
 40
1
 40
1
 40
1
 40
1
 10
29.672587
 20
1047.553839
 30
0.0
 10
33.180757
 20
1045.528397
 30
0.0
 10
37.503000
 20
1045.528397
 30
0.0
 10
41.011170
 20
1047.553839
 30
0.0
  0
SPLINE
  5
135
100
AcDbEntity
  8
0
 62
7
100
AcDbSpline
 70
8
 71
3
 72
8
 73
4
 74
0
 40
0
 40
0
 40
0
 40
0
 40
1
 40
1
 40
1
 40
1
 10
41.011170
 20
1047.553839
 30
0.0
 10
44.519339
 20
1049.579282
 30
0.0
 10
46.680461
 20
1053.322454
 30
0.0
 10
46.680461
 20
1057.373340
 30
0.0
  0
LWPOLYLINE
  5
136
100
AcDbEntity
  8
0
 62
7
100
AcDbPolyline
 90
2
 70
0
 10
46.680461
 20
1108.396962
 30
0.0
 10
46.680461
 20
1108.396962
 30
0.0
  0
SPLINE
  5
137
100
AcDbEntity
  8
0
 62
7
100
AcDbSpline
 70
8
 71
3
 72
8
 73
4
 74
0
 40
0
 40
0
 40
0
 40
0
 40
1
 40
1
 40
1
 40
1
 10
46.680461
 20
1006.349718
 30
0.0
 10
46.680461
 20
1010.400604
 30
0.0
 10
44.519339
 20
1014.143776
 30
0.0
 10
41.011170
 20
1016.169219
 30
0.0
  0
SPLINE
  5
138
100
AcDbEntity
  8
0
 62
7
100
AcDbSpline
 70
8
 71
3
 72
8
 73
4
 74
0
 40
0
 40
0
 40
0
 40
0
 40
1
 40
1
 40
1
 40
1
 10
41.011170
 20
1016.169219
 30
0.0
 10
37.503000
 20
1018.194661
 30
0.0
 10
33.180757
 20
1018.194661
 30
0.0
 10
29.672587
 20
1016.169219
 30
0.0
  0
SPLINE
  5
139
100
AcDbEntity
  8
0
 62
7
100
AcDbSpline
 70
8
 71
3
 72
8
 73
4
 74
0
 40
0
 40
0
 40
0
 40
0
 40
1
 40
1
 40
1
 40
1
 10
29.672587
 20
1016.169219
 30
0.0
 10
26.164417
 20
1014.143776
 30
0.0
 10
24.003296
 20
1010.400604
 30
0.0
 10
24.003296
 20
1006.349718
 30
0.0
  0
SPLINE
  5
13a
100
AcDbEntity
  8
0
 62
7
100
AcDbSpline
 70
8
 71
3
 72
8
 73
4
 74
0
 40
0
 40
0
 40
0
 40
0
 40
1
 40
1
 40
1
 40
1
 10
24.003296
 20
1006.349718
 30
0.0
 10
24.003296
 20
1002.298833
 30
0.0
 10
26.164418
 20
998.555660
 30
0.0
 10
29.672587
 20
996.530218
 30
0.0
  0
SPLINE
  5
13b
100
AcDbEntity
  8
0
 62
7
100
AcDbSpline
 70
8
 71
3
 72
8
 73
4
 74
0
 40
0
 40
0
 40
0
 40
0
 40
1
 40
1
 40
1
 40
1
 10
29.672587
 20
996.530218
 30
0.0
 10
33.180757
 20
994.504775
 30
0.0
 10
37.503000
 20
994.504775
 30
0.0
 10
41.011170
 20
996.530218
 30
0.0
  0
SPLINE
  5
13c
100
AcDbEntity
  8
0
 62
7
100
AcDbSpline
 70
8
 71
3
 72
8
 73
4
 74
0
 40
0
 40
0
 40
0
 40
0
 40
1
 40
1
 40
1
 40
1
 10
41.011170
 20
996.530218
 30
0.0
 10
44.519339
 20
998.555660
 30
0.0
 10
46.680461
 20
1002.298833
 30
0.0
 10
46.680461
 20
1006.349718
 30
0.0
  0
LWPOLYLINE
  5
13d
100
AcDbEntity
  8
0
 62
7
100
AcDbPolyline
 90
2
 70
0
 10
46.680461
 20
1057.373340
 30
0.0
 10
46.680461
 20
1057.373340
 30
0.0
  0
SPLINE
  5
13e
100
AcDbEntity
  8
0
 62
7
100
AcDbSpline
 70
8
 71
3
 72
8
 73
4
 74
0
 40
0
 40
0
 40
0
 40
0
 40
1
 40
1
 40
1
 40
1
 10
47.223399
 20
904.605348
 30
0.0
 10
47.223399
 20
908.656233
 30
0.0
 10
45.062277
 20
912.399406
 30
0.0
 10
41.554108
 20
914.424848
 30
0.0
  0
SPLINE
  5
13f
100
AcDbEntity
  8
0
 62
7
100
AcDbSpline
 70
8
 71
3
 72
8
 73
4
 74
0
 40
0
 40
0
 40
0
 40
0
 40
1
 40
1
 40
1
 40
1
 10
41.554108
 20
914.424848
 30
0.0
 10
38.045938
 20
916.450291
 30
0.0
 10
33.723695
 20
916.450291
 30
0.0
 10
30.215525
 20
914.424848
 30
0.0
  0
SPLINE
  5
140
100
AcDbEntity
  8
0
 62
7
100
AcDbSpline
 70
8
 71
3
 72
8
 73
4
 74
0
 40
0
 40
0
 40
0
 40
0
 40
1
 40
1
 40
1
 40
1
 10
30.215525
 20
914.424848
 30
0.0
 10
26.707356
 20
912.399406
 30
0.0
 10
24.546234
 20
908.656233
 30
0.0
 10
24.546234
 20
904.605348
 30
0.0
  0
SPLINE
  5
141
100
AcDbEntity
  8
0
 62
7
100
AcDbSpline
 70
8
 71
3
 72
8
 73
4
 74
0
 40
0
 40
0
 40
0
 40
0
 40
1
 40
1
 40
1
 40
1
 10
24.546234
 20
904.605348
 30
0.0
 10
24.546234
 20
900.554462
 30
0.0
 10
26.707356
 20
896.811290
 30
0.0
 10
30.215525
 20
894.785847
 30
0.0
  0
SPLINE
  5
142
100
AcDbEntity
  8
0
 62
7
100
AcDbSpline
 70
8
 71
3
 72
8
 73
4
 74
0
 40
0
 40
0
 40
0
 40
0
 40
1
 40
1
 40
1
 40
1
 10
30.215525
 20
894.785847
 30
0.0
 10
33.723695
 20
892.760405
 30
0.0
 10
38.045938
 20
892.760405
 30
0.0
 10
41.554108
 20
894.785847
 30
0.0
  0
SPLINE
  5
143
100
AcDbEntity
  8
0
 62
7
100
AcDbSpline
 70
8
 71
3
 72
8
 73
4
 74
0
 40
0
 40
0
 40
0
 40
0
 40
1
 40
1
 40
1
 40
1
 10
41.554108
 20
894.785847
 30
0.0
 10
45.062277
 20
896.811290
 30
0.0
 10
47.223399
 20
900.554462
 30
0.0
 10
47.223399
 20
904.605348
 30
0.0
  0
LWPOLYLINE
  5
144
100
AcDbEntity
  8
0
 62
7
100
AcDbPolyline
 90
2
 70
0
 10
46.680461
 20
1006.349718
 30
0.0
 10
46.680461
 20
1006.349718
 30
0.0
  0
SPLINE
  5
145
100
AcDbEntity
  8
0
 62
7
100
AcDbSpline
 70
8
 71
3
 72
8
 73
4
 74
0
 40
0
 40
0
 40
0
 40
0
 40
1
 40
1
 40
1
 40
1
 10
47.223399
 20
856.416371
 30
0.0
 10
47.223399
 20
860.467256
 30
0.0
 10
45.062277
 20
864.210429
 30
0.0
 10
41.554108
 20
866.235871
 30
0.0
  0
SPLINE
  5
146
100
AcDbEntity
  8
0
 62
7
100
AcDbSpline
 70
8
 71
3
 72
8
 73
4
 74
0
 40
0
 40
0
 40
0
 40
0
 40
1
 40
1
 40
1
 40
1
 10
41.554108
 20
866.235871
 30
0.0
 10
38.045938
 20
868.261314
 30
0.0
 10
33.723695
 20
868.261314
 30
0.0
 10
30.215525
 20
866.235871
 30
0.0
  0
SPLINE
  5
147
100
AcDbEntity
  8
0
 62
7
100
AcDbSpline
 70
8
 71
3
 72
8
 73
4
 74
0
 40
0
 40
0
 40
0
 40
0
 40
1
 40
1
 40
1
 40
1
 10
30.215525
 20
866.235871
 30
0.0
 10
26.707356
 20
864.210429
 30
0.0
 10
24.546234
 20
860.467256
 30
0.0
 10
24.546234
 20
856.416371
 30
0.0
  0
SPLINE
  5
148
100
AcDbEntity
  8
0
 62
7
100
AcDbSpline
 70
8
 71
3
 72
8
 73
4
 74
0
 40
0
 40
0
 40
0
 40
0
 40
1
 40
1
 40
1
 40
1
 10
24.546234
 20
856.416371
 30
0.0
 10
24.546234
 20
852.365486
 30
0.0
 10
26.707356
 20
848.622313
 30
0.0
 10
30.215525
 20
846.596871
 30
0.0
  0
SPLINE
  5
149
100
AcDbEntity
  8
0
 62
7
100
AcDbSpline
 70
8
 71
3
 72
8
 73
4
 74
0
 40
0
 40
0
 40
0
 40
0
 40
1
 40
1
 40
1
 40
1
 10
30.215525
 20
846.596871
 30
0.0
 10
33.723695
 20
844.571428
 30
0.0
 10
38.045938
 20
844.571428
 30
0.0
 10
41.554108
 20
846.596871
 30
0.0
  0
SPLINE
  5
14a
100
AcDbEntity
  8
0
 62
7
100
AcDbSpline
 70
8
 71
3
 72
8
 73
4
 74
0
 40
0
 40
0
 40
0
 40
0
 40
1
 40
1
 40
1
 40
1
 10
41.554108
 20
846.596871
 30
0.0
 10
45.062277
 20
848.622313
 30
0.0
 10
47.223399
 20
852.365486
 30
0.0
 10
47.223399
 20
856.416371
 30
0.0
  0
LWPOLYLINE
  5
14b
100
AcDbEntity
  8
0
 62
7
100
AcDbPolyline
 90
2
 70
0
 10
47.223399
 20
904.605348
 30
0.0
 10
47.223399
 20
904.605348
 30
0.0
  0
SPLINE
  5
14c
100
AcDbEntity
  8
0
 62
7
100
AcDbSpline
 70
8
 71
3
 72
8
 73
4
 74
0
 40
0
 40
0
 40
0
 40
0
 40
1
 40
1
 40
1
 40
1
 10
47.223399
 20
808.227395
 30
0.0
 10
47.223399
 20
812.278280
 30
0.0
 10
45.062277
 20
816.021453
 30
0.0
 10
41.554108
 20
818.046895
 30
0.0
  0
SPLINE
  5
14d
100
AcDbEntity
  8
0
 62
7
100
AcDbSpline
 70
8
 71
3
 72
8
 73
4
 74
0
 40
0
 40
0
 40
0
 40
0
 40
1
 40
1
 40
1
 40
1
 10
41.554108
 20
818.046895
 30
0.0
 10
38.045938
 20
820.072338
 30
0.0
 10
33.723695
 20
820.072338
 30
0.0
 10
30.215525
 20
818.046895
 30
0.0
  0
SPLINE
  5
14e
100
AcDbEntity
  8
0
 62
7
100
AcDbSpline
 70
8
 71
3
 72
8
 73
4
 74
0
 40
0
 40
0
 40
0
 40
0
 40
1
 40
1
 40
1
 40
1
 10
30.215525
 20
818.046895
 30
0.0
 10
26.707356
 20
816.021453
 30
0.0
 10
24.546234
 20
812.278280
 30
0.0
 10
24.546234
 20
808.227395
 30
0.0
  0
SPLINE
  5
14f
100
AcDbEntity
  8
0
 62
7
100
AcDbSpline
 70
8
 71
3
 72
8
 73
4
 74
0
 40
0
 40
0
 40
0
 40
0
 40
1
 40
1
 40
1
 40
1
 10
24.546234
 20
808.227395
 30
0.0
 10
24.546234
 20
804.176510
 30
0.0
 10
26.707356
 20
800.433337
 30
0.0
 10
30.215525
 20
798.407895
 30
0.0
  0
SPLINE
  5
150
100
AcDbEntity
  8
0
 62
7
100
AcDbSpline
 70
8
 71
3
 72
8
 73
4
 74
0
 40
0
 40
0
 40
0
 40
0
 40
1
 40
1
 40
1
 40
1
 10
30.215525
 20
798.407895
 30
0.0
 10
33.723695
 20
796.382452
 30
0.0
 10
38.045938
 20
796.382452
 30
0.0
 10
41.554108
 20
798.407895
 30
0.0
  0
SPLINE
  5
151
100
AcDbEntity
  8
0
 62
7
100
AcDbSpline
 70
8
 71
3
 72
8
 73
4
 74
0
 40
0
 40
0
 40
0
 40
0
 40
1
 40
1
 40
1
 40
1
 10
41.554108
 20
798.407895
 30
0.0
 10
45.062277
 20
800.433337
 30
0.0
 10
47.223399
 20
804.176510
 30
0.0
 10
47.223399
 20
808.227395
 30
0.0
  0
LWPOLYLINE
  5
152
100
AcDbEntity
  8
0
 62
7
100
AcDbPolyline
 90
2
 70
0
 10
47.223399
 20
856.416371
 30
0.0
 10
47.223399
 20
856.416371
 30
0.0
  0
SPLINE
  5
153
100
AcDbEntity
  8
0
 62
7
100
AcDbSpline
 70
8
 71
3
 72
8
 73
4
 74
0
 40
0
 40
0
 40
0
 40
0
 40
1
 40
1
 40
1
 40
1
 10
47.223399
 20
760.038418
 30
0.0
 10
47.223399
 20
764.089304
 30
0.0
 10
45.062277
 20
767.832476
 30
0.0
 10
41.554108
 20
769.857919
 30
0.0
  0
SPLINE
  5
154
100
AcDbEntity
  8
0
 62
7
100
AcDbSpline
 70
8
 71
3
 72
8
 73
4
 74
0
 40
0
 40
0
 40
0
 40
0
 40
1
 40
1
 40
1
 40
1
 10
41.554108
 20
769.857919
 30
0.0
 10
38.045938
 20
771.883361
 30
0.0
 10
33.723695
 20
771.883361
 30
0.0
 10
30.215525
 20
769.857919
 30
0.0
  0
SPLINE
  5
155
100
AcDbEntity
  8
0
 62
7
100
AcDbSpline
 70
8
 71
3
 72
8
 73
4
 74
0
 40
0
 40
0
 40
0
 40
0
 40
1
 40
1
 40
1
 40
1
 10
30.215525
 20
769.857919
 30
0.0
 10
26.707356
 20
767.832476
 30
0.0
 10
24.546234
 20
764.089304
 30
0.0
 10
24.546234
 20
760.038418
 30
0.0
  0
SPLINE
  5
156
100
AcDbEntity
  8
0
 62
7
100
AcDbSpline
 70
8
 71
3
 72
8
 73
4
 74
0
 40
0
 40
0
 40
0
 40
0
 40
1
 40
1
 40
1
 40
1
 10
24.546234
 20
760.038418
 30
0.0
 10
24.546234
 20
755.987533
 30
0.0
 10
26.707356
 20
752.244360
 30
0.0
 10
30.215525
 20
750.218918
 30
0.0
  0
SPLINE
  5
157
100
AcDbEntity
  8
0
 62
7
100
AcDbSpline
 70
8
 71
3
 72
8
 73
4
 74
0
 40
0
 40
0
 40
0
 40
0
 40
1
 40
1
 40
1
 40
1
 10
30.215525
 20
750.218918
 30
0.0
 10
33.723695
 20
748.193475
 30
0.0
 10
38.045938
 20
748.193475
 30
0.0
 10
41.554108
 20
750.218918
 30
0.0
  0
SPLINE
  5
158
100
AcDbEntity
  8
0
 62
7
100
AcDbSpline
 70
8
 71
3
 72
8
 73
4
 74
0
 40
0
 40
0
 40
0
 40
0
 40
1
 40
1
 40
1
 40
1
 10
41.554108
 20
750.218918
 30
0.0
 10
45.062277
 20
752.244360
 30
0.0
 10
47.223399
 20
755.987533
 30
0.0
 10
47.223399
 20
760.038418
 30
0.0
  0
LWPOLYLINE
  5
159
100
AcDbEntity
  8
0
 62
7
100
AcDbPolyline
 90
2
 70
0
 10
47.223399
 20
808.227395
 30
0.0
 10
47.223399
 20
808.227395
 30
0.0
  0
SPLINE
  5
15a
100
AcDbEntity
  8
0
 62
7
100
AcDbSpline
 70
8
 71
3
 72
8
 73
4
 74
0
 40
0
 40
0
 40
0
 40
0
 40
1
 40
1
 40
1
 40
1
 10
47.223399
 20
711.849442
 30
0.0
 10
47.223399
 20
715.900328
 30
0.0
 10
45.062277
 20
719.643500
 30
0.0
 10
41.554108
 20
721.668943
 30
0.0
  0
SPLINE
  5
15b
100
AcDbEntity
  8
0
 62
7
100
AcDbSpline
 70
8
 71
3
 72
8
 73
4
 74
0
 40
0
 40
0
 40
0
 40
0
 40
1
 40
1
 40
1
 40
1
 10
41.554108
 20
721.668943
 30
0.0
 10
38.045938
 20
723.694385
 30
0.0
 10
33.723695
 20
723.694385
 30
0.0
 10
30.215525
 20
721.668943
 30
0.0
  0
SPLINE
  5
15c
100
AcDbEntity
  8
0
 62
7
100
AcDbSpline
 70
8
 71
3
 72
8
 73
4
 74
0
 40
0
 40
0
 40
0
 40
0
 40
1
 40
1
 40
1
 40
1
 10
30.215525
 20
721.668943
 30
0.0
 10
26.707356
 20
719.643500
 30
0.0
 10
24.546234
 20
715.900328
 30
0.0
 10
24.546234
 20
711.849442
 30
0.0
  0
SPLINE
  5
15d
100
AcDbEntity
  8
0
 62
7
100
AcDbSpline
 70
8
 71
3
 72
8
 73
4
 74
0
 40
0
 40
0
 40
0
 40
0
 40
1
 40
1
 40
1
 40
1
 10
24.546234
 20
711.849442
 30
0.0
 10
24.546234
 20
707.798557
 30
0.0
 10
26.707356
 20
704.055384
 30
0.0
 10
30.215525
 20
702.029942
 30
0.0
  0
SPLINE
  5
15e
100
AcDbEntity
  8
0
 62
7
100
AcDbSpline
 70
8
 71
3
 72
8
 73
4
 74
0
 40
0
 40
0
 40
0
 40
0
 40
1
 40
1
 40
1
 40
1
 10
30.215525
 20
702.029942
 30
0.0
 10
33.723695
 20
700.004499
 30
0.0
 10
38.045938
 20
700.004499
 30
0.0
 10
41.554108
 20
702.029942
 30
0.0
  0
SPLINE
  5
15f
100
AcDbEntity
  8
0
 62
7
100
AcDbSpline
 70
8
 71
3
 72
8
 73
4
 74
0
 40
0
 40
0
 40
0
 40
0
 40
1
 40
1
 40
1
 40
1
 10
41.554108
 20
702.029942
 30
0.0
 10
45.062277
 20
704.055384
 30
0.0
 10
47.223399
 20
707.798557
 30
0.0
 10
47.223399
 20
711.849442
 30
0.0
  0
LWPOLYLINE
  5
160
100
AcDbEntity
  8
0
 62
7
100
AcDbPolyline
 90
2
 70
0
 10
47.223399
 20
760.038418
 30
0.0
 10
47.223399
 20
760.038418
 30
0.0
  0
SPLINE
  5
161
100
AcDbEntity
  8
0
 62
7
100
AcDbSpline
 70
8
 71
3
 72
8
 73
4
 74
0
 40
0
 40
0
 40
0
 40
0
 40
1
 40
1
 40
1
 40
1
 10
47.223399
 20
663.660465
 30
0.0
 10
47.223399
 20
667.711351
 30
0.0
 10
45.062277
 20
671.454523
 30
0.0
 10
41.554108
 20
673.479966
 30
0.0
  0
SPLINE
  5
162
100
AcDbEntity
  8
0
 62
7
100
AcDbSpline
 70
8
 71
3
 72
8
 73
4
 74
0
 40
0
 40
0
 40
0
 40
0
 40
1
 40
1
 40
1
 40
1
 10
41.554108
 20
673.479966
 30
0.0
 10
38.045938
 20
675.505408
 30
0.0
 10
33.723695
 20
675.505408
 30
0.0
 10
30.215525
 20
673.479966
 30
0.0
  0
SPLINE
  5
163
100
AcDbEntity
  8
0
 62
7
100
AcDbSpline
 70
8
 71
3
 72
8
 73
4
 74
0
 40
0
 40
0
 40
0
 40
0
 40
1
 40
1
 40
1
 40
1
 10
30.215525
 20
673.479966
 30
0.0
 10
26.707356
 20
671.454523
 30
0.0
 10
24.546234
 20
667.711351
 30
0.0
 10
24.546234
 20
663.660465
 30
0.0
  0
SPLINE
  5
164
100
AcDbEntity
  8
0
 62
7
100
AcDbSpline
 70
8
 71
3
 72
8
 73
4
 74
0
 40
0
 40
0
 40
0
 40
0
 40
1
 40
1
 40
1
 40
1
 10
24.546234
 20
663.660465
 30
0.0
 10
24.546234
 20
659.609580
 30
0.0
 10
26.707356
 20
655.866408
 30
0.0
 10
30.215525
 20
653.840965
 30
0.0
  0
SPLINE
  5
165
100
AcDbEntity
  8
0
 62
7
100
AcDbSpline
 70
8
 71
3
 72
8
 73
4
 74
0
 40
0
 40
0
 40
0
 40
0
 40
1
 40
1
 40
1
 40
1
 10
30.215525
 20
653.840965
 30
0.0
 10
33.723695
 20
651.815522
 30
0.0
 10
38.045938
 20
651.815522
 30
0.0
 10
41.554108
 20
653.840965
 30
0.0
  0
SPLINE
  5
166
100
AcDbEntity
  8
0
 62
7
100
AcDbSpline
 70
8
 71
3
 72
8
 73
4
 74
0
 40
0
 40
0
 40
0
 40
0
 40
1
 40
1
 40
1
 40
1
 10
41.554108
 20
653.840965
 30
0.0
 10
45.062277
 20
655.866408
 30
0.0
 10
47.223399
 20
659.609580
 30
0.0
 10
47.223399
 20
663.660465
 30
0.0
  0
LWPOLYLINE
  5
167
100
AcDbEntity
  8
0
 62
7
100
AcDbPolyline
 90
2
 70
0
 10
47.223399
 20
711.849442
 30
0.0
 10
47.223399
 20
711.849442
 30
0.0
  0
SPLINE
  5
168
100
AcDbEntity
  8
0
 62
7
100
AcDbSpline
 70
8
 71
3
 72
8
 73
4
 74
0
 40
0
 40
0
 40
0
 40
0
 40
1
 40
1
 40
1
 40
1
 10
46.959142
 20
573.629509
 30
0.0
 10
46.959142
 20
577.680394
 30
0.0
 10
44.798021
 20
581.423566
 30
0.0
 10
41.289851
 20
583.449009
 30
0.0
  0
SPLINE
  5
169
100
AcDbEntity
  8
0
 62
7
100
AcDbSpline
 70
8
 71
3
 72
8
 73
4
 74
0
 40
0
 40
0
 40
0
 40
0
 40
1
 40
1
 40
1
 40
1
 10
41.289851
 20
583.449009
 30
0.0
 10
37.781682
 20
585.474452
 30
0.0
 10
33.459438
 20
585.474452
 30
0.0
 10
29.951269
 20
583.449009
 30
0.0
  0
SPLINE
  5
16a
100
AcDbEntity
  8
0
 62
7
100
AcDbSpline
 70
8
 71
3
 72
8
 73
4
 74
0
 40
0
 40
0
 40
0
 40
0
 40
1
 40
1
 40
1
 40
1
 10
29.951269
 20
583.449009
 30
0.0
 10
26.443099
 20
581.423566
 30
0.0
 10
24.281978
 20
577.680394
 30
0.0
 10
24.281978
 20
573.629509
 30
0.0
  0
SPLINE
  5
16b
100
AcDbEntity
  8
0
 62
7
100
AcDbSpline
 70
8
 71
3
 72
8
 73
4
 74
0
 40
0
 40
0
 40
0
 40
0
 40
1
 40
1
 40
1
 40
1
 10
24.281978
 20
573.629509
 30
0.0
 10
24.281978
 20
569.578623
 30
0.0
 10
26.443099
 20
565.835451
 30
0.0
 10
29.951269
 20
563.810008
 30
0.0
  0
SPLINE
  5
16c
100
AcDbEntity
  8
0
 62
7
100
AcDbSpline
 70
8
 71
3
 72
8
 73
4
 74
0
 40
0
 40
0
 40
0
 40
0
 40
1
 40
1
 40
1
 40
1
 10
29.951269
 20
563.810008
 30
0.0
 10
33.459438
 20
561.784566
 30
0.0
 10
37.781682
 20
561.784566
 30
0.0
 10
41.289851
 20
563.810008
 30
0.0
  0
SPLINE
  5
16d
100
AcDbEntity
  8
0
 62
7
100
AcDbSpline
 70
8
 71
3
 72
8
 73
4
 74
0
 40
0
 40
0
 40
0
 40
0
 40
1
 40
1
 40
1
 40
1
 10
41.289851
 20
563.810008
 30
0.0
 10
44.798021
 20
565.835451
 30
0.0
 10
46.959142
 20
569.578623
 30
0.0
 10
46.959142
 20
573.629509
 30
0.0
  0
LWPOLYLINE
  5
16e
100
AcDbEntity
  8
0
 62
7
100
AcDbPolyline
 90
2
 70
0
 10
47.223399
 20
663.660465
 30
0.0
 10
47.223399
 20
663.660465
 30
0.0
  0
SPLINE
  5
16f
100
AcDbEntity
  8
0
 62
7
100
AcDbSpline
 70
8
 71
3
 72
8
 73
4
 74
0
 40
0
 40
0
 40
0
 40
0
 40
1
 40
1
 40
1
 40
1
 10
46.959142
 20
522.605886
 30
0.0
 10
46.959142
 20
526.656772
 30
0.0
 10
44.798021
 20
530.399944
 30
0.0
 10
41.289851
 20
532.425387
 30
0.0
  0
SPLINE
  5
170
100
AcDbEntity
  8
0
 62
7
100
AcDbSpline
 70
8
 71
3
 72
8
 73
4
 74
0
 40
0
 40
0
 40
0
 40
0
 40
1
 40
1
 40
1
 40
1
 10
41.289851
 20
532.425387
 30
0.0
 10
37.781682
 20
534.450829
 30
0.0
 10
33.459438
 20
534.450829
 30
0.0
 10
29.951269
 20
532.425387
 30
0.0
  0
SPLINE
  5
171
100
AcDbEntity
  8
0
 62
7
100
AcDbSpline
 70
8
 71
3
 72
8
 73
4
 74
0
 40
0
 40
0
 40
0
 40
0
 40
1
 40
1
 40
1
 40
1
 10
29.951269
 20
532.425387
 30
0.0
 10
26.443099
 20
530.399944
 30
0.0
 10
24.281978
 20
526.656772
 30
0.0
 10
24.281978
 20
522.605886
 30
0.0
  0
SPLINE
  5
172
100
AcDbEntity
  8
0
 62
7
100
AcDbSpline
 70
8
 71
3
 72
8
 73
4
 74
0
 40
0
 40
0
 40
0
 40
0
 40
1
 40
1
 40
1
 40
1
 10
24.281978
 20
522.605886
 30
0.0
 10
24.281978
 20
518.555001
 30
0.0
 10
26.443099
 20
514.811828
 30
0.0
 10
29.951269
 20
512.786386
 30
0.0
  0
SPLINE
  5
173
100
AcDbEntity
  8
0
 62
7
100
AcDbSpline
 70
8
 71
3
 72
8
 73
4
 74
0
 40
0
 40
0
 40
0
 40
0
 40
1
 40
1
 40
1
 40
1
 10
29.951269
 20
512.786386
 30
0.0
 10
33.459438
 20
510.760943
 30
0.0
 10
37.781682
 20
510.760943
 30
0.0
 10
41.289851
 20
512.786386
 30
0.0
  0
SPLINE
  5
174
100
AcDbEntity
  8
0
 62
7
100
AcDbSpline
 70
8
 71
3
 72
8
 73
4
 74
0
 40
0
 40
0
 40
0
 40
0
 40
1
 40
1
 40
1
 40
1
 10
41.289851
 20
512.786386
 30
0.0
 10
44.798021
 20
514.811828
 30
0.0
 10
46.959142
 20
518.555001
 30
0.0
 10
46.959142
 20
522.605886
 30
0.0
  0
LWPOLYLINE
  5
175
100
AcDbEntity
  8
0
 62
7
100
AcDbPolyline
 90
2
 70
0
 10
46.959142
 20
573.629509
 30
0.0
 10
46.959142
 20
573.629509
 30
0.0
  0
SPLINE
  5
176
100
AcDbEntity
  8
0
 62
7
100
AcDbSpline
 70
8
 71
3
 72
8
 73
4
 74
0
 40
0
 40
0
 40
0
 40
0
 40
1
 40
1
 40
1
 40
1
 10
46.959142
 20
471.582265
 30
0.0
 10
46.959142
 20
475.633150
 30
0.0
 10
44.798021
 20
479.376322
 30
0.0
 10
41.289851
 20
481.401765
 30
0.0
  0
SPLINE
  5
177
100
AcDbEntity
  8
0
 62
7
100
AcDbSpline
 70
8
 71
3
 72
8
 73
4
 74
0
 40
0
 40
0
 40
0
 40
0
 40
1
 40
1
 40
1
 40
1
 10
41.289851
 20
481.401765
 30
0.0
 10
37.781682
 20
483.427208
 30
0.0
 10
33.459438
 20
483.427208
 30
0.0
 10
29.951269
 20
481.401765
 30
0.0
  0
SPLINE
  5
178
100
AcDbEntity
  8
0
 62
7
100
AcDbSpline
 70
8
 71
3
 72
8
 73
4
 74
0
 40
0
 40
0
 40
0
 40
0
 40
1
 40
1
 40
1
 40
1
 10
29.951269
 20
481.401765
 30
0.0
 10
26.443099
 20
479.376322
 30
0.0
 10
24.281978
 20
475.633150
 30
0.0
 10
24.281978
 20
471.582265
 30
0.0
  0
SPLINE
  5
179
100
AcDbEntity
  8
0
 62
7
100
AcDbSpline
 70
8
 71
3
 72
8
 73
4
 74
0
 40
0
 40
0
 40
0
 40
0
 40
1
 40
1
 40
1
 40
1
 10
24.281978
 20
471.582265
 30
0.0
 10
24.281978
 20
467.531379
 30
0.0
 10
26.443099
 20
463.788207
 30
0.0
 10
29.951269
 20
461.762764
 30
0.0
  0
SPLINE
  5
17a
100
AcDbEntity
  8
0
 62
7
100
AcDbSpline
 70
8
 71
3
 72
8
 73
4
 74
0
 40
0
 40
0
 40
0
 40
0
 40
1
 40
1
 40
1
 40
1
 10
29.951269
 20
461.762764
 30
0.0
 10
33.459438
 20
459.737322
 30
0.0
 10
37.781682
 20
459.737322
 30
0.0
 10
41.289851
 20
461.762764
 30
0.0
  0
SPLINE
  5
17b
100
AcDbEntity
  8
0
 62
7
100
AcDbSpline
 70
8
 71
3
 72
8
 73
4
 74
0
 40
0
 40
0
 40
0
 40
0
 40
1
 40
1
 40
1
 40
1
 10
41.289851
 20
461.762764
 30
0.0
 10
44.798021
 20
463.788207
 30
0.0
 10
46.959142
 20
467.531379
 30
0.0
 10
46.959142
 20
471.582265
 30
0.0
  0
LWPOLYLINE
  5
17c
100
AcDbEntity
  8
0
 62
7
100
AcDbPolyline
 90
2
 70
0
 10
46.959142
 20
522.605886
 30
0.0
 10
46.959142
 20
522.605886
 30
0.0
  0
SPLINE
  5
17d
100
AcDbEntity
  8
0
 62
7
100
AcDbSpline
 70
8
 71
3
 72
8
 73
4
 74
0
 40
0
 40
0
 40
0
 40
0
 40
1
 40
1
 40
1
 40
1
 10
46.959142
 20
420.558642
 30
0.0
 10
46.959142
 20
424.609528
 30
0.0
 10
44.798021
 20
428.352700
 30
0.0
 10
41.289851
 20
430.378143
 30
0.0
  0
SPLINE
  5
17e
100
AcDbEntity
  8
0
 62
7
100
AcDbSpline
 70
8
 71
3
 72
8
 73
4
 74
0
 40
0
 40
0
 40
0
 40
0
 40
1
 40
1
 40
1
 40
1
 10
41.289851
 20
430.378143
 30
0.0
 10
37.781682
 20
432.403585
 30
0.0
 10
33.459438
 20
432.403585
 30
0.0
 10
29.951269
 20
430.378143
 30
0.0
  0
SPLINE
  5
17f
100
AcDbEntity
  8
0
 62
7
100
AcDbSpline
 70
8
 71
3
 72
8
 73
4
 74
0
 40
0
 40
0
 40
0
 40
0
 40
1
 40
1
 40
1
 40
1
 10
29.951269
 20
430.378143
 30
0.0
 10
26.443099
 20
428.352700
 30
0.0
 10
24.281978
 20
424.609528
 30
0.0
 10
24.281978
 20
420.558642
 30
0.0
  0
SPLINE
  5
180
100
AcDbEntity
  8
0
 62
7
100
AcDbSpline
 70
8
 71
3
 72
8
 73
4
 74
0
 40
0
 40
0
 40
0
 40
0
 40
1
 40
1
 40
1
 40
1
 10
24.281978
 20
420.558642
 30
0.0
 10
24.281978
 20
416.507757
 30
0.0
 10
26.443099
 20
412.764584
 30
0.0
 10
29.951269
 20
410.739142
 30
0.0
  0
SPLINE
  5
181
100
AcDbEntity
  8
0
 62
7
100
AcDbSpline
 70
8
 71
3
 72
8
 73
4
 74
0
 40
0
 40
0
 40
0
 40
0
 40
1
 40
1
 40
1
 40
1
 10
29.951269
 20
410.739142
 30
0.0
 10
33.459438
 20
408.713699
 30
0.0
 10
37.781682
 20
408.713699
 30
0.0
 10
41.289851
 20
410.739142
 30
0.0
  0
SPLINE
  5
182
100
AcDbEntity
  8
0
 62
7
100
AcDbSpline
 70
8
 71
3
 72
8
 73
4
 74
0
 40
0
 40
0
 40
0
 40
0
 40
1
 40
1
 40
1
 40
1
 10
41.289851
 20
410.739142
 30
0.0
 10
44.798021
 20
412.764584
 30
0.0
 10
46.959142
 20
416.507757
 30
0.0
 10
46.959142
 20
420.558642
 30
0.0
  0
LWPOLYLINE
  5
183
100
AcDbEntity
  8
0
 62
7
100
AcDbPolyline
 90
2
 70
0
 10
46.959142
 20
471.582265
 30
0.0
 10
46.959142
 20
471.582265
 30
0.0
  0
SPLINE
  5
184
100
AcDbEntity
  8
0
 62
7
100
AcDbSpline
 70
8
 71
3
 72
8
 73
4
 74
0
 40
0
 40
0
 40
0
 40
0
 40
1
 40
1
 40
1
 40
1
 10
46.959142
 20
369.535021
 30
0.0
 10
46.959142
 20
373.585906
 30
0.0
 10
44.798021
 20
377.329078
 30
0.0
 10
41.289851
 20
379.354521
 30
0.0
  0
SPLINE
  5
185
100
AcDbEntity
  8
0
 62
7
100
AcDbSpline
 70
8
 71
3
 72
8
 73
4
 74
0
 40
0
 40
0
 40
0
 40
0
 40
1
 40
1
 40
1
 40
1
 10
41.289851
 20
379.354521
 30
0.0
 10
37.781682
 20
381.379964
 30
0.0
 10
33.459438
 20
381.379964
 30
0.0
 10
29.951269
 20
379.354521
 30
0.0
  0
SPLINE
  5
186
100
AcDbEntity
  8
0
 62
7
100
AcDbSpline
 70
8
 71
3
 72
8
 73
4
 74
0
 40
0
 40
0
 40
0
 40
0
 40
1
 40
1
 40
1
 40
1
 10
29.951269
 20
379.354521
 30
0.0
 10
26.443099
 20
377.329078
 30
0.0
 10
24.281978
 20
373.585906
 30
0.0
 10
24.281978
 20
369.535021
 30
0.0
  0
SPLINE
  5
187
100
AcDbEntity
  8
0
 62
7
100
AcDbSpline
 70
8
 71
3
 72
8
 73
4
 74
0
 40
0
 40
0
 40
0
 40
0
 40
1
 40
1
 40
1
 40
1
 10
24.281978
 20
369.535021
 30
0.0
 10
24.281978
 20
365.484135
 30
0.0
 10
26.443099
 20
361.740963
 30
0.0
 10
29.951269
 20
359.715520
 30
0.0
  0
SPLINE
  5
188
100
AcDbEntity
  8
0
 62
7
100
AcDbSpline
 70
8
 71
3
 72
8
 73
4
 74
0
 40
0
 40
0
 40
0
 40
0
 40
1
 40
1
 40
1
 40
1
 10
29.951269
 20
359.715520
 30
0.0
 10
33.459438
 20
357.690078
 30
0.0
 10
37.781682
 20
357.690078
 30
0.0
 10
41.289851
 20
359.715520
 30
0.0
  0
SPLINE
  5
189
100
AcDbEntity
  8
0
 62
7
100
AcDbSpline
 70
8
 71
3
 72
8
 73
4
 74
0
 40
0
 40
0
 40
0
 40
0
 40
1
 40
1
 40
1
 40
1
 10
41.289851
 20
359.715520
 30
0.0
 10
44.798021
 20
361.740963
 30
0.0
 10
46.959142
 20
365.484135
 30
0.0
 10
46.959142
 20
369.535021
 30
0.0
  0
LWPOLYLINE
  5
18a
100
AcDbEntity
  8
0
 62
7
100
AcDbPolyline
 90
2
 70
0
 10
46.959142
 20
420.558642
 30
0.0
 10
46.959142
 20
420.558642
 30
0.0
  0
SPLINE
  5
18b
100
AcDbEntity
  8
0
 62
7
100
AcDbSpline
 70
8
 71
3
 72
8
 73
4
 74
0
 40
0
 40
0
 40
0
 40
0
 40
1
 40
1
 40
1
 40
1
 10
46.959142
 20
318.511398
 30
0.0
 10
46.959142
 20
322.562284
 30
0.0
 10
44.798021
 20
326.305456
 30
0.0
 10
41.289851
 20
328.330899
 30
0.0
  0
SPLINE
  5
18c
100
AcDbEntity
  8
0
 62
7
100
AcDbSpline
 70
8
 71
3
 72
8
 73
4
 74
0
 40
0
 40
0
 40
0
 40
0
 40
1
 40
1
 40
1
 40
1
 10
41.289851
 20
328.330899
 30
0.0
 10
37.781682
 20
330.356341
 30
0.0
 10
33.459438
 20
330.356341
 30
0.0
 10
29.951269
 20
328.330899
 30
0.0
  0
SPLINE
  5
18d
100
AcDbEntity
  8
0
 62
7
100
AcDbSpline
 70
8
 71
3
 72
8
 73
4
 74
0
 40
0
 40
0
 40
0
 40
0
 40
1
 40
1
 40
1
 40
1
 10
29.951269
 20
328.330899
 30
0.0
 10
26.443099
 20
326.305456
 30
0.0
 10
24.281978
 20
322.562284
 30
0.0
 10
24.281978
 20
318.511398
 30
0.0
  0
SPLINE
  5
18e
100
AcDbEntity
  8
0
 62
7
100
AcDbSpline
 70
8
 71
3
 72
8
 73
4
 74
0
 40
0
 40
0
 40
0
 40
0
 40
1
 40
1
 40
1
 40
1
 10
24.281978
 20
318.511398
 30
0.0
 10
24.281978
 20
314.460513
 30
0.0
 10
26.443099
 20
310.717340
 30
0.0
 10
29.951269
 20
308.691898
 30
0.0
  0
SPLINE
  5
18f
100
AcDbEntity
  8
0
 62
7
100
AcDbSpline
 70
8
 71
3
 72
8
 73
4
 74
0
 40
0
 40
0
 40
0
 40
0
 40
1
 40
1
 40
1
 40
1
 10
29.951269
 20
308.691898
 30
0.0
 10
33.459438
 20
306.666455
 30
0.0
 10
37.781682
 20
306.666455
 30
0.0
 10
41.289851
 20
308.691898
 30
0.0
  0
SPLINE
  5
190
100
AcDbEntity
  8
0
 62
7
100
AcDbSpline
 70
8
 71
3
 72
8
 73
4
 74
0
 40
0
 40
0
 40
0
 40
0
 40
1
 40
1
 40
1
 40
1
 10
41.289851
 20
308.691898
 30
0.0
 10
44.798021
 20
310.717340
 30
0.0
 10
46.959142
 20
314.460513
 30
0.0
 10
46.959142
 20
318.511398
 30
0.0
  0
LWPOLYLINE
  5
191
100
AcDbEntity
  8
0
 62
7
100
AcDbPolyline
 90
2
 70
0
 10
46.959142
 20
369.535021
 30
0.0
 10
46.959142
 20
369.535021
 30
0.0
  0
SPLINE
  5
192
100
AcDbEntity
  8
0
 62
7
100
AcDbSpline
 70
8
 71
3
 72
8
 73
4
 74
0
 40
0
 40
0
 40
0
 40
0
 40
1
 40
1
 40
1
 40
1
 10
746.837941
 20
1261.467828
 30
0.0
 10
746.837941
 20
1265.518713
 30
0.0
 10
744.676820
 20
1269.261886
 30
0.0
 10
741.168650
 20
1271.287328
 30
0.0
  0
SPLINE
  5
193
100
AcDbEntity
  8
0
 62
7
100
AcDbSpline
 70
8
 71
3
 72
8
 73
4
 74
0
 40
0
 40
0
 40
0
 40
0
 40
1
 40
1
 40
1
 40
1
 10
741.168650
 20
1271.287328
 30
0.0
 10
737.660480
 20
1273.312771
 30
0.0
 10
733.338237
 20
1273.312771
 30
0.0
 10
729.830068
 20
1271.287328
 30
0.0
  0
SPLINE
  5
194
100
AcDbEntity
  8
0
 62
7
100
AcDbSpline
 70
8
 71
3
 72
8
 73
4
 74
0
 40
0
 40
0
 40
0
 40
0
 40
1
 40
1
 40
1
 40
1
 10
729.830068
 20
1271.287328
 30
0.0
 10
726.321898
 20
1269.261886
 30
0.0
 10
724.160776
 20
1265.518713
 30
0.0
 10
724.160777
 20
1261.467828
 30
0.0
  0
SPLINE
  5
195
100
AcDbEntity
  8
0
 62
7
100
AcDbSpline
 70
8
 71
3
 72
8
 73
4
 74
0
 40
0
 40
0
 40
0
 40
0
 40
1
 40
1
 40
1
 40
1
 10
724.160777
 20
1261.467828
 30
0.0
 10
724.160777
 20
1257.416942
 30
0.0
 10
726.321898
 20
1253.673770
 30
0.0
 10
729.830068
 20
1251.648327
 30
0.0
  0
SPLINE
  5
196
100
AcDbEntity
  8
0
 62
7
100
AcDbSpline
 70
8
 71
3
 72
8
 73
4
 74
0
 40
0
 40
0
 40
0
 40
0
 40
1
 40
1
 40
1
 40
1
 10
729.830068
 20
1251.648327
 30
0.0
 10
733.338237
 20
1249.622885
 30
0.0
 10
737.660481
 20
1249.622885
 30
0.0
 10
741.168650
 20
1251.648327
 30
0.0
  0
SPLINE
  5
197
100
AcDbEntity
  8
0
 62
7
100
AcDbSpline
 70
8
 71
3
 72
8
 73
4
 74
0
 40
0
 40
0
 40
0
 40
0
 40
1
 40
1
 40
1
 40
1
 10
741.168650
 20
1251.648327
 30
0.0
 10
744.676820
 20
1253.673770
 30
0.0
 10
746.837941
 20
1257.416942
 30
0.0
 10
746.837941
 20
1261.467828
 30
0.0
  0
LWPOLYLINE
  5
198
100
AcDbEntity
  8
0
 62
7
100
AcDbPolyline
 90
2
 70
0
 10
46.959142
 20
318.511398
 30
0.0
 10
46.959142
 20
318.511398
 30
0.0
  0
SPLINE
  5
199
100
AcDbEntity
  8
0
 62
7
100
AcDbSpline
 70
8
 71
3
 72
8
 73
4
 74
0
 40
0
 40
0
 40
0
 40
0
 40
1
 40
1
 40
1
 40
1
 10
746.837941
 20
1210.444206
 30
0.0
 10
746.837941
 20
1214.495092
 30
0.0
 10
744.676820
 20
1218.238264
 30
0.0
 10
741.168650
 20
1220.263707
 30
0.0
  0
SPLINE
  5
19a
100
AcDbEntity
  8
0
 62
7
100
AcDbSpline
 70
8
 71
3
 72
8
 73
4
 74
0
 40
0
 40
0
 40
0
 40
0
 40
1
 40
1
 40
1
 40
1
 10
741.168650
 20
1220.263707
 30
0.0
 10
737.660480
 20
1222.289149
 30
0.0
 10
733.338237
 20
1222.289149
 30
0.0
 10
729.830068
 20
1220.263707
 30
0.0
  0
SPLINE
  5
19b
100
AcDbEntity
  8
0
 62
7
100
AcDbSpline
 70
8
 71
3
 72
8
 73
4
 74
0
 40
0
 40
0
 40
0
 40
0
 40
1
 40
1
 40
1
 40
1
 10
729.830068
 20
1220.263707
 30
0.0
 10
726.321898
 20
1218.238264
 30
0.0
 10
724.160776
 20
1214.495092
 30
0.0
 10
724.160777
 20
1210.444206
 30
0.0
  0
SPLINE
  5
19c
100
AcDbEntity
  8
0
 62
7
100
AcDbSpline
 70
8
 71
3
 72
8
 73
4
 74
0
 40
0
 40
0
 40
0
 40
0
 40
1
 40
1
 40
1
 40
1
 10
724.160777
 20
1210.444206
 30
0.0
 10
724.160777
 20
1206.393321
 30
0.0
 10
726.321898
 20
1202.650148
 30
0.0
 10
729.830068
 20
1200.624706
 30
0.0
  0
SPLINE
  5
19d
100
AcDbEntity
  8
0
 62
7
100
AcDbSpline
 70
8
 71
3
 72
8
 73
4
 74
0
 40
0
 40
0
 40
0
 40
0
 40
1
 40
1
 40
1
 40
1
 10
729.830068
 20
1200.624706
 30
0.0
 10
733.338237
 20
1198.599263
 30
0.0
 10
737.660481
 20
1198.599263
 30
0.0
 10
741.168650
 20
1200.624706
 30
0.0
  0
SPLINE
  5
19e
100
AcDbEntity
  8
0
 62
7
100
AcDbSpline
 70
8
 71
3
 72
8
 73
4
 74
0
 40
0
 40
0
 40
0
 40
0
 40
1
 40
1
 40
1
 40
1
 10
741.168650
 20
1200.624706
 30
0.0
 10
744.676820
 20
1202.650148
 30
0.0
 10
746.837941
 20
1206.393321
 30
0.0
 10
746.837941
 20
1210.444206
 30
0.0
  0
LWPOLYLINE
  5
19f
100
AcDbEntity
  8
0
 62
7
100
AcDbPolyline
 90
2
 70
0
 10
746.837941
 20
1261.467828
 30
0.0
 10
746.837942
 20
1261.467828
 30
0.0
  0
SPLINE
  5
1a0
100
AcDbEntity
  8
0
 62
7
100
AcDbSpline
 70
8
 71
3
 72
8
 73
4
 74
0
 40
0
 40
0
 40
0
 40
0
 40
1
 40
1
 40
1
 40
1
 10
746.837941
 20
1159.420584
 30
0.0
 10
746.837941
 20
1163.471469
 30
0.0
 10
744.676820
 20
1167.214642
 30
0.0
 10
741.168650
 20
1169.240084
 30
0.0
  0
SPLINE
  5
1a1
100
AcDbEntity
  8
0
 62
7
100
AcDbSpline
 70
8
 71
3
 72
8
 73
4
 74
0
 40
0
 40
0
 40
0
 40
0
 40
1
 40
1
 40
1
 40
1
 10
741.168650
 20
1169.240084
 30
0.0
 10
737.660480
 20
1171.265527
 30
0.0
 10
733.338237
 20
1171.265527
 30
0.0
 10
729.830068
 20
1169.240084
 30
0.0
  0
SPLINE
  5
1a2
100
AcDbEntity
  8
0
 62
7
100
AcDbSpline
 70
8
 71
3
 72
8
 73
4
 74
0
 40
0
 40
0
 40
0
 40
0
 40
1
 40
1
 40
1
 40
1
 10
729.830068
 20
1169.240084
 30
0.0
 10
726.321898
 20
1167.214642
 30
0.0
 10
724.160776
 20
1163.471469
 30
0.0
 10
724.160777
 20
1159.420584
 30
0.0
  0
SPLINE
  5
1a3
100
AcDbEntity
  8
0
 62
7
100
AcDbSpline
 70
8
 71
3
 72
8
 73
4
 74
0
 40
0
 40
0
 40
0
 40
0
 40
1
 40
1
 40
1
 40
1
 10
724.160777
 20
1159.420584
 30
0.0
 10
724.160777
 20
1155.369698
 30
0.0
 10
726.321898
 20
1151.626526
 30
0.0
 10
729.830068
 20
1149.601083
 30
0.0
  0
SPLINE
  5
1a4
100
AcDbEntity
  8
0
 62
7
100
AcDbSpline
 70
8
 71
3
 72
8
 73
4
 74
0
 40
0
 40
0
 40
0
 40
0
 40
1
 40
1
 40
1
 40
1
 10
729.830068
 20
1149.601083
 30
0.0
 10
733.338237
 20
1147.575641
 30
0.0
 10
737.660481
 20
1147.575641
 30
0.0
 10
741.168650
 20
1149.601083
 30
0.0
  0
SPLINE
  5
1a5
100
AcDbEntity
  8
0
 62
7
100
AcDbSpline
 70
8
 71
3
 72
8
 73
4
 74
0
 40
0
 40
0
 40
0
 40
0
 40
1
 40
1
 40
1
 40
1
 10
741.168650
 20
1149.601083
 30
0.0
 10
744.676820
 20
1151.626526
 30
0.0
 10
746.837941
 20
1155.369698
 30
0.0
 10
746.837941
 20
1159.420584
 30
0.0
  0
LWPOLYLINE
  5
1a6
100
AcDbEntity
  8
0
 62
7
100
AcDbPolyline
 90
2
 70
0
 10
746.837941
 20
1210.444206
 30
0.0
 10
746.837942
 20
1210.444206
 30
0.0
  0
SPLINE
  5
1a7
100
AcDbEntity
  8
0
 62
7
100
AcDbSpline
 70
8
 71
3
 72
8
 73
4
 74
0
 40
0
 40
0
 40
0
 40
0
 40
1
 40
1
 40
1
 40
1
 10
746.837941
 20
1108.396962
 30
0.0
 10
746.837941
 20
1112.447848
 30
0.0
 10
744.676820
 20
1116.191020
 30
0.0
 10
741.168650
 20
1118.216463
 30
0.0
  0
SPLINE
  5
1a8
100
AcDbEntity
  8
0
 62
7
100
AcDbSpline
 70
8
 71
3
 72
8
 73
4
 74
0
 40
0
 40
0
 40
0
 40
0
 40
1
 40
1
 40
1
 40
1
 10
741.168650
 20
1118.216463
 30
0.0
 10
737.660480
 20
1120.241905
 30
0.0
 10
733.338237
 20
1120.241905
 30
0.0
 10
729.830068
 20
1118.216463
 30
0.0
  0
SPLINE
  5
1a9
100
AcDbEntity
  8
0
 62
7
100
AcDbSpline
 70
8
 71
3
 72
8
 73
4
 74
0
 40
0
 40
0
 40
0
 40
0
 40
1
 40
1
 40
1
 40
1
 10
729.830068
 20
1118.216463
 30
0.0
 10
726.321898
 20
1116.191020
 30
0.0
 10
724.160776
 20
1112.447848
 30
0.0
 10
724.160777
 20
1108.396962
 30
0.0
  0
SPLINE
  5
1aa
100
AcDbEntity
  8
0
 62
7
100
AcDbSpline
 70
8
 71
3
 72
8
 73
4
 74
0
 40
0
 40
0
 40
0
 40
0
 40
1
 40
1
 40
1
 40
1
 10
724.160777
 20
1108.396962
 30
0.0
 10
724.160777
 20
1104.346077
 30
0.0
 10
726.321898
 20
1100.602904
 30
0.0
 10
729.830068
 20
1098.577462
 30
0.0
  0
SPLINE
  5
1ab
100
AcDbEntity
  8
0
 62
7
100
AcDbSpline
 70
8
 71
3
 72
8
 73
4
 74
0
 40
0
 40
0
 40
0
 40
0
 40
1
 40
1
 40
1
 40
1
 10
729.830068
 20
1098.577462
 30
0.0
 10
733.338237
 20
1096.552019
 30
0.0
 10
737.660481
 20
1096.552019
 30
0.0
 10
741.168650
 20
1098.577462
 30
0.0
  0
SPLINE
  5
1ac
100
AcDbEntity
  8
0
 62
7
100
AcDbSpline
 70
8
 71
3
 72
8
 73
4
 74
0
 40
0
 40
0
 40
0
 40
0
 40
1
 40
1
 40
1
 40
1
 10
741.168650
 20
1098.577462
 30
0.0
 10
744.676820
 20
1100.602904
 30
0.0
 10
746.837941
 20
1104.346077
 30
0.0
 10
746.837941
 20
1108.396962
 30
0.0
  0
LWPOLYLINE
  5
1ad
100
AcDbEntity
  8
0
 62
7
100
AcDbPolyline
 90
2
 70
0
 10
746.837941
 20
1159.420584
 30
0.0
 10
746.837942
 20
1159.420584
 30
0.0
  0
SPLINE
  5
1ae
100
AcDbEntity
  8
0
 62
7
100
AcDbSpline
 70
8
 71
3
 72
8
 73
4
 74
0
 40
0
 40
0
 40
0
 40
0
 40
1
 40
1
 40
1
 40
1
 10
746.837941
 20
1057.373340
 30
0.0
 10
746.837941
 20
1061.424225
 30
0.0
 10
744.676820
 20
1065.167398
 30
0.0
 10
741.168650
 20
1067.192840
 30
0.0
  0
SPLINE
  5
1af
100
AcDbEntity
  8
0
 62
7
100
AcDbSpline
 70
8
 71
3
 72
8
 73
4
 74
0
 40
0
 40
0
 40
0
 40
0
 40
1
 40
1
 40
1
 40
1
 10
741.168650
 20
1067.192840
 30
0.0
 10
737.660480
 20
1069.218283
 30
0.0
 10
733.338237
 20
1069.218283
 30
0.0
 10
729.830068
 20
1067.192840
 30
0.0
  0
SPLINE
  5
1b0
100
AcDbEntity
  8
0
 62
7
100
AcDbSpline
 70
8
 71
3
 72
8
 73
4
 74
0
 40
0
 40
0
 40
0
 40
0
 40
1
 40
1
 40
1
 40
1
 10
729.830068
 20
1067.192840
 30
0.0
 10
726.321898
 20
1065.167398
 30
0.0
 10
724.160776
 20
1061.424225
 30
0.0
 10
724.160777
 20
1057.373340
 30
0.0
  0
SPLINE
  5
1b1
100
AcDbEntity
  8
0
 62
7
100
AcDbSpline
 70
8
 71
3
 72
8
 73
4
 74
0
 40
0
 40
0
 40
0
 40
0
 40
1
 40
1
 40
1
 40
1
 10
724.160777
 20
1057.373340
 30
0.0
 10
724.160777
 20
1053.322454
 30
0.0
 10
726.321898
 20
1049.579282
 30
0.0
 10
729.830068
 20
1047.553839
 30
0.0
  0
SPLINE
  5
1b2
100
AcDbEntity
  8
0
 62
7
100
AcDbSpline
 70
8
 71
3
 72
8
 73
4
 74
0
 40
0
 40
0
 40
0
 40
0
 40
1
 40
1
 40
1
 40
1
 10
729.830068
 20
1047.553839
 30
0.0
 10
733.338237
 20
1045.528397
 30
0.0
 10
737.660481
 20
1045.528397
 30
0.0
 10
741.168650
 20
1047.553839
 30
0.0
  0
SPLINE
  5
1b3
100
AcDbEntity
  8
0
 62
7
100
AcDbSpline
 70
8
 71
3
 72
8
 73
4
 74
0
 40
0
 40
0
 40
0
 40
0
 40
1
 40
1
 40
1
 40
1
 10
741.168650
 20
1047.553839
 30
0.0
 10
744.676820
 20
1049.579282
 30
0.0
 10
746.837941
 20
1053.322454
 30
0.0
 10
746.837941
 20
1057.373340
 30
0.0
  0
LWPOLYLINE
  5
1b4
100
AcDbEntity
  8
0
 62
7
100
AcDbPolyline
 90
2
 70
0
 10
746.837941
 20
1108.396962
 30
0.0
 10
746.837942
 20
1108.396962
 30
0.0
  0
SPLINE
  5
1b5
100
AcDbEntity
  8
0
 62
7
100
AcDbSpline
 70
8
 71
3
 72
8
 73
4
 74
0
 40
0
 40
0
 40
0
 40
0
 40
1
 40
1
 40
1
 40
1
 10
746.837941
 20
1006.349718
 30
0.0
 10
746.837941
 20
1010.400604
 30
0.0
 10
744.676820
 20
1014.143776
 30
0.0
 10
741.168650
 20
1016.169219
 30
0.0
  0
SPLINE
  5
1b6
100
AcDbEntity
  8
0
 62
7
100
AcDbSpline
 70
8
 71
3
 72
8
 73
4
 74
0
 40
0
 40
0
 40
0
 40
0
 40
1
 40
1
 40
1
 40
1
 10
741.168650
 20
1016.169219
 30
0.0
 10
737.660480
 20
1018.194661
 30
0.0
 10
733.338237
 20
1018.194661
 30
0.0
 10
729.830068
 20
1016.169219
 30
0.0
  0
SPLINE
  5
1b7
100
AcDbEntity
  8
0
 62
7
100
AcDbSpline
 70
8
 71
3
 72
8
 73
4
 74
0
 40
0
 40
0
 40
0
 40
0
 40
1
 40
1
 40
1
 40
1
 10
729.830068
 20
1016.169219
 30
0.0
 10
726.321898
 20
1014.143776
 30
0.0
 10
724.160776
 20
1010.400604
 30
0.0
 10
724.160777
 20
1006.349718
 30
0.0
  0
SPLINE
  5
1b8
100
AcDbEntity
  8
0
 62
7
100
AcDbSpline
 70
8
 71
3
 72
8
 73
4
 74
0
 40
0
 40
0
 40
0
 40
0
 40
1
 40
1
 40
1
 40
1
 10
724.160777
 20
1006.349718
 30
0.0
 10
724.160777
 20
1002.298833
 30
0.0
 10
726.321898
 20
998.555660
 30
0.0
 10
729.830068
 20
996.530218
 30
0.0
  0
SPLINE
  5
1b9
100
AcDbEntity
  8
0
 62
7
100
AcDbSpline
 70
8
 71
3
 72
8
 73
4
 74
0
 40
0
 40
0
 40
0
 40
0
 40
1
 40
1
 40
1
 40
1
 10
729.830068
 20
996.530218
 30
0.0
 10
733.338237
 20
994.504775
 30
0.0
 10
737.660481
 20
994.504775
 30
0.0
 10
741.168650
 20
996.530218
 30
0.0
  0
SPLINE
  5
1ba
100
AcDbEntity
  8
0
 62
7
100
AcDbSpline
 70
8
 71
3
 72
8
 73
4
 74
0
 40
0
 40
0
 40
0
 40
0
 40
1
 40
1
 40
1
 40
1
 10
741.168650
 20
996.530218
 30
0.0
 10
744.676820
 20
998.555660
 30
0.0
 10
746.837941
 20
1002.298833
 30
0.0
 10
746.837941
 20
1006.349718
 30
0.0
  0
LWPOLYLINE
  5
1bb
100
AcDbEntity
  8
0
 62
7
100
AcDbPolyline
 90
2
 70
0
 10
746.837941
 20
1057.373340
 30
0.0
 10
746.837942
 20
1057.373340
 30
0.0
  0
SPLINE
  5
1bc
100
AcDbEntity
  8
0
 62
7
100
AcDbSpline
 70
8
 71
3
 72
8
 73
4
 74
0
 40
0
 40
0
 40
0
 40
0
 40
1
 40
1
 40
1
 40
1
 10
746.837941
 20
907.137120
 30
0.0
 10
746.837941
 20
911.188005
 30
0.0
 10
744.676820
 20
914.931178
 30
0.0
 10
741.168650
 20
916.956620
 30
0.0
  0
SPLINE
  5
1bd
100
AcDbEntity
  8
0
 62
7
100
AcDbSpline
 70
8
 71
3
 72
8
 73
4
 74
0
 40
0
 40
0
 40
0
 40
0
 40
1
 40
1
 40
1
 40
1
 10
741.168650
 20
916.956620
 30
0.0
 10
737.660480
 20
918.982063
 30
0.0
 10
733.338237
 20
918.982063
 30
0.0
 10
729.830068
 20
916.956620
 30
0.0
  0
SPLINE
  5
1be
100
AcDbEntity
  8
0
 62
7
100
AcDbSpline
 70
8
 71
3
 72
8
 73
4
 74
0
 40
0
 40
0
 40
0
 40
0
 40
1
 40
1
 40
1
 40
1
 10
729.830068
 20
916.956620
 30
0.0
 10
726.321898
 20
914.931178
 30
0.0
 10
724.160776
 20
911.188005
 30
0.0
 10
724.160777
 20
907.137120
 30
0.0
  0
SPLINE
  5
1bf
100
AcDbEntity
  8
0
 62
7
100
AcDbSpline
 70
8
 71
3
 72
8
 73
4
 74
0
 40
0
 40
0
 40
0
 40
0
 40
1
 40
1
 40
1
 40
1
 10
724.160777
 20
907.137120
 30
0.0
 10
724.160777
 20
903.086234
 30
0.0
 10
726.321898
 20
899.343062
 30
0.0
 10
729.830068
 20
897.317619
 30
0.0
  0
SPLINE
  5
1c0
100
AcDbEntity
  8
0
 62
7
100
AcDbSpline
 70
8
 71
3
 72
8
 73
4
 74
0
 40
0
 40
0
 40
0
 40
0
 40
1
 40
1
 40
1
 40
1
 10
729.830068
 20
897.317619
 30
0.0
 10
733.338237
 20
895.292177
 30
0.0
 10
737.660481
 20
895.292177
 30
0.0
 10
741.168650
 20
897.317619
 30
0.0
  0
SPLINE
  5
1c1
100
AcDbEntity
  8
0
 62
7
100
AcDbSpline
 70
8
 71
3
 72
8
 73
4
 74
0
 40
0
 40
0
 40
0
 40
0
 40
1
 40
1
 40
1
 40
1
 10
741.168650
 20
897.317619
 30
0.0
 10
744.676820
 20
899.343062
 30
0.0
 10
746.837941
 20
903.086234
 30
0.0
 10
746.837941
 20
907.137120
 30
0.0
  0
LWPOLYLINE
  5
1c2
100
AcDbEntity
  8
0
 62
7
100
AcDbPolyline
 90
2
 70
0
 10
746.837941
 20
1006.349718
 30
0.0
 10
746.837942
 20
1006.349718
 30
0.0
  0
SPLINE
  5
1c3
100
AcDbEntity
  8
0
 62
7
100
AcDbSpline
 70
8
 71
3
 72
8
 73
4
 74
0
 40
0
 40
0
 40
0
 40
0
 40
1
 40
1
 40
1
 40
1
 10
746.837941
 20
856.113497
 30
0.0
 10
746.837941
 20
860.164383
 30
0.0
 10
744.676820
 20
863.907555
 30
0.0
 10
741.168650
 20
865.932998
 30
0.0
  0
SPLINE
  5
1c4
100
AcDbEntity
  8
0
 62
7
100
AcDbSpline
 70
8
 71
3
 72
8
 73
4
 74
0
 40
0
 40
0
 40
0
 40
0
 40
1
 40
1
 40
1
 40
1
 10
741.168650
 20
865.932998
 30
0.0
 10
737.660480
 20
867.958440
 30
0.0
 10
733.338237
 20
867.958440
 30
0.0
 10
729.830068
 20
865.932998
 30
0.0
  0
SPLINE
  5
1c5
100
AcDbEntity
  8
0
 62
7
100
AcDbSpline
 70
8
 71
3
 72
8
 73
4
 74
0
 40
0
 40
0
 40
0
 40
0
 40
1
 40
1
 40
1
 40
1
 10
729.830068
 20
865.932998
 30
0.0
 10
726.321898
 20
863.907555
 30
0.0
 10
724.160776
 20
860.164383
 30
0.0
 10
724.160777
 20
856.113497
 30
0.0
  0
SPLINE
  5
1c6
100
AcDbEntity
  8
0
 62
7
100
AcDbSpline
 70
8
 71
3
 72
8
 73
4
 74
0
 40
0
 40
0
 40
0
 40
0
 40
1
 40
1
 40
1
 40
1
 10
724.160777
 20
856.113497
 30
0.0
 10
724.160777
 20
852.062612
 30
0.0
 10
726.321898
 20
848.319440
 30
0.0
 10
729.830068
 20
846.293997
 30
0.0
  0
SPLINE
  5
1c7
100
AcDbEntity
  8
0
 62
7
100
AcDbSpline
 70
8
 71
3
 72
8
 73
4
 74
0
 40
0
 40
0
 40
0
 40
0
 40
1
 40
1
 40
1
 40
1
 10
729.830068
 20
846.293997
 30
0.0
 10
733.338237
 20
844.268554
 30
0.0
 10
737.660481
 20
844.268554
 30
0.0
 10
741.168650
 20
846.293997
 30
0.0
  0
SPLINE
  5
1c8
100
AcDbEntity
  8
0
 62
7
100
AcDbSpline
 70
8
 71
3
 72
8
 73
4
 74
0
 40
0
 40
0
 40
0
 40
0
 40
1
 40
1
 40
1
 40
1
 10
741.168650
 20
846.293997
 30
0.0
 10
744.676820
 20
848.319440
 30
0.0
 10
746.837941
 20
852.062612
 30
0.0
 10
746.837941
 20
856.113497
 30
0.0
  0
LWPOLYLINE
  5
1c9
100
AcDbEntity
  8
0
 62
7
100
AcDbPolyline
 90
2
 70
0
 10
746.837941
 20
907.137120
 30
0.0
 10
746.837942
 20
907.137120
 30
0.0
  0
SPLINE
  5
1ca
100
AcDbEntity
  8
0
 62
7
100
AcDbSpline
 70
8
 71
3
 72
8
 73
4
 74
0
 40
0
 40
0
 40
0
 40
0
 40
1
 40
1
 40
1
 40
1
 10
746.837941
 20
805.089875
 30
0.0
 10
746.837941
 20
809.140760
 30
0.0
 10
744.676820
 20
812.883933
 30
0.0
 10
741.168650
 20
814.909375
 30
0.0
  0
SPLINE
  5
1cb
100
AcDbEntity
  8
0
 62
7
100
AcDbSpline
 70
8
 71
3
 72
8
 73
4
 74
0
 40
0
 40
0
 40
0
 40
0
 40
1
 40
1
 40
1
 40
1
 10
741.168650
 20
814.909375
 30
0.0
 10
737.660480
 20
816.934818
 30
0.0
 10
733.338237
 20
816.934818
 30
0.0
 10
729.830068
 20
814.909375
 30
0.0
  0
SPLINE
  5
1cc
100
AcDbEntity
  8
0
 62
7
100
AcDbSpline
 70
8
 71
3
 72
8
 73
4
 74
0
 40
0
 40
0
 40
0
 40
0
 40
1
 40
1
 40
1
 40
1
 10
729.830068
 20
814.909375
 30
0.0
 10
726.321898
 20
812.883933
 30
0.0
 10
724.160776
 20
809.140760
 30
0.0
 10
724.160777
 20
805.089875
 30
0.0
  0
SPLINE
  5
1cd
100
AcDbEntity
  8
0
 62
7
100
AcDbSpline
 70
8
 71
3
 72
8
 73
4
 74
0
 40
0
 40
0
 40
0
 40
0
 40
1
 40
1
 40
1
 40
1
 10
724.160777
 20
805.089875
 30
0.0
 10
724.160777
 20
801.038990
 30
0.0
 10
726.321898
 20
797.295817
 30
0.0
 10
729.830068
 20
795.270375
 30
0.0
  0
SPLINE
  5
1ce
100
AcDbEntity
  8
0
 62
7
100
AcDbSpline
 70
8
 71
3
 72
8
 73
4
 74
0
 40
0
 40
0
 40
0
 40
0
 40
1
 40
1
 40
1
 40
1
 10
729.830068
 20
795.270375
 30
0.0
 10
733.338237
 20
793.244932
 30
0.0
 10
737.660481
 20
793.244932
 30
0.0
 10
741.168650
 20
795.270375
 30
0.0
  0
SPLINE
  5
1cf
100
AcDbEntity
  8
0
 62
7
100
AcDbSpline
 70
8
 71
3
 72
8
 73
4
 74
0
 40
0
 40
0
 40
0
 40
0
 40
1
 40
1
 40
1
 40
1
 10
741.168650
 20
795.270375
 30
0.0
 10
744.676820
 20
797.295817
 30
0.0
 10
746.837941
 20
801.038990
 30
0.0
 10
746.837941
 20
805.089875
 30
0.0
  0
LWPOLYLINE
  5
1d0
100
AcDbEntity
  8
0
 62
7
100
AcDbPolyline
 90
2
 70
0
 10
746.837941
 20
856.113497
 30
0.0
 10
746.837942
 20
856.113497
 30
0.0
  0
SPLINE
  5
1d1
100
AcDbEntity
  8
0
 62
7
100
AcDbSpline
 70
8
 71
3
 72
8
 73
4
 74
0
 40
0
 40
0
 40
0
 40
0
 40
1
 40
1
 40
1
 40
1
 10
746.837941
 20
754.066253
 30
0.0
 10
746.837941
 20
758.117139
 30
0.0
 10
744.676820
 20
761.860311
 30
0.0
 10
741.168650
 20
763.885754
 30
0.0
  0
SPLINE
  5
1d2
100
AcDbEntity
  8
0
 62
7
100
AcDbSpline
 70
8
 71
3
 72
8
 73
4
 74
0
 40
0
 40
0
 40
0
 40
0
 40
1
 40
1
 40
1
 40
1
 10
741.168650
 20
763.885754
 30
0.0
 10
737.660480
 20
765.911196
 30
0.0
 10
733.338237
 20
765.911196
 30
0.0
 10
729.830068
 20
763.885754
 30
0.0
  0
SPLINE
  5
1d3
100
AcDbEntity
  8
0
 62
7
100
AcDbSpline
 70
8
 71
3
 72
8
 73
4
 74
0
 40
0
 40
0
 40
0
 40
0
 40
1
 40
1
 40
1
 40
1
 10
729.830068
 20
763.885754
 30
0.0
 10
726.321898
 20
761.860311
 30
0.0
 10
724.160776
 20
758.117139
 30
0.0
 10
724.160777
 20
754.066253
 30
0.0
  0
SPLINE
  5
1d4
100
AcDbEntity
  8
0
 62
7
100
AcDbSpline
 70
8
 71
3
 72
8
 73
4
 74
0
 40
0
 40
0
 40
0
 40
0
 40
1
 40
1
 40
1
 40
1
 10
724.160777
 20
754.066253
 30
0.0
 10
724.160777
 20
750.015368
 30
0.0
 10
726.321898
 20
746.272196
 30
0.0
 10
729.830068
 20
744.246753
 30
0.0
  0
SPLINE
  5
1d5
100
AcDbEntity
  8
0
 62
7
100
AcDbSpline
 70
8
 71
3
 72
8
 73
4
 74
0
 40
0
 40
0
 40
0
 40
0
 40
1
 40
1
 40
1
 40
1
 10
729.830068
 20
744.246753
 30
0.0
 10
733.338237
 20
742.221310
 30
0.0
 10
737.660481
 20
742.221310
 30
0.0
 10
741.168650
 20
744.246753
 30
0.0
  0
SPLINE
  5
1d6
100
AcDbEntity
  8
0
 62
7
100
AcDbSpline
 70
8
 71
3
 72
8
 73
4
 74
0
 40
0
 40
0
 40
0
 40
0
 40
1
 40
1
 40
1
 40
1
 10
741.168650
 20
744.246753
 30
0.0
 10
744.676820
 20
746.272196
 30
0.0
 10
746.837941
 20
750.015368
 30
0.0
 10
746.837941
 20
754.066253
 30
0.0
  0
LWPOLYLINE
  5
1d7
100
AcDbEntity
  8
0
 62
7
100
AcDbPolyline
 90
2
 70
0
 10
746.837941
 20
805.089875
 30
0.0
 10
746.837942
 20
805.089875
 30
0.0
  0
SPLINE
  5
1d8
100
AcDbEntity
  8
0
 62
7
100
AcDbSpline
 70
8
 71
3
 72
8
 73
4
 74
0
 40
0
 40
0
 40
0
 40
0
 40
1
 40
1
 40
1
 40
1
 10
746.837941
 20
703.042631
 30
0.0
 10
746.837941
 20
707.093516
 30
0.0
 10
744.676820
 20
710.836689
 30
0.0
 10
741.168650
 20
712.862131
 30
0.0
  0
SPLINE
  5
1d9
100
AcDbEntity
  8
0
 62
7
100
AcDbSpline
 70
8
 71
3
 72
8
 73
4
 74
0
 40
0
 40
0
 40
0
 40
0
 40
1
 40
1
 40
1
 40
1
 10
741.168650
 20
712.862131
 30
0.0
 10
737.660480
 20
714.887574
 30
0.0
 10
733.338237
 20
714.887574
 30
0.0
 10
729.830068
 20
712.862131
 30
0.0
  0
SPLINE
  5
1da
100
AcDbEntity
  8
0
 62
7
100
AcDbSpline
 70
8
 71
3
 72
8
 73
4
 74
0
 40
0
 40
0
 40
0
 40
0
 40
1
 40
1
 40
1
 40
1
 10
729.830068
 20
712.862131
 30
0.0
 10
726.321898
 20
710.836689
 30
0.0
 10
724.160776
 20
707.093516
 30
0.0
 10
724.160777
 20
703.042631
 30
0.0
  0
SPLINE
  5
1db
100
AcDbEntity
  8
0
 62
7
100
AcDbSpline
 70
8
 71
3
 72
8
 73
4
 74
0
 40
0
 40
0
 40
0
 40
0
 40
1
 40
1
 40
1
 40
1
 10
724.160777
 20
703.042631
 30
0.0
 10
724.160777
 20
698.991746
 30
0.0
 10
726.321898
 20
695.248573
 30
0.0
 10
729.830068
 20
693.223131
 30
0.0
  0
SPLINE
  5
1dc
100
AcDbEntity
  8
0
 62
7
100
AcDbSpline
 70
8
 71
3
 72
8
 73
4
 74
0
 40
0
 40
0
 40
0
 40
0
 40
1
 40
1
 40
1
 40
1
 10
729.830068
 20
693.223131
 30
0.0
 10
733.338237
 20
691.197688
 30
0.0
 10
737.660481
 20
691.197688
 30
0.0
 10
741.168650
 20
693.223131
 30
0.0
  0
SPLINE
  5
1dd
100
AcDbEntity
  8
0
 62
7
100
AcDbSpline
 70
8
 71
3
 72
8
 73
4
 74
0
 40
0
 40
0
 40
0
 40
0
 40
1
 40
1
 40
1
 40
1
 10
741.168650
 20
693.223131
 30
0.0
 10
744.676820
 20
695.248573
 30
0.0
 10
746.837941
 20
698.991746
 30
0.0
 10
746.837941
 20
703.042631
 30
0.0
  0
LWPOLYLINE
  5
1de
100
AcDbEntity
  8
0
 62
7
100
AcDbPolyline
 90
2
 70
0
 10
746.837941
 20
754.066253
 30
0.0
 10
746.837942
 20
754.066253
 30
0.0
  0
SPLINE
  5
1df
100
AcDbEntity
  8
0
 62
7
100
AcDbSpline
 70
8
 71
3
 72
8
 73
4
 74
0
 40
0
 40
0
 40
0
 40
0
 40
1
 40
1
 40
1
 40
1
 10
746.837941
 20
652.019009
 30
0.0
 10
746.837941
 20
656.069895
 30
0.0
 10
744.676820
 20
659.813067
 30
0.0
 10
741.168650
 20
661.838510
 30
0.0
  0
SPLINE
  5
1e0
100
AcDbEntity
  8
0
 62
7
100
AcDbSpline
 70
8
 71
3
 72
8
 73
4
 74
0
 40
0
 40
0
 40
0
 40
0
 40
1
 40
1
 40
1
 40
1
 10
741.168650
 20
661.838510
 30
0.0
 10
737.660480
 20
663.863952
 30
0.0
 10
733.338237
 20
663.863952
 30
0.0
 10
729.830068
 20
661.838510
 30
0.0
  0
SPLINE
  5
1e1
100
AcDbEntity
  8
0
 62
7
100
AcDbSpline
 70
8
 71
3
 72
8
 73
4
 74
0
 40
0
 40
0
 40
0
 40
0
 40
1
 40
1
 40
1
 40
1
 10
729.830068
 20
661.838510
 30
0.0
 10
726.321898
 20
659.813067
 30
0.0
 10
724.160776
 20
656.069895
 30
0.0
 10
724.160777
 20
652.019009
 30
0.0
  0
SPLINE
  5
1e2
100
AcDbEntity
  8
0
 62
7
100
AcDbSpline
 70
8
 71
3
 72
8
 73
4
 74
0
 40
0
 40
0
 40
0
 40
0
 40
1
 40
1
 40
1
 40
1
 10
724.160777
 20
652.019009
 30
0.0
 10
724.160777
 20
647.968124
 30
0.0
 10
726.321898
 20
644.224952
 30
0.0
 10
729.830068
 20
642.199509
 30
0.0
  0
SPLINE
  5
1e3
100
AcDbEntity
  8
0
 62
7
100
AcDbSpline
 70
8
 71
3
 72
8
 73
4
 74
0
 40
0
 40
0
 40
0
 40
0
 40
1
 40
1
 40
1
 40
1
 10
729.830068
 20
642.199509
 30
0.0
 10
733.338237
 20
640.174066
 30
0.0
 10
737.660481
 20
640.174066
 30
0.0
 10
741.168650
 20
642.199509
 30
0.0
  0
SPLINE
  5
1e4
100
AcDbEntity
  8
0
 62
7
100
AcDbSpline
 70
8
 71
3
 72
8
 73
4
 74
0
 40
0
 40
0
 40
0
 40
0
 40
1
 40
1
 40
1
 40
1
 10
741.168650
 20
642.199509
 30
0.0
 10
744.676820
 20
644.224952
 30
0.0
 10
746.837941
 20
647.968124
 30
0.0
 10
746.837941
 20
652.019009
 30
0.0
  0
LWPOLYLINE
  5
1e5
100
AcDbEntity
  8
0
 62
7
100
AcDbPolyline
 90
2
 70
0
 10
746.837941
 20
703.042631
 30
0.0
 10
746.837942
 20
703.042631
 30
0.0
  0
SPLINE
  5
1e6
100
AcDbEntity
  8
0
 62
7
100
AcDbSpline
 70
8
 71
3
 72
8
 73
4
 74
0
 40
0
 40
0
 40
0
 40
0
 40
1
 40
1
 40
1
 40
1
 10
746.837941
 20
581.152868
 30
0.0
 10
746.837941
 20
585.203753
 30
0.0
 10
744.676820
 20
588.946926
 30
0.0
 10
741.168650
 20
590.972368
 30
0.0
  0
SPLINE
  5
1e7
100
AcDbEntity
  8
0
 62
7
100
AcDbSpline
 70
8
 71
3
 72
8
 73
4
 74
0
 40
0
 40
0
 40
0
 40
0
 40
1
 40
1
 40
1
 40
1
 10
741.168650
 20
590.972368
 30
0.0
 10
737.660480
 20
592.997811
 30
0.0
 10
733.338237
 20
592.997811
 30
0.0
 10
729.830068
 20
590.972368
 30
0.0
  0
SPLINE
  5
1e8
100
AcDbEntity
  8
0
 62
7
100
AcDbSpline
 70
8
 71
3
 72
8
 73
4
 74
0
 40
0
 40
0
 40
0
 40
0
 40
1
 40
1
 40
1
 40
1
 10
729.830068
 20
590.972368
 30
0.0
 10
726.321898
 20
588.946926
 30
0.0
 10
724.160776
 20
585.203753
 30
0.0
 10
724.160777
 20
581.152868
 30
0.0
  0
SPLINE
  5
1e9
100
AcDbEntity
  8
0
 62
7
100
AcDbSpline
 70
8
 71
3
 72
8
 73
4
 74
0
 40
0
 40
0
 40
0
 40
0
 40
1
 40
1
 40
1
 40
1
 10
724.160777
 20
581.152868
 30
0.0
 10
724.160777
 20
577.101982
 30
0.0
 10
726.321898
 20
573.358810
 30
0.0
 10
729.830068
 20
571.333367
 30
0.0
  0
SPLINE
  5
1ea
100
AcDbEntity
  8
0
 62
7
100
AcDbSpline
 70
8
 71
3
 72
8
 73
4
 74
0
 40
0
 40
0
 40
0
 40
0
 40
1
 40
1
 40
1
 40
1
 10
729.830068
 20
571.333367
 30
0.0
 10
733.338237
 20
569.307925
 30
0.0
 10
737.660481
 20
569.307925
 30
0.0
 10
741.168650
 20
571.333367
 30
0.0
  0
SPLINE
  5
1eb
100
AcDbEntity
  8
0
 62
7
100
AcDbSpline
 70
8
 71
3
 72
8
 73
4
 74
0
 40
0
 40
0
 40
0
 40
0
 40
1
 40
1
 40
1
 40
1
 10
741.168650
 20
571.333367
 30
0.0
 10
744.676820
 20
573.358810
 30
0.0
 10
746.837941
 20
577.101982
 30
0.0
 10
746.837941
 20
581.152868
 30
0.0
  0
LWPOLYLINE
  5
1ec
100
AcDbEntity
  8
0
 62
7
100
AcDbPolyline
 90
2
 70
0
 10
746.837941
 20
652.019009
 30
0.0
 10
746.837942
 20
652.019009
 30
0.0
  0
SPLINE
  5
1ed
100
AcDbEntity
  8
0
 62
7
100
AcDbSpline
 70
8
 71
3
 72
8
 73
4
 74
0
 40
0
 40
0
 40
0
 40
0
 40
1
 40
1
 40
1
 40
1
 10
746.837941
 20
530.129245
 30
0.0
 10
746.837941
 20
534.180131
 30
0.0
 10
744.676820
 20
537.923303
 30
0.0
 10
741.168650
 20
539.948746
 30
0.0
  0
SPLINE
  5
1ee
100
AcDbEntity
  8
0
 62
7
100
AcDbSpline
 70
8
 71
3
 72
8
 73
4
 74
0
 40
0
 40
0
 40
0
 40
0
 40
1
 40
1
 40
1
 40
1
 10
741.168650
 20
539.948746
 30
0.0
 10
737.660480
 20
541.974188
 30
0.0
 10
733.338237
 20
541.974188
 30
0.0
 10
729.830068
 20
539.948746
 30
0.0
  0
SPLINE
  5
1ef
100
AcDbEntity
  8
0
 62
7
100
AcDbSpline
 70
8
 71
3
 72
8
 73
4
 74
0
 40
0
 40
0
 40
0
 40
0
 40
1
 40
1
 40
1
 40
1
 10
729.830068
 20
539.948746
 30
0.0
 10
726.321898
 20
537.923303
 30
0.0
 10
724.160776
 20
534.180131
 30
0.0
 10
724.160777
 20
530.129245
 30
0.0
  0
SPLINE
  5
1f0
100
AcDbEntity
  8
0
 62
7
100
AcDbSpline
 70
8
 71
3
 72
8
 73
4
 74
0
 40
0
 40
0
 40
0
 40
0
 40
1
 40
1
 40
1
 40
1
 10
724.160777
 20
530.129245
 30
0.0
 10
724.160777
 20
526.078360
 30
0.0
 10
726.321898
 20
522.335188
 30
0.0
 10
729.830068
 20
520.309745
 30
0.0
  0
SPLINE
  5
1f1
100
AcDbEntity
  8
0
 62
7
100
AcDbSpline
 70
8
 71
3
 72
8
 73
4
 74
0
 40
0
 40
0
 40
0
 40
0
 40
1
 40
1
 40
1
 40
1
 10
729.830068
 20
520.309745
 30
0.0
 10
733.338237
 20
518.284302
 30
0.0
 10
737.660481
 20
518.284302
 30
0.0
 10
741.168650
 20
520.309745
 30
0.0
  0
SPLINE
  5
1f2
100
AcDbEntity
  8
0
 62
7
100
AcDbSpline
 70
8
 71
3
 72
8
 73
4
 74
0
 40
0
 40
0
 40
0
 40
0
 40
1
 40
1
 40
1
 40
1
 10
741.168650
 20
520.309745
 30
0.0
 10
744.676820
 20
522.335188
 30
0.0
 10
746.837941
 20
526.078360
 30
0.0
 10
746.837941
 20
530.129245
 30
0.0
  0
LWPOLYLINE
  5
1f3
100
AcDbEntity
  8
0
 62
7
100
AcDbPolyline
 90
2
 70
0
 10
746.837941
 20
581.152868
 30
0.0
 10
746.837942
 20
581.152868
 30
0.0
  0
SPLINE
  5
1f4
100
AcDbEntity
  8
0
 62
7
100
AcDbSpline
 70
8
 71
3
 72
8
 73
4
 74
0
 40
0
 40
0
 40
0
 40
0
 40
1
 40
1
 40
1
 40
1
 10
746.837941
 20
479.105623
 30
0.0
 10
746.837941
 20
483.156508
 30
0.0
 10
744.676820
 20
486.899681
 30
0.0
 10
741.168650
 20
488.925123
 30
0.0
  0
SPLINE
  5
1f5
100
AcDbEntity
  8
0
 62
7
100
AcDbSpline
 70
8
 71
3
 72
8
 73
4
 74
0
 40
0
 40
0
 40
0
 40
0
 40
1
 40
1
 40
1
 40
1
 10
741.168650
 20
488.925123
 30
0.0
 10
737.660480
 20
490.950566
 30
0.0
 10
733.338237
 20
490.950566
 30
0.0
 10
729.830068
 20
488.925123
 30
0.0
  0
SPLINE
  5
1f6
100
AcDbEntity
  8
0
 62
7
100
AcDbSpline
 70
8
 71
3
 72
8
 73
4
 74
0
 40
0
 40
0
 40
0
 40
0
 40
1
 40
1
 40
1
 40
1
 10
729.830068
 20
488.925123
 30
0.0
 10
726.321898
 20
486.899681
 30
0.0
 10
724.160776
 20
483.156508
 30
0.0
 10
724.160777
 20
479.105623
 30
0.0
  0
SPLINE
  5
1f7
100
AcDbEntity
  8
0
 62
7
100
AcDbSpline
 70
8
 71
3
 72
8
 73
4
 74
0
 40
0
 40
0
 40
0
 40
0
 40
1
 40
1
 40
1
 40
1
 10
724.160777
 20
479.105623
 30
0.0
 10
724.160777
 20
475.054738
 30
0.0
 10
726.321898
 20
471.311565
 30
0.0
 10
729.830068
 20
469.286123
 30
0.0
  0
SPLINE
  5
1f8
100
AcDbEntity
  8
0
 62
7
100
AcDbSpline
 70
8
 71
3
 72
8
 73
4
 74
0
 40
0
 40
0
 40
0
 40
0
 40
1
 40
1
 40
1
 40
1
 10
729.830068
 20
469.286123
 30
0.0
 10
733.338237
 20
467.260680
 30
0.0
 10
737.660481
 20
467.260680
 30
0.0
 10
741.168650
 20
469.286123
 30
0.0
  0
SPLINE
  5
1f9
100
AcDbEntity
  8
0
 62
7
100
AcDbSpline
 70
8
 71
3
 72
8
 73
4
 74
0
 40
0
 40
0
 40
0
 40
0
 40
1
 40
1
 40
1
 40
1
 10
741.168650
 20
469.286123
 30
0.0
 10
744.676820
 20
471.311565
 30
0.0
 10
746.837941
 20
475.054738
 30
0.0
 10
746.837941
 20
479.105623
 30
0.0
  0
LWPOLYLINE
  5
1fa
100
AcDbEntity
  8
0
 62
7
100
AcDbPolyline
 90
2
 70
0
 10
746.837941
 20
530.129245
 30
0.0
 10
746.837942
 20
530.129245
 30
0.0
  0
SPLINE
  5
1fb
100
AcDbEntity
  8
0
 62
7
100
AcDbSpline
 70
8
 71
3
 72
8
 73
4
 74
0
 40
0
 40
0
 40
0
 40
0
 40
1
 40
1
 40
1
 40
1
 10
746.837941
 20
428.082001
 30
0.0
 10
746.837941
 20
432.132887
 30
0.0
 10
744.676820
 20
435.876059
 30
0.0
 10
741.168650
 20
437.901502
 30
0.0
  0
SPLINE
  5
1fc
100
AcDbEntity
  8
0
 62
7
100
AcDbSpline
 70
8
 71
3
 72
8
 73
4
 74
0
 40
0
 40
0
 40
0
 40
0
 40
1
 40
1
 40
1
 40
1
 10
741.168650
 20
437.901502
 30
0.0
 10
737.660480
 20
439.926944
 30
0.0
 10
733.338237
 20
439.926944
 30
0.0
 10
729.830068
 20
437.901502
 30
0.0
  0
SPLINE
  5
1fd
100
AcDbEntity
  8
0
 62
7
100
AcDbSpline
 70
8
 71
3
 72
8
 73
4
 74
0
 40
0
 40
0
 40
0
 40
0
 40
1
 40
1
 40
1
 40
1
 10
729.830068
 20
437.901502
 30
0.0
 10
726.321898
 20
435.876059
 30
0.0
 10
724.160776
 20
432.132887
 30
0.0
 10
724.160777
 20
428.082001
 30
0.0
  0
SPLINE
  5
1fe
100
AcDbEntity
  8
0
 62
7
100
AcDbSpline
 70
8
 71
3
 72
8
 73
4
 74
0
 40
0
 40
0
 40
0
 40
0
 40
1
 40
1
 40
1
 40
1
 10
724.160777
 20
428.082001
 30
0.0
 10
724.160777
 20
424.031116
 30
0.0
 10
726.321898
 20
420.287944
 30
0.0
 10
729.830068
 20
418.262501
 30
0.0
  0
SPLINE
  5
1ff
100
AcDbEntity
  8
0
 62
7
100
AcDbSpline
 70
8
 71
3
 72
8
 73
4
 74
0
 40
0
 40
0
 40
0
 40
0
 40
1
 40
1
 40
1
 40
1
 10
729.830068
 20
418.262501
 30
0.0
 10
733.338237
 20
416.237058
 30
0.0
 10
737.660481
 20
416.237058
 30
0.0
 10
741.168650
 20
418.262501
 30
0.0
  0
SPLINE
  5
200
100
AcDbEntity
  8
0
 62
7
100
AcDbSpline
 70
8
 71
3
 72
8
 73
4
 74
0
 40
0
 40
0
 40
0
 40
0
 40
1
 40
1
 40
1
 40
1
 10
741.168650
 20
418.262501
 30
0.0
 10
744.676820
 20
420.287944
 30
0.0
 10
746.837941
 20
424.031116
 30
0.0
 10
746.837941
 20
428.082001
 30
0.0
  0
LWPOLYLINE
  5
201
100
AcDbEntity
  8
0
 62
7
100
AcDbPolyline
 90
2
 70
0
 10
746.837941
 20
479.105623
 30
0.0
 10
746.837942
 20
479.105623
 30
0.0
  0
SPLINE
  5
202
100
AcDbEntity
  8
0
 62
7
100
AcDbSpline
 70
8
 71
3
 72
8
 73
4
 74
0
 40
0
 40
0
 40
0
 40
0
 40
1
 40
1
 40
1
 40
1
 10
746.837941
 20
377.058379
 30
0.0
 10
746.837941
 20
381.109264
 30
0.0
 10
744.676820
 20
384.852437
 30
0.0
 10
741.168650
 20
386.877879
 30
0.0
  0
SPLINE
  5
203
100
AcDbEntity
  8
0
 62
7
100
AcDbSpline
 70
8
 71
3
 72
8
 73
4
 74
0
 40
0
 40
0
 40
0
 40
0
 40
1
 40
1
 40
1
 40
1
 10
741.168650
 20
386.877879
 30
0.0
 10
737.660480
 20
388.903322
 30
0.0
 10
733.338237
 20
388.903322
 30
0.0
 10
729.830068
 20
386.877879
 30
0.0
  0
SPLINE
  5
204
100
AcDbEntity
  8
0
 62
7
100
AcDbSpline
 70
8
 71
3
 72
8
 73
4
 74
0
 40
0
 40
0
 40
0
 40
0
 40
1
 40
1
 40
1
 40
1
 10
729.830068
 20
386.877879
 30
0.0
 10
726.321898
 20
384.852437
 30
0.0
 10
724.160776
 20
381.109264
 30
0.0
 10
724.160777
 20
377.058379
 30
0.0
  0
SPLINE
  5
205
100
AcDbEntity
  8
0
 62
7
100
AcDbSpline
 70
8
 71
3
 72
8
 73
4
 74
0
 40
0
 40
0
 40
0
 40
0
 40
1
 40
1
 40
1
 40
1
 10
724.160777
 20
377.058379
 30
0.0
 10
724.160777
 20
373.007494
 30
0.0
 10
726.321898
 20
369.264321
 30
0.0
 10
729.830068
 20
367.238879
 30
0.0
  0
SPLINE
  5
206
100
AcDbEntity
  8
0
 62
7
100
AcDbSpline
 70
8
 71
3
 72
8
 73
4
 74
0
 40
0
 40
0
 40
0
 40
0
 40
1
 40
1
 40
1
 40
1
 10
729.830068
 20
367.238879
 30
0.0
 10
733.338237
 20
365.213436
 30
0.0
 10
737.660481
 20
365.213436
 30
0.0
 10
741.168650
 20
367.238879
 30
0.0
  0
SPLINE
  5
207
100
AcDbEntity
  8
0
 62
7
100
AcDbSpline
 70
8
 71
3
 72
8
 73
4
 74
0
 40
0
 40
0
 40
0
 40
0
 40
1
 40
1
 40
1
 40
1
 10
741.168650
 20
367.238879
 30
0.0
 10
744.676820
 20
369.264321
 30
0.0
 10
746.837941
 20
373.007494
 30
0.0
 10
746.837941
 20
377.058379
 30
0.0
  0
LWPOLYLINE
  5
208
100
AcDbEntity
  8
0
 62
7
100
AcDbPolyline
 90
2
 70
0
 10
746.837941
 20
428.082001
 30
0.0
 10
746.837942
 20
428.082001
 30
0.0
  0
SPLINE
  5
209
100
AcDbEntity
  8
0
 62
7
100
AcDbSpline
 70
8
 71
3
 72
8
 73
4
 74
0
 40
0
 40
0
 40
0
 40
0
 40
1
 40
1
 40
1
 40
1
 10
746.837941
 20
326.034757
 30
0.0
 10
746.837941
 20
330.085643
 30
0.0
 10
744.676820
 20
333.828815
 30
0.0
 10
741.168650
 20
335.854258
 30
0.0
  0
SPLINE
  5
20a
100
AcDbEntity
  8
0
 62
7
100
AcDbSpline
 70
8
 71
3
 72
8
 73
4
 74
0
 40
0
 40
0
 40
0
 40
0
 40
1
 40
1
 40
1
 40
1
 10
741.168650
 20
335.854258
 30
0.0
 10
737.660480
 20
337.879700
 30
0.0
 10
733.338237
 20
337.879700
 30
0.0
 10
729.830068
 20
335.854258
 30
0.0
  0
SPLINE
  5
20b
100
AcDbEntity
  8
0
 62
7
100
AcDbSpline
 70
8
 71
3
 72
8
 73
4
 74
0
 40
0
 40
0
 40
0
 40
0
 40
1
 40
1
 40
1
 40
1
 10
729.830068
 20
335.854258
 30
0.0
 10
726.321898
 20
333.828815
 30
0.0
 10
724.160776
 20
330.085643
 30
0.0
 10
724.160777
 20
326.034757
 30
0.0
  0
SPLINE
  5
20c
100
AcDbEntity
  8
0
 62
7
100
AcDbSpline
 70
8
 71
3
 72
8
 73
4
 74
0
 40
0
 40
0
 40
0
 40
0
 40
1
 40
1
 40
1
 40
1
 10
724.160777
 20
326.034757
 30
0.0
 10
724.160777
 20
321.983872
 30
0.0
 10
726.321898
 20
318.240700
 30
0.0
 10
729.830068
 20
316.215257
 30
0.0
  0
SPLINE
  5
20d
100
AcDbEntity
  8
0
 62
7
100
AcDbSpline
 70
8
 71
3
 72
8
 73
4
 74
0
 40
0
 40
0
 40
0
 40
0
 40
1
 40
1
 40
1
 40
1
 10
729.830068
 20
316.215257
 30
0.0
 10
733.338237
 20
314.189814
 30
0.0
 10
737.660481
 20
314.189814
 30
0.0
 10
741.168650
 20
316.215257
 30
0.0
  0
SPLINE
  5
20e
100
AcDbEntity
  8
0
 62
7
100
AcDbSpline
 70
8
 71
3
 72
8
 73
4
 74
0
 40
0
 40
0
 40
0
 40
0
 40
1
 40
1
 40
1
 40
1
 10
741.168650
 20
316.215257
 30
0.0
 10
744.676820
 20
318.240700
 30
0.0
 10
746.837941
 20
321.983872
 30
0.0
 10
746.837941
 20
326.034757
 30
0.0
  0
LWPOLYLINE
  5
20f
100
AcDbEntity
  8
0
 62
7
100
AcDbPolyline
 90
2
 70
0
 10
746.837941
 20
377.058379
 30
0.0
 10
746.837942
 20
377.058379
 30
0.0
  0
SPLINE
  5
210
100
AcDbEntity
  8
0
 62
7
100
AcDbSpline
 70
8
 71
3
 72
8
 73
4
 74
0
 40
0
 40
0
 40
0
 40
0
 40
1
 40
1
 40
1
 40
1
 10
191.973358
 20
318.394808
 30
0.0
 10
191.973358
 20
321.432972
 30
0.0
 10
190.352516
 20
324.240351
 30
0.0
 10
187.721389
 20
325.759433
 30
0.0
  0
SPLINE
  5
211
100
AcDbEntity
  8
0
 62
7
100
AcDbSpline
 70
8
 71
3
 72
8
 73
4
 74
0
 40
0
 40
0
 40
0
 40
0
 40
1
 40
1
 40
1
 40
1
 10
187.721389
 20
325.759433
 30
0.0
 10
185.090262
 20
327.278515
 30
0.0
 10
181.848580
 20
327.278515
 30
0.0
 10
179.217452
 20
325.759433
 30
0.0
  0
SPLINE
  5
212
100
AcDbEntity
  8
0
 62
7
100
AcDbSpline
 70
8
 71
3
 72
8
 73
4
 74
0
 40
0
 40
0
 40
0
 40
0
 40
1
 40
1
 40
1
 40
1
 10
179.217452
 20
325.759433
 30
0.0
 10
176.586325
 20
324.240351
 30
0.0
 10
174.965484
 20
321.432972
 30
0.0
 10
174.965484
 20
318.394808
 30
0.0
  0
SPLINE
  5
213
100
AcDbEntity
  8
0
 62
7
100
AcDbSpline
 70
8
 71
3
 72
8
 73
4
 74
0
 40
0
 40
0
 40
0
 40
0
 40
1
 40
1
 40
1
 40
1
 10
174.965484
 20
318.394808
 30
0.0
 10
174.965484
 20
315.356644
 30
0.0
 10
176.586325
 20
312.549264
 30
0.0
 10
179.217452
 20
311.030182
 30
0.0
  0
SPLINE
  5
214
100
AcDbEntity
  8
0
 62
7
100
AcDbSpline
 70
8
 71
3
 72
8
 73
4
 74
0
 40
0
 40
0
 40
0
 40
0
 40
1
 40
1
 40
1
 40
1
 10
179.217452
 20
311.030182
 30
0.0
 10
181.848580
 20
309.511100
 30
0.0
 10
185.090262
 20
309.511100
 30
0.0
 10
187.721389
 20
311.030182
 30
0.0
  0
SPLINE
  5
215
100
AcDbEntity
  8
0
 62
7
100
AcDbSpline
 70
8
 71
3
 72
8
 73
4
 74
0
 40
0
 40
0
 40
0
 40
0
 40
1
 40
1
 40
1
 40
1
 10
187.721389
 20
311.030182
 30
0.0
 10
190.352516
 20
312.549264
 30
0.0
 10
191.973358
 20
315.356644
 30
0.0
 10
191.973358
 20
318.394808
 30
0.0
  0
LWPOLYLINE
  5
216
100
AcDbEntity
  8
0
 62
7
100
AcDbPolyline
 90
2
 70
0
 10
746.837941
 20
326.034757
 30
0.0
 10
746.837942
 20
326.034757
 30
0.0
  0
SPLINE
  5
217
100
AcDbEntity
  8
0
 62
7
100
AcDbSpline
 70
8
 71
3
 72
8
 73
4
 74
0
 40
0
 40
0
 40
0
 40
0
 40
1
 40
1
 40
1
 40
1
 10
247.091468
 20
318.394808
 30
0.0
 10
247.091468
 20
321.432972
 30
0.0
 10
245.470627
 20
324.240351
 30
0.0
 10
242.839500
 20
325.759433
 30
0.0
  0
SPLINE
  5
218
100
AcDbEntity
  8
0
 62
7
100
AcDbSpline
 70
8
 71
3
 72
8
 73
4
 74
0
 40
0
 40
0
 40
0
 40
0
 40
1
 40
1
 40
1
 40
1
 10
242.839500
 20
325.759433
 30
0.0
 10
240.208372
 20
327.278515
 30
0.0
 10
236.966690
 20
327.278515
 30
0.0
 10
234.335563
 20
325.759433
 30
0.0
  0
SPLINE
  5
219
100
AcDbEntity
  8
0
 62
7
100
AcDbSpline
 70
8
 71
3
 72
8
 73
4
 74
0
 40
0
 40
0
 40
0
 40
0
 40
1
 40
1
 40
1
 40
1
 10
234.335563
 20
325.759433
 30
0.0
 10
231.704436
 20
324.240351
 30
0.0
 10
230.083594
 20
321.432972
 30
0.0
 10
230.083594
 20
318.394808
 30
0.0
  0
SPLINE
  5
21a
100
AcDbEntity
  8
0
 62
7
100
AcDbSpline
 70
8
 71
3
 72
8
 73
4
 74
0
 40
0
 40
0
 40
0
 40
0
 40
1
 40
1
 40
1
 40
1
 10
230.083594
 20
318.394808
 30
0.0
 10
230.083594
 20
315.356644
 30
0.0
 10
231.704436
 20
312.549264
 30
0.0
 10
234.335563
 20
311.030182
 30
0.0
  0
SPLINE
  5
21b
100
AcDbEntity
  8
0
 62
7
100
AcDbSpline
 70
8
 71
3
 72
8
 73
4
 74
0
 40
0
 40
0
 40
0
 40
0
 40
1
 40
1
 40
1
 40
1
 10
234.335563
 20
311.030182
 30
0.0
 10
236.966690
 20
309.511100
 30
0.0
 10
240.208372
 20
309.511100
 30
0.0
 10
242.839500
 20
311.030182
 30
0.0
  0
SPLINE
  5
21c
100
AcDbEntity
  8
0
 62
7
100
AcDbSpline
 70
8
 71
3
 72
8
 73
4
 74
0
 40
0
 40
0
 40
0
 40
0
 40
1
 40
1
 40
1
 40
1
 10
242.839500
 20
311.030182
 30
0.0
 10
245.470627
 20
312.549264
 30
0.0
 10
247.091468
 20
315.356644
 30
0.0
 10
247.091468
 20
318.394808
 30
0.0
  0
LWPOLYLINE
  5
21d
100
AcDbEntity
  8
0
 62
7
100
AcDbPolyline
 90
2
 70
0
 10
191.973358
 20
318.394808
 30
0.0
 10
191.973358
 20
318.394808
 30
0.0
  0
SPLINE
  5
21e
100
AcDbEntity
  8
0
 62
7
100
AcDbSpline
 70
8
 71
3
 72
8
 73
4
 74
0
 40
0
 40
0
 40
0
 40
0
 40
1
 40
1
 40
1
 40
1
 10
302.209578
 20
318.394808
 30
0.0
 10
302.209578
 20
321.432972
 30
0.0
 10
300.588737
 20
324.240351
 30
0.0
 10
297.957610
 20
325.759433
 30
0.0
  0
SPLINE
  5
21f
100
AcDbEntity
  8
0
 62
7
100
AcDbSpline
 70
8
 71
3
 72
8
 73
4
 74
0
 40
0
 40
0
 40
0
 40
0
 40
1
 40
1
 40
1
 40
1
 10
297.957610
 20
325.759433
 30
0.0
 10
295.326482
 20
327.278515
 30
0.0
 10
292.084800
 20
327.278515
 30
0.0
 10
289.453673
 20
325.759433
 30
0.0
  0
SPLINE
  5
220
100
AcDbEntity
  8
0
 62
7
100
AcDbSpline
 70
8
 71
3
 72
8
 73
4
 74
0
 40
0
 40
0
 40
0
 40
0
 40
1
 40
1
 40
1
 40
1
 10
289.453673
 20
325.759433
 30
0.0
 10
286.822546
 20
324.240351
 30
0.0
 10
285.201704
 20
321.432972
 30
0.0
 10
285.201705
 20
318.394808
 30
0.0
  0
SPLINE
  5
221
100
AcDbEntity
  8
0
 62
7
100
AcDbSpline
 70
8
 71
3
 72
8
 73
4
 74
0
 40
0
 40
0
 40
0
 40
0
 40
1
 40
1
 40
1
 40
1
 10
285.201705
 20
318.394808
 30
0.0
 10
285.201705
 20
315.356644
 30
0.0
 10
286.822546
 20
312.549264
 30
0.0
 10
289.453673
 20
311.030182
 30
0.0
  0
SPLINE
  5
222
100
AcDbEntity
  8
0
 62
7
100
AcDbSpline
 70
8
 71
3
 72
8
 73
4
 74
0
 40
0
 40
0
 40
0
 40
0
 40
1
 40
1
 40
1
 40
1
 10
289.453673
 20
311.030182
 30
0.0
 10
292.084800
 20
309.511100
 30
0.0
 10
295.326483
 20
309.511100
 30
0.0
 10
297.957610
 20
311.030182
 30
0.0
  0
SPLINE
  5
223
100
AcDbEntity
  8
0
 62
7
100
AcDbSpline
 70
8
 71
3
 72
8
 73
4
 74
0
 40
0
 40
0
 40
0
 40
0
 40
1
 40
1
 40
1
 40
1
 10
297.957610
 20
311.030182
 30
0.0
 10
300.588737
 20
312.549264
 30
0.0
 10
302.209578
 20
315.356644
 30
0.0
 10
302.209578
 20
318.394808
 30
0.0
  0
LWPOLYLINE
  5
224
100
AcDbEntity
  8
0
 62
7
100
AcDbPolyline
 90
2
 70
0
 10
247.091468
 20
318.394808
 30
0.0
 10
247.091468
 20
318.394808
 30
0.0
  0
SPLINE
  5
225
100
AcDbEntity
  8
0
 62
7
100
AcDbSpline
 70
8
 71
3
 72
8
 73
4
 74
0
 40
0
 40
0
 40
0
 40
0
 40
1
 40
1
 40
1
 40
1
 10
357.327688
 20
318.394808
 30
0.0
 10
357.327688
 20
321.432972
 30
0.0
 10
355.706847
 20
324.240351
 30
0.0
 10
353.075720
 20
325.759433
 30
0.0
  0
SPLINE
  5
226
100
AcDbEntity
  8
0
 62
7
100
AcDbSpline
 70
8
 71
3
 72
8
 73
4
 74
0
 40
0
 40
0
 40
0
 40
0
 40
1
 40
1
 40
1
 40
1
 10
353.075720
 20
325.759433
 30
0.0
 10
350.444593
 20
327.278515
 30
0.0
 10
347.202910
 20
327.278515
 30
0.0
 10
344.571783
 20
325.759433
 30
0.0
  0
SPLINE
  5
227
100
AcDbEntity
  8
0
 62
7
100
AcDbSpline
 70
8
 71
3
 72
8
 73
4
 74
0
 40
0
 40
0
 40
0
 40
0
 40
1
 40
1
 40
1
 40
1
 10
344.571783
 20
325.759433
 30
0.0
 10
341.940656
 20
324.240351
 30
0.0
 10
340.319815
 20
321.432972
 30
0.0
 10
340.319815
 20
318.394808
 30
0.0
  0
SPLINE
  5
228
100
AcDbEntity
  8
0
 62
7
100
AcDbSpline
 70
8
 71
3
 72
8
 73
4
 74
0
 40
0
 40
0
 40
0
 40
0
 40
1
 40
1
 40
1
 40
1
 10
340.319815
 20
318.394808
 30
0.0
 10
340.319815
 20
315.356644
 30
0.0
 10
341.940656
 20
312.549264
 30
0.0
 10
344.571783
 20
311.030182
 30
0.0
  0
SPLINE
  5
229
100
AcDbEntity
  8
0
 62
7
100
AcDbSpline
 70
8
 71
3
 72
8
 73
4
 74
0
 40
0
 40
0
 40
0
 40
0
 40
1
 40
1
 40
1
 40
1
 10
344.571783
 20
311.030182
 30
0.0
 10
347.202911
 20
309.511100
 30
0.0
 10
350.444593
 20
309.511100
 30
0.0
 10
353.075720
 20
311.030182
 30
0.0
  0
SPLINE
  5
22a
100
AcDbEntity
  8
0
 62
7
100
AcDbSpline
 70
8
 71
3
 72
8
 73
4
 74
0
 40
0
 40
0
 40
0
 40
0
 40
1
 40
1
 40
1
 40
1
 10
353.075720
 20
311.030182
 30
0.0
 10
355.706847
 20
312.549264
 30
0.0
 10
357.327689
 20
315.356644
 30
0.0
 10
357.327689
 20
318.394808
 30
0.0
  0
LWPOLYLINE
  5
22b
100
AcDbEntity
  8
0
 62
7
100
AcDbPolyline
 90
2
 70
0
 10
302.209578
 20
318.394808
 30
0.0
 10
302.209578
 20
318.394808
 30
0.0
  0
SPLINE
  5
22c
100
AcDbEntity
  8
0
 62
7
100
AcDbSpline
 70
8
 71
3
 72
8
 73
4
 74
0
 40
0
 40
0
 40
0
 40
0
 40
1
 40
1
 40
1
 40
1
 10
412.445798
 20
318.394808
 30
0.0
 10
412.445799
 20
321.432972
 30
0.0
 10
410.824958
 20
324.240352
 30
0.0
 10
408.193830
 20
325.759434
 30
0.0
  0
SPLINE
  5
22d
100
AcDbEntity
  8
0
 62
7
100
AcDbSpline
 70
8
 71
3
 72
8
 73
4
 74
0
 40
0
 40
0
 40
0
 40
0
 40
1
 40
1
 40
1
 40
1
 10
408.193830
 20
325.759434
 30
0.0
 10
405.562703
 20
327.278516
 30
0.0
 10
402.321020
 20
327.278516
 30
0.0
 10
399.689893
 20
325.759434
 30
0.0
  0
SPLINE
  5
22e
100
AcDbEntity
  8
0
 62
7
100
AcDbSpline
 70
8
 71
3
 72
8
 73
4
 74
0
 40
0
 40
0
 40
0
 40
0
 40
1
 40
1
 40
1
 40
1
 10
399.689893
 20
325.759434
 30
0.0
 10
397.058766
 20
324.240352
 30
0.0
 10
395.437925
 20
321.432972
 30
0.0
 10
395.437925
 20
318.394808
 30
0.0
  0
SPLINE
  5
22f
100
AcDbEntity
  8
0
 62
7
100
AcDbSpline
 70
8
 71
3
 72
8
 73
4
 74
0
 40
0
 40
0
 40
0
 40
0
 40
1
 40
1
 40
1
 40
1
 10
395.437925
 20
318.394808
 30
0.0
 10
395.437925
 20
315.356644
 30
0.0
 10
397.058766
 20
312.549264
 30
0.0
 10
399.689893
 20
311.030182
 30
0.0
  0
SPLINE
  5
230
100
AcDbEntity
  8
0
 62
7
100
AcDbSpline
 70
8
 71
3
 72
8
 73
4
 74
0
 40
0
 40
0
 40
0
 40
0
 40
1
 40
1
 40
1
 40
1
 10
399.689893
 20
311.030182
 30
0.0
 10
402.321020
 20
309.511100
 30
0.0
 10
405.562703
 20
309.511100
 30
0.0
 10
408.193830
 20
311.030182
 30
0.0
  0
SPLINE
  5
231
100
AcDbEntity
  8
0
 62
7
100
AcDbSpline
 70
8
 71
3
 72
8
 73
4
 74
0
 40
0
 40
0
 40
0
 40
0
 40
1
 40
1
 40
1
 40
1
 10
408.193830
 20
311.030182
 30
0.0
 10
410.824957
 20
312.549264
 30
0.0
 10
412.445798
 20
315.356644
 30
0.0
 10
412.445798
 20
318.394808
 30
0.0
  0
LWPOLYLINE
  5
232
100
AcDbEntity
  8
0
 62
7
100
AcDbPolyline
 90
2
 70
0
 10
357.327689
 20
318.394808
 30
0.0
 10
357.327689
 20
318.394808
 30
0.0
  0
SPLINE
  5
233
100
AcDbEntity
  8
0
 62
7
100
AcDbSpline
 70
8
 71
3
 72
8
 73
4
 74
0
 40
0
 40
0
 40
0
 40
0
 40
1
 40
1
 40
1
 40
1
 10
467.563909
 20
318.394808
 30
0.0
 10
467.563909
 20
321.432972
 30
0.0
 10
465.943068
 20
324.240352
 30
0.0
 10
463.311941
 20
325.759434
 30
0.0
  0
SPLINE
  5
234
100
AcDbEntity
  8
0
 62
7
100
AcDbSpline
 70
8
 71
3
 72
8
 73
4
 74
0
 40
0
 40
0
 40
0
 40
0
 40
1
 40
1
 40
1
 40
1
 10
463.311941
 20
325.759434
 30
0.0
 10
460.680813
 20
327.278516
 30
0.0
 10
457.439131
 20
327.278516
 30
0.0
 10
454.808003
 20
325.759434
 30
0.0
  0
SPLINE
  5
235
100
AcDbEntity
  8
0
 62
7
100
AcDbSpline
 70
8
 71
3
 72
8
 73
4
 74
0
 40
0
 40
0
 40
0
 40
0
 40
1
 40
1
 40
1
 40
1
 10
454.808003
 20
325.759434
 30
0.0
 10
452.176876
 20
324.240352
 30
0.0
 10
450.556035
 20
321.432972
 30
0.0
 10
450.556035
 20
318.394808
 30
0.0
  0
SPLINE
  5
236
100
AcDbEntity
  8
0
 62
7
100
AcDbSpline
 70
8
 71
3
 72
8
 73
4
 74
0
 40
0
 40
0
 40
0
 40
0
 40
1
 40
1
 40
1
 40
1
 10
450.556035
 20
318.394808
 30
0.0
 10
450.556035
 20
315.356644
 30
0.0
 10
452.176876
 20
312.549264
 30
0.0
 10
454.808004
 20
311.030182
 30
0.0
  0
SPLINE
  5
237
100
AcDbEntity
  8
0
 62
7
100
AcDbSpline
 70
8
 71
3
 72
8
 73
4
 74
0
 40
0
 40
0
 40
0
 40
0
 40
1
 40
1
 40
1
 40
1
 10
454.808004
 20
311.030182
 30
0.0
 10
457.439131
 20
309.511100
 30
0.0
 10
460.680813
 20
309.511100
 30
0.0
 10
463.311940
 20
311.030182
 30
0.0
  0
SPLINE
  5
238
100
AcDbEntity
  8
0
 62
7
100
AcDbSpline
 70
8
 71
3
 72
8
 73
4
 74
0
 40
0
 40
0
 40
0
 40
0
 40
1
 40
1
 40
1
 40
1
 10
463.311940
 20
311.030182
 30
0.0
 10
465.943068
 20
312.549264
 30
0.0
 10
467.563909
 20
315.356644
 30
0.0
 10
467.563909
 20
318.394808
 30
0.0
  0
LWPOLYLINE
  5
239
100
AcDbEntity
  8
0
 62
7
100
AcDbPolyline
 90
2
 70
0
 10
412.445798
 20
318.394808
 30
0.0
 10
412.445798
 20
318.394808
 30
0.0
  0
SPLINE
  5
23a
100
AcDbEntity
  8
0
 62
7
100
AcDbSpline
 70
8
 71
3
 72
8
 73
4
 74
0
 40
0
 40
0
 40
0
 40
0
 40
1
 40
1
 40
1
 40
1
 10
522.682019
 20
318.394808
 30
0.0
 10
522.682019
 20
321.432972
 30
0.0
 10
521.061178
 20
324.240351
 30
0.0
 10
518.430051
 20
325.759433
 30
0.0
  0
SPLINE
  5
23b
100
AcDbEntity
  8
0
 62
7
100
AcDbSpline
 70
8
 71
3
 72
8
 73
4
 74
0
 40
0
 40
0
 40
0
 40
0
 40
1
 40
1
 40
1
 40
1
 10
518.430051
 20
325.759433
 30
0.0
 10
515.798924
 20
327.278515
 30
0.0
 10
512.557241
 20
327.278515
 30
0.0
 10
509.926114
 20
325.759433
 30
0.0
  0
SPLINE
  5
23c
100
AcDbEntity
  8
0
 62
7
100
AcDbSpline
 70
8
 71
3
 72
8
 73
4
 74
0
 40
0
 40
0
 40
0
 40
0
 40
1
 40
1
 40
1
 40
1
 10
509.926114
 20
325.759433
 30
0.0
 10
507.294987
 20
324.240351
 30
0.0
 10
505.674146
 20
321.432972
 30
0.0
 10
505.674146
 20
318.394808
 30
0.0
  0
SPLINE
  5
23d
100
AcDbEntity
  8
0
 62
7
100
AcDbSpline
 70
8
 71
3
 72
8
 73
4
 74
0
 40
0
 40
0
 40
0
 40
0
 40
1
 40
1
 40
1
 40
1
 10
505.674146
 20
318.394808
 30
0.0
 10
505.674146
 20
315.356644
 30
0.0
 10
507.294987
 20
312.549264
 30
0.0
 10
509.926114
 20
311.030182
 30
0.0
  0
SPLINE
  5
23e
100
AcDbEntity
  8
0
 62
7
100
AcDbSpline
 70
8
 71
3
 72
8
 73
4
 74
0
 40
0
 40
0
 40
0
 40
0
 40
1
 40
1
 40
1
 40
1
 10
509.926114
 20
311.030182
 30
0.0
 10
512.557241
 20
309.511100
 30
0.0
 10
515.798924
 20
309.511100
 30
0.0
 10
518.430051
 20
311.030182
 30
0.0
  0
SPLINE
  5
23f
100
AcDbEntity
  8
0
 62
7
100
AcDbSpline
 70
8
 71
3
 72
8
 73
4
 74
0
 40
0
 40
0
 40
0
 40
0
 40
1
 40
1
 40
1
 40
1
 10
518.430051
 20
311.030182
 30
0.0
 10
521.061178
 20
312.549264
 30
0.0
 10
522.682019
 20
315.356644
 30
0.0
 10
522.682019
 20
318.394808
 30
0.0
  0
LWPOLYLINE
  5
240
100
AcDbEntity
  8
0
 62
7
100
AcDbPolyline
 90
2
 70
0
 10
467.563909
 20
318.394808
 30
0.0
 10
467.563909
 20
318.394808
 30
0.0
  0
SPLINE
  5
241
100
AcDbEntity
  8
0
 62
7
100
AcDbSpline
 70
8
 71
3
 72
8
 73
4
 74
0
 40
0
 40
0
 40
0
 40
0
 40
1
 40
1
 40
1
 40
1
 10
577.800129
 20
318.394808
 30
0.0
 10
577.800129
 20
321.432972
 30
0.0
 10
576.179288
 20
324.240351
 30
0.0
 10
573.548161
 20
325.759433
 30
0.0
  0
SPLINE
  5
242
100
AcDbEntity
  8
0
 62
7
100
AcDbSpline
 70
8
 71
3
 72
8
 73
4
 74
0
 40
0
 40
0
 40
0
 40
0
 40
1
 40
1
 40
1
 40
1
 10
573.548161
 20
325.759433
 30
0.0
 10
570.917034
 20
327.278515
 30
0.0
 10
567.675351
 20
327.278515
 30
0.0
 10
565.044224
 20
325.759433
 30
0.0
  0
SPLINE
  5
243
100
AcDbEntity
  8
0
 62
7
100
AcDbSpline
 70
8
 71
3
 72
8
 73
4
 74
0
 40
0
 40
0
 40
0
 40
0
 40
1
 40
1
 40
1
 40
1
 10
565.044224
 20
325.759433
 30
0.0
 10
562.413097
 20
324.240351
 30
0.0
 10
560.792256
 20
321.432972
 30
0.0
 10
560.792256
 20
318.394808
 30
0.0
  0
SPLINE
  5
244
100
AcDbEntity
  8
0
 62
7
100
AcDbSpline
 70
8
 71
3
 72
8
 73
4
 74
0
 40
0
 40
0
 40
0
 40
0
 40
1
 40
1
 40
1
 40
1
 10
560.792256
 20
318.394808
 30
0.0
 10
560.792256
 20
315.356644
 30
0.0
 10
562.413097
 20
312.549264
 30
0.0
 10
565.044224
 20
311.030182
 30
0.0
  0
SPLINE
  5
245
100
AcDbEntity
  8
0
 62
7
100
AcDbSpline
 70
8
 71
3
 72
8
 73
4
 74
0
 40
0
 40
0
 40
0
 40
0
 40
1
 40
1
 40
1
 40
1
 10
565.044224
 20
311.030182
 30
0.0
 10
567.675351
 20
309.511100
 30
0.0
 10
570.917034
 20
309.511100
 30
0.0
 10
573.548161
 20
311.030182
 30
0.0
  0
SPLINE
  5
246
100
AcDbEntity
  8
0
 62
7
100
AcDbSpline
 70
8
 71
3
 72
8
 73
4
 74
0
 40
0
 40
0
 40
0
 40
0
 40
1
 40
1
 40
1
 40
1
 10
573.548161
 20
311.030182
 30
0.0
 10
576.179288
 20
312.549264
 30
0.0
 10
577.800129
 20
315.356644
 30
0.0
 10
577.800129
 20
318.394808
 30
0.0
  0
LWPOLYLINE
  5
247
100
AcDbEntity
  8
0
 62
7
100
AcDbPolyline
 90
2
 70
0
 10
522.682019
 20
318.394808
 30
0.0
 10
522.682019
 20
318.394808
 30
0.0
  0
SPLINE
  5
248
100
AcDbEntity
  8
0
 62
7
100
AcDbSpline
 70
8
 71
3
 72
8
 73
4
 74
0
 40
0
 40
0
 40
0
 40
0
 40
1
 40
1
 40
1
 40
1
 10
632.918240
 20
318.394808
 30
0.0
 10
632.918240
 20
321.432972
 30
0.0
 10
631.297398
 20
324.240351
 30
0.0
 10
628.666271
 20
325.759433
 30
0.0
  0
SPLINE
  5
249
100
AcDbEntity
  8
0
 62
7
100
AcDbSpline
 70
8
 71
3
 72
8
 73
4
 74
0
 40
0
 40
0
 40
0
 40
0
 40
1
 40
1
 40
1
 40
1
 10
628.666271
 20
325.759433
 30
0.0
 10
626.035144
 20
327.278515
 30
0.0
 10
622.793462
 20
327.278515
 30
0.0
 10
620.162334
 20
325.759433
 30
0.0
  0
SPLINE
  5
24a
100
AcDbEntity
  8
0
 62
7
100
AcDbSpline
 70
8
 71
3
 72
8
 73
4
 74
0
 40
0
 40
0
 40
0
 40
0
 40
1
 40
1
 40
1
 40
1
 10
620.162334
 20
325.759433
 30
0.0
 10
617.531207
 20
324.240351
 30
0.0
 10
615.910366
 20
321.432972
 30
0.0
 10
615.910366
 20
318.394808
 30
0.0
  0
SPLINE
  5
24b
100
AcDbEntity
  8
0
 62
7
100
AcDbSpline
 70
8
 71
3
 72
8
 73
4
 74
0
 40
0
 40
0
 40
0
 40
0
 40
1
 40
1
 40
1
 40
1
 10
615.910366
 20
318.394808
 30
0.0
 10
615.910366
 20
315.356644
 30
0.0
 10
617.531207
 20
312.549264
 30
0.0
 10
620.162335
 20
311.030182
 30
0.0
  0
SPLINE
  5
24c
100
AcDbEntity
  8
0
 62
7
100
AcDbSpline
 70
8
 71
3
 72
8
 73
4
 74
0
 40
0
 40
0
 40
0
 40
0
 40
1
 40
1
 40
1
 40
1
 10
620.162335
 20
311.030182
 30
0.0
 10
622.793462
 20
309.511100
 30
0.0
 10
626.035144
 20
309.511100
 30
0.0
 10
628.666271
 20
311.030182
 30
0.0
  0
SPLINE
  5
24d
100
AcDbEntity
  8
0
 62
7
100
AcDbSpline
 70
8
 71
3
 72
8
 73
4
 74
0
 40
0
 40
0
 40
0
 40
0
 40
1
 40
1
 40
1
 40
1
 10
628.666271
 20
311.030182
 30
0.0
 10
631.297399
 20
312.549264
 30
0.0
 10
632.918240
 20
315.356644
 30
0.0
 10
632.918240
 20
318.394808
 30
0.0
  0
LWPOLYLINE
  5
24e
100
AcDbEntity
  8
0
 62
7
100
AcDbPolyline
 90
2
 70
0
 10
577.800129
 20
318.394808
 30
0.0
 10
577.800130
 20
318.394808
 30
0.0
  0
SPLINE
  5
24f
100
AcDbEntity
  8
0
 62
7
100
AcDbSpline
 70
8
 71
3
 72
8
 73
4
 74
0
 40
0
 40
0
 40
0
 40
0
 40
1
 40
1
 40
1
 40
1
 10
688.036350
 20
318.394808
 30
0.0
 10
688.036350
 20
321.432972
 30
0.0
 10
686.415508
 20
324.240351
 30
0.0
 10
683.784381
 20
325.759433
 30
0.0
  0
SPLINE
  5
250
100
AcDbEntity
  8
0
 62
7
100
AcDbSpline
 70
8
 71
3
 72
8
 73
4
 74
0
 40
0
 40
0
 40
0
 40
0
 40
1
 40
1
 40
1
 40
1
 10
683.784381
 20
325.759433
 30
0.0
 10
681.153254
 20
327.278515
 30
0.0
 10
677.911572
 20
327.278515
 30
0.0
 10
675.280444
 20
325.759433
 30
0.0
  0
SPLINE
  5
251
100
AcDbEntity
  8
0
 62
7
100
AcDbSpline
 70
8
 71
3
 72
8
 73
4
 74
0
 40
0
 40
0
 40
0
 40
0
 40
1
 40
1
 40
1
 40
1
 10
675.280444
 20
325.759433
 30
0.0
 10
672.649317
 20
324.240351
 30
0.0
 10
671.028476
 20
321.432972
 30
0.0
 10
671.028476
 20
318.394808
 30
0.0
  0
SPLINE
  5
252
100
AcDbEntity
  8
0
 62
7
100
AcDbSpline
 70
8
 71
3
 72
8
 73
4
 74
0
 40
0
 40
0
 40
0
 40
0
 40
1
 40
1
 40
1
 40
1
 10
671.028476
 20
318.394808
 30
0.0
 10
671.028476
 20
315.356644
 30
0.0
 10
672.649317
 20
312.549264
 30
0.0
 10
675.280444
 20
311.030182
 30
0.0
  0
SPLINE
  5
253
100
AcDbEntity
  8
0
 62
7
100
AcDbSpline
 70
8
 71
3
 72
8
 73
4
 74
0
 40
0
 40
0
 40
0
 40
0
 40
1
 40
1
 40
1
 40
1
 10
675.280444
 20
311.030182
 30
0.0
 10
677.911572
 20
309.511100
 30
0.0
 10
681.153254
 20
309.511100
 30
0.0
 10
683.784381
 20
311.030182
 30
0.0
  0
SPLINE
  5
254
100
AcDbEntity
  8
0
 62
7
100
AcDbSpline
 70
8
 71
3
 72
8
 73
4
 74
0
 40
0
 40
0
 40
0
 40
0
 40
1
 40
1
 40
1
 40
1
 10
683.784381
 20
311.030182
 30
0.0
 10
686.415508
 20
312.549264
 30
0.0
 10
688.036350
 20
315.356644
 30
0.0
 10
688.036350
 20
318.394808
 30
0.0
  0
LWPOLYLINE
  5
255
100
AcDbEntity
  8
0
 62
7
100
AcDbPolyline
 90
2
 70
0
 10
632.918240
 20
318.394808
 30
0.0
 10
632.918240
 20
318.394808
 30
0.0
  0
LWPOLYLINE
  5
256
100
AcDbEntity
  8
0
 62
7
100
AcDbPolyline
 90
2
 70
0
 10
688.036350
 20
318.394808
 30
0.0
 10
688.036350
 20
318.394808
 30
0.0
  0
LWPOLYLINE
  5
257
100
AcDbEntity
  8
0
 62
7
100
AcDbPolyline
 90
2
 70
0
 10
23.915809
 20
1311.888235
 30
0.0
 10
110.372690
 20
1311.888257
 30
0.0
  0
SPLINE
  5
258
100
AcDbEntity
  8
0
 62
7
100
AcDbSpline
 70
8
 71
3
 72
8
 73
4
 74
0
 40
0
 40
0
 40
0
 40
0
 40
1
 40
1
 40
1
 40
1
 10
147.878870
 20
318.394808
 30
0.0
 10
147.878870
 20
321.432972
 30
0.0
 10
146.258028
 20
324.240351
 30
0.0
 10
143.626901
 20
325.759433
 30
0.0
  0
SPLINE
  5
259
100
AcDbEntity
  8
0
 62
7
100
AcDbSpline
 70
8
 71
3
 72
8
 73
4
 74
0
 40
0
 40
0
 40
0
 40
0
 40
1
 40
1
 40
1
 40
1
 10
143.626901
 20
325.759433
 30
0.0
 10
140.995774
 20
327.278515
 30
0.0
 10
137.754092
 20
327.278515
 30
0.0
 10
135.122964
 20
325.759433
 30
0.0
  0
SPLINE
  5
25a
100
AcDbEntity
  8
0
 62
7
100
AcDbSpline
 70
8
 71
3
 72
8
 73
4
 74
0
 40
0
 40
0
 40
0
 40
0
 40
1
 40
1
 40
1
 40
1
 10
135.122964
 20
325.759433
 30
0.0
 10
132.491837
 20
324.240351
 30
0.0
 10
130.870996
 20
321.432972
 30
0.0
 10
130.870996
 20
318.394808
 30
0.0
  0
SPLINE
  5
25b
100
AcDbEntity
  8
0
 62
7
100
AcDbSpline
 70
8
 71
3
 72
8
 73
4
 74
0
 40
0
 40
0
 40
0
 40
0
 40
1
 40
1
 40
1
 40
1
 10
130.870996
 20
318.394808
 30
0.0
 10
130.870996
 20
315.356644
 30
0.0
 10
132.491837
 20
312.549264
 30
0.0
 10
135.122964
 20
311.030182
 30
0.0
  0
SPLINE
  5
25c
100
AcDbEntity
  8
0
 62
7
100
AcDbSpline
 70
8
 71
3
 72
8
 73
4
 74
0
 40
0
 40
0
 40
0
 40
0
 40
1
 40
1
 40
1
 40
1
 10
135.122964
 20
311.030182
 30
0.0
 10
137.754092
 20
309.511100
 30
0.0
 10
140.995774
 20
309.511100
 30
0.0
 10
143.626901
 20
311.030182
 30
0.0
  0
SPLINE
  5
25d
100
AcDbEntity
  8
0
 62
7
100
AcDbSpline
 70
8
 71
3
 72
8
 73
4
 74
0
 40
0
 40
0
 40
0
 40
0
 40
1
 40
1
 40
1
 40
1
 10
143.626901
 20
311.030182
 30
0.0
 10
146.258028
 20
312.549264
 30
0.0
 10
147.878870
 20
315.356644
 30
0.0
 10
147.878870
 20
318.394808
 30
0.0
  0
LWPOLYLINE
  5
25e
100
AcDbEntity
  8
0
 62
7
100
AcDbPolyline
 90
2
 70
0
 10
668.246172
 20
1311.888414
 30
0.0
 10
700.157480
 20
1311.888414
 30
0.0
  0
SPLINE
  5
25f
100
AcDbEntity
  8
0
 62
7
100
AcDbSpline
 70
8
 71
3
 72
8
 73
4
 74
0
 40
0
 40
0
 40
0
 40
0
 40
1
 40
1
 40
1
 40
1
 10
105.359184
 20
318.394808
 30
0.0
 10
105.359184
 20
321.432972
 30
0.0
 10
103.738343
 20
324.240351
 30
0.0
 10
101.107216
 20
325.759433
 30
0.0
  0
SPLINE
  5
260
100
AcDbEntity
  8
0
 62
7
100
AcDbSpline
 70
8
 71
3
 72
8
 73
4
 74
0
 40
0
 40
0
 40
0
 40
0
 40
1
 40
1
 40
1
 40
1
 10
101.107216
 20
325.759433
 30
0.0
 10
98.476089
 20
327.278515
 30
0.0
 10
95.234406
 20
327.278515
 30
0.0
 10
92.603279
 20
325.759433
 30
0.0
  0
SPLINE
  5
261
100
AcDbEntity
  8
0
 62
7
100
AcDbSpline
 70
8
 71
3
 72
8
 73
4
 74
0
 40
0
 40
0
 40
0
 40
0
 40
1
 40
1
 40
1
 40
1
 10
92.603279
 20
325.759433
 30
0.0
 10
89.972152
 20
324.240351
 30
0.0
 10
88.351311
 20
321.432972
 30
0.0
 10
88.351311
 20
318.394808
 30
0.0
  0
SPLINE
  5
262
100
AcDbEntity
  8
0
 62
7
100
AcDbSpline
 70
8
 71
3
 72
8
 73
4
 74
0
 40
0
 40
0
 40
0
 40
0
 40
1
 40
1
 40
1
 40
1
 10
88.351311
 20
318.394808
 30
0.0
 10
88.351311
 20
315.356644
 30
0.0
 10
89.972152
 20
312.549264
 30
0.0
 10
92.603279
 20
311.030182
 30
0.0
  0
SPLINE
  5
263
100
AcDbEntity
  8
0
 62
7
100
AcDbSpline
 70
8
 71
3
 72
8
 73
4
 74
0
 40
0
 40
0
 40
0
 40
0
 40
1
 40
1
 40
1
 40
1
 10
92.603279
 20
311.030182
 30
0.0
 10
95.234407
 20
309.511100
 30
0.0
 10
98.476089
 20
309.511100
 30
0.0
 10
101.107216
 20
311.030182
 30
0.0
  0
SPLINE
  5
264
100
AcDbEntity
  8
0
 62
7
100
AcDbSpline
 70
8
 71
3
 72
8
 73
4
 74
0
 40
0
 40
0
 40
0
 40
0
 40
1
 40
1
 40
1
 40
1
 10
101.107216
 20
311.030182
 30
0.0
 10
103.738343
 20
312.549264
 30
0.0
 10
105.359185
 20
315.356644
 30
0.0
 10
105.359185
 20
318.394808
 30
0.0
  0
LWPOLYLINE
  5
265
100
AcDbEntity
  8
0
 62
7
100
AcDbPolyline
 90
2
 70
0
 10
147.878870
 20
318.394808
 30
0.0
 10
147.878870
 20
318.394808
 30
0.0
  0
LWPOLYLINE
  5
266
100
AcDbEntity
  8
0
 62
7
100
AcDbPolyline
 90
2
 70
0
 10
105.359185
 20
318.394808
 30
0.0
 10
105.359185
 20
318.394808
 30
0.0
  0
ENDSEC
  0
SECTION
  2
OBJECTS
  0
DICTIONARY
  5
C
330
0
100
AcDbDictionary
  3
ACAD_GROUP
350
D
  3
ACAD_MLINESTYLE
350
17
  0
DICTIONARY
  5
D
330
C
100
AcDbDictionary
  0
DICTIONARY
  5
1A
330
C
100
AcDbDictionary
  0
DICTIONARY
  5
17
330
C
100
AcDbDictionary
  3
STANDARD
350
18
  0
DICTIONARY
  5
19
330
C
100
AcDbDictionary
  0
ENDSEC
  0
EOF
