  0
SECTION
  2
HEADER
  9
$ACADVER
  1
AC1014
  9
$HANDSEED
  5
FFFF
  9
$MEASUREMENT
 70
     1
  0
ENDSEC
  0
SECTION
  2
TABLES
  0
TABLE
  2
VPORT
  5
8
330
0
100
AcDbSymbolTable
 70
     4
  0
VPORT
  5
2E
330
8
100
AcDbSymbolTableRecord
100
AcDbViewportTableRecord
  2
*ACTIVE
 70
     0
 10
0.0
 20
0.0
 11
1.0
 21
1.0
 12
210.0
 22
148.5
 13
0.0
 23
0.0
 14
10.0
 24
10.0
 15
10.0
 25
10.0
 16
0.0
 26
0.0
 36
1.0
 17
0.0
 27
0.0
 37
0.0
 40
341.0
 41
1.24
 42
50.0
 43
0.0
 44
0.0
 50
0.0
 51
0.0
 71
     0
 72
   100
 73
     1
 74
     3
 75
     0
 76
     0
 77
     0
 78
     0
  0
ENDTAB
  0
TABLE
  2
LTYPE
  5
5
330
0
100
AcDbSymbolTable
 70
     1
  0
LTYPE
  5
14
330
5
100
AcDbSymbolTableRecord
100
AcDbLinetypeTableRecord
  2
BYBLOCK
 70
     0
  3

 72
    65
 73
     0
 40
0.0
  0
LTYPE
  5
15
330
5
100
AcDbSymbolTableRecord
100
AcDbLinetypeTableRecord
  2
BYLAYER
 70
     0
  3

 72
    65
 73
     0
 40
0.0
  0
LTYPE
  5
16
330
5
100
AcDbSymbolTableRecord
100
AcDbLinetypeTableRecord
  2
CONTINUOUS
 70
     0
  3
Solid line
 72
    65
 73
     0
 40
0.0
  0
ENDTAB
  0
TABLE
  2
LAYER
  5
2
100
AcDbSymbolTable
 70
3
  0
LAYER
  5
50
100
AcDbSymbolTableRecord
100
AcDbLayerTableRecord
  2
0
 70
0
  6
CONTINUOUS
  0
LAYER
  5
51
100
AcDbSymbolTableRecord
100
AcDbLayerTableRecord
  2
Laag_2
 70
0
  6
CONTINUOUS
  0
LAYER
  5
52
100
AcDbSymbolTableRecord
100
AcDbLayerTableRecord
  2
Laag_1
 70
0
  6
CONTINUOUS
  0
ENDTAB
  0
TABLE
  2
STYLE
  5
3
330
0
100
AcDbSymbolTable
 70
     1
  0
STYLE
  5
11
330
3
100
AcDbSymbolTableRecord
100
AcDbTextStyleTableRecord
  2
STANDARD
 70
     0
 40
0.0
 41
1.0
 50
0.0
 71
     0
 42
2.5
  3
txt
  4

  0
ENDTAB
  0
TABLE
  2
VIEW
  5
6
330
0
100
AcDbSymbolTable
 70
     0
  0
ENDTAB
  0
TABLE
  2
UCS
  5
7
330
0
100
AcDbSymbolTable
 70
     0
  0
ENDTAB
  0
TABLE
  2
APPID
  5
9
330
0
100
AcDbSymbolTable
 70
     2
  0
APPID
  5
12
330
9
100
AcDbSymbolTableRecord
100
AcDbRegAppTableRecord
  2
ACAD
 70
     0
  0
ENDTAB
  0
TABLE
  2
DIMSTYLE
  5
A
330
0
100
AcDbSymbolTable
 70
     1
  0
DIMSTYLE
105
27
330
A
100
AcDbSymbolTableRecord
100
AcDbDimStyleTableRecord
  2
ISO-25
 70
     0
  3

  4

  5

  6

  7

 40
1.0
 41
2.5
 42
0.625
 43
3.75
 44
1.25
 45
0.0
 46
0.0
 47
0.0
 48
0.0
140
2.5
141
2.5
142
0.0
143
0.03937007874016
144
1.0
145
0.0
146
1.0
147
0.625
 71
     0
 72
     0
 73
     0
 74
     0
 75
     0
 76
     0
 77
     1
 78
     8
170
     0
171
     3
172
     1
173
     0
174
     0
175
     0
176
     0
177
     0
178
     0
270
     2
271
     2
272
     2
273
     2
274
     3
340
11
275
     0
280
     0
281
     0
282
     0
283
     0
284
     8
285
     0
286
     0
287
     3
288
     0
  0
ENDTAB
  0
TABLE
  2
BLOCK_RECORD
  5
1
330
0
100
AcDbSymbolTable
 70
     1
  0
BLOCK_RECORD
  5
1F
330
1
100
AcDbSymbolTableRecord
100
AcDbBlockTableRecord
  2
*MODEL_SPACE
  0
BLOCK_RECORD
  5
1B
330
1
100
AcDbSymbolTableRecord
100
AcDbBlockTableRecord
  2
*PAPER_SPACE
  0
ENDTAB
  0
ENDSEC
  0
SECTION
  2
BLOCKS
  0
BLOCK
  5
20
330
1F
100
AcDbEntity
  8
0
100
AcDbBlockBegin
  2
*MODEL_SPACE
 70
     0
 10
0.0
 20
0.0
 30
0.0
  3
*MODEL_SPACE
  1

  0
ENDBLK
  5
21
330
1F
100
AcDbEntity
  8
0
100
AcDbBlockEnd
  0
BLOCK
  5
1C
330
1B
100
AcDbEntity
 67
     1
  8
0
100
AcDbBlockBegin
  2
*PAPER_SPACE
  1

  0
ENDBLK
  5
1D
330
1B
100
AcDbEntity
 67
     1
  8
0
100
AcDbBlockEnd
  0
ENDSEC
  0
SECTION
  2
ENTITIES
  0
SPLINE
  5
100
100
AcDbEntity
  8
Laag_1
 62
5
100
AcDbSpline
 70
8
 71
3
 72
8
 73
4
 74
0
 40
0
 40
0
 40
0
 40
0
 40
1
 40
1
 40
1
 40
1
 10
46.611314
 20
222.581785
 30
0.0
 10
43.304022
 20
222.581800
 30
0.0
 10
40.132184
 20
221.267990
 30
0.0
 10
37.793575
 20
218.929381
 30
0.0
  0
SPLINE
  5
101
100
AcDbEntity
  8
Laag_1
 62
5
100
AcDbSpline
 70
8
 71
3
 72
8
 73
4
 74
0
 40
0
 40
0
 40
0
 40
0
 40
1
 40
1
 40
1
 40
1
 10
37.793575
 20
218.929381
 30
0.0
 10
35.454967
 20
216.590772
 30
0.0
 10
34.141157
 20
213.418933
 30
0.0
 10
34.141173
 20
210.111641
 30
0.0
  0
SPLINE
  5
102
100
AcDbEntity
  8
Laag_1
 62
5
100
AcDbSpline
 70
8
 71
3
 72
8
 73
4
 74
0
 40
0
 40
0
 40
0
 40
0
 40
1
 40
1
 40
1
 40
1
 10
34.141173
 20
210.111641
 30
0.0
 10
34.145043
 20
208.242400
 30
0.0
 10
34.569093
 20
206.397942
 30
0.0
 10
35.381957
 20
204.714692
 30
0.0
  0
SPLINE
  5
103
100
AcDbEntity
  8
Laag_1
 62
5
100
AcDbSpline
 70
8
 71
3
 72
8
 73
4
 74
0
 40
0
 40
0
 40
0
 40
0
 40
1
 40
1
 40
1
 40
1
 10
35.381957
 20
204.714692
 30
0.0
 10
24.936194
 20
199.038954
 30
0.0
 10
15.262537
 20
191.853674
 30
0.0
 10
6.704431
 20
183.295569
 30
0.0
  0
SPLINE
  5
104
100
AcDbEntity
  8
Laag_1
 62
5
100
AcDbSpline
 70
8
 71
3
 72
8
 73
4
 74
0
 40
0
 40
0
 40
0
 40
0
 40
1
 40
1
 40
1
 40
1
 10
6.704431
 20
183.295569
 30
0.0
 10
-16.712940
 20
159.878196
 30
0.0
 10
-29.868151
 20
128.117416
 30
0.0
 10
-29.868151
 20
95.000252
 30
0.0
  0
SPLINE
  5
105
100
AcDbEntity
  8
Laag_1
 62
5
100
AcDbSpline
 70
8
 71
3
 72
8
 73
4
 74
0
 40
0
 40
0
 40
0
 40
0
 40
1
 40
1
 40
1
 40
1
 10
-29.868151
 20
95.000252
 30
0.0
 10
-29.868151
 20
92.437954
 30
0.0
 10
-29.789493
 20
89.883939
 30
0.0
 10
-29.633333
 20
87.341116
 30
0.0
  0
SPLINE
  5
106
100
AcDbEntity
  8
Laag_1
 62
5
100
AcDbSpline
 70
8
 71
3
 72
8
 73
4
 74
0
 40
0
 40
0
 40
0
 40
0
 40
1
 40
1
 40
1
 40
1
 10
-29.633333
 20
87.341116
 30
0.0
 10
-35.940526
 20
86.637592
 30
0.0
 10
-40.713327
 20
81.309328
 30
0.0
 10
-40.721029
 20
74.963025
 30
0.0
  0
SPLINE
  5
107
100
AcDbEntity
  8
Laag_1
 62
5
100
AcDbSpline
 70
8
 71
3
 72
8
 73
4
 74
0
 40
0
 40
0
 40
0
 40
0
 40
1
 40
1
 40
1
 40
1
 10
-40.721029
 20
74.963025
 30
0.0
 10
-40.721044
 20
71.655732
 30
0.0
 10
-39.407235
 20
68.483893
 30
0.0
 10
-37.068625
 20
66.145284
 30
0.0
  0
SPLINE
  5
108
100
AcDbEntity
  8
Laag_1
 62
5
100
AcDbSpline
 70
8
 71
3
 72
8
 73
4
 74
0
 40
0
 40
0
 40
0
 40
0
 40
1
 40
1
 40
1
 40
1
 10
-37.068625
 20
66.145284
 30
0.0
 10
-34.730016
 20
63.806675
 30
0.0
 10
-31.558177
 20
62.492865
 30
0.0
 10
-28.250885
 20
62.492881
 30
0.0
  0
SPLINE
  5
109
100
AcDbEntity
  8
Laag_1
 62
5
100
AcDbSpline
 70
8
 71
3
 72
8
 73
4
 74
0
 40
0
 40
0
 40
0
 40
0
 40
1
 40
1
 40
1
 40
1
 10
-28.250885
 20
62.492881
 30
0.0
 10
-27.372676
 20
62.497862
 30
0.0
 10
-26.497451
 20
62.595603
 30
0.0
 10
-25.639779
 20
62.784475
 30
0.0
  0
SPLINE
  5
10a
100
AcDbEntity
  8
Laag_1
 62
5
100
AcDbSpline
 70
8
 71
3
 72
8
 73
4
 74
0
 40
0
 40
0
 40
0
 40
0
 40
1
 40
1
 40
1
 40
1
 10
-25.639779
 20
62.784475
 30
0.0
 10
-20.023157
 20
41.753487
 30
0.0
 10
-8.954345
 20
22.363706
 30
0.0
 10
6.704431
 20
6.704936
 30
0.0
  0
SPLINE
  5
10b
100
AcDbEntity
  8
Laag_1
 62
5
100
AcDbSpline
 70
8
 71
3
 72
8
 73
4
 74
0
 40
0
 40
0
 40
0
 40
0
 40
1
 40
1
 40
1
 40
1
 10
6.704431
 20
6.704936
 30
0.0
 10
30.121801
 20
-16.712453
 30
0.0
 10
61.882584
 20
-29.868200
 30
0.0
 10
94.999748
 20
-29.868200
 30
0.0
  0
SPLINE
  5
10c
100
AcDbEntity
  8
Laag_1
 62
5
100
AcDbSpline
 70
8
 71
3
 72
8
 73
4
 74
0
 40
0
 40
0
 40
0
 40
0
 40
1
 40
1
 40
1
 40
1
 10
94.999748
 20
-29.868200
 30
0.0
 10
101.598462
 20
-29.868200
 30
0.0
 10
108.142572
 20
-29.342067
 30
0.0
 10
114.578364
 20
-28.320386
 30
0.0
  0
SPLINE
  5
10d
100
AcDbEntity
  8
Laag_1
 62
5
100
AcDbSpline
 70
8
 71
3
 72
8
 73
4
 74
0
 40
0
 40
0
 40
0
 40
0
 40
1
 40
1
 40
1
 40
1
 10
114.578364
 20
-28.320386
 30
0.0
 10
115.815405
 20
-34.056873
 30
0.0
 10
120.884708
 20
-38.154639
 30
0.0
 10
126.753056
 20
-38.161785
 30
0.0
  0
SPLINE
  5
10e
100
AcDbEntity
  8
Laag_1
 62
5
100
AcDbSpline
 70
8
 71
3
 72
8
 73
4
 74
0
 40
0
 40
0
 40
0
 40
0
 40
1
 40
1
 40
1
 40
1
 10
126.753056
 20
-38.161785
 30
0.0
 10
133.639923
 20
-38.161512
 30
0.0
 10
139.222679
 20
-32.578509
 30
0.0
 10
139.222647
 20
-25.691641
 30
0.0
  0
SPLINE
  5
10f
100
AcDbEntity
  8
Laag_1
 62
5
100
AcDbSpline
 70
8
 71
3
 72
8
 73
4
 74
0
 40
0
 40
0
 40
0
 40
0
 40
1
 40
1
 40
1
 40
1
 10
139.222647
 20
-25.691641
 30
0.0
 10
139.218151
 20
-24.435104
 30
0.0
 10
139.023765
 20
-23.186463
 30
0.0
 10
138.646075
 20
-21.988025
 30
0.0
  0
SPLINE
  5
110
100
AcDbEntity
  8
Laag_1
 62
5
100
AcDbSpline
 70
8
 71
3
 72
8
 73
4
 74
0
 40
0
 40
0
 40
0
 40
0
 40
1
 40
1
 40
1
 40
1
 10
138.646075
 20
-21.988025
 30
0.0
 10
145.554649
 20
-19.410551
 30
0.0
 10
152.231130
 20
-16.226912
 30
0.0
 10
158.591250
 20
-12.463575
 30
0.0
  0
SPLINE
  5
111
100
AcDbEntity
  8
Laag_1
 62
5
100
AcDbSpline
 70
8
 71
3
 72
8
 73
4
 74
0
 40
0
 40
0
 40
0
 40
0
 40
1
 40
1
 40
1
 40
1
 10
158.591250
 20
-12.463575
 30
0.0
 10
158.591250
 20
-12.463575
 30
0.0
 10
158.754414
 20
-12.592122
 30
0.0
 10
158.958909
 20
-12.856592
 30
0.0
  0
SPLINE
  5
112
100
AcDbEntity
  8
Laag_1
 62
5
100
AcDbSpline
 70
8
 71
3
 72
8
 73
4
 74
0
 40
0
 40
0
 40
0
 40
0
 40
1
 40
1
 40
1
 40
1
 10
158.958909
 20
-12.856592
 30
0.0
 10
159.167872
 20
-13.126820
 30
0.0
 10
159.361561
 20
-13.412141
 30
0.0
 10
159.514534
 20
-13.717590
 30
0.0
  0
SPLINE
  5
113
100
AcDbEntity
  8
Laag_1
 62
5
100
AcDbSpline
 70
8
 71
3
 72
8
 73
4
 74
0
 40
0
 40
0
 40
0
 40
0
 40
1
 40
1
 40
1
 40
1
 10
159.514534
 20
-13.717590
 30
0.0
 10
159.779022
 20
-14.245684
 30
0.0
 10
159.961518
 20
-14.813267
 30
0.0
 10
160.131345
 20
-15.378953
 30
0.0
  0
SPLINE
  5
114
100
AcDbEntity
  8
Laag_1
 62
5
100
AcDbSpline
 70
8
 71
3
 72
8
 73
4
 74
0
 40
0
 40
0
 40
0
 40
0
 40
1
 40
1
 40
1
 40
1
 10
160.131345
 20
-15.378953
 30
0.0
 10
160.288695
 20
-15.903096
 30
0.0
 10
160.291780
 20
-16.472683
 30
0.0
 10
160.501762
 20
-16.978030
 30
0.0
  0
SPLINE
  5
115
100
AcDbEntity
  8
Laag_1
 62
5
100
AcDbSpline
 70
8
 71
3
 72
8
 73
4
 74
0
 40
0
 40
0
 40
0
 40
0
 40
1
 40
1
 40
1
 40
1
 10
160.501762
 20
-16.978030
 30
0.0
 10
160.650352
 20
-17.335634
 30
0.0
 10
160.837389
 20
-17.696816
 30
0.0
 10
161.119123
 20
-17.962500
 30
0.0
  0
SPLINE
  5
116
100
AcDbEntity
  8
Laag_1
 62
5
100
AcDbSpline
 70
8
 71
3
 72
8
 73
4
 74
0
 40
0
 40
0
 40
0
 40
0
 40
1
 40
1
 40
1
 40
1
 10
161.119123
 20
-17.962500
 30
0.0
 10
161.460502
 20
-18.284431
 30
0.0
 10
161.403834
 20
-18.360484
 30
0.0
 10
162.353295
 20
-18.638840
 30
0.0
  0
SPLINE
  5
117
100
AcDbEntity
  8
Laag_1
 62
5
100
AcDbSpline
 70
8
 71
3
 72
8
 73
4
 74
0
 40
0
 40
0
 40
0
 40
0
 40
1
 40
1
 40
1
 40
1
 10
162.353295
 20
-18.638840
 30
0.0
 10
163.357168
 20
-18.933141
 30
0.0
 10
164.242248
 20
-18.867214
 30
0.0
 10
165.316075
 20
-18.823498
 30
0.0
  0
SPLINE
  5
118
100
AcDbEntity
  8
Laag_1
 62
5
100
AcDbSpline
 70
8
 71
3
 72
8
 73
4
 74
0
 40
0
 40
0
 40
0
 40
0
 40
1
 40
1
 40
1
 40
1
 10
165.316075
 20
-18.823498
 30
0.0
 10
166.084620
 20
-18.726696
 30
0.0
 10
166.853630
 20
-18.601138
 30
0.0
 10
167.599761
 20
-18.392999
 30
0.0
  0
SPLINE
  5
119
100
AcDbEntity
  8
Laag_1
 62
5
100
AcDbSpline
 70
8
 71
3
 72
8
 73
4
 74
0
 40
0
 40
0
 40
0
 40
0
 40
1
 40
1
 40
1
 40
1
 10
167.599761
 20
-18.392999
 30
0.0
 10
168.445979
 20
-18.156948
 30
0.0
 10
169.273454
 20
-17.844887
 30
0.0
 10
170.068105
 20
-17.470265
 30
0.0
  0
SPLINE
  5
11a
100
AcDbEntity
  8
Laag_1
 62
5
100
AcDbSpline
 70
8
 71
3
 72
8
 73
4
 74
0
 40
0
 40
0
 40
0
 40
0
 40
1
 40
1
 40
1
 40
1
 10
170.068105
 20
-17.470265
 30
0.0
 10
171.292737
 20
-16.892951
 30
0.0
 10
172.476787
 20
-16.215714
 30
0.0
 10
173.586510
 20
-15.440139
 30
0.0
  0
SPLINE
  5
11b
100
AcDbEntity
  8
Laag_1
 62
5
100
AcDbSpline
 70
8
 71
3
 72
8
 73
4
 74
0
 40
0
 40
0
 40
0
 40
0
 40
1
 40
1
 40
1
 40
1
 10
173.586510
 20
-15.440139
 30
0.0
 10
174.817659
 20
-14.579700
 30
0.0
 10
175.959925
 20
-13.590104
 30
0.0
 10
177.042631
 20
-12.549015
 30
0.0
  0
SPLINE
  5
11c
100
AcDbEntity
  8
Laag_1
 62
5
100
AcDbSpline
 70
8
 71
3
 72
8
 73
4
 74
0
 40
0
 40
0
 40
0
 40
0
 40
1
 40
1
 40
1
 40
1
 10
177.042631
 20
-12.549015
 30
0.0
 10
177.860133
 20
-11.762941
 30
0.0
 10
178.565113
 20
-10.867366
 30
0.0
 10
179.326314
 20
-10.026654
 30
0.0
  0
SPLINE
  5
11d
100
AcDbEntity
  8
Laag_1
 62
5
100
AcDbSpline
 70
8
 71
3
 72
8
 73
4
 74
0
 40
0
 40
0
 40
0
 40
0
 40
1
 40
1
 40
1
 40
1
 10
179.326314
 20
-10.026654
 30
0.0
 10
180.358234
 20
-8.886956
 30
0.0
 10
181.407356
 20
-7.216039
 30
0.0
 10
181.918681
 20
-6.212796
 30
0.0
  0
LINE
  5
11e
100
AcDbEntity
  8
Laag_1
 62
5
100
AcDbLine
 10
181.918681
 20
-6.212796
 30
0.0
 11
182.226811
 21
-6.335715
 31
0.0
  0
SPLINE
  5
11f
100
AcDbEntity
  8
Laag_1
 62
5
100
AcDbSpline
 70
8
 71
3
 72
8
 73
4
 74
0
 40
0
 40
0
 40
0
 40
0
 40
1
 40
1
 40
1
 40
1
 10
182.226811
 20
-6.335715
 30
0.0
 10
182.726090
 20
-6.946303
 30
0.0
 10
183.329535
 20
-7.570019
 30
0.0
 10
184.078341
 20
-7.997078
 30
0.0
  0
SPLINE
  5
120
100
AcDbEntity
  8
Laag_1
 62
5
100
AcDbSpline
 70
8
 71
3
 72
8
 73
4
 74
0
 40
0
 40
0
 40
0
 40
0
 40
1
 40
1
 40
1
 40
1
 10
184.078341
 20
-7.997078
 30
0.0
 10
184.372501
 20
-8.168274
 30
0.0
 10
184.678814
 20
-8.328376
 30
0.0
 10
185.004383
 20
-8.427577
 30
0.0
  0
SPLINE
  5
121
100
AcDbEntity
  8
Laag_1
 62
5
100
AcDbSpline
 70
8
 71
3
 72
8
 73
4
 74
0
 40
0
 40
0
 40
0
 40
0
 40
1
 40
1
 40
1
 40
1
 10
185.004383
 20
-8.427577
 30
0.0
 10
186.576995
 20
-8.872134
 30
0.0
 10
188.376473
 20
-8.728161
 30
0.0
 10
190.003354
 20
-8.120000
 30
0.0
  0
SPLINE
  5
122
100
AcDbEntity
  8
Laag_1
 62
5
100
AcDbSpline
 70
8
 71
3
 72
8
 73
4
 74
0
 40
0
 40
0
 40
0
 40
0
 40
1
 40
1
 40
1
 40
1
 10
190.003354
 20
-8.120000
 30
0.0
 10
190.482121
 20
-7.950469
 30
0.0
 10
190.961941
 20
-7.778429
 30
0.0
 10
191.423284
 20
-7.566029
 30
0.0
  0
SPLINE
  5
123
100
AcDbEntity
  8
Laag_1
 62
5
100
AcDbSpline
 70
8
 71
3
 72
8
 73
4
 74
0
 40
0
 40
0
 40
0
 40
0
 40
1
 40
1
 40
1
 40
1
 10
191.423284
 20
-7.566029
 30
0.0
 10
192.292159
 20
-7.165979
 30
0.0
 10
193.152615
 20
-6.735189
 30
0.0
 10
193.953915
 20
-6.212796
 30
0.0
  0
SPLINE
  5
124
100
AcDbEntity
  8
Laag_1
 62
5
100
AcDbSpline
 70
8
 71
3
 72
8
 73
4
 74
0
 40
0
 40
0
 40
0
 40
0
 40
1
 40
1
 40
1
 40
1
 10
193.953915
 20
-6.212796
 30
0.0
 10
194.873287
 20
-5.613412
 30
0.0
 10
195.715712
 20
-4.900700
 30
0.0
 10
196.545731
 20
-4.182670
 30
0.0
  0
SPLINE
  5
125
100
AcDbEntity
  8
Laag_1
 62
5
100
AcDbSpline
 70
8
 71
3
 72
8
 73
4
 74
0
 40
0
 40
0
 40
0
 40
0
 40
1
 40
1
 40
1
 40
1
 10
196.545731
 20
-4.182670
 30
0.0
 10
197.556535
 20
-3.308232
 30
0.0
 10
198.532648
 20
-2.389543
 30
0.0
 10
199.446775
 20
-1.414465
 30
0.0
  0
SPLINE
  5
126
100
AcDbEntity
  8
Laag_1
 62
5
100
AcDbSpline
 70
8
 71
3
 72
8
 73
4
 74
0
 40
0
 40
0
 40
0
 40
0
 40
1
 40
1
 40
1
 40
1
 10
199.446775
 20
-1.414465
 30
0.0
 10
201.002118
 20
0.244550
 30
0.0
 10
202.452568
 20
2.004104
 30
0.0
 10
203.828938
 20
3.814362
 30
0.0
  0
SPLINE
  5
127
100
AcDbEntity
  8
Laag_1
 62
5
100
AcDbSpline
 70
8
 71
3
 72
8
 73
4
 74
0
 40
0
 40
0
 40
0
 40
0
 40
1
 40
1
 40
1
 40
1
 10
203.828938
 20
3.814362
 30
0.0
 10
205.410652
 20
5.894707
 30
0.0
 10
208.272284
 20
10.273503
 30
0.0
 10
208.272284
 20
10.273503
 30
0.0
  0
LINE
  5
128
100
AcDbEntity
  8
Laag_1
 62
5
100
AcDbLine
 10
208.272284
 20
10.273503
 30
0.0
 11
212.407500
 21
16.609172
 31
0.0
  0
SPLINE
  5
129
100
AcDbEntity
  8
Laag_1
 62
5
100
AcDbSpline
 70
8
 71
3
 72
8
 73
4
 74
0
 40
0
 40
0
 40
0
 40
0
 40
1
 40
1
 40
1
 40
1
 10
212.407500
 20
16.609172
 30
0.0
 10
212.407500
 20
16.609172
 30
0.0
 10
215.464376
 20
21.457865
 30
0.0
 10
216.913133
 20
23.929861
 30
0.0
  0
SPLINE
  5
12a
100
AcDbEntity
  8
Laag_1
 62
5
100
AcDbSpline
 70
8
 71
3
 72
8
 73
4
 74
0
 40
0
 40
0
 40
0
 40
0
 40
1
 40
1
 40
1
 40
1
 10
216.913133
 20
23.929861
 30
0.0
 10
218.408735
 20
26.481791
 30
0.0
 10
219.858370
 20
29.061717
 30
0.0
 10
221.233560
 20
31.680499
 30
0.0
  0
SPLINE
  5
12b
100
AcDbEntity
  8
Laag_1
 62
5
100
AcDbSpline
 70
8
 71
3
 72
8
 73
4
 74
0
 40
0
 40
0
 40
0
 40
0
 40
1
 40
1
 40
1
 40
1
 10
221.233560
 20
31.680499
 30
0.0
 10
222.573164
 20
34.231514
 30
0.0
 10
223.847556
 20
36.817883
 30
0.0
 10
225.060095
 20
39.431687
 30
0.0
  0
SPLINE
  5
12c
100
AcDbEntity
  8
Laag_1
 62
5
100
AcDbSpline
 70
8
 71
3
 72
8
 73
4
 74
0
 40
0
 40
0
 40
0
 40
0
 40
1
 40
1
 40
1
 40
1
 10
225.060095
 20
39.431687
 30
0.0
 10
226.471488
 20
42.474150
 30
0.0
 10
227.852170
 20
45.534771
 30
0.0
 10
229.071842
 20
48.659033
 30
0.0
  0
SPLINE
  5
12d
100
AcDbEntity
  8
Laag_1
 62
5
100
AcDbSpline
 70
8
 71
3
 72
8
 73
4
 74
0
 40
0
 40
0
 40
0
 40
0
 40
1
 40
1
 40
1
 40
1
 10
229.071842
 20
48.659033
 30
0.0
 10
229.892787
 20
50.761955
 30
0.0
 10
230.671590
 20
52.886389
 30
0.0
 10
231.293789
 20
55.056438
 30
0.0
  0
SPLINE
  5
12e
100
AcDbEntity
  8
Laag_1
 62
5
100
AcDbSpline
 70
8
 71
3
 72
8
 73
4
 74
0
 40
0
 40
0
 40
0
 40
0
 40
1
 40
1
 40
1
 40
1
 10
231.293789
 20
55.056438
 30
0.0
 10
231.803888
 20
56.835524
 30
0.0
 10
232.225497
 20
58.644033
 30
0.0
 10
232.527960
 20
60.469923
 30
0.0
  0
SPLINE
  5
12f
100
AcDbEntity
  8
Laag_1
 62
5
100
AcDbSpline
 70
8
 71
3
 72
8
 73
4
 74
0
 40
0
 40
0
 40
0
 40
0
 40
1
 40
1
 40
1
 40
1
 10
232.527960
 20
60.469923
 30
0.0
 10
232.689688
 20
61.446226
 30
0.0
 10
232.785138
 20
62.434517
 30
0.0
 10
232.836641
 20
63.422783
 30
0.0
  0
SPLINE
  5
130
100
AcDbEntity
  8
Laag_1
 62
5
100
AcDbSpline
 70
8
 71
3
 72
8
 73
4
 74
0
 40
0
 40
0
 40
0
 40
0
 40
1
 40
1
 40
1
 40
1
 10
232.836641
 20
63.422783
 30
0.0
 10
232.868656
 20
64.037105
 30
0.0
 10
232.848071
 20
64.653204
 30
0.0
 10
232.836641
 20
65.268251
 30
0.0
  0
SPLINE
  5
131
100
AcDbEntity
  8
Laag_1
 62
5
100
AcDbSpline
 70
8
 71
3
 72
8
 73
4
 74
0
 40
0
 40
0
 40
0
 40
0
 40
1
 40
1
 40
1
 40
1
 10
232.836641
 20
65.268251
 30
0.0
 10
232.826354
 20
65.822177
 30
0.0
 10
232.774905
 20
66.929064
 30
0.0
 10
232.774905
 20
66.929064
 30
0.0
  0
SPLINE
  5
132
100
AcDbEntity
  8
Laag_1
 62
5
100
AcDbSpline
 70
8
 71
3
 72
8
 73
4
 74
0
 40
0
 40
0
 40
0
 40
0
 40
1
 40
1
 40
1
 40
1
 10
232.774905
 20
66.929064
 30
0.0
 10
232.732241
 20
68.077166
 30
0.0
 10
232.281050
 20
69.200654
 30
0.0
 10
231.664205
 20
70.189501
 30
0.0
  0
SPLINE
  5
133
100
AcDbEntity
  8
Laag_1
 62
5
100
AcDbSpline
 70
8
 71
3
 72
8
 73
4
 74
0
 40
0
 40
0
 40
0
 40
0
 40
1
 40
1
 40
1
 40
1
 10
231.664205
 20
70.189501
 30
0.0
 10
231.259304
 20
70.774853
 30
0.0
 10
230.729053
 20
71.271428
 30
0.0
 10
230.182539
 20
71.727392
 30
0.0
  0
SPLINE
  5
134
100
AcDbEntity
  8
Laag_1
 62
5
100
AcDbSpline
 70
8
 71
3
 72
8
 73
4
 74
0
 40
0
 40
0
 40
0
 40
0
 40
1
 40
1
 40
1
 40
1
 10
230.182539
 20
71.727392
 30
0.0
 10
229.898042
 20
71.964749
 30
0.0
 10
229.594704
 20
72.190011
 30
0.0
 10
229.257047
 20
72.342549
 30
0.0
  0
SPLINE
  5
135
100
AcDbEntity
  8
Laag_1
 62
5
100
AcDbSpline
 70
8
 71
3
 72
8
 73
4
 74
0
 40
0
 40
0
 40
0
 40
0
 40
1
 40
1
 40
1
 40
1
 10
229.257047
 20
72.342549
 30
0.0
 10
228.546234
 20
72.649480
 30
0.0
 10
227.706637
 20
72.799379
 30
0.0
 10
226.911628
 20
72.773048
 30
0.0
  0
LINE
  5
136
100
AcDbEntity
  8
Laag_1
 62
5
100
AcDbLine
 10
226.911628
 20
72.773048
 30
0.0
 11
226.849892
 21
73.018889
 31
0.0
  0
SPLINE
  5
137
100
AcDbEntity
  8
Laag_1
 62
5
100
AcDbSpline
 70
8
 71
3
 72
8
 73
4
 74
0
 40
0
 40
0
 40
0
 40
0
 40
1
 40
1
 40
1
 40
1
 10
226.849892
 20
73.018889
 30
0.0
 10
227.268718
 20
74.119736
 30
0.0
 10
227.680035
 20
74.967642
 30
0.0
 10
228.022325
 20
76.094671
 30
0.0
  0
SPLINE
  5
138
100
AcDbEntity
  8
Laag_1
 62
5
100
AcDbSpline
 70
8
 71
3
 72
8
 73
4
 74
0
 40
0
 40
0
 40
0
 40
0
 40
1
 40
1
 40
1
 40
1
 10
228.022325
 20
76.094671
 30
0.0
 10
228.198322
 20
76.590146
 30
0.0
 10
228.398505
 20
77.077140
 30
0.0
 10
228.577953
 20
77.571376
 30
0.0
  0
SPLINE
  5
139
100
AcDbEntity
  8
Laag_1
 62
5
100
AcDbSpline
 70
8
 71
3
 72
8
 73
4
 74
0
 40
0
 40
0
 40
0
 40
0
 40
1
 40
1
 40
1
 40
1
 10
228.577953
 20
77.571376
 30
0.0
 10
228.896748
 20
78.449460
 30
0.0
 10
229.250429
 20
79.317014
 30
0.0
 10
229.503992
 20
80.216106
 30
0.0
  0
SPLINE
  5
13a
100
AcDbEntity
  8
Laag_1
 62
5
100
AcDbSpline
 70
8
 71
3
 72
8
 73
4
 74
0
 40
0
 40
0
 40
0
 40
0
 40
1
 40
1
 40
1
 40
1
 10
229.503992
 20
80.216106
 30
0.0
 10
230.282138
 20
82.987641
 30
0.0
 10
230.403248
 20
85.944325
 30
0.0
 10
230.182539
 20
88.951767
 30
0.0
  0
SPLINE
  5
13b
100
AcDbEntity
  8
Laag_1
 62
5
100
AcDbSpline
 70
8
 71
3
 72
8
 73
4
 74
0
 40
0
 40
0
 40
0
 40
0
 40
1
 40
1
 40
1
 40
1
 10
230.182539
 20
88.951767
 30
0.0
 10
230.110527
 20
89.757726
 30
0.0
 10
229.976446
 20
90.558232
 30
0.0
 10
229.812675
 20
91.350656
 30
0.0
  0
SPLINE
  5
13c
100
AcDbEntity
  8
Laag_1
 62
5
100
AcDbSpline
 70
8
 71
3
 72
8
 73
4
 74
0
 40
0
 40
0
 40
0
 40
0
 40
1
 40
1
 40
1
 40
1
 10
229.812675
 20
91.350656
 30
0.0
 10
229.696885
 20
91.910878
 30
0.0
 10
229.566049
 20
92.470322
 30
0.0
 10
229.380519
 20
93.011466
 30
0.0
  0
SPLINE
  5
13d
100
AcDbEntity
  8
Laag_1
 62
5
100
AcDbSpline
 70
8
 71
3
 72
8
 73
4
 74
0
 40
0
 40
0
 40
0
 40
0
 40
1
 40
1
 40
1
 40
1
 10
229.380519
 20
93.011466
 30
0.0
 10
229.076493
 20
93.898256
 30
0.0
 10
228.735244
 20
94.781567
 30
0.0
 10
228.269269
 20
95.595013
 30
0.0
  0
SPLINE
  5
13e
100
AcDbEntity
  8
Laag_1
 62
5
100
AcDbSpline
 70
8
 71
3
 72
8
 73
4
 74
0
 40
0
 40
0
 40
0
 40
0
 40
1
 40
1
 40
1
 40
1
 10
228.269269
 20
95.595013
 30
0.0
 10
228.079461
 20
95.926359
 30
0.0
 10
227.590725
 20
96.517747
 30
0.0
 10
227.590725
 20
96.517747
 30
0.0
  0
SPLINE
  5
13f
100
AcDbEntity
  8
Laag_1
 62
5
100
AcDbSpline
 70
8
 71
3
 72
8
 73
4
 74
0
 40
0
 40
0
 40
0
 40
0
 40
1
 40
1
 40
1
 40
1
 10
227.590725
 20
96.517747
 30
0.0
 10
227.590725
 20
96.517747
 30
0.0
 10
227.374391
 20
96.838809
 30
0.0
 10
227.220309
 20
96.948799
 30
0.0
  0
SPLINE
  5
140
100
AcDbEntity
  8
Laag_1
 62
5
100
AcDbSpline
 70
8
 71
3
 72
8
 73
4
 74
0
 40
0
 40
0
 40
0
 40
0
 40
1
 40
1
 40
1
 40
1
 10
227.220309
 20
96.948799
 30
0.0
 10
227.040048
 20
97.077478
 30
0.0
 10
226.822423
 20
97.164933
 30
0.0
 10
226.602948
 20
97.194640
 30
0.0
  0
SPLINE
  5
141
100
AcDbEntity
  8
Laag_1
 62
5
100
AcDbSpline
 70
8
 71
3
 72
8
 73
4
 74
0
 40
0
 40
0
 40
0
 40
0
 40
1
 40
1
 40
1
 40
1
 10
226.602948
 20
97.194640
 30
0.0
 10
226.233736
 20
97.244616
 30
0.0
 10
225.857494
 20
97.145274
 30
0.0
 10
225.492248
 20
97.071718
 30
0.0
  0
SPLINE
  5
142
100
AcDbEntity
  8
Laag_1
 62
5
100
AcDbSpline
 70
8
 71
3
 72
8
 73
4
 74
0
 40
0
 40
0
 40
0
 40
0
 40
1
 40
1
 40
1
 40
1
 10
225.492248
 20
97.071718
 30
0.0
 10
224.924459
 20
96.957373
 30
0.0
 10
224.390735
 20
96.707730
 30
0.0
 10
223.825923
 20
96.579483
 30
0.0
  0
SPLINE
  5
143
100
AcDbEntity
  8
Laag_1
 62
5
100
AcDbSpline
 70
8
 71
3
 72
8
 73
4
 74
0
 40
0
 40
0
 40
0
 40
0
 40
1
 40
1
 40
1
 40
1
 10
223.825923
 20
96.579483
 30
0.0
 10
223.196006
 20
96.436453
 30
0.0
 10
222.555582
 20
96.334367
 30
0.0
 10
221.912657
 20
96.271906
 30
0.0
  0
SPLINE
  5
144
100
AcDbEntity
  8
Laag_1
 62
5
100
AcDbSpline
 70
8
 71
3
 72
8
 73
4
 74
0
 40
0
 40
0
 40
0
 40
0
 40
1
 40
1
 40
1
 40
1
 10
221.912657
 20
96.271906
 30
0.0
 10
221.232205
 20
96.205801
 30
0.0
 10
219.862688
 20
96.201350
 30
0.0
 10
219.862688
 20
96.201350
 30
0.0
  0
SPLINE
  5
145
100
AcDbEntity
  8
Laag_1
 62
5
100
AcDbSpline
 70
8
 71
3
 72
8
 73
4
 74
0
 40
0
 40
0
 40
0
 40
0
 40
1
 40
1
 40
1
 40
1
 10
219.862688
 20
96.201350
 30
0.0
 10
219.785407
 20
104.242903
 30
0.0
 10
218.931450
 20
112.198773
 30
0.0
 10
217.345285
 20
119.969753
 30
0.0
  0
SPLINE
  5
146
100
AcDbEntity
  8
Laag_1
 62
5
100
AcDbSpline
 70
8
 71
3
 72
8
 73
4
 74
0
 40
0
 40
0
 40
0
 40
0
 40
1
 40
1
 40
1
 40
1
 10
217.345285
 20
119.969753
 30
0.0
 10
222.789508
 20
121.434045
 30
0.0
 10
226.574123
 20
126.368937
 30
0.0
 10
226.576489
 20
132.006641
 30
0.0
  0
SPLINE
  5
147
100
AcDbEntity
  8
Laag_1
 62
5
100
AcDbSpline
 70
8
 71
3
 72
8
 73
4
 74
0
 40
0
 40
0
 40
0
 40
0
 40
1
 40
1
 40
1
 40
1
 10
226.576489
 20
132.006641
 30
0.0
 10
226.576505
 20
135.313934
 30
0.0
 10
225.262695
 20
138.485773
 30
0.0
 10
222.924086
 20
140.824382
 30
0.0
  0
SPLINE
  5
148
100
AcDbEntity
  8
Laag_1
 62
5
100
AcDbSpline
 70
8
 71
3
 72
8
 73
4
 74
0
 40
0
 40
0
 40
0
 40
0
 40
1
 40
1
 40
1
 40
1
 10
222.924086
 20
140.824382
 30
0.0
 10
220.585477
 20
143.162991
 30
0.0
 10
217.413638
 20
144.476801
 30
0.0
 10
214.106345
 20
144.476785
 30
0.0
  0
SPLINE
  5
149
100
AcDbEntity
  8
Laag_1
 62
5
100
AcDbSpline
 70
8
 71
3
 72
8
 73
4
 74
0
 40
0
 40
0
 40
0
 40
0
 40
1
 40
1
 40
1
 40
1
 10
214.106345
 20
144.476785
 30
0.0
 10
212.691696
 20
144.472351
 30
0.0
 10
211.288114
 20
144.227237
 30
0.0
 10
209.955694
 20
143.751937
 30
0.0
  0
SPLINE
  5
14a
100
AcDbEntity
  8
Laag_1
 62
5
100
AcDbSpline
 70
8
 71
3
 72
8
 73
4
 74
0
 40
0
 40
0
 40
0
 40
0
 40
1
 40
1
 40
1
 40
1
 10
209.955694
 20
143.751937
 30
0.0
 10
203.750187
 20
158.384377
 30
0.0
 10
194.751599
 20
171.839034
 30
0.0
 10
183.295064
 20
183.295569
 30
0.0
  0
SPLINE
  5
14b
100
AcDbEntity
  8
Laag_1
 62
5
100
AcDbSpline
 70
8
 71
3
 72
8
 73
4
 74
0
 40
0
 40
0
 40
0
 40
0
 40
1
 40
1
 40
1
 40
1
 10
183.295064
 20
183.295569
 30
0.0
 10
159.877695
 20
206.712938
 30
0.0
 10
128.116911
 20
219.868151
 30
0.0
 10
94.999748
 20
219.868151
 30
0.0
  0
SPLINE
  5
14c
100
AcDbEntity
  8
Laag_1
 62
5
100
AcDbSpline
 70
8
 71
3
 72
8
 73
4
 74
0
 40
0
 40
0
 40
0
 40
0
 40
1
 40
1
 40
1
 40
1
 10
94.999748
 20
219.868151
 30
0.0
 10
82.452868
 20
219.868151
 30
0.0
 10
70.101621
 20
217.978604
 30
0.0
 10
58.324090
 20
214.359306
 30
0.0
  0
SPLINE
  5
14d
100
AcDbEntity
  8
Laag_1
 62
5
100
AcDbSpline
 70
8
 71
3
 72
8
 73
4
 74
0
 40
0
 40
0
 40
0
 40
0
 40
1
 40
1
 40
1
 40
1
 10
58.324090
 20
214.359306
 30
0.0
 10
56.537540
 20
219.290603
 30
0.0
 10
51.856257
 20
222.576907
 30
0.0
 10
46.611314
 20
222.581785
 30
0.0
  0
LINE
  5
14e
100
AcDbEntity
  8
Laag_1
 62
5
100
AcDbLine
 10
46.611314
 20
222.581785
 30
0.0
 11
46.611314
 21
222.581785
 31
0.0
  0
SPLINE
  5
14f
100
AcDbEntity
  8
Laag_1
 62
5
100
AcDbSpline
 70
8
 71
3
 72
8
 73
4
 74
0
 40
0
 40
0
 40
0
 40
0
 40
1
 40
1
 40
1
 40
1
 10
96.233457
 20
94.999995
 30
0.0
 10
96.233457
 20
94.318775
 30
0.0
 10
95.681219
 20
93.766538
 30
0.0
 10
94.999999
 20
93.766537
 30
0.0
  0
SPLINE
  5
150
100
AcDbEntity
  8
Laag_1
 62
5
100
AcDbSpline
 70
8
 71
3
 72
8
 73
4
 74
0
 40
0
 40
0
 40
0
 40
0
 40
1
 40
1
 40
1
 40
1
 10
94.999999
 20
93.766537
 30
0.0
 10
94.672865
 20
93.766537
 30
0.0
 10
94.359130
 20
93.896490
 30
0.0
 10
94.127811
 20
94.127808
 30
0.0
  0
SPLINE
  5
151
100
AcDbEntity
  8
Laag_1
 62
5
100
AcDbSpline
 70
8
 71
3
 72
8
 73
4
 74
0
 40
0
 40
0
 40
0
 40
0
 40
1
 40
1
 40
1
 40
1
 10
94.127811
 20
94.127808
 30
0.0
 10
93.896492
 20
94.359126
 30
0.0
 10
93.766539
 20
94.672861
 30
0.0
 10
93.766538
 20
94.999995
 30
0.0
  0
SPLINE
  5
152
100
AcDbEntity
  8
Laag_1
 62
5
100
AcDbSpline
 70
8
 71
3
 72
8
 73
4
 74
0
 40
0
 40
0
 40
0
 40
0
 40
1
 40
1
 40
1
 40
1
 10
93.766538
 20
94.999995
 30
0.0
 10
93.766538
 20
95.327130
 30
0.0
 10
93.896491
 20
95.640865
 30
0.0
 10
94.127810
 20
95.872184
 30
0.0
  0
SPLINE
  5
153
100
AcDbEntity
  8
Laag_1
 62
5
100
AcDbSpline
 70
8
 71
3
 72
8
 73
4
 74
0
 40
0
 40
0
 40
0
 40
0
 40
1
 40
1
 40
1
 40
1
 10
94.127810
 20
95.872184
 30
0.0
 10
94.359129
 20
96.103503
 30
0.0
 10
94.672865
 20
96.233457
 30
0.0
 10
94.999999
 20
96.233456
 30
0.0
  0
SPLINE
  5
154
100
AcDbEntity
  8
Laag_1
 62
5
100
AcDbSpline
 70
8
 71
3
 72
8
 73
4
 74
0
 40
0
 40
0
 40
0
 40
0
 40
1
 40
1
 40
1
 40
1
 10
94.999999
 20
96.233456
 30
0.0
 10
95.327133
 20
96.233456
 30
0.0
 10
95.640868
 20
96.103502
 30
0.0
 10
95.872186
 20
95.872183
 30
0.0
  0
SPLINE
  5
155
100
AcDbEntity
  8
Laag_1
 62
5
100
AcDbSpline
 70
8
 71
3
 72
8
 73
4
 74
0
 40
0
 40
0
 40
0
 40
0
 40
1
 40
1
 40
1
 40
1
 10
95.872186
 20
95.872183
 30
0.0
 10
96.103505
 20
95.640865
 30
0.0
 10
96.233458
 20
95.327129
 30
0.0
 10
96.233457
 20
94.999995
 30
0.0
  0
LINE
  5
156
100
AcDbEntity
  8
Laag_1
 62
5
100
AcDbLine
 10
96.233457
 20
94.999995
 30
0.0
 11
96.233457
 21
94.999995
 31
0.0
  0
SPLINE
  5
157
100
AcDbEntity
  8
Laag_1
 62
5
100
AcDbSpline
 70
8
 71
3
 72
8
 73
4
 74
0
 40
0
 40
0
 40
0
 40
0
 40
1
 40
1
 40
1
 40
1
 10
85.673342
 20
30.212893
 30
0.0
 10
85.673343
 20
29.885759
 30
0.0
 10
85.543390
 20
29.572023
 30
0.0
 10
85.312071
 20
29.340705
 30
0.0
  0
SPLINE
  5
158
100
AcDbEntity
  8
Laag_1
 62
5
100
AcDbSpline
 70
8
 71
3
 72
8
 73
4
 74
0
 40
0
 40
0
 40
0
 40
0
 40
1
 40
1
 40
1
 40
1
 10
85.312071
 20
29.340705
 30
0.0
 10
85.080753
 20
29.109386
 30
0.0
 10
84.767018
 20
28.979432
 30
0.0
 10
84.439884
 20
28.979432
 30
0.0
  0
SPLINE
  5
159
100
AcDbEntity
  8
Laag_1
 62
5
100
AcDbSpline
 70
8
 71
3
 72
8
 73
4
 74
0
 40
0
 40
0
 40
0
 40
0
 40
1
 40
1
 40
1
 40
1
 10
84.439884
 20
28.979432
 30
0.0
 10
84.112750
 20
28.979432
 30
0.0
 10
83.799015
 20
29.109386
 30
0.0
 10
83.567697
 20
29.340705
 30
0.0
  0
SPLINE
  5
15a
100
AcDbEntity
  8
Laag_1
 62
5
100
AcDbSpline
 70
8
 71
3
 72
8
 73
4
 74
0
 40
0
 40
0
 40
0
 40
0
 40
1
 40
1
 40
1
 40
1
 10
83.567697
 20
29.340705
 30
0.0
 10
83.336379
 20
29.572023
 30
0.0
 10
83.206426
 20
29.885759
 30
0.0
 10
83.206426
 20
30.212893
 30
0.0
  0
SPLINE
  5
15b
100
AcDbEntity
  8
Laag_1
 62
5
100
AcDbSpline
 70
8
 71
3
 72
8
 73
4
 74
0
 40
0
 40
0
 40
0
 40
0
 40
1
 40
1
 40
1
 40
1
 10
83.206426
 20
30.212893
 30
0.0
 10
83.206427
 20
30.894112
 30
0.0
 10
83.758664
 20
31.446350
 30
0.0
 10
84.439884
 20
31.446350
 30
0.0
  0
SPLINE
  5
15c
100
AcDbEntity
  8
Laag_1
 62
5
100
AcDbSpline
 70
8
 71
3
 72
8
 73
4
 74
0
 40
0
 40
0
 40
0
 40
0
 40
1
 40
1
 40
1
 40
1
 10
84.439884
 20
31.446350
 30
0.0
 10
85.121104
 20
31.446350
 30
0.0
 10
85.673342
 20
30.894112
 30
0.0
 10
85.673342
 20
30.212893
 30
0.0
  0
LINE
  5
15d
100
AcDbEntity
  8
Laag_1
 62
5
100
AcDbLine
 10
85.673342
 20
30.212893
 30
0.0
 11
85.673342
 21
30.212893
 31
0.0
  0
SPLINE
  5
15e
100
AcDbEntity
  8
Laag_1
 62
7
100
AcDbSpline
 70
8
 71
3
 72
8
 73
4
 74
0
 40
0
 40
0
 40
0
 40
0
 40
1
 40
1
 40
1
 40
1
 10
208.873872
 20
92.906575
 30
0.0
 10
209.968462
 20
92.776118
 30
0.0
 10
211.080079
 20
92.323038
 30
0.0
 10
211.890650
 20
91.677001
 30
0.0
  0
LINE
  5
15f
100
AcDbEntity
  8
Laag_1
 62
7
100
AcDbLine
 10
211.890650
 20
91.677001
 30
0.0
 11
213.174038
 21
90.653968
 31
0.0
  0
LINE
  5
160
100
AcDbEntity
  8
Laag_1
 62
7
100
AcDbLine
 10
213.174038
 20
90.653968
 30
0.0
 11
213.554592
 21
92.175927
 31
0.0
  0
SPLINE
  5
161
100
AcDbEntity
  8
Laag_1
 62
7
100
AcDbSpline
 70
8
 71
3
 72
8
 73
4
 74
0
 40
0
 40
0
 40
0
 40
0
 40
1
 40
1
 40
1
 40
1
 10
213.554592
 20
92.175927
 30
0.0
 10
213.840963
 20
93.321366
 30
0.0
 10
214.224382
 20
93.887058
 30
0.0
 10
215.104509
 20
94.462610
 30
0.0
  0
SPLINE
  5
162
100
AcDbEntity
  8
Laag_1
 62
7
100
AcDbSpline
 70
8
 71
3
 72
8
 73
4
 74
0
 40
0
 40
0
 40
0
 40
0
 40
1
 40
1
 40
1
 40
1
 10
215.104509
 20
94.462610
 30
0.0
 10
216.635643
 20
95.463940
 30
0.0
 10
217.429980
 20
95.580921
 30
0.0
 10
219.822686
 20
95.157351
 30
0.0
  0
SPLINE
  5
163
100
AcDbEntity
  8
Laag_1
 62
7
100
AcDbSpline
 70
8
 71
3
 72
8
 73
4
 74
0
 40
0
 40
0
 40
0
 40
0
 40
1
 40
1
 40
1
 40
1
 10
219.822686
 20
95.157351
 30
0.0
 10
220.915320
 20
94.963933
 30
0.0
 10
222.714984
 20
95.100684
 30
0.0
 10
223.821966
 20
95.461175
 30
0.0
  0
SPLINE
  5
164
100
AcDbEntity
  8
Laag_1
 62
7
100
AcDbSpline
 70
8
 71
3
 72
8
 73
4
 74
0
 40
0
 40
0
 40
0
 40
0
 40
1
 40
1
 40
1
 40
1
 10
223.821966
 20
95.461175
 30
0.0
 10
226.446001
 20
96.315777
 30
0.0
 10
227.404411
 20
95.482877
 30
0.0
 10
228.382536
 20
91.498063
 30
0.0
  0
SPLINE
  5
165
100
AcDbEntity
  8
Laag_1
 62
7
100
AcDbSpline
 70
8
 71
3
 72
8
 73
4
 74
0
 40
0
 40
0
 40
0
 40
0
 40
1
 40
1
 40
1
 40
1
 10
228.382536
 20
91.498063
 30
0.0
 10
229.494376
 20
86.968095
 30
0.0
 10
229.065528
 20
82.602442
 30
0.0
 10
226.943889
 20
76.854368
 30
0.0
  0
SPLINE
  5
166
100
AcDbEntity
  8
Laag_1
 62
7
100
AcDbSpline
 70
8
 71
3
 72
8
 73
4
 74
0
 40
0
 40
0
 40
0
 40
0
 40
1
 40
1
 40
1
 40
1
 10
226.943889
 20
76.854368
 30
0.0
 10
224.915611
 20
71.359270
 30
0.0
 10
224.941443
 20
71.863161
 30
0.0
 10
226.684724
 20
71.798396
 30
0.0
  0
SPLINE
  5
167
100
AcDbEntity
  8
Laag_1
 62
7
100
AcDbSpline
 70
8
 71
3
 72
8
 73
4
 74
0
 40
0
 40
0
 40
0
 40
0
 40
1
 40
1
 40
1
 40
1
 10
226.684724
 20
71.798396
 30
0.0
 10
232.087716
 20
71.597592
 30
0.0
 10
232.871814
 20
63.685317
 30
0.0
 10
228.645641
 20
52.010834
 30
0.0
  0
SPLINE
  5
168
100
AcDbEntity
  8
Laag_1
 62
7
100
AcDbSpline
 70
8
 71
3
 72
8
 73
4
 74
0
 40
0
 40
0
 40
0
 40
0
 40
1
 40
1
 40
1
 40
1
 10
228.645641
 20
52.010834
 30
0.0
 10
222.671121
 20
35.506820
 30
0.0
 10
207.038440
 20
8.963718
 30
0.0
 10
197.497009
 20
-0.877258
 30
0.0
  0
SPLINE
  5
169
100
AcDbEntity
  8
Laag_1
 62
7
100
AcDbSpline
 70
8
 71
3
 72
8
 73
4
 74
0
 40
0
 40
0
 40
0
 40
0
 40
1
 40
1
 40
1
 40
1
 10
197.497009
 20
-0.877258
 30
0.0
 10
191.153418
 20
-7.419931
 30
0.0
 10
185.417356
 20
-9.165475
 30
0.0
 10
182.966258
 20
-5.299059
 30
0.0
  0
SPLINE
  5
16a
100
AcDbEntity
  8
Laag_1
 62
7
100
AcDbSpline
 70
8
 71
3
 72
8
 73
4
 74
0
 40
0
 40
0
 40
0
 40
0
 40
1
 40
1
 40
1
 40
1
 10
182.966258
 20
-5.299059
 30
0.0
 10
182.672397
 20
-4.835566
 30
0.0
 10
182.285804
 20
-4.496955
 30
0.0
 10
182.107086
 20
-4.546598
 30
0.0
  0
SPLINE
  5
16b
100
AcDbEntity
  8
Laag_1
 62
7
100
AcDbSpline
 70
8
 71
3
 72
8
 73
4
 74
0
 40
0
 40
0
 40
0
 40
0
 40
1
 40
1
 40
1
 40
1
 10
182.107086
 20
-4.546598
 30
0.0
 10
181.928375
 20
-4.596298
 30
0.0
 10
180.718923
 20
-5.970212
 30
0.0
 10
179.419456
 20
-7.599763
 30
0.0
  0
SPLINE
  5
16c
100
AcDbEntity
  8
Laag_1
 62
7
100
AcDbSpline
 70
8
 71
3
 72
8
 73
4
 74
0
 40
0
 40
0
 40
0
 40
0
 40
1
 40
1
 40
1
 40
1
 10
179.419456
 20
-7.599763
 30
0.0
 10
176.078983
 20
-11.788816
 30
0.0
 10
173.341346
 20
-14.139952
 30
0.0
 10
169.673332
 20
-15.970022
 30
0.0
  0
SPLINE
  5
16d
100
AcDbEntity
  8
Laag_1
 62
7
100
AcDbSpline
 70
8
 71
3
 72
8
 73
4
 74
0
 40
0
 40
0
 40
0
 40
0
 40
1
 40
1
 40
1
 40
1
 10
169.673332
 20
-15.970022
 30
0.0
 10
164.292574
 20
-18.654520
 30
0.0
 10
162.101270
 20
-18.345289
 30
0.0
 10
161.167724
 20
-14.769647
 30
0.0
  0
SPLINE
  5
16e
100
AcDbEntity
  8
Laag_1
 62
7
100
AcDbSpline
 70
8
 71
3
 72
8
 73
4
 74
0
 40
0
 40
0
 40
0
 40
0
 40
1
 40
1
 40
1
 40
1
 10
161.167724
 20
-14.769647
 30
0.0
 10
160.870536
 20
-13.631416
 30
0.0
 10
160.098881
 20
-12.150032
 30
0.0
 10
159.452953
 20
-11.477581
 30
0.0
  0
SPLINE
  5
16f
100
AcDbEntity
  8
Laag_1
 62
7
100
AcDbSpline
 70
8
 71
3
 72
8
 73
4
 74
0
 40
0
 40
0
 40
0
 40
0
 40
1
 40
1
 40
1
 40
1
 10
159.452953
 20
-11.477581
 30
0.0
 10
157.242008
 20
-9.175918
 30
0.0
 10
157.168057
 20
-6.050617
 30
0.0
 10
159.280933
 20
-4.207932
 30
0.0
  0
SPLINE
  5
170
100
AcDbEntity
  8
Laag_1
 62
7
100
AcDbSpline
 70
8
 71
3
 72
8
 73
4
 74
0
 40
0
 40
0
 40
0
 40
0
 40
1
 40
1
 40
1
 40
1
 10
159.280933
 20
-4.207932
 30
0.0
 10
159.923940
 20
-3.647128
 30
0.0
 10
159.836962
 20
-3.532602
 30
0.0
 10
158.183704
 20
-2.764365
 30
0.0
  0
SPLINE
  5
171
100
AcDbEntity
  8
Laag_1
 62
7
100
AcDbSpline
 70
8
 71
3
 72
8
 73
4
 74
0
 40
0
 40
0
 40
0
 40
0
 40
1
 40
1
 40
1
 40
1
 10
158.183704
 20
-2.764365
 30
0.0
 10
156.169936
 20
-1.828516
 30
0.0
 10
154.517050
 20
-0.003131
 30
0.0
 10
154.965256
 20
0.789885
 30
0.0
  0
SPLINE
  5
172
100
AcDbEntity
  8
Laag_1
 62
7
100
AcDbSpline
 70
8
 71
3
 72
8
 73
4
 74
0
 40
0
 40
0
 40
0
 40
0
 40
1
 40
1
 40
1
 40
1
 10
154.965256
 20
0.789885
 30
0.0
 10
155.150490
 20
1.117715
 30
0.0
 10
155.683904
 20
1.073519
 30
0.0
 10
156.395321
 20
0.671521
 30
0.0
  0
SPLINE
  5
173
100
AcDbEntity
  8
Laag_1
 62
7
100
AcDbSpline
 70
8
 71
3
 72
8
 73
4
 74
0
 40
0
 40
0
 40
0
 40
0
 40
1
 40
1
 40
1
 40
1
 10
156.395321
 20
0.671521
 30
0.0
 10
157.204610
 20
0.214152
 30
0.0
 10
158.027858
 20
0.211443
 30
0.0
 10
159.266647
 20
0.662208
 30
0.0
  0
SPLINE
  5
174
100
AcDbEntity
  8
Laag_1
 62
7
100
AcDbSpline
 70
8
 71
3
 72
8
 73
4
 74
0
 40
0
 40
0
 40
0
 40
0
 40
1
 40
1
 40
1
 40
1
 10
159.266647
 20
0.662208
 30
0.0
 10
162.496362
 20
1.837212
 30
0.0
 10
164.355216
 20
2.176556
 30
0.0
 10
165.138187
 20
1.734060
 30
0.0
  0
SPLINE
  5
175
100
AcDbEntity
  8
Laag_1
 62
7
100
AcDbSpline
 70
8
 71
3
 72
8
 73
4
 74
0
 40
0
 40
0
 40
0
 40
0
 40
1
 40
1
 40
1
 40
1
 10
165.138187
 20
1.734060
 30
0.0
 10
165.567035
 20
1.491716
 30
0.0
 10
166.421901
 20
0.425932
 30
0.0
 10
167.037870
 20
-0.634349
 30
0.0
  0
SPLINE
  5
176
100
AcDbEntity
  8
Laag_1
 62
7
100
AcDbSpline
 70
8
 71
3
 72
8
 73
4
 74
0
 40
0
 40
0
 40
0
 40
0
 40
1
 40
1
 40
1
 40
1
 10
167.037870
 20
-0.634349
 30
0.0
 10
167.653871
 20
-1.694658
 30
0.0
 10
168.284226
 20
-2.527016
 30
0.0
 10
168.438604
 20
-2.484090
 30
0.0
  0
SPLINE
  5
177
100
AcDbEntity
  8
Laag_1
 62
7
100
AcDbSpline
 70
8
 71
3
 72
8
 73
4
 74
0
 40
0
 40
0
 40
0
 40
0
 40
1
 40
1
 40
1
 40
1
 10
168.438604
 20
-2.484090
 30
0.0
 10
168.593033
 20
-2.441192
 30
0.0
 10
169.797772
 20
-0.907230
 30
0.0
 10
171.115849
 20
0.924759
 30
0.0
  0
SPLINE
  5
178
100
AcDbEntity
  8
Laag_1
 62
7
100
AcDbSpline
 70
8
 71
3
 72
8
 73
4
 74
0
 40
0
 40
0
 40
0
 40
0
 40
1
 40
1
 40
1
 40
1
 10
171.115849
 20
0.924759
 30
0.0
 10
174.564085
 20
5.717316
 30
0.0
 10
177.157329
 20
8.467713
 30
0.0
 10
178.673472
 20
8.940378
 30
0.0
  0
SPLINE
  5
179
100
AcDbEntity
  8
Laag_1
 62
7
100
AcDbSpline
 70
8
 71
3
 72
8
 73
4
 74
0
 40
0
 40
0
 40
0
 40
0
 40
1
 40
1
 40
1
 40
1
 10
178.673472
 20
8.940378
 30
0.0
 10
180.213333
 20
9.420495
 30
0.0
 10
180.754692
 20
9.184868
 30
0.0
 10
181.806175
 20
7.576935
 30
0.0
  0
SPLINE
  5
17a
100
AcDbEntity
  8
Laag_1
 62
7
100
AcDbSpline
 70
8
 71
3
 72
8
 73
4
 74
0
 40
0
 40
0
 40
0
 40
0
 40
1
 40
1
 40
1
 40
1
 10
181.806175
 20
7.576935
 30
0.0
 10
182.732965
 20
6.159812
 30
0.0
 10
182.411031
 20
5.925794
 30
0.0
 10
186.836795
 20
11.233716
 30
0.0
  0
SPLINE
  5
17b
100
AcDbEntity
  8
Laag_1
 62
7
100
AcDbSpline
 70
8
 71
3
 72
8
 73
4
 74
0
 40
0
 40
0
 40
0
 40
0
 40
1
 40
1
 40
1
 40
1
 10
186.836795
 20
11.233716
 30
0.0
 10
192.732959
 20
18.305082
 30
0.0
 10
196.680890
 20
24.148442
 30
0.0
 10
202.404797
 20
34.275685
 30
0.0
  0
SPLINE
  5
17c
100
AcDbEntity
  8
Laag_1
 62
7
100
AcDbSpline
 70
8
 71
3
 72
8
 73
4
 74
0
 40
0
 40
0
 40
0
 40
0
 40
1
 40
1
 40
1
 40
1
 10
202.404797
 20
34.275685
 30
0.0
 10
208.183463
 20
44.500920
 30
0.0
 10
210.320786
 20
48.976499
 30
0.0
 10
213.475209
 20
57.464047
 30
0.0
  0
SPLINE
  5
17d
100
AcDbEntity
  8
Laag_1
 62
7
100
AcDbSpline
 70
8
 71
3
 72
8
 73
4
 74
0
 40
0
 40
0
 40
0
 40
0
 40
1
 40
1
 40
1
 40
1
 10
213.475209
 20
57.464047
 30
0.0
 10
216.158978
 20
64.685200
 30
0.0
 10
216.453359
 20
65.959755
 30
0.0
 10
215.461170
 20
66.062803
 30
0.0
  0
SPLINE
  5
17e
100
AcDbEntity
  8
Laag_1
 62
7
100
AcDbSpline
 70
8
 71
3
 72
8
 73
4
 74
0
 40
0
 40
0
 40
0
 40
0
 40
1
 40
1
 40
1
 40
1
 10
215.461170
 20
66.062803
 30
0.0
 10
215.022213
 20
66.108370
 30
0.0
 10
214.080446
 20
66.374342
 30
0.0
 10
213.368393
 20
66.653849
 30
0.0
  0
SPLINE
  5
17f
100
AcDbEntity
  8
Laag_1
 62
7
100
AcDbSpline
 70
8
 71
3
 72
8
 73
4
 74
0
 40
0
 40
0
 40
0
 40
0
 40
1
 40
1
 40
1
 40
1
 10
213.368393
 20
66.653849
 30
0.0
 10
211.202628
 20
67.503928
 30
0.0
 10
211.430461
 20
70.017128
 30
0.0
 10
214.263661
 20
76.529527
 30
0.0
  0
SPLINE
  5
180
100
AcDbEntity
  8
Laag_1
 62
7
100
AcDbSpline
 70
8
 71
3
 72
8
 73
4
 74
0
 40
0
 40
0
 40
0
 40
0
 40
1
 40
1
 40
1
 40
1
 10
214.263661
 20
76.529527
 30
0.0
 10
215.176453
 20
78.627663
 30
0.0
 10
216.131208
 20
80.948348
 30
0.0
 10
216.385366
 20
81.686667
 30
0.0
  0
LINE
  5
181
100
AcDbEntity
  8
Laag_1
 62
7
100
AcDbLine
 10
216.385366
 20
81.686667
 30
0.0
 11
216.847412
 21
83.029037
 31
0.0
  0
LINE
  5
182
100
AcDbEntity
  8
Laag_1
 62
7
100
AcDbLine
 10
216.847412
 20
83.029037
 30
0.0
 11
214.160224
 21
83.094056
 31
0.0
  0
SPLINE
  5
183
100
AcDbEntity
  8
Laag_1
 62
7
100
AcDbSpline
 70
8
 71
3
 72
8
 73
4
 74
0
 40
0
 40
0
 40
0
 40
0
 40
1
 40
1
 40
1
 40
1
 10
214.160224
 20
83.094056
 30
0.0
 10
212.682283
 20
83.129830
 30
0.0
 10
211.237297
 20
83.420045
 30
0.0
 10
210.949105
 20
83.738942
 30
0.0
  0
SPLINE
  5
184
100
AcDbEntity
  8
Laag_1
 62
7
100
AcDbSpline
 70
8
 71
3
 72
8
 73
4
 74
0
 40
0
 40
0
 40
0
 40
0
 40
1
 40
1
 40
1
 40
1
 10
210.949105
 20
83.738942
 30
0.0
 10
210.660911
 20
84.057856
 30
0.0
 10
210.034863
 20
85.863773
 30
0.0
 10
209.557888
 20
87.752142
 30
0.0
  0
SPLINE
  5
185
100
AcDbEntity
  8
Laag_1
 62
7
100
AcDbSpline
 70
8
 71
3
 72
8
 73
4
 74
0
 40
0
 40
0
 40
0
 40
0
 40
1
 40
1
 40
1
 40
1
 10
209.557888
 20
87.752142
 30
0.0
 10
208.928073
 20
90.245620
 30
0.0
 10
208.416830
 20
91.340296
 30
0.0
 10
207.690347
 20
91.750853
 30
0.0
  0
SPLINE
  5
186
100
AcDbEntity
  8
Laag_1
 62
7
100
AcDbSpline
 70
8
 71
3
 72
8
 73
4
 74
0
 40
0
 40
0
 40
0
 40
0
 40
1
 40
1
 40
1
 40
1
 10
207.690347
 20
91.750853
 30
0.0
 10
206.254632
 20
92.562239
 30
0.0
 10
206.853776
 20
93.147395
 30
0.0
 10
208.873858
 20
92.906657
 30
0.0
  0
LINE
  5
187
100
AcDbEntity
  8
Laag_1
 62
7
100
AcDbLine
 10
208.873858
 20
92.906657
 30
0.0
 11
208.873872
 21
92.906575
 31
0.0
  0
SPLINE
  5
188
100
AcDbEntity
  8
Laag_1
 62
7
100
AcDbSpline
 70
8
 71
3
 72
8
 73
4
 74
0
 40
0
 40
0
 40
0
 40
0
 40
1
 40
1
 40
1
 40
1
 10
159.919732
 20
-2.588145
 30
0.0
 10
161.046521
 20
-2.898138
 30
0.0
 10
164.054344
 20
-1.032593
 30
0.0
 10
164.220071
 20
0.079109
 30
0.0
  0
SPLINE
  5
189
100
AcDbEntity
  8
Laag_1
 62
7
100
AcDbSpline
 70
8
 71
3
 72
8
 73
4
 74
0
 40
0
 40
0
 40
0
 40
0
 40
1
 40
1
 40
1
 40
1
 10
164.220071
 20
0.079109
 30
0.0
 10
164.270986
 20
0.420428
 30
0.0
 10
164.501463
 20
0.592979
 30
0.0
 10
164.732349
 20
0.462479
 30
0.0
  0
SPLINE
  5
18a
100
AcDbEntity
  8
Laag_1
 62
7
100
AcDbSpline
 70
8
 71
3
 72
8
 73
4
 74
0
 40
0
 40
0
 40
0
 40
0
 40
1
 40
1
 40
1
 40
1
 10
164.732349
 20
0.462479
 30
0.0
 10
165.412838
 20
0.077895
 30
0.0
 10
164.322382
 20
-1.375211
 30
0.0
 10
162.227937
 20
-2.874883
 30
0.0
  0
SPLINE
  5
18b
100
AcDbEntity
  8
Laag_1
 62
7
100
AcDbSpline
 70
8
 71
3
 72
8
 73
4
 74
0
 40
0
 40
0
 40
0
 40
0
 40
1
 40
1
 40
1
 40
1
 10
162.227937
 20
-2.874883
 30
0.0
 10
157.927297
 20
-5.954323
 30
0.0
 10
157.473884
 20
-7.618644
 30
0.0
 10
160.050982
 20
-10.865808
 30
0.0
  0
SPLINE
  5
18c
100
AcDbEntity
  8
Laag_1
 62
7
100
AcDbSpline
 70
8
 71
3
 72
8
 73
4
 74
0
 40
0
 40
0
 40
0
 40
0
 40
1
 40
1
 40
1
 40
1
 10
160.050982
 20
-10.865808
 30
0.0
 10
160.921962
 20
-11.963285
 30
0.0
 10
161.831319
 20
-13.632968
 30
0.0
 10
162.071750
 20
-14.576212
 30
0.0
  0
SPLINE
  5
18d
100
AcDbEntity
  8
Laag_1
 62
7
100
AcDbSpline
 70
8
 71
3
 72
8
 73
4
 74
0
 40
0
 40
0
 40
0
 40
0
 40
1
 40
1
 40
1
 40
1
 10
162.071750
 20
-14.576212
 30
0.0
 10
162.583662
 20
-16.584420
 30
0.0
 10
163.277110
 20
-17.087651
 30
0.0
 10
165.138913
 20
-16.802268
 30
0.0
  0
SPLINE
  5
18e
100
AcDbEntity
  8
Laag_1
 62
7
100
AcDbSpline
 70
8
 71
3
 72
8
 73
4
 74
0
 40
0
 40
0
 40
0
 40
0
 40
1
 40
1
 40
1
 40
1
 10
165.138913
 20
-16.802268
 30
0.0
 10
169.173466
 20
-16.183721
 30
0.0
 10
174.628206
 20
-12.222252
 30
0.0
 10
179.024198
 20
-6.718242
 30
0.0
  0
SPLINE
  5
18f
100
AcDbEntity
  8
Laag_1
 62
7
100
AcDbSpline
 70
8
 71
3
 72
8
 73
4
 74
0
 40
0
 40
0
 40
0
 40
0
 40
1
 40
1
 40
1
 40
1
 10
179.024198
 20
-6.718242
 30
0.0
 10
181.522251
 20
-3.590514
 30
0.0
 10
181.656389
 20
-3.342638
 30
0.0
 10
181.289387
 20
-2.531927
 30
0.0
  0
SPLINE
  5
190
100
AcDbEntity
  8
Laag_1
 62
7
100
AcDbSpline
 70
8
 71
3
 72
8
 73
4
 74
0
 40
0
 40
0
 40
0
 40
0
 40
1
 40
1
 40
1
 40
1
 10
181.289387
 20
-2.531927
 30
0.0
 10
181.074853
 20
-2.057906
 30
0.0
 10
180.116813
 20
-1.227891
 30
0.0
 10
179.160305
 20
-0.687322
 30
0.0
  0
SPLINE
  5
191
100
AcDbEntity
  8
Laag_1
 62
7
100
AcDbSpline
 70
8
 71
3
 72
8
 73
4
 74
0
 40
0
 40
0
 40
0
 40
0
 40
1
 40
1
 40
1
 40
1
 10
179.160305
 20
-0.687322
 30
0.0
 10
176.448085
 20
0.845427
 30
0.0
 10
176.142080
 20
1.966978
 30
0.0
 10
177.689174
 20
4.704505
 30
0.0
  0
SPLINE
  5
192
100
AcDbEntity
  8
Laag_1
 62
7
100
AcDbSpline
 70
8
 71
3
 72
8
 73
4
 74
0
 40
0
 40
0
 40
0
 40
0
 40
1
 40
1
 40
1
 40
1
 10
177.689174
 20
4.704505
 30
0.0
 10
178.590567
 20
6.299540
 30
0.0
 10
178.802459
 20
6.973685
 30
0.0
 10
178.397385
 20
6.957824
 30
0.0
  0
SPLINE
  5
193
100
AcDbEntity
  8
Laag_1
 62
7
100
AcDbSpline
 70
8
 71
3
 72
8
 73
4
 74
0
 40
0
 40
0
 40
0
 40
0
 40
1
 40
1
 40
1
 40
1
 10
178.397385
 20
6.957824
 30
0.0
 10
178.065805
 20
6.945124
 30
0.0
 10
177.995738
 20
7.094476
 30
0.0
 10
178.233059
 20
7.308852
 30
0.0
  0
SPLINE
  5
194
100
AcDbEntity
  8
Laag_1
 62
7
100
AcDbSpline
 70
8
 71
3
 72
8
 73
4
 74
0
 40
0
 40
0
 40
0
 40
0
 40
1
 40
1
 40
1
 40
1
 10
178.233059
 20
7.308852
 30
0.0
 10
179.295346
 20
8.268407
 30
0.0
 10
179.358936
 20
7.174937
 30
0.0
 10
178.366468
 20
5.014272
 30
0.0
  0
SPLINE
  5
195
100
AcDbEntity
  8
Laag_1
 62
7
100
AcDbSpline
 70
8
 71
3
 72
8
 73
4
 74
0
 40
0
 40
0
 40
0
 40
0
 40
1
 40
1
 40
1
 40
1
 10
178.366468
 20
5.014272
 30
0.0
 10
177.764426
 20
3.703548
 30
0.0
 10
177.287789
 20
2.362936
 30
0.0
 10
177.307268
 20
2.035078
 30
0.0
  0
SPLINE
  5
196
100
AcDbEntity
  8
Laag_1
 62
7
100
AcDbSpline
 70
8
 71
3
 72
8
 73
4
 74
0
 40
0
 40
0
 40
0
 40
0
 40
1
 40
1
 40
1
 40
1
 10
177.307268
 20
2.035078
 30
0.0
 10
177.326770
 20
1.707164
 30
0.0
 10
178.340419
 20
0.713883
 30
0.0
 10
179.559873
 20
-0.172210
 30
0.0
  0
SPLINE
  5
197
100
AcDbEntity
  8
Laag_1
 62
7
100
AcDbSpline
 70
8
 71
3
 72
8
 73
4
 74
0
 40
0
 40
0
 40
0
 40
0
 40
1
 40
1
 40
1
 40
1
 10
179.559873
 20
-0.172210
 30
0.0
 10
180.856701
 20
-1.114522
 30
0.0
 10
182.208562
 20
-2.521964
 30
0.0
 10
182.816486
 20
-3.562715
 30
0.0
  0
SPLINE
  5
198
100
AcDbEntity
  8
Laag_1
 62
7
100
AcDbSpline
 70
8
 71
3
 72
8
 73
4
 74
0
 40
0
 40
0
 40
0
 40
0
 40
1
 40
1
 40
1
 40
1
 10
182.816486
 20
-3.562715
 30
0.0
 10
184.971154
 20
-7.251218
 30
0.0
 10
187.861273
 20
-7.498558
 30
0.0
 10
192.289724
 20
-4.373398
 30
0.0
  0
SPLINE
  5
199
100
AcDbEntity
  8
Laag_1
 62
7
100
AcDbSpline
 70
8
 71
3
 72
8
 73
4
 74
0
 40
0
 40
0
 40
0
 40
0
 40
1
 40
1
 40
1
 40
1
 10
192.289724
 20
-4.373398
 30
0.0
 10
197.805847
 20
-0.480848
 30
0.0
 10
203.550489
 20
7.142115
 30
0.0
 10
212.790896
 20
22.830865
 30
0.0
  0
SPLINE
  5
19a
100
AcDbEntity
  8
Laag_1
 62
7
100
AcDbSpline
 70
8
 71
3
 72
8
 73
4
 74
0
 40
0
 40
0
 40
0
 40
0
 40
1
 40
1
 40
1
 40
1
 10
212.790896
 20
22.830865
 30
0.0
 10
226.949991
 20
46.870850
 30
0.0
 10
232.567328
 20
61.656055
 30
0.0
 10
230.078099
 20
68.332002
 30
0.0
  0
SPLINE
  5
19b
100
AcDbEntity
  8
Laag_1
 62
7
100
AcDbSpline
 70
8
 71
3
 72
8
 73
4
 74
0
 40
0
 40
0
 40
0
 40
0
 40
1
 40
1
 40
1
 40
1
 10
230.078099
 20
68.332002
 30
0.0
 10
229.551749
 20
69.743584
 30
0.0
 10
229.150511
 20
70.175805
 30
0.0
 10
227.902231
 20
70.675888
 30
0.0
  0
SPLINE
  5
19c
100
AcDbEntity
  8
Laag_1
 62
7
100
AcDbSpline
 70
8
 71
3
 72
8
 73
4
 74
0
 40
0
 40
0
 40
0
 40
0
 40
1
 40
1
 40
1
 40
1
 10
227.902231
 20
70.675888
 30
0.0
 10
227.060396
 20
71.013152
 30
0.0
 10
225.626128
 20
71.210962
 30
0.0
 10
224.714844
 20
71.115520
 30
0.0
  0
SPLINE
  5
19d
100
AcDbEntity
  8
Laag_1
 62
7
100
AcDbSpline
 70
8
 71
3
 72
8
 73
4
 74
0
 40
0
 40
0
 40
0
 40
0
 40
1
 40
1
 40
1
 40
1
 10
224.714844
 20
71.115520
 30
0.0
 10
223.717310
 20
71.010996
 30
0.0
 10
222.117344
 20
71.336342
 30
0.0
 10
220.693900
 20
71.933180
 30
0.0
  0
SPLINE
  5
19e
100
AcDbEntity
  8
Laag_1
 62
7
100
AcDbSpline
 70
8
 71
3
 72
8
 73
4
 74
0
 40
0
 40
0
 40
0
 40
0
 40
1
 40
1
 40
1
 40
1
 10
220.693900
 20
71.933180
 30
0.0
 10
217.595430
 20
73.232339
 30
0.0
 10
216.901759
 20
73.062337
 30
0.0
 10
215.339922
 20
70.620917
 30
0.0
  0
SPLINE
  5
19f
100
AcDbEntity
  8
Laag_1
 62
7
100
AcDbSpline
 70
8
 71
3
 72
8
 73
4
 74
0
 40
0
 40
0
 40
0
 40
0
 40
1
 40
1
 40
1
 40
1
 10
215.339922
 20
70.620917
 30
0.0
 10
214.168733
 20
68.790229
 30
0.0
 10
213.146087
 20
68.220877
 30
0.0
 10
213.403979
 20
69.543159
 30
0.0
  0
SPLINE
  5
1a0
100
AcDbEntity
  8
Laag_1
 62
7
100
AcDbSpline
 70
8
 71
3
 72
8
 73
4
 74
0
 40
0
 40
0
 40
0
 40
0
 40
1
 40
1
 40
1
 40
1
 10
213.403979
 20
69.543159
 30
0.0
 10
213.465204
 20
69.857055
 30
0.0
 10
213.629562
 20
69.874166
 30
0.0
 10
213.789466
 20
69.583454
 30
0.0
  0
SPLINE
  5
1a1
100
AcDbEntity
  8
Laag_1
 62
7
100
AcDbSpline
 70
8
 71
3
 72
8
 73
4
 74
0
 40
0
 40
0
 40
0
 40
0
 40
1
 40
1
 40
1
 40
1
 10
213.789466
 20
69.583454
 30
0.0
 10
213.983497
 20
69.230592
 30
0.0
 10
214.420142
 20
69.699290
 30
0.0
 10
215.226257
 20
71.125686
 30
0.0
  0
SPLINE
  5
1a2
100
AcDbEntity
  8
Laag_1
 62
7
100
AcDbSpline
 70
8
 71
3
 72
8
 73
4
 74
0
 40
0
 40
0
 40
0
 40
0
 40
1
 40
1
 40
1
 40
1
 10
215.226257
 20
71.125686
 30
0.0
 10
216.628337
 20
73.606639
 30
0.0
 10
217.784810
 20
74.014024
 30
0.0
 10
220.330990
 20
72.923865
 30
0.0
  0
SPLINE
  5
1a3
100
AcDbEntity
  8
Laag_1
 62
7
100
AcDbSpline
 70
8
 71
3
 72
8
 73
4
 74
0
 40
0
 40
0
 40
0
 40
0
 40
1
 40
1
 40
1
 40
1
 10
220.330990
 20
72.923865
 30
0.0
 10
224.096117
 20
71.311811
 30
0.0
 10
223.950609
 20
71.288565
 30
0.0
 10
224.917062
 20
73.656178
 30
0.0
  0
SPLINE
  5
1a4
100
AcDbEntity
  8
Laag_1
 62
7
100
AcDbSpline
 70
8
 71
3
 72
8
 73
4
 74
0
 40
0
 40
0
 40
0
 40
0
 40
1
 40
1
 40
1
 40
1
 10
224.917062
 20
73.656178
 30
0.0
 10
226.422610
 20
77.344371
 30
0.0
 10
227.876851
 20
82.794090
 30
0.0
 10
228.071858
 20
85.478904
 30
0.0
  0
SPLINE
  5
1a5
100
AcDbEntity
  8
Laag_1
 62
7
100
AcDbSpline
 70
8
 71
3
 72
8
 73
4
 74
0
 40
0
 40
0
 40
0
 40
0
 40
1
 40
1
 40
1
 40
1
 10
228.071858
 20
85.478904
 30
0.0
 10
228.289234
 20
88.471072
 30
0.0
 10
227.323018
 20
93.415425
 30
0.0
 10
226.333293
 20
94.375426
 30
0.0
  0
SPLINE
  5
1a6
100
AcDbEntity
  8
Laag_1
 62
7
100
AcDbSpline
 70
8
 71
3
 72
8
 73
4
 74
0
 40
0
 40
0
 40
0
 40
0
 40
1
 40
1
 40
1
 40
1
 10
226.333293
 20
94.375426
 30
0.0
 10
225.859286
 20
94.835228
 30
0.0
 10
225.013020
 20
94.887685
 30
0.0
 10
223.507737
 20
94.550542
 30
0.0
  0
SPLINE
  5
1a7
100
AcDbEntity
  8
Laag_1
 62
7
100
AcDbSpline
 70
8
 71
3
 72
8
 73
4
 74
0
 40
0
 40
0
 40
0
 40
0
 40
1
 40
1
 40
1
 40
1
 10
223.507737
 20
94.550542
 30
0.0
 10
222.325890
 20
94.285874
 30
0.0
 10
220.382592
 20
94.176572
 30
0.0
 10
219.189373
 20
94.307684
 30
0.0
  0
SPLINE
  5
1a8
100
AcDbEntity
  8
Laag_1
 62
7
100
AcDbSpline
 70
8
 71
3
 72
8
 73
4
 74
0
 40
0
 40
0
 40
0
 40
0
 40
1
 40
1
 40
1
 40
1
 10
219.189373
 20
94.307684
 30
0.0
 10
217.996183
 20
94.438754
 30
0.0
 10
216.476732
 20
94.265777
 30
0.0
 10
215.812847
 20
93.923196
 30
0.0
  0
SPLINE
  5
1a9
100
AcDbEntity
  8
Laag_1
 62
7
100
AcDbSpline
 70
8
 71
3
 72
8
 73
4
 74
0
 40
0
 40
0
 40
0
 40
0
 40
1
 40
1
 40
1
 40
1
 10
215.812847
 20
93.923196
 30
0.0
 10
214.762278
 20
93.381123
 30
0.0
 10
214.550732
 20
93.058752
 30
0.0
 10
214.181106
 20
91.436883
 30
0.0
  0
SPLINE
  5
1aa
100
AcDbEntity
  8
Laag_1
 62
7
100
AcDbSpline
 70
8
 71
3
 72
8
 73
4
 74
0
 40
0
 40
0
 40
0
 40
0
 40
1
 40
1
 40
1
 40
1
 10
214.181106
 20
91.436883
 30
0.0
 10
213.947477
 20
90.411940
 30
0.0
 10
213.720872
 20
88.758165
 30
0.0
 10
213.677452
 20
87.761825
 30
0.0
  0
SPLINE
  5
1ab
100
AcDbEntity
  8
Laag_1
 62
7
100
AcDbSpline
 70
8
 71
3
 72
8
 73
4
 74
0
 40
0
 40
0
 40
0
 40
0
 40
1
 40
1
 40
1
 40
1
 10
213.677452
 20
87.761825
 30
0.0
 10
213.590773
 20
85.772901
 30
0.0
 10
212.947227
 20
84.277399
 30
0.0
 10
212.328475
 20
84.627078
 30
0.0
  0
SPLINE
  5
1ac
100
AcDbEntity
  8
Laag_1
 62
7
100
AcDbSpline
 70
8
 71
3
 72
8
 73
4
 74
0
 40
0
 40
0
 40
0
 40
0
 40
1
 40
1
 40
1
 40
1
 10
212.328475
 20
84.627078
 30
0.0
 10
212.110783
 20
84.750096
 30
0.0
 10
212.099392
 20
85.037935
 30
0.0
 10
212.303160
 20
85.266724
 30
0.0
  0
SPLINE
  5
1ad
100
AcDbEntity
  8
Laag_1
 62
7
100
AcDbSpline
 70
8
 71
3
 72
8
 73
4
 74
0
 40
0
 40
0
 40
0
 40
0
 40
1
 40
1
 40
1
 40
1
 10
212.303160
 20
85.266724
 30
0.0
 10
213.088466
 20
86.148530
 30
0.0
 10
213.175181
 20
89.518881
 30
0.0
 10
212.431387
 20
90.248970
 30
0.0
  0
SPLINE
  5
1ae
100
AcDbEntity
  8
Laag_1
 62
7
100
AcDbSpline
 70
8
 71
3
 72
8
 73
4
 74
0
 40
0
 40
0
 40
0
 40
0
 40
1
 40
1
 40
1
 40
1
 10
212.431387
 20
90.248970
 30
0.0
 10
210.601597
 20
92.044951
 30
0.0
 10
207.762241
 20
92.824499
 30
0.0
 10
209.373337
 20
91.088610
 30
0.0
  0
SPLINE
  5
1af
100
AcDbEntity
  8
Laag_1
 62
7
100
AcDbSpline
 70
8
 71
3
 72
8
 73
4
 74
0
 40
0
 40
0
 40
0
 40
0
 40
1
 40
1
 40
1
 40
1
 10
209.373337
 20
91.088610
 30
0.0
 10
209.672623
 20
90.766131
 30
0.0
 10
210.086617
 20
89.407305
 30
0.0
 10
210.293376
 20
88.069066
 30
0.0
  0
SPLINE
  5
1b0
100
AcDbEntity
  8
Laag_1
 62
7
100
AcDbSpline
 70
8
 71
3
 72
8
 73
4
 74
0
 40
0
 40
0
 40
0
 40
0
 40
1
 40
1
 40
1
 40
1
 10
210.293376
 20
88.069066
 30
0.0
 10
210.833857
 20
84.570380
 30
0.0
 10
211.290978
 20
84.103229
 30
0.0
 10
214.352460
 20
83.920527
 30
0.0
  0
SPLINE
  5
1b1
100
AcDbEntity
  8
Laag_1
 62
7
100
AcDbSpline
 70
8
 71
3
 72
8
 73
4
 74
0
 40
0
 40
0
 40
0
 40
0
 40
1
 40
1
 40
1
 40
1
 10
214.352460
 20
83.920527
 30
0.0
 10
217.267945
 20
83.746534
 30
0.0
 10
217.287080
 20
83.772526
 30
0.0
 10
217.710148
 20
88.481438
 30
0.0
  0
SPLINE
  5
1b2
100
AcDbEntity
  8
Laag_1
 62
7
100
AcDbSpline
 70
8
 71
3
 72
8
 73
4
 74
0
 40
0
 40
0
 40
0
 40
0
 40
1
 40
1
 40
1
 40
1
 10
217.710148
 20
88.481438
 30
0.0
 10
217.865432
 20
90.209524
 30
0.0
 10
217.761346
 20
91.038332
 30
0.0
 10
217.425033
 20
90.751913
 30
0.0
  0
SPLINE
  5
1b3
100
AcDbEntity
  8
Laag_1
 62
7
100
AcDbSpline
 70
8
 71
3
 72
8
 73
4
 74
0
 40
0
 40
0
 40
0
 40
0
 40
1
 40
1
 40
1
 40
1
 10
217.425033
 20
90.751913
 30
0.0
 10
217.133751
 20
90.503817
 30
0.0
 10
216.532830
 20
90.256870
 30
0.0
 10
216.089662
 20
90.203138
 30
0.0
  0
SPLINE
  5
1b4
100
AcDbEntity
  8
Laag_1
 62
7
100
AcDbSpline
 70
8
 71
3
 72
8
 73
4
 74
0
 40
0
 40
0
 40
0
 40
0
 40
1
 40
1
 40
1
 40
1
 10
216.089662
 20
90.203138
 30
0.0
 10
215.629558
 20
90.147379
 30
0.0
 10
215.235403
 20
89.779917
 30
0.0
 10
215.170797
 20
89.346664
 30
0.0
  0
SPLINE
  5
1b5
100
AcDbEntity
  8
Laag_1
 62
7
100
AcDbSpline
 70
8
 71
3
 72
8
 73
4
 74
0
 40
0
 40
0
 40
0
 40
0
 40
1
 40
1
 40
1
 40
1
 10
215.170797
 20
89.346664
 30
0.0
 10
215.018355
 20
88.324023
 30
0.0
 10
214.376017
 20
88.738260
 30
0.0
 10
214.509615
 20
89.773053
 30
0.0
  0
SPLINE
  5
1b6
100
AcDbEntity
  8
Laag_1
 62
7
100
AcDbSpline
 70
8
 71
3
 72
8
 73
4
 74
0
 40
0
 40
0
 40
0
 40
0
 40
1
 40
1
 40
1
 40
1
 10
214.509615
 20
89.773053
 30
0.0
 10
214.836460
 20
92.304417
 30
0.0
 10
215.181290
 20
93.019585
 30
0.0
 10
216.284827
 20
93.454973
 30
0.0
  0
SPLINE
  5
1b7
100
AcDbEntity
  8
Laag_1
 62
7
100
AcDbSpline
 70
8
 71
3
 72
8
 73
4
 74
0
 40
0
 40
0
 40
0
 40
0
 40
1
 40
1
 40
1
 40
1
 10
216.284827
 20
93.454973
 30
0.0
 10
219.820329
 20
94.849667
 30
0.0
 10
219.300600
 20
86.513223
 30
0.0
 10
215.218634
 20
76.353965
 30
0.0
  0
SPLINE
  5
1b8
100
AcDbEntity
  8
Laag_1
 62
7
100
AcDbSpline
 70
8
 71
3
 72
8
 73
4
 74
0
 40
0
 40
0
 40
0
 40
0
 40
1
 40
1
 40
1
 40
1
 10
215.218634
 20
76.353965
 30
0.0
 10
212.396572
 20
69.330329
 30
0.0
 10
212.294411
 20
68.366125
 30
0.0
 10
214.263043
 20
67.334750
 30
0.0
  0
SPLINE
  5
1b9
100
AcDbEntity
  8
Laag_1
 62
7
100
AcDbSpline
 70
8
 71
3
 72
8
 73
4
 74
0
 40
0
 40
0
 40
0
 40
0
 40
1
 40
1
 40
1
 40
1
 10
214.263043
 20
67.334750
 30
0.0
 10
215.066251
 20
66.913855
 30
0.0
 10
215.947902
 20
66.640816
 30
0.0
 10
216.222123
 20
66.727882
 30
0.0
  0
SPLINE
  5
1ba
100
AcDbEntity
  8
Laag_1
 62
7
100
AcDbSpline
 70
8
 71
3
 72
8
 73
4
 74
0
 40
0
 40
0
 40
0
 40
0
 40
1
 40
1
 40
1
 40
1
 10
216.222123
 20
66.727882
 30
0.0
 10
216.496392
 20
66.814905
 30
0.0
 10
216.944637
 20
67.885309
 30
0.0
 10
217.218122
 20
69.106510
 30
0.0
  0
SPLINE
  5
1bb
100
AcDbEntity
  8
Laag_1
 62
7
100
AcDbSpline
 70
8
 71
3
 72
8
 73
4
 74
0
 40
0
 40
0
 40
0
 40
0
 40
1
 40
1
 40
1
 40
1
 10
217.218122
 20
69.106510
 30
0.0
 10
217.609166
 20
70.852133
 30
0.0
 10
217.570019
 20
71.202267
 30
0.0
 10
217.035089
 20
70.744051
 30
0.0
  0
SPLINE
  5
1bc
100
AcDbEntity
  8
Laag_1
 62
7
100
AcDbSpline
 70
8
 71
3
 72
8
 73
4
 74
0
 40
0
 40
0
 40
0
 40
0
 40
1
 40
1
 40
1
 40
1
 10
217.035089
 20
70.744051
 30
0.0
 10
216.612902
 20
70.382431
 30
0.0
 10
216.346334
 20
70.373564
 30
0.0
 10
216.332681
 20
70.720598
 30
0.0
  0
SPLINE
  5
1bd
100
AcDbEntity
  8
Laag_1
 62
7
100
AcDbSpline
 70
8
 71
3
 72
8
 73
4
 74
0
 40
0
 40
0
 40
0
 40
0
 40
1
 40
1
 40
1
 40
1
 10
216.332681
 20
70.720598
 30
0.0
 10
216.302426
 20
71.494051
 30
0.0
 10
217.348850
 20
72.284510
 30
0.0
 10
217.951976
 20
71.943662
 30
0.0
  0
SPLINE
  5
1be
100
AcDbEntity
  8
Laag_1
 62
7
100
AcDbSpline
 70
8
 71
3
 72
8
 73
4
 74
0
 40
0
 40
0
 40
0
 40
0
 40
1
 40
1
 40
1
 40
1
 10
217.951976
 20
71.943662
 30
0.0
 10
219.055642
 20
71.319939
 30
0.0
 10
216.737483
 20
62.727684
 30
0.0
 10
212.447406
 20
51.541163
 30
0.0
  0
SPLINE
  5
1bf
100
AcDbEntity
  8
Laag_1
 62
7
100
AcDbSpline
 70
8
 71
3
 72
8
 73
4
 74
0
 40
0
 40
0
 40
0
 40
0
 40
1
 40
1
 40
1
 40
1
 10
212.447406
 20
51.541163
 30
0.0
 10
210.190196
 20
45.655379
 30
0.0
 10
201.223821
 20
29.003799
 30
0.0
 10
196.949492
 20
22.759689
 30
0.0
  0
SPLINE
  5
1c0
100
AcDbEntity
  8
Laag_1
 62
7
100
AcDbSpline
 70
8
 71
3
 72
8
 73
4
 74
0
 40
0
 40
0
 40
0
 40
0
 40
1
 40
1
 40
1
 40
1
 10
196.949492
 20
22.759689
 30
0.0
 10
189.744937
 20
12.235125
 30
0.0
 10
180.183231
 20
1.551123
 30
0.0
 10
178.311158
 20
1.933732
 30
0.0
  0
SPLINE
  5
1c1
100
AcDbEntity
  8
Laag_1
 62
7
100
AcDbSpline
 70
8
 71
3
 72
8
 73
4
 74
0
 40
0
 40
0
 40
0
 40
0
 40
1
 40
1
 40
1
 40
1
 10
178.311158
 20
1.933732
 30
0.0
 10
177.618384
 20
2.075266
 30
0.0
 10
177.895913
 20
3.574233
 30
0.0
 10
178.653900
 20
3.784856
 30
0.0
  0
SPLINE
  5
1c2
100
AcDbEntity
  8
Laag_1
 62
7
100
AcDbSpline
 70
8
 71
3
 72
8
 73
4
 74
0
 40
0
 40
0
 40
0
 40
0
 40
1
 40
1
 40
1
 40
1
 10
178.653900
 20
3.784856
 30
0.0
 10
179.075503
 20
3.901978
 30
0.0
 10
179.141978
 20
3.734225
 30
0.0
 10
178.866817
 20
3.247335
 30
0.0
  0
SPLINE
  5
1c3
100
AcDbEntity
  8
Laag_1
 62
7
100
AcDbSpline
 70
8
 71
3
 72
8
 73
4
 74
0
 40
0
 40
0
 40
0
 40
0
 40
1
 40
1
 40
1
 40
1
 10
178.866817
 20
3.247335
 30
0.0
 10
178.278017
 20
2.205484
 30
0.0
 10
178.743229
 20
2.487960
 30
0.0
 10
180.635622
 20
4.321445
 30
0.0
  0
LINE
  5
1c4
100
AcDbEntity
  8
Laag_1
 62
7
100
AcDbLine
 10
180.635622
 20
4.321445
 30
0.0
 11
182.324448
 21
5.957685
 31
0.0
  0
LINE
  5
1c5
100
AcDbEntity
  8
Laag_1
 62
7
100
AcDbLine
 10
182.324448
 20
5.957685
 30
0.0
 11
181.423493
 21
6.982942
 31
0.0
  0
SPLINE
  5
1c6
100
AcDbEntity
  8
Laag_1
 62
7
100
AcDbSpline
 70
8
 71
3
 72
8
 73
4
 74
0
 40
0
 40
0
 40
0
 40
0
 40
1
 40
1
 40
1
 40
1
 10
181.423493
 20
6.982942
 30
0.0
 10
180.879135
 20
7.602335
 30
0.0
 10
180.530102
 20
7.813776
 30
0.0
 10
180.541814
 20
7.517188
 30
0.0
  0
SPLINE
  5
1c7
100
AcDbEntity
  8
Laag_1
 62
7
100
AcDbSpline
 70
8
 71
3
 72
8
 73
4
 74
0
 40
0
 40
0
 40
0
 40
0
 40
1
 40
1
 40
1
 40
1
 10
180.541814
 20
7.517188
 30
0.0
 10
180.552482
 20
7.247073
 30
0.0
 10
180.394624
 20
7.120158
 30
0.0
 10
180.191116
 20
7.235164
 30
0.0
  0
SPLINE
  5
1c8
100
AcDbEntity
  8
Laag_1
 62
7
100
AcDbSpline
 70
8
 71
3
 72
8
 73
4
 74
0
 40
0
 40
0
 40
0
 40
0
 40
1
 40
1
 40
1
 40
1
 10
180.191116
 20
7.235164
 30
0.0
 10
179.987651
 20
7.350141
 30
0.0
 10
179.867698
 20
7.682853
 30
0.0
 10
179.924628
 20
7.974586
 30
0.0
  0
SPLINE
  5
1c9
100
AcDbEntity
  8
Laag_1
 62
7
100
AcDbSpline
 70
8
 71
3
 72
8
 73
4
 74
0
 40
0
 40
0
 40
0
 40
0
 40
1
 40
1
 40
1
 40
1
 10
179.924628
 20
7.974586
 30
0.0
 10
180.119212
 20
8.972354
 30
0.0
 10
178.836932
 20
8.459161
 30
0.0
 10
177.209120
 20
6.887833
 30
0.0
  0
SPLINE
  5
1ca
100
AcDbEntity
  8
Laag_1
 62
7
100
AcDbSpline
 70
8
 71
3
 72
8
 73
4
 74
0
 40
0
 40
0
 40
0
 40
0
 40
1
 40
1
 40
1
 40
1
 10
177.209120
 20
6.887833
 30
0.0
 10
176.314298
 20
6.024148
 30
0.0
 10
174.422150
 20
3.706172
 30
0.0
 10
173.004370
 20
1.736910
 30
0.0
  0
SPLINE
  5
1cb
100
AcDbEntity
  8
Laag_1
 62
7
100
AcDbSpline
 70
8
 71
3
 72
8
 73
4
 74
0
 40
0
 40
0
 40
0
 40
0
 40
1
 40
1
 40
1
 40
1
 10
173.004370
 20
1.736910
 30
0.0
 10
168.184988
 20
-4.957260
 30
0.0
 10
161.800331
 20
-9.887118
 30
0.0
 10
159.577309
 20
-8.630777
 30
0.0
  0
SPLINE
  5
1cc
100
AcDbEntity
  8
Laag_1
 62
7
100
AcDbSpline
 70
8
 71
3
 72
8
 73
4
 74
0
 40
0
 40
0
 40
0
 40
0
 40
1
 40
1
 40
1
 40
1
 10
159.577309
 20
-8.630777
 30
0.0
 10
158.016713
 20
-7.748861
 30
0.0
 10
159.865585
 20
-4.376559
 30
0.0
 10
162.119801
 20
-3.993386
 30
0.0
  0
SPLINE
  5
1cd
100
AcDbEntity
  8
Laag_1
 62
7
100
AcDbSpline
 70
8
 71
3
 72
8
 73
4
 74
0
 40
0
 40
0
 40
0
 40
0
 40
1
 40
1
 40
1
 40
1
 10
162.119801
 20
-3.993386
 30
0.0
 10
162.930456
 20
-3.855521
 30
0.0
 10
162.963507
 20
-3.903781
 30
0.0
 10
162.388485
 20
-4.385647
 30
0.0
  0
SPLINE
  5
1ce
100
AcDbEntity
  8
Laag_1
 62
7
100
AcDbSpline
 70
8
 71
3
 72
8
 73
4
 74
0
 40
0
 40
0
 40
0
 40
0
 40
1
 40
1
 40
1
 40
1
 10
162.388485
 20
-4.385647
 30
0.0
 10
161.972346
 20
-4.734361
 30
0.0
 10
161.810734
 20
-5.443388
 30
0.0
 10
161.946198
 20
-6.326800
 30
0.0
  0
LINE
  5
1cf
100
AcDbEntity
  8
Laag_1
 62
7
100
AcDbLine
 10
161.946198
 20
-6.326800
 30
0.0
 11
162.159597
 21
-7.718522
 31
0.0
  0
LINE
  5
1d0
100
AcDbEntity
  8
Laag_1
 62
7
100
AcDbLine
 10
162.159597
 20
-7.718522
 30
0.0
 11
164.225334
 21
-6.194550
 31
0.0
  0
SPLINE
  5
1d1
100
AcDbEntity
  8
Laag_1
 62
7
100
AcDbSpline
 70
8
 71
3
 72
8
 73
4
 74
0
 40
0
 40
0
 40
0
 40
0
 40
1
 40
1
 40
1
 40
1
 10
164.225334
 20
-6.194550
 30
0.0
 10
167.846081
 20
-3.523430
 30
0.0
 10
167.846691
 20
-3.522244
 30
0.0
 10
166.601086
 20
-1.378287
 30
0.0
  0
SPLINE
  5
1d2
100
AcDbEntity
  8
Laag_1
 62
7
100
AcDbSpline
 70
8
 71
3
 72
8
 73
4
 74
0
 40
0
 40
0
 40
0
 40
0
 40
1
 40
1
 40
1
 40
1
 10
166.601086
 20
-1.378287
 30
0.0
 10
164.999456
 20
1.378516
 30
0.0
 10
164.333959
 20
1.583664
 30
0.0
 10
160.969396
 20
0.357747
 30
0.0
  0
SPLINE
  5
1d3
100
AcDbEntity
  8
Laag_1
 62
7
100
AcDbSpline
 70
8
 71
3
 72
8
 73
4
 74
0
 40
0
 40
0
 40
0
 40
0
 40
1
 40
1
 40
1
 40
1
 10
160.969396
 20
0.357747
 30
0.0
 10
159.352976
 20
-0.231166
 30
0.0
 10
157.585695
 20
-0.638611
 30
0.0
 10
157.042141
 20
-0.547622
 30
0.0
  0
SPLINE
  5
1d4
100
AcDbEntity
  8
Laag_1
 62
7
100
AcDbSpline
 70
8
 71
3
 72
8
 73
4
 74
0
 40
0
 40
0
 40
0
 40
0
 40
1
 40
1
 40
1
 40
1
 10
157.042141
 20
-0.547622
 30
0.0
 10
156.223104
 20
-0.410519
 30
0.0
 10
156.295561
 20
-0.547622
 30
0.0
 10
157.465138
 20
-1.341570
 30
0.0
  0
SPLINE
  5
1d5
100
AcDbEntity
  8
Laag_1
 62
7
100
AcDbSpline
 70
8
 71
3
 72
8
 73
4
 74
0
 40
0
 40
0
 40
0
 40
0
 40
1
 40
1
 40
1
 40
1
 10
157.465138
 20
-1.341570
 30
0.0
 10
158.241303
 20
-1.869241
 30
0.0
 10
159.345977
 20
-2.430016
 30
0.0
 10
159.919834
 20
-2.587976
 30
0.0
  0
LINE
  5
1d6
100
AcDbEntity
  8
Laag_1
 62
7
100
AcDbLine
 10
159.919834
 20
-2.587976
 30
0.0
 11
159.919732
 21
-2.588145
 31
0.0
  0
SPLINE
  5
1d7
100
AcDbEntity
  8
Laag_1
 62
7
100
AcDbSpline
 70
8
 71
3
 72
8
 73
4
 74
0
 40
0
 40
0
 40
0
 40
0
 40
1
 40
1
 40
1
 40
1
 10
219.949031
 20
93.588297
 30
0.0
 10
220.457104
 20
93.481589
 30
0.0
 10
221.785064
 20
93.585023
 30
0.0
 10
222.900062
 20
93.818204
 30
0.0
  0
SPLINE
  5
1d8
100
AcDbEntity
  8
Laag_1
 62
7
100
AcDbSpline
 70
8
 71
3
 72
8
 73
4
 74
0
 40
0
 40
0
 40
0
 40
0
 40
1
 40
1
 40
1
 40
1
 10
222.900062
 20
93.818204
 30
0.0
 10
224.876225
 20
94.231422
 30
0.0
 10
224.906648
 20
94.222580
 30
0.0
 10
224.108597
 20
93.466244
 30
0.0
  0
SPLINE
  5
1d9
100
AcDbEntity
  8
Laag_1
 62
7
100
AcDbSpline
 70
8
 71
3
 72
8
 73
4
 74
0
 40
0
 40
0
 40
0
 40
0
 40
1
 40
1
 40
1
 40
1
 10
224.108597
 20
93.466244
 30
0.0
 10
222.556965
 20
91.995754
 30
0.0
 10
222.106244
 20
91.907988
 30
0.0
 10
220.499415
 20
92.763633
 30
0.0
  0
SPLINE
  5
1da
100
AcDbEntity
  8
Laag_1
 62
7
100
AcDbSpline
 70
8
 71
3
 72
8
 73
4
 74
0
 40
0
 40
0
 40
0
 40
0
 40
1
 40
1
 40
1
 40
1
 10
220.499415
 20
92.763633
 30
0.0
 10
218.723935
 20
93.709037
 30
0.0
 10
218.617907
 20
93.867979
 30
0.0
 10
219.949031
 20
93.588297
 30
0.0
  0
LINE
  5
1db
100
AcDbEntity
  8
Laag_1
 62
7
100
AcDbLine
 10
219.949031
 20
93.588297
 30
0.0
 11
219.949031
 21
93.588297
 31
0.0
  0
SPLINE
  5
1dc
100
AcDbEntity
  8
Laag_1
 62
7
100
AcDbSpline
 70
8
 71
3
 72
8
 73
4
 74
0
 40
0
 40
0
 40
0
 40
0
 40
1
 40
1
 40
1
 40
1
 10
161.906097
 20
-10.829937
 30
0.0
 10
163.564525
 20
-11.446198
 30
0.0
 10
163.881520
 20
-12.149213
 30
0.0
 10
163.339808
 20
-14.009171
 30
0.0
  0
LINE
  5
1dd
100
AcDbEntity
  8
Laag_1
 62
7
100
AcDbLine
 10
163.339808
 20
-14.009171
 30
0.0
 11
162.964509
 21
-15.297910
 31
0.0
  0
LINE
  5
1de
100
AcDbEntity
  8
Laag_1
 62
7
100
AcDbLine
 10
162.964509
 20
-15.297910
 30
0.0
 11
162.496599
 21
-13.797956
 31
0.0
  0
SPLINE
  5
1df
100
AcDbEntity
  8
Laag_1
 62
7
100
AcDbSpline
 70
8
 71
3
 72
8
 73
4
 74
0
 40
0
 40
0
 40
0
 40
0
 40
1
 40
1
 40
1
 40
1
 10
162.496599
 20
-13.797956
 30
0.0
 10
162.239260
 20
-12.972992
 30
0.0
 10
161.675535
 20
-11.846671
 30
0.0
 10
161.243843
 20
-11.295124
 30
0.0
  0
LINE
  5
1e0
100
AcDbEntity
  8
Laag_1
 62
7
100
AcDbLine
 10
161.243843
 20
-11.295124
 30
0.0
 11
160.459005
 21
-10.292191
 31
0.0
  0
LINE
  5
1e1
100
AcDbEntity
  8
Laag_1
 62
7
100
AcDbLine
 10
160.459005
 20
-10.292191
 30
0.0
 11
161.906097
 21
-10.829937
 31
0.0
  0
SPLINE
  5
1e2
100
AcDbEntity
  8
Laag_1
 62
7
100
AcDbSpline
 70
8
 71
3
 72
8
 73
4
 74
0
 40
0
 40
0
 40
0
 40
0
 40
1
 40
1
 40
1
 40
1
 10
221.110615
 20
70.704472
 30
0.0
 10
222.151730
 20
70.288304
 30
0.0
 10
222.736334
 20
69.792282
 30
0.0
 10
222.951754
 20
69.141974
 30
0.0
  0
SPLINE
  5
1e3
100
AcDbEntity
  8
Laag_1
 62
7
100
AcDbSpline
 70
8
 71
3
 72
8
 73
4
 74
0
 40
0
 40
0
 40
0
 40
0
 40
1
 40
1
 40
1
 40
1
 10
222.951754
 20
69.141974
 30
0.0
 10
223.238557
 20
68.276466
 30
0.0
 10
223.257200
 20
68.269388
 30
0.0
 10
223.155583
 20
69.064806
 30
0.0
  0
SPLINE
  5
1e4
100
AcDbEntity
  8
Laag_1
 62
7
100
AcDbSpline
 70
8
 71
3
 72
8
 73
4
 74
0
 40
0
 40
0
 40
0
 40
0
 40
1
 40
1
 40
1
 40
1
 10
223.155583
 20
69.064806
 30
0.0
 10
223.062284
 20
69.794528
 30
0.0
 10
223.268952
 20
69.955082
 30
0.0
 10
224.396800
 20
70.029224
 30
0.0
  0
SPLINE
  5
1e5
100
AcDbEntity
  8
Laag_1
 62
7
100
AcDbSpline
 70
8
 71
3
 72
8
 73
4
 74
0
 40
0
 40
0
 40
0
 40
0
 40
1
 40
1
 40
1
 40
1
 10
224.396800
 20
70.029224
 30
0.0
 10
225.141014
 20
70.078178
 30
0.0
 10
225.760511
 20
70.037973
 30
0.0
 10
225.773491
 20
69.939878
 30
0.0
  0
SPLINE
  5
1e6
100
AcDbEntity
  8
Laag_1
 62
7
100
AcDbSpline
 70
8
 71
3
 72
8
 73
4
 74
0
 40
0
 40
0
 40
0
 40
0
 40
1
 40
1
 40
1
 40
1
 10
225.773491
 20
69.939878
 30
0.0
 10
225.786388
 20
69.841752
 30
0.0
 10
225.074940
 20
69.334244
 30
0.0
 10
224.192448
 20
68.812065
 30
0.0
  0
SPLINE
  5
1e7
100
AcDbEntity
  8
Laag_1
 62
7
100
AcDbSpline
 70
8
 71
3
 72
8
 73
4
 74
0
 40
0
 40
0
 40
0
 40
0
 40
1
 40
1
 40
1
 40
1
 10
224.192448
 20
68.812065
 30
0.0
 10
222.645210
 20
67.896519
 30
0.0
 10
222.562333
 20
67.901861
 30
0.0
 10
221.871224
 20
68.961724
 30
0.0
  0
SPLINE
  5
1e8
100
AcDbEntity
  8
Laag_1
 62
7
100
AcDbSpline
 70
8
 71
3
 72
8
 73
4
 74
0
 40
0
 40
0
 40
0
 40
0
 40
1
 40
1
 40
1
 40
1
 10
221.871224
 20
68.961724
 30
0.0
 10
221.477078
 20
69.566219
 30
0.0
 10
220.801463
 20
70.342849
 30
0.0
 10
220.369909
 20
70.687581
 30
0.0
  0
SPLINE
  5
1e9
100
AcDbEntity
  8
Laag_1
 62
7
100
AcDbSpline
 70
8
 71
3
 72
8
 73
4
 74
0
 40
0
 40
0
 40
0
 40
0
 40
1
 40
1
 40
1
 40
1
 10
220.369909
 20
70.687581
 30
0.0
 10
219.808253
 20
71.136213
 30
0.0
 10
220.018734
 20
71.141058
 30
0.0
 10
221.110680
 20
70.704599
 30
0.0
  0
LINE
  5
1ea
100
AcDbEntity
  8
Laag_1
 62
7
100
AcDbLine
 10
221.110680
 20
70.704599
 30
0.0
 11
221.110615
 21
70.704472
 31
0.0
  0
SPLINE
  5
1eb
100
AcDbEntity
  8
Laag_1
 62
7
100
AcDbSpline
 70
8
 71
3
 72
8
 73
4
 74
0
 40
0
 40
0
 40
0
 40
0
 40
1
 40
1
 40
1
 40
1
 10
180.961524
 20
0.757232
 30
0.0
 10
181.499623
 20
0.492169
 30
0.0
 10
182.389913
 20
0.335818
 30
0.0
 10
182.940113
 20
0.409958
 30
0.0
  0
SPLINE
  5
1ec
100
AcDbEntity
  8
Laag_1
 62
7
100
AcDbSpline
 70
8
 71
3
 72
8
 73
4
 74
0
 40
0
 40
0
 40
0
 40
0
 40
1
 40
1
 40
1
 40
1
 10
182.940113
 20
0.409958
 30
0.0
 10
184.288915
 20
0.591765
 30
0.0
 10
184.985177
 20
-0.305758
 30
0.0
 10
184.119675
 20
-1.110543
 30
0.0
  0
SPLINE
  5
1ed
100
AcDbEntity
  8
Laag_1
 62
7
100
AcDbSpline
 70
8
 71
3
 72
8
 73
4
 74
0
 40
0
 40
0
 40
0
 40
0
 40
1
 40
1
 40
1
 40
1
 10
184.119675
 20
-1.110543
 30
0.0
 10
183.631623
 20
-1.564328
 30
0.0
 10
183.624508
 20
-1.728073
 30
0.0
 10
184.093626
 20
-1.709672
 30
0.0
  0
SPLINE
  5
1ee
100
AcDbEntity
  8
Laag_1
 62
7
100
AcDbSpline
 70
8
 71
3
 72
8
 73
4
 74
0
 40
0
 40
0
 40
0
 40
0
 40
1
 40
1
 40
1
 40
1
 10
184.093626
 20
-1.709672
 30
0.0
 10
184.490086
 20
-1.694150
 30
0.0
 10
184.557439
 20
-1.784292
 30
0.0
 10
184.268152
 20
-1.943380
 30
0.0
  0
SPLINE
  5
1ef
100
AcDbEntity
  8
Laag_1
 62
7
100
AcDbSpline
 70
8
 71
3
 72
8
 73
4
 74
0
 40
0
 40
0
 40
0
 40
0
 40
1
 40
1
 40
1
 40
1
 10
184.268152
 20
-1.943380
 30
0.0
 10
184.009154
 20
-2.085874
 30
0.0
 10
183.997078
 20
-2.444438
 30
0.0
 10
184.240890
 20
-2.740009
 30
0.0
  0
SPLINE
  5
1f0
100
AcDbEntity
  8
Laag_1
 62
7
100
AcDbSpline
 70
8
 71
3
 72
8
 73
4
 74
0
 40
0
 40
0
 40
0
 40
0
 40
1
 40
1
 40
1
 40
1
 10
184.240890
 20
-2.740009
 30
0.0
 10
184.484964
 20
-3.035722
 30
0.0
 10
184.578602
 20
-3.465264
 30
0.0
 10
184.449020
 20
-3.694541
 30
0.0
  0
SPLINE
  5
1f1
100
AcDbEntity
  8
Laag_1
 62
7
100
AcDbSpline
 70
8
 71
3
 72
8
 73
4
 74
0
 40
0
 40
0
 40
0
 40
0
 40
1
 40
1
 40
1
 40
1
 10
184.449020
 20
-3.694541
 30
0.0
 10
184.319441
 20
-3.923875
 30
0.0
 10
183.910498
 20
-3.464050
 30
0.0
 10
183.540293
 20
-2.672840
 30
0.0
  0
SPLINE
  5
1f2
100
AcDbEntity
  8
Laag_1
 62
7
100
AcDbSpline
 70
8
 71
3
 72
8
 73
4
 74
0
 40
0
 40
0
 40
0
 40
0
 40
1
 40
1
 40
1
 40
1
 10
183.540293
 20
-2.672840
 30
0.0
 10
183.170085
 20
-1.881630
 30
0.0
 10
182.218274
 20
-0.677670
 30
0.0
 10
181.425181
 20
0.002542
 30
0.0
  0
SPLINE
  5
1f3
100
AcDbEntity
  8
Laag_1
 62
7
100
AcDbSpline
 70
8
 71
3
 72
8
 73
4
 74
0
 40
0
 40
0
 40
0
 40
0
 40
1
 40
1
 40
1
 40
1
 10
181.425181
 20
0.002542
 30
0.0
 10
180.481949
 20
0.811645
 30
0.0
 10
180.321579
 20
1.072616
 30
0.0
 10
180.961479
 20
0.757232
 30
0.0
  0
LINE
  5
1f4
100
AcDbEntity
  8
Laag_1
 62
7
100
AcDbLine
 10
180.961479
 20
0.757232
 30
0.0
 11
180.961524
 21
0.757232
 31
0.0
  0
SPLINE
  5
1f5
100
AcDbEntity
  8
Laag_1
 62
7
100
AcDbSpline
 70
8
 71
3
 72
8
 73
4
 74
0
 40
0
 40
0
 40
0
 40
0
 40
1
 40
1
 40
1
 40
1
 10
183.675316
 20
-0.829195
 30
0.0
 10
184.101187
 20
-0.710916
 30
0.0
 10
184.223364
 20
-0.546945
 30
0.0
 10
183.985766
 20
-0.412635
 30
0.0
  0
SPLINE
  5
1f6
100
AcDbEntity
  8
Laag_1
 62
7
100
AcDbSpline
 70
8
 71
3
 72
8
 73
4
 74
0
 40
0
 40
0
 40
0
 40
0
 40
1
 40
1
 40
1
 40
1
 10
183.985766
 20
-0.412635
 30
0.0
 10
183.479671
 20
-0.126660
 30
0.0
 10
182.777841
 20
-0.321703
 30
0.0
 10
182.887846
 20
-0.717689
 30
0.0
  0
SPLINE
  5
1f7
100
AcDbEntity
  8
Laag_1
 62
7
100
AcDbSpline
 70
8
 71
3
 72
8
 73
4
 74
0
 40
0
 40
0
 40
0
 40
0
 40
1
 40
1
 40
1
 40
1
 10
182.887846
 20
-0.717689
 30
0.0
 10
182.934703
 20
-0.886374
 30
0.0
 10
183.289126
 20
-0.936468
 30
0.0
 10
183.675316
 20
-0.829195
 30
0.0
  0
LINE
  5
1f8
100
AcDbEntity
  8
Laag_1
 62
7
100
AcDbLine
 10
183.675316
 20
-0.829195
 30
0.0
 11
183.675316
 21
-0.829195
 31
0.0
  0
LINE
  5
1f9
100
AcDbEntity
  8
Laag_1
 62
7
100
AcDbLine
 10
191.040239
 20
3.502564
 30
0.0
 11
190.266146
 21
2.731864
 31
0.0
  0
LINE
  5
1fa
100
AcDbEntity
  8
Laag_1
 62
7
100
AcDbLine
 10
190.266146
 20
2.731864
 30
0.0
 11
191.906992
 21
1.083793
 31
0.0
  0
SPLINE
  5
1fb
100
AcDbEntity
  8
Laag_1
 62
7
100
AcDbSpline
 70
8
 71
3
 72
8
 73
4
 74
0
 40
0
 40
0
 40
0
 40
0
 40
1
 40
1
 40
1
 40
1
 10
191.906992
 20
1.083793
 30
0.0
 10
191.973289
 20
1.017203
 30
0.0
 10
192.039659
 20
0.983835
 30
0.0
 10
192.106103
 20
0.983689
 30
0.0
  0
SPLINE
  5
1fc
100
AcDbEntity
  8
Laag_1
 62
7
100
AcDbSpline
 70
8
 71
3
 72
8
 73
4
 74
0
 40
0
 40
0
 40
0
 40
0
 40
1
 40
1
 40
1
 40
1
 10
192.106103
 20
0.983689
 30
0.0
 10
192.189192
 20
1.000117
 30
0.0
 10
192.264030
 20
1.041480
 30
0.0
 10
192.330618
 20
1.107780
 30
0.0
  0
LINE
  5
1fd
100
AcDbEntity
  8
Laag_1
 62
7
100
AcDbLine
 10
192.330618
 20
1.107780
 30
0.0
 11
192.505414
 21
1.281810
 31
0.0
  0
LINE
  5
1fe
100
AcDbEntity
  8
Laag_1
 62
7
100
AcDbLine
 10
192.505414
 20
1.281810
 30
0.0
 11
192.654581
 21
1.131984
 31
0.0
  0
LINE
  5
1ff
100
AcDbEntity
  8
Laag_1
 62
7
100
AcDbLine
 10
192.654581
 20
1.131984
 30
0.0
 11
191.455984
 21
-0.061359
 31
0.0
  0
LINE
  5
200
100
AcDbEntity
  8
Laag_1
 62
7
100
AcDbLine
 10
191.455984
 20
-0.061359
 30
0.0
 11
191.306815
 21
0.088466
 31
0.0
  0
LINE
  5
201
100
AcDbEntity
  8
Laag_1
 62
7
100
AcDbLine
 10
191.306815
 20
0.088466
 30
0.0
 11
191.481611
 21
0.262496
 31
0.0
  0
SPLINE
  5
202
100
AcDbEntity
  8
Laag_1
 62
7
100
AcDbSpline
 70
8
 71
3
 72
8
 73
4
 74
0
 40
0
 40
0
 40
0
 40
0
 40
1
 40
1
 40
1
 40
1
 10
191.481611
 20
0.262496
 30
0.0
 10
191.564848
 20
0.345366
 30
0.0
 10
191.606540
 20
0.420023
 30
0.0
 10
191.606685
 20
0.486467
 30
0.0
  0
SPLINE
  5
203
100
AcDbEntity
  8
Laag_1
 62
7
100
AcDbSpline
 70
8
 71
3
 72
8
 73
4
 74
0
 40
0
 40
0
 40
0
 40
0
 40
1
 40
1
 40
1
 40
1
 10
191.606685
 20
0.486467
 30
0.0
 10
191.606832
 20
0.552909
 30
0.0
 10
191.573758
 20
0.619426
 30
0.0
 10
191.507465
 20
0.686018
 30
0.0
  0
LINE
  5
204
100
AcDbEntity
  8
Laag_1
 62
7
100
AcDbLine
 10
191.507465
 20
0.686018
 30
0.0
 11
187.952297
 21
4.256837
 31
0.0
  0
SPLINE
  5
205
100
AcDbEntity
  8
Laag_1
 62
7
100
AcDbSpline
 70
8
 71
3
 72
8
 73
4
 74
0
 40
0
 40
0
 40
0
 40
0
 40
1
 40
1
 40
1
 40
1
 10
187.952297
 20
4.256837
 30
0.0
 10
187.886001
 20
4.323426
 30
0.0
 10
187.819631
 20
4.356793
 30
0.0
 10
187.753188
 20
4.356938
 30
0.0
  0
SPLINE
  5
206
100
AcDbEntity
  8
Laag_1
 62
7
100
AcDbSpline
 70
8
 71
3
 72
8
 73
4
 74
0
 40
0
 40
0
 40
0
 40
0
 40
1
 40
1
 40
1
 40
1
 10
187.753188
 20
4.356938
 30
0.0
 10
187.686746
 20
4.357085
 30
0.0
 10
187.611907
 20
4.315721
 30
0.0
 10
187.528672
 20
4.232847
 30
0.0
  0
LINE
  5
207
100
AcDbEntity
  8
Laag_1
 62
7
100
AcDbLine
 10
187.528672
 20
4.232847
 30
0.0
 11
187.378849
 21
4.083680
 31
0.0
  0
LINE
  5
208
100
AcDbEntity
  8
Laag_1
 62
7
100
AcDbLine
 10
187.378849
 20
4.083680
 30
0.0
 11
187.229680
 21
4.233505
 31
0.0
  0
LINE
  5
209
100
AcDbEntity
  8
Laag_1
 62
7
100
AcDbLine
 10
187.229680
 20
4.233505
 30
0.0
 11
188.702955
 21
5.700321
 31
0.0
  0
SPLINE
  5
20a
100
AcDbEntity
  8
Laag_1
 62
7
100
AcDbSpline
 70
8
 71
3
 72
8
 73
4
 74
0
 40
0
 40
0
 40
0
 40
0
 40
1
 40
1
 40
1
 40
1
 10
188.702955
 20
5.700321
 30
0.0
 10
189.119135
 20
6.114677
 30
0.0
 10
189.543165
 20
6.321380
 30
0.0
 10
189.975043
 20
6.320431
 30
0.0
  0
SPLINE
  5
20b
100
AcDbEntity
  8
Laag_1
 62
7
100
AcDbSpline
 70
8
 71
3
 72
8
 73
4
 74
0
 40
0
 40
0
 40
0
 40
0
 40
1
 40
1
 40
1
 40
1
 10
189.975043
 20
6.320431
 30
0.0
 10
190.406993
 20
6.352705
 30
0.0
 10
190.780423
 20
6.210693
 30
0.0
 10
191.095333
 20
5.894396
 30
0.0
  0
SPLINE
  5
20c
100
AcDbEntity
  8
Laag_1
 62
7
100
AcDbSpline
 70
8
 71
3
 72
8
 73
4
 74
0
 40
0
 40
0
 40
0
 40
0
 40
1
 40
1
 40
1
 40
1
 10
191.095333
 20
5.894396
 30
0.0
 10
191.476540
 20
5.511510
 30
0.0
 10
191.641736
 20
5.095878
 30
0.0
 10
191.590918
 20
4.647499
 30
0.0
  0
SPLINE
  5
20d
100
AcDbEntity
  8
Laag_1
 62
7
100
AcDbSpline
 70
8
 71
3
 72
8
 73
4
 74
0
 40
0
 40
0
 40
0
 40
0
 40
1
 40
1
 40
1
 40
1
 10
191.590918
 20
4.647499
 30
0.0
 10
191.556748
 20
4.215694
 30
0.0
 10
191.373191
 20
3.834050
 30
0.0
 10
191.040248
 20
3.502567
 30
0.0
  0
LINE
  5
20e
100
AcDbEntity
  8
Laag_1
 62
7
100
AcDbLine
 10
191.040248
 20
3.502567
 30
0.0
 11
191.040239
 21
3.502564
 31
0.0
  0
LINE
  5
20f
100
AcDbEntity
  8
Laag_1
 62
7
100
AcDbLine
 10
190.116981
 20
2.881682
 30
0.0
 11
190.741252
 21
3.503215
 31
0.0
  0
SPLINE
  5
210
100
AcDbEntity
  8
Laag_1
 62
7
100
AcDbSpline
 70
8
 71
3
 72
8
 73
4
 74
0
 40
0
 40
0
 40
0
 40
0
 40
1
 40
1
 40
1
 40
1
 10
190.741252
 20
3.503215
 30
0.0
 10
190.990958
 20
3.751827
 30
0.0
 10
191.132787
 20
4.042205
 30
0.0
 10
191.166737
 20
4.374347
 30
0.0
  0
SPLINE
  5
211
100
AcDbEntity
  8
Laag_1
 62
7
100
AcDbSpline
 70
8
 71
3
 72
8
 73
4
 74
0
 40
0
 40
0
 40
0
 40
0
 40
1
 40
1
 40
1
 40
1
 10
191.166737
 20
4.374347
 30
0.0
 10
191.217335
 20
4.723061
 30
0.0
 10
191.060319
 20
5.080538
 30
0.0
 10
190.695687
 20
5.446778
 30
0.0
  0
SPLINE
  5
212
100
AcDbEntity
  8
Laag_1
 62
7
100
AcDbSpline
 70
8
 71
3
 72
8
 73
4
 74
0
 40
0
 40
0
 40
0
 40
0
 40
1
 40
1
 40
1
 40
1
 10
190.695687
 20
5.446778
 30
0.0
 10
190.364202
 20
5.779721
 30
0.0
 10
190.040640
 20
5.938233
 30
0.0
 10
189.725001
 20
5.922314
 30
0.0
  0
SPLINE
  5
213
100
AcDbEntity
  8
Laag_1
 62
7
100
AcDbSpline
 70
8
 71
3
 72
8
 73
4
 74
0
 40
0
 40
0
 40
0
 40
0
 40
1
 40
1
 40
1
 40
1
 10
189.725001
 20
5.922314
 30
0.0
 10
189.409435
 20
5.939618
 30
0.0
 10
189.076855
 20
5.774241
 30
0.0
 10
188.727263
 20
5.426183
 30
0.0
  0
LINE
  5
214
100
AcDbEntity
  8
Laag_1
 62
7
100
AcDbLine
 10
188.727263
 20
5.426183
 30
0.0
 11
188.377674
 21
5.078125
 31
0.0
  0
SPLINE
  5
215
100
AcDbEntity
  8
Laag_1
 62
7
100
AcDbSpline
 70
8
 71
3
 72
8
 73
4
 74
0
 40
0
 40
0
 40
0
 40
0
 40
1
 40
1
 40
1
 40
1
 10
188.377674
 20
5.078125
 30
0.0
 10
188.311083
 20
5.011828
 30
0.0
 10
188.269392
 20
4.937171
 30
0.0
 10
188.252599
 20
4.854154
 30
0.0
  0
SPLINE
  5
216
100
AcDbEntity
  8
Laag_1
 62
7
100
AcDbSpline
 70
8
 71
3
 72
8
 73
4
 74
0
 40
0
 40
0
 40
0
 40
0
 40
1
 40
1
 40
1
 40
1
 10
188.252599
 20
4.854154
 30
0.0
 10
188.252454
 20
4.787710
 30
0.0
 10
188.285527
 20
4.721193
 30
0.0
 10
188.351820
 20
4.654602
 30
0.0
  0
LINE
  5
217
100
AcDbEntity
  8
Laag_1
 62
7
100
AcDbLine
 10
188.351820
 20
4.654602
 30
0.0
 11
190.116974
 21
2.881677
 31
0.0
  0
LINE
  5
218
100
AcDbEntity
  8
Laag_1
 62
7
100
AcDbLine
 10
190.116974
 20
2.881677
 30
0.0
 11
190.116981
 21
2.881682
 31
0.0
  0
LINE
  5
219
100
AcDbEntity
  8
Laag_1
 62
7
100
AcDbLine
 10
190.477088
 20
7.551484
 30
0.0
 11
190.727071
 21
7.847704
 31
0.0
  0
SPLINE
  5
21a
100
AcDbEntity
  8
Laag_1
 62
7
100
AcDbSpline
 70
8
 71
3
 72
8
 73
4
 74
0
 40
0
 40
0
 40
0
 40
0
 40
1
 40
1
 40
1
 40
1
 10
190.727071
 20
7.847704
 30
0.0
 10
190.863423
 20
8.009279
 30
0.0
 10
190.974247
 20
8.177027
 30
0.0
 10
191.059544
 20
8.350950
 30
0.0
  0
SPLINE
  5
21b
100
AcDbEntity
  8
Laag_1
 62
7
100
AcDbSpline
 70
8
 71
3
 72
8
 73
4
 74
0
 40
0
 40
0
 40
0
 40
0
 40
1
 40
1
 40
1
 40
1
 10
191.059544
 20
8.350950
 30
0.0
 10
191.144841
 20
8.524874
 30
0.0
 10
191.204610
 20
8.704970
 30
0.0
 10
191.238851
 20
8.891240
 30
0.0
  0
LINE
  5
21c
100
AcDbEntity
  8
Laag_1
 62
7
100
AcDbLine
 10
191.238851
 20
8.891240
 30
0.0
 11
191.284300
 21
8.945102
 31
0.0
  0
LINE
  5
21d
100
AcDbEntity
  8
Laag_1
 62
7
100
AcDbLine
 10
191.284300
 20
8.945102
 30
0.0
 11
195.727600
 21
5.195394
 31
0.0
  0
SPLINE
  5
21e
100
AcDbEntity
  8
Laag_1
 62
7
100
AcDbSpline
 70
8
 71
3
 72
8
 73
4
 74
0
 40
0
 40
0
 40
0
 40
0
 40
1
 40
1
 40
1
 40
1
 10
195.727600
 20
5.195394
 30
0.0
 10
195.799411
 20
5.134792
 30
0.0
 10
195.868419
 20
5.107293
 30
0.0
 10
195.934625
 20
5.112899
 30
0.0
  0
SPLINE
  5
21f
100
AcDbEntity
  8
Laag_1
 62
7
100
AcDbSpline
 70
8
 71
3
 72
8
 73
4
 74
0
 40
0
 40
0
 40
0
 40
0
 40
1
 40
1
 40
1
 40
1
 10
195.934625
 20
5.112899
 30
0.0
 10
196.015983
 20
5.136456
 30
0.0
 10
196.086964
 20
5.184137
 30
0.0
 10
196.147569
 20
5.255940
 30
0.0
  0
LINE
  5
220
100
AcDbEntity
  8
Laag_1
 62
7
100
AcDbLine
 10
196.147569
 20
5.255940
 30
0.0
 11
196.670256
 21
5.875308
 31
0.0
  0
LINE
  5
221
100
AcDbEntity
  8
Laag_1
 62
7
100
AcDbLine
 10
196.670256
 20
5.875308
 30
0.0
 11
196.831831
 21
5.738956
 31
0.0
  0
LINE
  5
222
100
AcDbEntity
  8
Laag_1
 62
7
100
AcDbLine
 10
196.831831
 20
5.738956
 30
0.0
 11
195.059241
 21
3.638487
 31
0.0
  0
LINE
  5
223
100
AcDbEntity
  8
Laag_1
 62
7
100
AcDbLine
 10
195.059241
 20
3.638487
 30
0.0
 11
194.897666
 21
3.774838
 31
0.0
  0
LINE
  5
224
100
AcDbEntity
  8
Laag_1
 62
7
100
AcDbLine
 10
194.897666
 20
3.774838
 30
0.0
 11
195.420354
 21
4.394210
 31
0.0
  0
SPLINE
  5
225
100
AcDbEntity
  8
Laag_1
 62
7
100
AcDbSpline
 70
8
 71
3
 72
8
 73
4
 74
0
 40
0
 40
0
 40
0
 40
0
 40
1
 40
1
 40
1
 40
1
 10
195.420354
 20
4.394210
 30
0.0
 10
195.496105
 20
4.483972
 30
0.0
 10
195.531178
 20
4.561956
 30
0.0
 10
195.525574
 20
4.628163
 30
0.0
  0
SPLINE
  5
226
100
AcDbEntity
  8
Laag_1
 62
7
100
AcDbSpline
 70
8
 71
3
 72
8
 73
4
 74
0
 40
0
 40
0
 40
0
 40
0
 40
1
 40
1
 40
1
 40
1
 10
195.525574
 20
4.628163
 30
0.0
 10
195.519970
 20
4.694370
 30
0.0
 10
195.481258
 20
4.757772
 30
0.0
 10
195.409439
 20
4.818369
 30
0.0
  0
LINE
  5
227
100
AcDbEntity
  8
Laag_1
 62
7
100
AcDbLine
 10
195.409439
 20
4.818369
 30
0.0
 11
191.558581
 21
8.068116
 31
0.0
  0
SPLINE
  5
228
100
AcDbEntity
  8
Laag_1
 62
7
100
AcDbSpline
 70
8
 71
3
 72
8
 73
4
 74
0
 40
0
 40
0
 40
0
 40
0
 40
1
 40
1
 40
1
 40
1
 10
191.558581
 20
8.068116
 30
0.0
 10
191.486771
 20
8.128719
 30
0.0
 10
191.417763
 20
8.156217
 30
0.0
 10
191.351557
 20
8.150611
 30
0.0
  0
SPLINE
  5
229
100
AcDbEntity
  8
Laag_1
 62
7
100
AcDbSpline
 70
8
 71
3
 72
8
 73
4
 74
0
 40
0
 40
0
 40
0
 40
0
 40
1
 40
1
 40
1
 40
1
 10
191.351557
 20
8.150611
 30
0.0
 10
191.285351
 20
8.145007
 30
0.0
 10
191.214369
 20
8.097327
 30
0.0
 10
191.138613
 20
8.007571
 30
0.0
  0
LINE
  5
22a
100
AcDbEntity
  8
Laag_1
 62
7
100
AcDbLine
 10
191.138613
 20
8.007571
 30
0.0
 11
190.638650
 21
7.415131
 31
0.0
  0
LINE
  5
22b
100
AcDbEntity
  8
Laag_1
 62
7
100
AcDbLine
 10
190.638650
 20
7.415131
 30
0.0
 11
190.477075
 21
7.551482
 31
0.0
  0
LINE
  5
22c
100
AcDbEntity
  8
Laag_1
 62
7
100
AcDbLine
 10
190.477075
 20
7.551482
 30
0.0
 11
190.477088
 21
7.551484
 31
0.0
  0
SPLINE
  5
22d
100
AcDbEntity
  8
Laag_1
 62
7
100
AcDbSpline
 70
8
 71
3
 72
8
 73
4
 74
0
 40
0
 40
0
 40
0
 40
0
 40
1
 40
1
 40
1
 40
1
 10
198.772494
 20
8.410406
 30
0.0
 10
198.716910
 20
8.217548
 30
0.0
 10
198.605016
 20
8.008013
 30
0.0
 10
198.436812
 20
7.781802
 30
0.0
  0
SPLINE
  5
22e
100
AcDbEntity
  8
Laag_1
 62
7
100
AcDbSpline
 70
8
 71
3
 72
8
 73
4
 74
0
 40
0
 40
0
 40
0
 40
0
 40
1
 40
1
 40
1
 40
1
 10
198.436812
 20
7.781802
 30
0.0
 10
198.184503
 20
7.442487
 30
0.0
 10
197.912860
 20
7.234643
 30
0.0
 10
197.621882
 20
7.158272
 30
0.0
  0
SPLINE
  5
22f
100
AcDbEntity
  8
Laag_1
 62
7
100
AcDbSpline
 70
8
 71
3
 72
8
 73
4
 74
0
 40
0
 40
0
 40
0
 40
0
 40
1
 40
1
 40
1
 40
1
 10
197.621882
 20
7.158272
 30
0.0
 10
197.312054
 20
7.095917
 30
0.0
 10
197.053460
 20
7.141833
 30
0.0
 10
196.846100
 20
7.296019
 30
0.0
  0
SPLINE
  5
230
100
AcDbEntity
  8
Laag_1
 62
7
100
AcDbSpline
 70
8
 71
3
 72
8
 73
4
 74
0
 40
0
 40
0
 40
0
 40
0
 40
1
 40
1
 40
1
 40
1
 10
196.846100
 20
7.296019
 30
0.0
 10
196.506785
 20
7.548328
 30
0.0
 10
196.338576
 20
7.892957
 30
0.0
 10
196.341474
 20
8.329907
 30
0.0
  0
SPLINE
  5
231
100
AcDbEntity
  8
Laag_1
 62
7
100
AcDbSpline
 70
8
 71
3
 72
8
 73
4
 74
0
 40
0
 40
0
 40
0
 40
0
 40
1
 40
1
 40
1
 40
1
 10
196.341474
 20
8.329907
 30
0.0
 10
196.339536
 20
8.799726
 30
0.0
 10
196.613832
 20
9.503249
 30
0.0
 10
197.164364
 20
10.440474
 30
0.0
  0
LINE
  5
232
100
AcDbEntity
  8
Laag_1
 62
7
100
AcDbLine
 10
197.164364
 20
10.440474
 30
0.0
 11
196.825048
 21
10.692779
 31
0.0
  0
SPLINE
  5
233
100
AcDbEntity
  8
Laag_1
 62
7
100
AcDbSpline
 70
8
 71
3
 72
8
 73
4
 74
0
 40
0
 40
0
 40
0
 40
0
 40
1
 40
1
 40
1
 40
1
 10
196.825048
 20
10.692779
 30
0.0
 10
196.636539
 20
10.832951
 30
0.0
 10
196.450690
 20
10.897961
 30
0.0
 10
196.267500
 20
10.887809
 30
0.0
  0
SPLINE
  5
234
100
AcDbEntity
  8
Laag_1
 62
7
100
AcDbSpline
 70
8
 71
3
 72
8
 73
4
 74
0
 40
0
 40
0
 40
0
 40
0
 40
1
 40
1
 40
1
 40
1
 10
196.267500
 20
10.887809
 30
0.0
 10
196.079476
 20
10.910524
 30
0.0
 10
195.873326
 20
10.771078
 30
0.0
 10
195.649049
 20
10.469469
 30
0.0
  0
SPLINE
  5
235
100
AcDbEntity
  8
Laag_1
 62
7
100
AcDbSpline
 70
8
 71
3
 72
8
 73
4
 74
0
 40
0
 40
0
 40
0
 40
0
 40
1
 40
1
 40
1
 40
1
 10
195.649049
 20
10.469469
 30
0.0
 10
195.410759
 20
10.149005
 30
0.0
 10
195.299107
 20
9.880744
 30
0.0
 10
195.314091
 20
9.664684
 30
0.0
  0
SPLINE
  5
236
100
AcDbEntity
  8
Laag_1
 62
7
100
AcDbSpline
 70
8
 71
3
 72
8
 73
4
 74
0
 40
0
 40
0
 40
0
 40
0
 40
1
 40
1
 40
1
 40
1
 10
195.314091
 20
9.664684
 30
0.0
 10
195.310227
 20
9.462643
 30
0.0
 10
195.378868
 20
9.338424
 30
0.0
 10
195.520014
 20
9.292029
 30
0.0
  0
SPLINE
  5
237
100
AcDbEntity
  8
Laag_1
 62
7
100
AcDbSpline
 70
8
 71
3
 72
8
 73
4
 74
0
 40
0
 40
0
 40
0
 40
0
 40
1
 40
1
 40
1
 40
1
 10
195.520014
 20
9.292029
 30
0.0
 10
195.623453
 20
9.273662
 30
0.0
 10
195.698857
 20
9.217594
 30
0.0
 10
195.746226
 20
9.123824
 30
0.0
  0
SPLINE
  5
238
100
AcDbEntity
  8
Laag_1
 62
7
100
AcDbSpline
 70
8
 71
3
 72
8
 73
4
 74
0
 40
0
 40
0
 40
0
 40
0
 40
1
 40
1
 40
1
 40
1
 10
195.746226
 20
9.123824
 30
0.0
 10
195.793598
 20
9.030057
 30
0.0
 10
195.775231
 20
8.926619
 30
0.0
 10
195.691126
 20
8.813512
 30
0.0
  0
SPLINE
  5
239
100
AcDbEntity
  8
Laag_1
 62
7
100
AcDbSpline
 70
8
 71
3
 72
8
 73
4
 74
0
 40
0
 40
0
 40
0
 40
0
 40
1
 40
1
 40
1
 40
1
 10
195.691126
 20
8.813512
 30
0.0
 10
195.635059
 20
8.738108
 30
0.0
 10
195.567149
 20
8.686146
 30
0.0
 10
195.487397
 20
8.657624
 30
0.0
  0
SPLINE
  5
23a
100
AcDbEntity
  8
Laag_1
 62
7
100
AcDbSpline
 70
8
 71
3
 72
8
 73
4
 74
0
 40
0
 40
0
 40
0
 40
0
 40
1
 40
1
 40
1
 40
1
 10
195.487397
 20
8.657624
 30
0.0
 10
195.402809
 20
8.661973
 30
0.0
 10
195.313389
 20
8.699191
 30
0.0
 10
195.219136
 20
8.769277
 30
0.0
  0
SPLINE
  5
23b
100
AcDbEntity
  8
Laag_1
 62
7
100
AcDbSpline
 70
8
 71
3
 72
8
 73
4
 74
0
 40
0
 40
0
 40
0
 40
0
 40
1
 40
1
 40
1
 40
1
 10
195.219136
 20
8.769277
 30
0.0
 10
195.049478
 20
8.895430
 30
0.0
 10
194.980356
 20
9.137106
 30
0.0
 10
195.011772
 20
9.494304
 30
0.0
  0
SPLINE
  5
23c
100
AcDbEntity
  8
Laag_1
 62
7
100
AcDbSpline
 70
8
 71
3
 72
8
 73
4
 74
0
 40
0
 40
0
 40
0
 40
0
 40
1
 40
1
 40
1
 40
1
 10
195.011772
 20
9.494304
 30
0.0
 10
195.043187
 20
9.851501
 30
0.0
 10
195.192057
 20
10.209183
 30
0.0
 10
195.458382
 20
10.567350
 30
0.0
  0
SPLINE
  5
23d
100
AcDbEntity
  8
Laag_1
 62
7
100
AcDbSpline
 70
8
 71
3
 72
8
 73
4
 74
0
 40
0
 40
0
 40
0
 40
0
 40
1
 40
1
 40
1
 40
1
 10
195.458382
 20
10.567350
 30
0.0
 10
195.738723
 20
10.944367
 30
0.0
 10
196.024382
 20
11.171062
 30
0.0
 10
196.315359
 20
11.247434
 30
0.0
  0
SPLINE
  5
23e
100
AcDbEntity
  8
Laag_1
 62
7
100
AcDbSpline
 70
8
 71
3
 72
8
 73
4
 74
0
 40
0
 40
0
 40
0
 40
0
 40
1
 40
1
 40
1
 40
1
 10
196.315359
 20
11.247434
 30
0.0
 10
196.587486
 20
11.337822
 30
0.0
 10
196.855506
 20
11.284896
 30
0.0
 10
197.119417
 20
11.088657
 30
0.0
  0
LINE
  5
23f
100
AcDbEntity
  8
Laag_1
 62
7
100
AcDbLine
 10
197.119417
 20
11.088657
 30
0.0
 11
198.985652
 21
9.700969
 31
0.0
  0
SPLINE
  5
240
100
AcDbEntity
  8
Laag_1
 62
7
100
AcDbSpline
 70
8
 71
3
 72
8
 73
4
 74
0
 40
0
 40
0
 40
0
 40
0
 40
1
 40
1
 40
1
 40
1
 10
198.985652
 20
9.700969
 30
0.0
 10
199.136460
 20
9.588832
 30
0.0
 10
199.237722
 20
9.528172
 30
0.0
 10
199.289440
 20
9.518987
 30
0.0
  0
SPLINE
  5
241
100
AcDbEntity
  8
Laag_1
 62
7
100
AcDbSpline
 70
8
 71
3
 72
8
 73
4
 74
0
 40
0
 40
0
 40
0
 40
0
 40
1
 40
1
 40
1
 40
1
 10
199.289440
 20
9.518987
 30
0.0
 10
199.336325
 20
9.542674
 30
0.0
 10
199.387801
 20
9.592218
 30
0.0
 10
199.443870
 20
9.667620
 30
0.0
  0
SPLINE
  5
242
100
AcDbEntity
  8
Laag_1
 62
7
100
AcDbSpline
 70
8
 71
3
 72
8
 73
4
 74
0
 40
0
 40
0
 40
0
 40
0
 40
1
 40
1
 40
1
 40
1
 10
199.443870
 20
9.667620
 30
0.0
 10
199.513956
 20
9.761875
 30
0.0
 10
199.525315
 20
9.855888
 30
0.0
 10
199.477946
 20
9.949657
 30
0.0
  0
SPLINE
  5
243
100
AcDbEntity
  8
Laag_1
 62
7
100
AcDbSpline
 70
8
 71
3
 72
8
 73
4
 74
0
 40
0
 40
0
 40
0
 40
0
 40
1
 40
1
 40
1
 40
1
 10
199.477946
 20
9.949657
 30
0.0
 10
199.411723
 20
10.057442
 30
0.0
 10
199.303209
 20
10.167404
 30
0.0
 10
199.152405
 20
10.279542
 30
0.0
  0
LINE
  5
244
100
AcDbEntity
  8
Laag_1
 62
7
100
AcDbLine
 10
199.152405
 20
10.279542
 30
0.0
 11
199.257531
 21
10.420924
 31
0.0
  0
SPLINE
  5
245
100
AcDbEntity
  8
Laag_1
 62
7
100
AcDbSpline
 70
8
 71
3
 72
8
 73
4
 74
0
 40
0
 40
0
 40
0
 40
0
 40
1
 40
1
 40
1
 40
1
 10
199.257531
 20
10.420924
 30
0.0
 10
199.521443
 20
10.224684
 30
0.0
 10
199.674909
 20
10.037387
 30
0.0
 10
199.717930
 20
9.859030
 30
0.0
  0
SPLINE
  5
246
100
AcDbEntity
  8
Laag_1
 62
7
100
AcDbSpline
 70
8
 71
3
 72
8
 73
4
 74
0
 40
0
 40
0
 40
0
 40
0
 40
1
 40
1
 40
1
 40
1
 10
199.717930
 20
9.859030
 30
0.0
 10
199.742098
 20
9.694690
 30
0.0
 10
199.698115
 20
9.537117
 30
0.0
 10
199.585980
 20
9.386310
 30
0.0
  0
SPLINE
  5
247
100
AcDbEntity
  8
Laag_1
 62
7
100
AcDbSpline
 70
8
 71
3
 72
8
 73
4
 74
0
 40
0
 40
0
 40
0
 40
0
 40
1
 40
1
 40
1
 40
1
 10
199.585980
 20
9.386310
 30
0.0
 10
199.487860
 20
9.254355
 30
0.0
 10
199.382489
 20
9.171701
 30
0.0
 10
199.269866
 20
9.138349
 30
0.0
  0
SPLINE
  5
248
100
AcDbEntity
  8
Laag_1
 62
7
100
AcDbSpline
 70
8
 71
3
 72
8
 73
4
 74
0
 40
0
 40
0
 40
0
 40
0
 40
1
 40
1
 40
1
 40
1
 10
199.269866
 20
9.138349
 30
0.0
 10
199.157247
 20
9.104996
 30
0.0
 10
199.020942
 20
9.118528
 30
0.0
 10
198.860953
 20
9.178946
 30
0.0
  0
SPLINE
  5
249
100
AcDbEntity
  8
Laag_1
 62
7
100
AcDbSpline
 70
8
 71
3
 72
8
 73
4
 74
0
 40
0
 40
0
 40
0
 40
0
 40
1
 40
1
 40
1
 40
1
 10
198.860953
 20
9.178946
 30
0.0
 10
198.852737
 20
8.892319
 30
0.0
 10
198.823255
 20
8.636142
 30
0.0
 10
198.772504
 20
8.410416
 30
0.0
  0
LINE
  5
24a
100
AcDbEntity
  8
Laag_1
 62
7
100
AcDbLine
 10
198.772504
 20
8.410416
 30
0.0
 11
198.772494
 21
8.410406
 31
0.0
  0
SPLINE
  5
24b
100
AcDbEntity
  8
Laag_1
 62
7
100
AcDbSpline
 70
8
 71
3
 72
8
 73
4
 74
0
 40
0
 40
0
 40
0
 40
0
 40
1
 40
1
 40
1
 40
1
 10
196.741685
 20
8.690974
 30
0.0
 10
196.729121
 20
8.319760
 30
0.0
 10
196.854796
 20
8.036034
 30
0.0
 10
197.118707
 20
7.839794
 30
0.0
  0
SPLINE
  5
24c
100
AcDbEntity
  8
Laag_1
 62
7
100
AcDbSpline
 70
8
 71
3
 72
8
 73
4
 74
0
 40
0
 40
0
 40
0
 40
0
 40
1
 40
1
 40
1
 40
1
 10
197.118707
 20
7.839794
 30
0.0
 10
197.288366
 20
7.713641
 30
0.0
 10
197.483641
 20
7.641623
 30
0.0
 10
197.704534
 20
7.623741
 30
0.0
  0
SPLINE
  5
24d
100
AcDbEntity
  8
Laag_1
 62
7
100
AcDbSpline
 70
8
 71
3
 72
8
 73
4
 74
0
 40
0
 40
0
 40
0
 40
0
 40
1
 40
1
 40
1
 40
1
 10
197.704534
 20
7.623741
 30
0.0
 10
197.920591
 20
7.638726
 30
0.0
 10
198.112724
 20
7.759322
 30
0.0
 10
198.280933
 20
7.985527
 30
0.0
  0
SPLINE
  5
24e
100
AcDbEntity
  8
Laag_1
 62
7
100
AcDbSpline
 70
8
 71
3
 72
8
 73
4
 74
0
 40
0
 40
0
 40
0
 40
0
 40
1
 40
1
 40
1
 40
1
 10
198.280933
 20
7.985527
 30
0.0
 10
198.407085
 20
8.155185
 30
0.0
 10
198.504962
 20
8.345868
 30
0.0
 10
198.574564
 20
8.557577
 30
0.0
  0
SPLINE
  5
24f
100
AcDbEntity
  8
Laag_1
 62
7
100
AcDbSpline
 70
8
 71
3
 72
8
 73
4
 74
0
 40
0
 40
0
 40
0
 40
0
 40
1
 40
1
 40
1
 40
1
 10
198.574564
 20
8.557577
 30
0.0
 10
198.625314
 20
8.783303
 30
0.0
 10
198.654797
 20
9.039480
 30
0.0
 10
198.663012
 20
9.326107
 30
0.0
  0
LINE
  5
250
100
AcDbEntity
  8
Laag_1
 62
7
100
AcDbLine
 10
198.663012
 20
9.326107
 30
0.0
 11
197.334024
 21
10.314312
 31
0.0
  0
SPLINE
  5
251
100
AcDbEntity
  8
Laag_1
 62
7
100
AcDbSpline
 70
8
 71
3
 72
8
 73
4
 74
0
 40
0
 40
0
 40
0
 40
0
 40
1
 40
1
 40
1
 40
1
 10
197.334024
 20
10.314312
 30
0.0
 10
196.932848
 20
9.617315
 30
0.0
 10
196.735403
 20
9.076200
 30
0.0
 10
196.741689
 20
8.690967
 30
0.0
  0
LINE
  5
252
100
AcDbEntity
  8
Laag_1
 62
7
100
AcDbLine
 10
196.741689
 20
8.690967
 30
0.0
 11
196.741685
 21
8.690974
 31
0.0
  0
LINE
  5
253
100
AcDbEntity
  8
Laag_1
 62
7
100
AcDbLine
 10
198.898827
 20
12.198317
 30
0.0
 11
200.173597
 21
14.058601
 31
0.0
  0
SPLINE
  5
254
100
AcDbEntity
  8
Laag_1
 62
7
100
AcDbSpline
 70
8
 71
3
 72
8
 73
4
 74
0
 40
0
 40
0
 40
0
 40
0
 40
1
 40
1
 40
1
 40
1
 10
200.173597
 20
14.058601
 30
0.0
 10
199.760563
 20
14.370113
 30
0.0
 10
199.387711
 20
14.511702
 30
0.0
 10
199.055043
 20
14.483369
 30
0.0
  0
SPLINE
  5
255
100
AcDbEntity
  8
Laag_1
 62
7
100
AcDbSpline
 70
8
 71
3
 72
8
 73
4
 74
0
 40
0
 40
0
 40
0
 40
0
 40
1
 40
1
 40
1
 40
1
 10
199.055043
 20
14.483369
 30
0.0
 10
198.716278
 20
14.487692
 30
0.0
 10
198.453942
 20
14.354207
 30
0.0
 10
198.268037
 20
14.082915
 30
0.0
  0
SPLINE
  5
256
100
AcDbEntity
  8
Laag_1
 62
7
100
AcDbSpline
 70
8
 71
3
 72
8
 73
4
 74
0
 40
0
 40
0
 40
0
 40
0
 40
1
 40
1
 40
1
 40
1
 10
198.268037
 20
14.082915
 30
0.0
 10
198.068855
 20
13.792246
 30
0.0
 10
198.019137
 20
13.470348
 30
0.0
 10
198.118883
 20
13.117222
 30
0.0
  0
SPLINE
  5
257
100
AcDbEntity
  8
Laag_1
 62
7
100
AcDbSpline
 70
8
 71
3
 72
8
 73
4
 74
0
 40
0
 40
0
 40
0
 40
0
 40
1
 40
1
 40
1
 40
1
 10
198.118883
 20
13.117222
 30
0.0
 10
198.231910
 20
12.783475
 30
0.0
 10
198.491891
 20
12.477173
 30
0.0
 10
198.898827
 20
12.198317
 30
0.0
  0
LINE
  5
258
100
AcDbEntity
  8
Laag_1
 62
7
100
AcDbLine
 10
198.898827
 20
12.198317
 30
0.0
 11
198.898827
 21
12.198317
 31
0.0
  0
LINE
  5
259
100
AcDbEntity
  8
Laag_1
 62
7
100
AcDbLine
 10
200.686610
 20
14.433228
 30
0.0
 11
199.073229
 21
12.078806
 31
0.0
  0
SPLINE
  5
25a
100
AcDbEntity
  8
Laag_1
 62
7
100
AcDbSpline
 70
8
 71
3
 72
8
 73
4
 74
0
 40
0
 40
0
 40
0
 40
0
 40
1
 40
1
 40
1
 40
1
 10
199.073229
 20
12.078806
 30
0.0
 10
199.596434
 20
11.720278
 30
0.0
 10
200.040698
 20
11.558231
 30
0.0
 10
200.406021
 20
11.592664
 30
0.0
  0
SPLINE
  5
25b
100
AcDbEntity
  8
Laag_1
 62
7
100
AcDbSpline
 70
8
 71
3
 72
8
 73
4
 74
0
 40
0
 40
0
 40
0
 40
0
 40
1
 40
1
 40
1
 40
1
 10
200.406021
 20
11.592664
 30
0.0
 10
200.765247
 20
11.659753
 30
0.0
 10
201.057730
 20
11.858011
 30
0.0
 10
201.283468
 20
12.187439
 30
0.0
  0
SPLINE
  5
25c
100
AcDbEntity
  8
Laag_1
 62
7
100
AcDbSpline
 70
8
 71
3
 72
8
 73
4
 74
0
 40
0
 40
0
 40
0
 40
0
 40
1
 40
1
 40
1
 40
1
 10
201.283468
 20
12.187439
 30
0.0
 10
201.456092
 20
12.439353
 30
0.0
 10
201.534337
 20
12.698987
 30
0.0
 10
201.518201
 20
12.966339
 30
0.0
  0
SPLINE
  5
25d
100
AcDbEntity
  8
Laag_1
 62
7
100
AcDbSpline
 70
8
 71
3
 72
8
 73
4
 74
0
 40
0
 40
0
 40
0
 40
0
 40
1
 40
1
 40
1
 40
1
 10
201.518201
 20
12.966339
 30
0.0
 10
201.482688
 20
13.246973
 30
0.0
 10
201.384910
 20
13.499079
 30
0.0
 10
201.224867
 20
13.722658
 30
0.0
  0
LINE
  5
25e
100
AcDbEntity
  8
Laag_1
 62
7
100
AcDbLine
 10
201.224867
 20
13.722658
 30
0.0
 11
201.382586
 21
13.828165
 31
0.0
  0
SPLINE
  5
25f
100
AcDbEntity
  8
Laag_1
 62
7
100
AcDbSpline
 70
8
 71
3
 72
8
 73
4
 74
0
 40
0
 40
0
 40
0
 40
0
 40
1
 40
1
 40
1
 40
1
 10
201.382586
 20
13.828165
 30
0.0
 10
201.555908
 20
13.623965
 30
0.0
 10
201.676113
 20
13.342252
 30
0.0
 10
201.743202
 20
12.983025
 30
0.0
  0
SPLINE
  5
260
100
AcDbEntity
  8
Laag_1
 62
7
100
AcDbSpline
 70
8
 71
3
 72
8
 73
4
 74
0
 40
0
 40
0
 40
0
 40
0
 40
1
 40
1
 40
1
 40
1
 10
201.743202
 20
12.983025
 30
0.0
 10
201.804193
 20
12.656457
 30
0.0
 10
201.715179
 20
12.318772
 30
0.0
 10
201.476159
 20
11.969971
 30
0.0
  0
SPLINE
  5
261
100
AcDbEntity
  8
Laag_1
 62
7
100
AcDbSpline
 70
8
 71
3
 72
8
 73
4
 74
0
 40
0
 40
0
 40
0
 40
0
 40
1
 40
1
 40
1
 40
1
 10
201.476159
 20
11.969971
 30
0.0
 10
201.170745
 20
11.524278
 30
0.0
 10
200.773112
 20
11.255688
 30
0.0
 10
200.283260
 20
11.164201
 30
0.0
  0
SPLINE
  5
262
100
AcDbEntity
  8
Laag_1
 62
7
100
AcDbSpline
 70
8
 71
3
 72
8
 73
4
 74
0
 40
0
 40
0
 40
0
 40
0
 40
1
 40
1
 40
1
 40
1
 10
200.283260
 20
11.164201
 30
0.0
 10
199.806687
 20
11.092092
 30
0.0
 10
199.297109
 20
11.241942
 30
0.0
 10
198.754527
 20
11.613751
 30
0.0
  0
SPLINE
  5
263
100
AcDbEntity
  8
Laag_1
 62
7
100
AcDbSpline
 70
8
 71
3
 72
8
 73
4
 74
0
 40
0
 40
0
 40
0
 40
0
 40
1
 40
1
 40
1
 40
1
 10
198.754527
 20
11.613751
 30
0.0
 10
198.270078
 20
11.945724
 30
0.0
 10
197.965783
 20
12.353586
 30
0.0
 10
197.841640
 20
12.837339
 30
0.0
  0
SPLINE
  5
264
100
AcDbEntity
  8
Laag_1
 62
7
100
AcDbSpline
 70
8
 71
3
 72
8
 73
4
 74
0
 40
0
 40
0
 40
0
 40
0
 40
1
 40
1
 40
1
 40
1
 10
197.841640
 20
12.837339
 30
0.0
 10
197.711398
 20
13.353748
 30
0.0
 10
197.785704
 20
13.815422
 30
0.0
 10
198.064560
 20
14.222360
 30
0.0
  0
SPLINE
  5
265
100
AcDbEntity
  8
Laag_1
 62
7
100
AcDbSpline
 70
8
 71
3
 72
8
 73
4
 74
0
 40
0
 40
0
 40
0
 40
0
 40
1
 40
1
 40
1
 40
1
 10
198.064560
 20
14.222360
 30
0.0
 10
198.316859
 20
14.590540
 30
0.0
 10
198.661917
 20
14.823963
 30
0.0
 10
199.099734
 20
14.922630
 30
0.0
  0
SPLINE
  5
266
100
AcDbEntity
  8
Laag_1
 62
7
100
AcDbSpline
 70
8
 71
3
 72
8
 73
4
 74
0
 40
0
 40
0
 40
0
 40
0
 40
1
 40
1
 40
1
 40
1
 10
199.099734
 20
14.922630
 30
0.0
 10
199.537551
 20
15.021294
 30
0.0
 10
200.066507
 20
14.858165
 30
0.0
 10
200.686601
 20
14.433242
 30
0.0
  0
LINE
  5
267
100
AcDbEntity
  8
Laag_1
 62
7
100
AcDbLine
 10
200.686601
 20
14.433242
 30
0.0
 11
200.686610
 21
14.433228
 31
0.0
  0
LINE
  5
268
100
AcDbEntity
  8
Laag_1
 62
7
100
AcDbLine
 10
203.561507
 20
15.233566
 30
0.0
 11
202.757260
 21
13.991226
 31
0.0
  0
LINE
  5
269
100
AcDbEntity
  8
Laag_1
 62
7
100
AcDbLine
 10
202.757260
 20
13.991226
 30
0.0
 11
202.579782
 21
14.106117
 31
0.0
  0
LINE
  5
26a
100
AcDbEntity
  8
Laag_1
 62
7
100
AcDbLine
 10
202.579782
 20
14.106117
 30
0.0
 11
202.675526
 21
14.254017
 31
0.0
  0
SPLINE
  5
26b
100
AcDbEntity
  8
Laag_1
 62
7
100
AcDbSpline
 70
8
 71
3
 72
8
 73
4
 74
0
 40
0
 40
0
 40
0
 40
0
 40
1
 40
1
 40
1
 40
1
 10
202.675526
 20
14.254017
 30
0.0
 10
202.739355
 20
14.352614
 30
0.0
 10
202.764316
 20
14.434398
 30
0.0
 10
202.750408
 20
14.499369
 30
0.0
  0
SPLINE
  5
26c
100
AcDbEntity
  8
Laag_1
 62
7
100
AcDbSpline
 70
8
 71
3
 72
8
 73
4
 74
0
 40
0
 40
0
 40
0
 40
0
 40
1
 40
1
 40
1
 40
1
 10
202.750408
 20
14.499369
 30
0.0
 10
202.736500
 20
14.564342
 30
0.0
 10
202.690108
 20
14.622360
 30
0.0
 10
202.611231
 20
14.673425
 30
0.0
  0
LINE
  5
26d
100
AcDbEntity
  8
Laag_1
 62
7
100
AcDbLine
 10
202.611231
 20
14.673425
 30
0.0
 11
200.067393
 21
16.320221
 31
0.0
  0
SPLINE
  5
26e
100
AcDbEntity
  8
Laag_1
 62
7
100
AcDbSpline
 70
8
 71
3
 72
8
 73
4
 74
0
 40
0
 40
0
 40
0
 40
0
 40
1
 40
1
 40
1
 40
1
 10
200.067393
 20
16.320221
 30
0.0
 10
200.008233
 20
16.358520
 30
0.0
 10
199.962411
 20
16.374192
 30
0.0
 10
199.929925
 20
16.367237
 30
0.0
  0
SPLINE
  5
26f
100
AcDbEntity
  8
Laag_1
 62
7
100
AcDbSpline
 70
8
 71
3
 72
8
 73
4
 74
0
 40
0
 40
0
 40
0
 40
0
 40
1
 40
1
 40
1
 40
1
 10
199.929925
 20
16.367237
 30
0.0
 10
199.877721
 20
16.373049
 30
0.0
 10
199.832470
 20
16.346376
 30
0.0
 10
199.794173
 20
16.287215
 30
0.0
  0
LINE
  5
270
100
AcDbEntity
  8
Laag_1
 62
7
100
AcDbLine
 10
199.794173
 20
16.287215
 30
0.0
 11
199.640983
 21
16.050578
 31
0.0
  0
LINE
  5
271
100
AcDbEntity
  8
Laag_1
 62
7
100
AcDbLine
 10
199.640983
 20
16.050578
 30
0.0
 11
199.463507
 21
16.165471
 31
0.0
  0
LINE
  5
272
100
AcDbEntity
  8
Laag_1
 62
7
100
AcDbLine
 10
199.463507
 20
16.165471
 30
0.0
 11
199.597547
 21
16.372528
 31
0.0
  0
SPLINE
  5
273
100
AcDbEntity
  8
Laag_1
 62
7
100
AcDbSpline
 70
8
 71
3
 72
8
 73
4
 74
0
 40
0
 40
0
 40
0
 40
0
 40
1
 40
1
 40
1
 40
1
 10
199.597547
 20
16.372528
 30
0.0
 10
199.661377
 20
16.471126
 30
0.0
 10
199.708964
 20
16.566248
 30
0.0
 10
199.740308
 20
16.657893
 30
0.0
  0
SPLINE
  5
274
100
AcDbEntity
  8
Laag_1
 62
7
100
AcDbSpline
 70
8
 71
3
 72
8
 73
4
 74
0
 40
0
 40
0
 40
0
 40
0
 40
1
 40
1
 40
1
 40
1
 10
199.740308
 20
16.657893
 30
0.0
 10
199.784417
 20
16.769257
 30
0.0
 10
199.802423
 20
16.883527
 30
0.0
 10
199.794328
 20
17.000704
 30
0.0
  0
LINE
  5
275
100
AcDbEntity
  8
Laag_1
 62
7
100
AcDbLine
 10
199.794328
 20
17.000704
 30
0.0
 11
199.832626
 21
17.059862
 31
0.0
  0
LINE
  5
276
100
AcDbEntity
  8
Laag_1
 62
7
100
AcDbLine
 10
199.832626
 20
17.059862
 30
0.0
 11
200.512955
 21
16.619440
 31
0.0
  0
SPLINE
  5
277
100
AcDbEntity
  8
Laag_1
 62
7
100
AcDbSpline
 70
8
 71
3
 72
8
 73
4
 74
0
 40
0
 40
0
 40
0
 40
0
 40
1
 40
1
 40
1
 40
1
 10
200.512955
 20
16.619440
 30
0.0
 10
200.430651
 20
16.924576
 30
0.0
 10
200.397647
 20
17.197797
 30
0.0
 10
200.413941
 20
17.439102
 30
0.0
  0
SPLINE
  5
278
100
AcDbEntity
  8
Laag_1
 62
7
100
AcDbSpline
 70
8
 71
3
 72
8
 73
4
 74
0
 40
0
 40
0
 40
0
 40
0
 40
1
 40
1
 40
1
 40
1
 10
200.413941
 20
17.439102
 30
0.0
 10
200.430235
 20
17.680408
 30
0.0
 10
200.502212
 20
17.899660
 30
0.0
 10
200.629870
 20
18.096857
 30
0.0
  0
SPLINE
  5
279
100
AcDbEntity
  8
Laag_1
 62
7
100
AcDbSpline
 70
8
 71
3
 72
8
 73
4
 74
0
 40
0
 40
0
 40
0
 40
0
 40
1
 40
1
 40
1
 40
1
 10
200.629870
 20
18.096857
 30
0.0
 10
200.846890
 20
18.432091
 30
0.0
 10
201.095203
 20
18.621140
 30
0.0
 10
201.374807
 20
18.664005
 30
0.0
  0
SPLINE
  5
27a
100
AcDbEntity
  8
Laag_1
 62
7
100
AcDbSpline
 70
8
 71
3
 72
8
 73
4
 74
0
 40
0
 40
0
 40
0
 40
0
 40
1
 40
1
 40
1
 40
1
 10
201.374807
 20
18.664005
 30
0.0
 10
201.654411
 20
18.706870
 30
0.0
 10
201.971690
 20
18.613409
 30
0.0
 10
202.326644
 20
18.383624
 30
0.0
  0
LINE
  5
27b
100
AcDbEntity
  8
Laag_1
 62
7
100
AcDbLine
 10
202.326644
 20
18.383624
 30
0.0
 11
204.219733
 21
17.158100
 31
0.0
  0
SPLINE
  5
27c
100
AcDbEntity
  8
Laag_1
 62
7
100
AcDbSpline
 70
8
 71
3
 72
8
 73
4
 74
0
 40
0
 40
0
 40
0
 40
0
 40
1
 40
1
 40
1
 40
1
 10
204.219733
 20
17.158100
 30
0.0
 10
204.298611
 20
17.107036
 30
0.0
 10
204.370536
 20
17.088459
 30
0.0
 10
204.435509
 20
17.102367
 30
0.0
  0
SPLINE
  5
27d
100
AcDbEntity
  8
Laag_1
 62
7
100
AcDbSpline
 70
8
 71
3
 72
8
 73
4
 74
0
 40
0
 40
0
 40
0
 40
0
 40
1
 40
1
 40
1
 40
1
 10
204.435509
 20
17.102367
 30
0.0
 10
204.513243
 20
17.135996
 30
0.0
 10
204.577642
 20
17.192249
 30
0.0
 10
204.628707
 20
17.271126
 30
0.0
  0
LINE
  5
27e
100
AcDbEntity
  8
Laag_1
 62
7
100
AcDbLine
 10
204.628707
 20
17.271126
 30
0.0
 11
204.724452
 21
17.419023
 31
0.0
  0
LINE
  5
27f
100
AcDbEntity
  8
Laag_1
 62
7
100
AcDbLine
 10
204.724452
 20
17.419023
 30
0.0
 11
204.901928
 21
17.304130
 31
0.0
  0
LINE
  5
280
100
AcDbEntity
  8
Laag_1
 62
7
100
AcDbLine
 10
204.901928
 20
17.304130
 30
0.0
 11
204.097679
 21
16.061792
 31
0.0
  0
LINE
  5
281
100
AcDbEntity
  8
Laag_1
 62
7
100
AcDbLine
 10
204.097679
 20
16.061792
 30
0.0
 11
203.920201
 21
16.176684
 31
0.0
  0
LINE
  5
282
100
AcDbEntity
  8
Laag_1
 62
7
100
AcDbLine
 10
203.920201
 20
16.176684
 30
0.0
 11
204.015947
 21
16.324581
 31
0.0
  0
SPLINE
  5
283
100
AcDbEntity
  8
Laag_1
 62
7
100
AcDbSpline
 70
8
 71
3
 72
8
 73
4
 74
0
 40
0
 40
0
 40
0
 40
0
 40
1
 40
1
 40
1
 40
1
 10
204.015947
 20
16.324581
 30
0.0
 10
204.079776
 20
16.423178
 30
0.0
 10
204.104736
 20
16.504963
 30
0.0
 10
204.090828
 20
16.569936
 30
0.0
  0
SPLINE
  5
284
100
AcDbEntity
  8
Laag_1
 62
7
100
AcDbSpline
 70
8
 71
3
 72
8
 73
4
 74
0
 40
0
 40
0
 40
0
 40
0
 40
1
 40
1
 40
1
 40
1
 10
204.090828
 20
16.569936
 30
0.0
 10
204.076920
 20
16.634907
 30
0.0
 10
204.030529
 20
16.692924
 30
0.0
 10
203.951652
 20
16.743989
 30
0.0
  0
LINE
  5
285
100
AcDbEntity
  8
Laag_1
 62
7
100
AcDbLine
 10
203.951652
 20
16.743989
 30
0.0
 11
201.969824
 21
18.026961
 31
0.0
  0
SPLINE
  5
286
100
AcDbEntity
  8
Laag_1
 62
7
100
AcDbSpline
 70
8
 71
3
 72
8
 73
4
 74
0
 40
0
 40
0
 40
0
 40
0
 40
1
 40
1
 40
1
 40
1
 10
201.969824
 20
18.026961
 30
0.0
 10
201.733188
 20
18.180151
 30
0.0
 10
201.523797
 20
18.245744
 30
0.0
 10
201.341650
 20
18.223739
 30
0.0
  0
SPLINE
  5
287
100
AcDbEntity
  8
Laag_1
 62
7
100
AcDbSpline
 70
8
 71
3
 72
8
 73
4
 74
0
 40
0
 40
0
 40
0
 40
0
 40
1
 40
1
 40
1
 40
1
 10
201.341650
 20
18.223739
 30
0.0
 10
201.139783
 20
18.214503
 30
0.0
 10
200.975018
 20
18.111289
 30
0.0
 10
200.847357
 20
17.914097
 30
0.0
  0
SPLINE
  5
288
100
AcDbEntity
  8
Laag_1
 62
7
100
AcDbSpline
 70
8
 71
3
 72
8
 73
4
 74
0
 40
0
 40
0
 40
0
 40
0
 40
1
 40
1
 40
1
 40
1
 10
200.847357
 20
17.914097
 30
0.0
 10
200.732464
 20
17.736619
 30
0.0
 10
200.670347
 20
17.510984
 30
0.0
 10
200.661006
 20
17.237192
 30
0.0
  0
SPLINE
  5
289
100
AcDbEntity
  8
Laag_1
 62
7
100
AcDbSpline
 70
8
 71
3
 72
8
 73
4
 74
0
 40
0
 40
0
 40
0
 40
0
 40
1
 40
1
 40
1
 40
1
 10
200.661006
 20
17.237192
 30
0.0
 10
200.664430
 20
16.983121
 30
0.0
 10
200.723538
 20
16.706994
 30
0.0
 10
200.838329
 20
16.408811
 30
0.0
  0
LINE
  5
28a
100
AcDbEntity
  8
Laag_1
 62
7
100
AcDbLine
 10
200.838329
 20
16.408811
 30
0.0
 11
202.879313
 21
15.087544
 31
0.0
  0
SPLINE
  5
28b
100
AcDbEntity
  8
Laag_1
 62
7
100
AcDbSpline
 70
8
 71
3
 72
8
 73
4
 74
0
 40
0
 40
0
 40
0
 40
0
 40
1
 40
1
 40
1
 40
1
 10
202.879313
 20
15.087544
 30
0.0
 10
202.958192
 20
15.036480
 30
0.0
 10
203.030116
 20
15.017902
 30
0.0
 10
203.095087
 20
15.031809
 30
0.0
  0
SPLINE
  5
28c
100
AcDbEntity
  8
Laag_1
 62
7
100
AcDbSpline
 70
8
 71
3
 72
8
 73
4
 74
0
 40
0
 40
0
 40
0
 40
0
 40
1
 40
1
 40
1
 40
1
 10
203.095087
 20
15.031809
 30
0.0
 10
203.172823
 20
15.065440
 30
0.0
 10
203.237223
 20
15.121693
 30
0.0
 10
203.288289
 20
15.200568
 30
0.0
  0
LINE
  5
28d
100
AcDbEntity
  8
Laag_1
 62
7
100
AcDbLine
 10
203.288289
 20
15.200568
 30
0.0
 11
203.384033
 21
15.348467
 31
0.0
  0
LINE
  5
28e
100
AcDbEntity
  8
Laag_1
 62
7
100
AcDbLine
 10
203.384033
 20
15.348467
 30
0.0
 11
203.561509
 21
15.233574
 31
0.0
  0
LINE
  5
28f
100
AcDbEntity
  8
Laag_1
 62
7
100
AcDbLine
 10
203.561509
 20
15.233574
 30
0.0
 11
203.561507
 21
15.233566
 31
0.0
  0
LINE
  5
290
100
AcDbEntity
  8
Laag_1
 62
7
100
AcDbLine
 10
203.795408
 20
19.646159
 30
0.0
 11
204.984830
 21
21.562136
 31
0.0
  0
SPLINE
  5
291
100
AcDbEntity
  8
Laag_1
 62
7
100
AcDbSpline
 70
8
 71
3
 72
8
 73
4
 74
0
 40
0
 40
0
 40
0
 40
0
 40
1
 40
1
 40
1
 40
1
 10
204.984830
 20
21.562136
 30
0.0
 10
204.558141
 20
21.854671
 30
0.0
 10
204.179272
 20
21.979270
 30
0.0
 10
203.848225
 20
21.935933
 30
0.0
  0
SPLINE
  5
292
100
AcDbEntity
  8
Laag_1
 62
7
100
AcDbSpline
 70
8
 71
3
 72
8
 73
4
 74
0
 40
0
 40
0
 40
0
 40
0
 40
1
 40
1
 40
1
 40
1
 10
203.848225
 20
21.935933
 30
0.0
 10
203.509609
 20
21.924948
 30
0.0
 10
203.253573
 20
21.779747
 30
0.0
 10
203.080115
 20
21.500333
 30
0.0
  0
SPLINE
  5
293
100
AcDbEntity
  8
Laag_1
 62
7
100
AcDbSpline
 70
8
 71
3
 72
8
 73
4
 74
0
 40
0
 40
0
 40
0
 40
0
 40
1
 40
1
 40
1
 40
1
 10
203.080115
 20
21.500333
 30
0.0
 10
202.894269
 20
21.200963
 30
0.0
 10
202.859145
 20
20.877148
 30
0.0
 10
202.974745
 20
20.528888
 30
0.0
  0
SPLINE
  5
294
100
AcDbEntity
  8
Laag_1
 62
7
100
AcDbSpline
 70
8
 71
3
 72
8
 73
4
 74
0
 40
0
 40
0
 40
0
 40
0
 40
1
 40
1
 40
1
 40
1
 10
202.974745
 20
20.528888
 30
0.0
 10
203.102734
 20
20.200587
 30
0.0
 10
203.376288
 20
19.906344
 30
0.0
 10
203.795408
 20
19.646159
 30
0.0
  0
LINE
  5
295
100
AcDbEntity
  8
Laag_1
 62
7
100
AcDbLine
 10
203.795408
 20
19.646159
 30
0.0
 11
203.795408
 21
19.646159
 31
0.0
  0
LINE
  5
296
100
AcDbEntity
  8
Laag_1
 62
7
100
AcDbLine
 10
205.480393
 20
21.959561
 30
0.0
 11
203.975031
 21
19.534649
 31
0.0
  0
SPLINE
  5
297
100
AcDbEntity
  8
Laag_1
 62
7
100
AcDbSpline
 70
8
 71
3
 72
8
 73
4
 74
0
 40
0
 40
0
 40
0
 40
0
 40
1
 40
1
 40
1
 40
1
 10
203.975031
 20
19.534649
 30
0.0
 10
204.513901
 20
19.200126
 30
0.0
 10
204.965033
 20
19.058315
 30
0.0
 10
205.328428
 20
19.109217
 30
0.0
  0
SPLINE
  5
298
100
AcDbEntity
  8
Laag_1
 62
7
100
AcDbSpline
 70
8
 71
3
 72
8
 73
4
 74
0
 40
0
 40
0
 40
0
 40
0
 40
1
 40
1
 40
1
 40
1
 10
205.328428
 20
19.109217
 30
0.0
 10
205.684255
 20
19.192470
 30
0.0
 10
205.967482
 20
19.403740
 30
0.0
 10
206.178108
 20
19.743027
 30
0.0
  0
SPLINE
  5
299
100
AcDbEntity
  8
Laag_1
 62
7
100
AcDbSpline
 70
8
 71
3
 72
8
 73
4
 74
0
 40
0
 40
0
 40
0
 40
0
 40
1
 40
1
 40
1
 40
1
 10
206.178108
 20
19.743027
 30
0.0
 10
206.339175
 20
20.002484
 30
0.0
 10
206.405610
 20
20.265387
 30
0.0
 10
206.377410
 20
20.531739
 30
0.0
  0
SPLINE
  5
29a
100
AcDbEntity
  8
Laag_1
 62
7
100
AcDbSpline
 70
8
 71
3
 72
8
 73
4
 74
0
 40
0
 40
0
 40
0
 40
0
 40
1
 40
1
 40
1
 40
1
 10
206.377410
 20
20.531739
 30
0.0
 10
206.329255
 20
20.810479
 30
0.0
 10
206.220187
 20
21.057910
 30
0.0
 10
206.050204
 20
21.274030
 30
0.0
  0
LINE
  5
29b
100
AcDbEntity
  8
Laag_1
 62
7
100
AcDbLine
 10
206.050204
 20
21.274030
 30
0.0
 11
206.203010
 21
21.386536
 31
0.0
  0
SPLINE
  5
29c
100
AcDbEntity
  8
Laag_1
 62
7
100
AcDbSpline
 70
8
 71
3
 72
8
 73
4
 74
0
 40
0
 40
0
 40
0
 40
0
 40
1
 40
1
 40
1
 40
1
 10
206.203010
 20
21.386536
 30
0.0
 10
206.385380
 20
21.190375
 30
0.0
 10
206.518190
 20
20.914380
 30
0.0
 10
206.601442
 20
20.558552
 30
0.0
  0
SPLINE
  5
29d
100
AcDbEntity
  8
Laag_1
 62
7
100
AcDbSpline
 70
8
 71
3
 72
8
 73
4
 74
0
 40
0
 40
0
 40
0
 40
0
 40
1
 40
1
 40
1
 40
1
 10
206.601442
 20
20.558552
 30
0.0
 10
206.677125
 20
20.235074
 30
0.0
 10
206.603458
 20
19.893712
 30
0.0
 10
206.380442
 20
19.534464
 30
0.0
  0
SPLINE
  5
29e
100
AcDbEntity
  8
Laag_1
 62
7
100
AcDbSpline
 70
8
 71
3
 72
8
 73
4
 74
0
 40
0
 40
0
 40
0
 40
0
 40
1
 40
1
 40
1
 40
1
 10
206.380442
 20
19.534464
 30
0.0
 10
206.095476
 20
19.075429
 30
0.0
 10
205.710384
 20
18.789149
 30
0.0
 10
205.225165
 20
18.675625
 30
0.0
  0
SPLINE
  5
29f
100
AcDbEntity
  8
Laag_1
 62
7
100
AcDbSpline
 70
8
 71
3
 72
8
 73
4
 74
0
 40
0
 40
0
 40
0
 40
0
 40
1
 40
1
 40
1
 40
1
 10
205.225165
 20
18.675625
 30
0.0
 10
204.752337
 20
18.582058
 30
0.0
 10
204.236509
 20
18.708732
 30
0.0
 10
203.677682
 20
19.055647
 30
0.0
  0
SPLINE
  5
2a0
100
AcDbEntity
  8
Laag_1
 62
7
100
AcDbSpline
 70
8
 71
3
 72
8
 73
4
 74
0
 40
0
 40
0
 40
0
 40
0
 40
1
 40
1
 40
1
 40
1
 10
203.677682
 20
19.055647
 30
0.0
 10
203.178729
 20
19.365391
 30
0.0
 10
202.856317
 20
19.759089
 30
0.0
 10
202.710446
 20
20.236740
 30
0.0
  0
SPLINE
  5
2a1
100
AcDbEntity
  8
Laag_1
 62
7
100
AcDbSpline
 70
8
 71
3
 72
8
 73
4
 74
0
 40
0
 40
0
 40
0
 40
0
 40
1
 40
1
 40
1
 40
1
 10
202.710446
 20
20.236740
 30
0.0
 10
202.557005
 20
20.746738
 30
0.0
 10
202.610377
 20
21.211297
 30
0.0
 10
202.870562
 20
21.630417
 30
0.0
  0
SPLINE
  5
2a2
100
AcDbEntity
  8
Laag_1
 62
7
100
AcDbSpline
 70
8
 71
3
 72
8
 73
4
 74
0
 40
0
 40
0
 40
0
 40
0
 40
1
 40
1
 40
1
 40
1
 10
202.870562
 20
21.630417
 30
0.0
 10
203.105968
 20
22.009620
 30
0.0
 10
203.440127
 20
22.258396
 30
0.0
 10
203.873041
 20
22.376742
 30
0.0
  0
SPLINE
  5
2a3
100
AcDbEntity
  8
Laag_1
 62
7
100
AcDbSpline
 70
8
 71
3
 72
8
 73
4
 74
0
 40
0
 40
0
 40
0
 40
0
 40
1
 40
1
 40
1
 40
1
 10
203.873041
 20
22.376742
 30
0.0
 10
204.305953
 20
22.495088
 30
0.0
 10
204.841739
 20
22.356024
 30
0.0
 10
205.480399
 20
21.959551
 30
0.0
  0
LINE
  5
2a4
100
AcDbEntity
  8
Laag_1
 62
7
100
AcDbLine
 10
205.480399
 20
21.959551
 30
0.0
 11
205.480393
 21
21.959561
 31
0.0
  0
SPLINE
  5
2a5
100
AcDbEntity
  8
Laag_1
 62
7
100
AcDbSpline
 70
8
 71
3
 72
8
 73
4
 74
0
 40
0
 40
0
 40
0
 40
0
 40
1
 40
1
 40
1
 40
1
 10
208.604434
 20
23.496190
 30
0.0
 10
208.570119
 20
23.298438
 30
0.0
 10
208.481637
 20
23.077994
 30
0.0
 10
208.338990
 20
22.834857
 30
0.0
  0
SPLINE
  5
2a6
100
AcDbEntity
  8
Laag_1
 62
7
100
AcDbSpline
 70
8
 71
3
 72
8
 73
4
 74
0
 40
0
 40
0
 40
0
 40
0
 40
1
 40
1
 40
1
 40
1
 10
208.338990
 20
22.834857
 30
0.0
 10
208.125016
 20
22.470153
 30
0.0
 10
207.877546
 20
22.234043
 30
0.0
 10
207.596582
 20
22.126527
 30
0.0
  0
SPLINE
  5
2a7
100
AcDbEntity
  8
Laag_1
 62
7
100
AcDbSpline
 70
8
 71
3
 72
8
 73
4
 74
0
 40
0
 40
0
 40
0
 40
0
 40
1
 40
1
 40
1
 40
1
 10
207.596582
 20
22.126527
 30
0.0
 10
207.295356
 20
22.030901
 30
0.0
 10
207.033306
 20
22.048468
 30
0.0
 10
206.810430
 20
22.179229
 30
0.0
  0
SPLINE
  5
2a8
100
AcDbEntity
  8
Laag_1
 62
7
100
AcDbSpline
 70
8
 71
3
 72
8
 73
4
 74
0
 40
0
 40
0
 40
0
 40
0
 40
1
 40
1
 40
1
 40
1
 10
206.810430
 20
22.179229
 30
0.0
 10
206.445725
 20
22.393202
 30
0.0
 10
206.241091
 20
22.717531
 30
0.0
 10
206.196529
 20
23.152214
 30
0.0
  0
SPLINE
  5
2a9
100
AcDbEntity
  8
Laag_1
 62
7
100
AcDbSpline
 70
8
 71
3
 72
8
 73
4
 74
0
 40
0
 40
0
 40
0
 40
0
 40
1
 40
1
 40
1
 40
1
 10
206.196529
 20
23.152214
 30
0.0
 10
206.143590
 20
23.619044
 30
0.0
 10
206.339878
 20
24.348190
 30
0.0
 10
206.785393
 20
25.339650
 30
0.0
  0
LINE
  5
2aa
100
AcDbEntity
  8
Laag_1
 62
7
100
AcDbLine
 10
206.785393
 20
25.339650
 30
0.0
 11
206.420688
 21
25.553621
 31
0.0
  0
SPLINE
  5
2ab
100
AcDbEntity
  8
Laag_1
 62
7
100
AcDbSpline
 70
8
 71
3
 72
8
 73
4
 74
0
 40
0
 40
0
 40
0
 40
0
 40
1
 40
1
 40
1
 40
1
 10
206.420688
 20
25.553621
 30
0.0
 10
206.218074
 20
25.672496
 30
0.0
 10
206.026265
 20
25.716942
 30
0.0
 10
205.845261
 20
25.686958
 30
0.0
  0
SPLINE
  5
2ac
100
AcDbEntity
  8
Laag_1
 62
7
100
AcDbSpline
 70
8
 71
3
 72
8
 73
4
 74
0
 40
0
 40
0
 40
0
 40
0
 40
1
 40
1
 40
1
 40
1
 10
205.845261
 20
25.686958
 30
0.0
 10
205.655881
 20
25.689126
 30
0.0
 10
205.466092
 20
25.528118
 30
0.0
 10
205.275894
 20
25.203935
 30
0.0
  0
SPLINE
  5
2ad
100
AcDbEntity
  8
Laag_1
 62
7
100
AcDbSpline
 70
8
 71
3
 72
8
 73
4
 74
0
 40
0
 40
0
 40
0
 40
0
 40
1
 40
1
 40
1
 40
1
 10
205.275894
 20
25.203935
 30
0.0
 10
205.073809
 20
24.859492
 30
0.0
 10
204.991944
 20
24.580694
 30
0.0
 10
205.030299
 20
24.367539
 30
0.0
  0
SPLINE
  5
2ae
100
AcDbEntity
  8
Laag_1
 62
7
100
AcDbSpline
 70
8
 71
3
 72
8
 73
4
 74
0
 40
0
 40
0
 40
0
 40
0
 40
1
 40
1
 40
1
 40
1
 10
205.030299
 20
24.367539
 30
0.0
 10
205.048394
 20
24.166273
 30
0.0
 10
205.130110
 20
24.050238
 30
0.0
 10
205.275448
 20
24.019433
 30
0.0
  0
SPLINE
  5
2af
100
AcDbEntity
  8
Laag_1
 62
7
100
AcDbSpline
 70
8
 71
3
 72
8
 73
4
 74
0
 40
0
 40
0
 40
0
 40
0
 40
1
 40
1
 40
1
 40
1
 10
205.275448
 20
24.019433
 30
0.0
 10
205.380269
 20
24.012406
 30
0.0
 10
205.461315
 20
23.964856
 30
0.0
 10
205.518586
 20
23.876786
 30
0.0
  0
SPLINE
  5
2b0
100
AcDbEntity
  8
Laag_1
 62
7
100
AcDbSpline
 70
8
 71
3
 72
8
 73
4
 74
0
 40
0
 40
0
 40
0
 40
0
 40
1
 40
1
 40
1
 40
1
 10
205.518586
 20
23.876786
 30
0.0
 10
205.575813
 20
23.788684
 30
0.0
 10
205.568786
 20
23.683863
 30
0.0
 10
205.497506
 20
23.562324
 30
0.0
  0
SPLINE
  5
2b1
100
AcDbEntity
  8
Laag_1
 62
7
100
AcDbSpline
 70
8
 71
3
 72
8
 73
4
 74
0
 40
0
 40
0
 40
0
 40
0
 40
1
 40
1
 40
1
 40
1
 10
205.497506
 20
23.562324
 30
0.0
 10
205.449955
 20
23.481278
 30
0.0
 10
205.388088
 20
23.422250
 30
0.0
 10
205.311903
 20
23.385241
 30
0.0
  0
SPLINE
  5
2b2
100
AcDbEntity
  8
Laag_1
 62
7
100
AcDbSpline
 70
8
 71
3
 72
8
 73
4
 74
0
 40
0
 40
0
 40
0
 40
0
 40
1
 40
1
 40
1
 40
1
 10
205.311903
 20
23.385241
 30
0.0
 10
205.227345
 20
23.380381
 30
0.0
 10
205.134412
 20
23.407669
 30
0.0
 10
205.033104
 20
23.467106
 30
0.0
  0
SPLINE
  5
2b3
100
AcDbEntity
  8
Laag_1
 62
7
100
AcDbSpline
 70
8
 71
3
 72
8
 73
4
 74
0
 40
0
 40
0
 40
0
 40
0
 40
1
 40
1
 40
1
 40
1
 10
205.033104
 20
23.467106
 30
0.0
 10
204.850752
 20
23.574092
 30
0.0
 10
204.755799
 20
23.806834
 30
0.0
 10
204.748245
 20
24.165331
 30
0.0
  0
SPLINE
  5
2b4
100
AcDbEntity
  8
Laag_1
 62
7
100
AcDbSpline
 70
8
 71
3
 72
8
 73
4
 74
0
 40
0
 40
0
 40
0
 40
0
 40
1
 40
1
 40
1
 40
1
 10
204.748245
 20
24.165331
 30
0.0
 10
204.740689
 20
24.523828
 30
0.0
 10
204.849841
 20
24.895559
 30
0.0
 10
205.075702
 20
25.280525
 30
0.0
  0
SPLINE
  5
2b5
100
AcDbEntity
  8
Laag_1
 62
7
100
AcDbSpline
 70
8
 71
3
 72
8
 73
4
 74
0
 40
0
 40
0
 40
0
 40
0
 40
1
 40
1
 40
1
 40
1
 10
205.075702
 20
25.280525
 30
0.0
 10
205.313449
 20
25.685753
 30
0.0
 10
205.572805
 20
25.942124
 30
0.0
 10
205.853771
 20
26.049638
 30
0.0
  0
SPLINE
  5
2b6
100
AcDbEntity
  8
Laag_1
 62
7
100
AcDbSpline
 70
8
 71
3
 72
8
 73
4
 74
0
 40
0
 40
0
 40
0
 40
0
 40
1
 40
1
 40
1
 40
1
 10
205.853771
 20
26.049638
 30
0.0
 10
206.114475
 20
26.169041
 30
0.0
 10
206.386656
 20
26.145530
 30
0.0
 10
206.670315
 20
25.979106
 30
0.0
  0
LINE
  5
2b7
100
AcDbEntity
  8
Laag_1
 62
7
100
AcDbLine
 10
206.670315
 20
25.979106
 30
0.0
 11
208.676190
 21
24.802254
 31
0.0
  0
SPLINE
  5
2b8
100
AcDbEntity
  8
Laag_1
 62
7
100
AcDbSpline
 70
8
 71
3
 72
8
 73
4
 74
0
 40
0
 40
0
 40
0
 40
0
 40
1
 40
1
 40
1
 40
1
 10
208.676190
 20
24.802254
 30
0.0
 10
208.838282
 20
24.707156
 30
0.0
 10
208.945533
 20
24.657850
 30
0.0
 10
208.997942
 20
24.654336
 30
0.0
  0
SPLINE
  5
2b9
100
AcDbEntity
  8
Laag_1
 62
7
100
AcDbSpline
 70
8
 71
3
 72
8
 73
4
 74
0
 40
0
 40
0
 40
0
 40
0
 40
1
 40
1
 40
1
 40
1
 10
208.997942
 20
24.654336
 30
0.0
 10
209.041940
 20
24.683030
 30
0.0
 10
209.087733
 20
24.737870
 30
0.0
 10
209.135322
 20
24.818856
 30
0.0
  0
SPLINE
  5
2ba
100
AcDbEntity
  8
Laag_1
 62
7
100
AcDbSpline
 70
8
 71
3
 72
8
 73
4
 74
0
 40
0
 40
0
 40
0
 40
0
 40
1
 40
1
 40
1
 40
1
 10
209.135322
 20
24.818856
 30
0.0
 10
209.194759
 20
24.920163
 30
0.0
 10
209.195842
 20
25.014853
 30
0.0
 10
209.138569
 20
25.102926
 30
0.0
  0
SPLINE
  5
2bb
100
AcDbEntity
  8
Laag_1
 62
7
100
AcDbSpline
 70
8
 71
3
 72
8
 73
4
 74
0
 40
0
 40
0
 40
0
 40
0
 40
1
 40
1
 40
1
 40
1
 10
209.138569
 20
25.102926
 30
0.0
 10
209.061041
 20
25.202886
 30
0.0
 10
208.941231
 20
25.300415
 30
0.0
 10
208.779137
 20
25.395512
 30
0.0
  0
LINE
  5
2bc
100
AcDbEntity
  8
Laag_1
 62
7
100
AcDbLine
 10
208.779137
 20
25.395512
 30
0.0
 11
208.868292
 21
25.547474
 31
0.0
  0
SPLINE
  5
2bd
100
AcDbEntity
  8
Laag_1
 62
7
100
AcDbSpline
 70
8
 71
3
 72
8
 73
4
 74
0
 40
0
 40
0
 40
0
 40
0
 40
1
 40
1
 40
1
 40
1
 10
208.868292
 20
25.547474
 30
0.0
 10
209.151950
 20
25.381050
 30
0.0
 10
209.324846
 20
25.211523
 30
0.0
 10
209.386978
 20
25.038892
 30
0.0
  0
SPLINE
  5
2be
100
AcDbEntity
  8
Laag_1
 62
7
100
AcDbSpline
 70
8
 71
3
 72
8
 73
4
 74
0
 40
0
 40
0
 40
0
 40
0
 40
1
 40
1
 40
1
 40
1
 10
209.386978
 20
25.038892
 30
0.0
 10
209.428846
 20
24.878148
 30
0.0
 10
209.402232
 20
24.716730
 30
0.0
 10
209.307135
 20
24.554639
 30
0.0
  0
SPLINE
  5
2bf
100
AcDbEntity
  8
Laag_1
 62
7
100
AcDbSpline
 70
8
 71
3
 72
8
 73
4
 74
0
 40
0
 40
0
 40
0
 40
0
 40
1
 40
1
 40
1
 40
1
 10
209.307135
 20
24.554639
 30
0.0
 10
209.223922
 20
24.412810
 30
0.0
 10
209.128148
 20
24.319204
 30
0.0
 10
209.019814
 20
24.273821
 30
0.0
  0
SPLINE
  5
2c0
100
AcDbEntity
  8
Laag_1
 62
7
100
AcDbSpline
 70
8
 71
3
 72
8
 73
4
 74
0
 40
0
 40
0
 40
0
 40
0
 40
1
 40
1
 40
1
 40
1
 10
209.019814
 20
24.273821
 30
0.0
 10
208.911481
 20
24.228438
 30
0.0
 10
208.774512
 20
24.227090
 30
0.0
 10
208.608907
 20
24.269778
 30
0.0
  0
SPLINE
  5
2c1
100
AcDbEntity
  8
Laag_1
 62
7
100
AcDbSpline
 70
8
 71
3
 72
8
 73
4
 74
0
 40
0
 40
0
 40
0
 40
0
 40
1
 40
1
 40
1
 40
1
 10
208.608907
 20
24.269778
 30
0.0
 10
208.631864
 20
23.983953
 30
0.0
 10
208.630371
 20
23.726090
 30
0.0
 10
208.604429
 20
23.496187
 30
0.0
  0
LINE
  5
2c2
100
AcDbEntity
  8
Laag_1
 62
7
100
AcDbLine
 10
208.604429
 20
23.496187
 30
0.0
 11
208.604434
 21
23.496190
 31
0.0
  0
SPLINE
  5
2c3
100
AcDbEntity
  8
Laag_1
 62
7
100
AcDbSpline
 70
8
 71
3
 72
8
 73
4
 74
0
 40
0
 40
0
 40
0
 40
0
 40
1
 40
1
 40
1
 40
1
 10
206.555169
 20
23.554600
 30
0.0
 10
206.582986
 20
23.184214
 30
0.0
 10
206.738724
 20
22.915810
 30
0.0
 10
207.022384
 20
22.749387
 30
0.0
  0
SPLINE
  5
2c4
100
AcDbEntity
  8
Laag_1
 62
7
100
AcDbSpline
 70
8
 71
3
 72
8
 73
4
 74
0
 40
0
 40
0
 40
0
 40
0
 40
1
 40
1
 40
1
 40
1
 10
207.022384
 20
22.749387
 30
0.0
 10
207.204735
 20
22.642400
 30
0.0
 10
207.406674
 20
22.592011
 30
0.0
 10
207.628201
 20
22.598219
 30
0.0
  0
SPLINE
  5
2c5
100
AcDbEntity
  8
Laag_1
 62
7
100
AcDbSpline
 70
8
 71
3
 72
8
 73
4
 74
0
 40
0
 40
0
 40
0
 40
0
 40
1
 40
1
 40
1
 40
1
 10
207.628201
 20
22.598219
 30
0.0
 10
207.841356
 20
22.636574
 30
0.0
 10
208.019258
 20
22.777321
 30
0.0
 10
208.161907
 20
23.020459
 30
0.0
  0
SPLINE
  5
2c6
100
AcDbEntity
  8
Laag_1
 62
7
100
AcDbSpline
 70
8
 71
3
 72
8
 73
4
 74
0
 40
0
 40
0
 40
0
 40
0
 40
1
 40
1
 40
1
 40
1
 10
208.161907
 20
23.020459
 30
0.0
 10
208.268893
 20
23.202812
 30
0.0
 10
208.345488
 20
23.402995
 30
0.0
 10
208.391692
 20
23.621008
 30
0.0
  0
SPLINE
  5
2c7
100
AcDbEntity
  8
Laag_1
 62
7
100
AcDbSpline
 70
8
 71
3
 72
8
 73
4
 74
0
 40
0
 40
0
 40
0
 40
0
 40
1
 40
1
 40
1
 40
1
 10
208.391692
 20
23.621008
 30
0.0
 10
208.417632
 20
23.850911
 30
0.0
 10
208.419124
 20
24.108775
 30
0.0
 10
208.396169
 20
24.394601
 30
0.0
  0
LINE
  5
2c8
100
AcDbEntity
  8
Laag_1
 62
7
100
AcDbLine
 10
208.396169
 20
24.394601
 30
0.0
 11
206.967742
 21
25.232662
 31
0.0
  0
SPLINE
  5
2c9
100
AcDbEntity
  8
Laag_1
 62
7
100
AcDbSpline
 70
8
 71
3
 72
8
 73
4
 74
0
 40
0
 40
0
 40
0
 40
0
 40
1
 40
1
 40
1
 40
1
 10
206.967742
 20
25.232662
 30
0.0
 10
206.644616
 20
24.496224
 30
0.0
 10
206.507091
 20
23.936870
 30
0.0
 10
206.555169
 20
23.554600
 30
0.0
  0
LINE
  5
2ca
100
AcDbEntity
  8
Laag_1
 62
7
100
AcDbLine
 10
206.555169
 20
23.554600
 30
0.0
 11
206.555169
 21
23.554600
 31
0.0
  0
LINE
  5
2cb
100
AcDbEntity
  8
Laag_1
 62
7
100
AcDbLine
 10
207.467975
 20
28.905456
 30
0.0
 11
209.750713
 21
27.645201
 31
0.0
  0
SPLINE
  5
2cc
100
AcDbEntity
  8
Laag_1
 62
7
100
AcDbSpline
 70
8
 71
3
 72
8
 73
4
 74
0
 40
0
 40
0
 40
0
 40
0
 40
1
 40
1
 40
1
 40
1
 10
209.750713
 20
27.645201
 30
0.0
 10
210.038625
 20
27.486250
 30
0.0
 10
210.262380
 20
27.429804
 30
0.0
 10
210.421975
 20
27.475863
 30
0.0
  0
SPLINE
  5
2cd
100
AcDbEntity
  8
Laag_1
 62
7
100
AcDbSpline
 70
8
 71
3
 72
8
 73
4
 74
0
 40
0
 40
0
 40
0
 40
0
 40
1
 40
1
 40
1
 40
1
 10
210.421975
 20
27.475863
 30
0.0
 10
210.581569
 20
27.521920
 30
0.0
 10
210.718134
 20
27.647776
 30
0.0
 10
210.831669
 20
27.853429
 30
0.0
  0
SPLINE
  5
2ce
100
AcDbEntity
  8
Laag_1
 62
7
100
AcDbSpline
 70
8
 71
3
 72
8
 73
4
 74
0
 40
0
 40
0
 40
0
 40
0
 40
1
 40
1
 40
1
 40
1
 10
210.831669
 20
27.853429
 30
0.0
 10
210.945205
 20
28.059081
 30
0.0
 10
210.974339
 20
28.257663
 30
0.0
 10
210.919070
 20
28.449175
 30
0.0
  0
SPLINE
  5
2cf
100
AcDbEntity
  8
Laag_1
 62
7
100
AcDbSpline
 70
8
 71
3
 72
8
 73
4
 74
0
 40
0
 40
0
 40
0
 40
0
 40
1
 40
1
 40
1
 40
1
 10
210.919070
 20
28.449175
 30
0.0
 10
210.843236
 20
28.652042
 30
0.0
 10
210.693281
 20
28.842163
 30
0.0
 10
210.469206
 20
29.019537
 30
0.0
  0
LINE
  5
2d0
100
AcDbEntity
  8
Laag_1
 62
7
100
AcDbLine
 10
210.469206
 20
29.019537
 30
0.0
 11
210.616056
 21
29.139710
 31
0.0
  0
SPLINE
  5
2d1
100
AcDbEntity
  8
Laag_1
 62
7
100
AcDbSpline
 70
8
 71
3
 72
8
 73
4
 74
0
 40
0
 40
0
 40
0
 40
0
 40
1
 40
1
 40
1
 40
1
 10
210.616056
 20
29.139710
 30
0.0
 10
210.881261
 20
28.939630
 30
0.0
 10
211.055316
 20
28.695955
 30
0.0
 10
211.138221
 20
28.408685
 30
0.0
  0
SPLINE
  5
2d2
100
AcDbEntity
  8
Laag_1
 62
7
100
AcDbSpline
 70
8
 71
3
 72
8
 73
4
 74
0
 40
0
 40
0
 40
0
 40
0
 40
1
 40
1
 40
1
 40
1
 10
211.138221
 20
28.408685
 30
0.0
 10
211.232478
 20
28.141980
 30
0.0
 10
211.200132
 20
27.864671
 30
0.0
 10
211.041181
 20
27.576758
 30
0.0
  0
SPLINE
  5
2d3
100
AcDbEntity
  8
Laag_1
 62
7
100
AcDbSpline
 70
8
 71
3
 72
8
 73
4
 74
0
 40
0
 40
0
 40
0
 40
0
 40
1
 40
1
 40
1
 40
1
 10
211.041181
 20
27.576758
 30
0.0
 10
210.870877
 20
27.268279
 30
0.0
 10
210.647767
 20
27.082871
 30
0.0
 10
210.371850
 20
27.020533
 30
0.0
  0
SPLINE
  5
2d4
100
AcDbEntity
  8
Laag_1
 62
7
100
AcDbSpline
 70
8
 71
3
 72
8
 73
4
 74
0
 40
0
 40
0
 40
0
 40
0
 40
1
 40
1
 40
1
 40
1
 10
210.371850
 20
27.020533
 30
0.0
 10
210.107288
 20
26.978759
 30
0.0
 10
209.779638
 20
27.065731
 30
0.0
 10
209.388897
 20
27.281449
 30
0.0
  0
LINE
  5
2d5
100
AcDbEntity
  8
Laag_1
 62
7
100
AcDbLine
 10
209.388897
 20
27.281449
 30
0.0
 11
207.229551
 21
28.473581
 31
0.0
  0
LINE
  5
2d6
100
AcDbEntity
  8
Laag_1
 62
7
100
AcDbLine
 10
207.229551
 20
28.473581
 30
0.0
 11
206.718637
 21
27.548145
 31
0.0
  0
LINE
  5
2d7
100
AcDbEntity
  8
Laag_1
 62
7
100
AcDbLine
 10
206.718637
 20
27.548145
 30
0.0
 11
206.533550
 21
27.650330
 31
0.0
  0
LINE
  5
2d8
100
AcDbEntity
  8
Laag_1
 62
7
100
AcDbLine
 10
206.533550
 20
27.650330
 30
0.0
 11
206.669795
 21
27.897111
 31
0.0
  0
SPLINE
  5
2d9
100
AcDbEntity
  8
Laag_1
 62
7
100
AcDbSpline
 70
8
 71
3
 72
8
 73
4
 74
0
 40
0
 40
0
 40
0
 40
0
 40
1
 40
1
 40
1
 40
1
 10
206.669795
 20
27.897111
 30
0.0
 10
206.806037
 20
28.143894
 30
0.0
 10
206.841918
 20
28.379001
 30
0.0
 10
206.777437
 20
28.602433
 30
0.0
  0
SPLINE
  5
2da
100
AcDbEntity
  8
Laag_1
 62
7
100
AcDbSpline
 70
8
 71
3
 72
8
 73
4
 74
0
 40
0
 40
0
 40
0
 40
0
 40
1
 40
1
 40
1
 40
1
 10
206.777437
 20
28.602433
 30
0.0
 10
206.703744
 20
28.857785
 30
0.0
 10
206.513730
 20
29.096855
 30
0.0
 10
206.207393
 20
29.319644
 30
0.0
  0
LINE
  5
2db
100
AcDbEntity
  8
Laag_1
 62
7
100
AcDbLine
 10
206.207393
 20
29.319644
 30
0.0
 11
205.977643
 21
29.486736
 31
0.0
  0
LINE
  5
2dc
100
AcDbEntity
  8
Laag_1
 62
7
100
AcDbLine
 10
205.977643
 20
29.486736
 30
0.0
 11
206.079825
 21
29.671822
 31
0.0
  0
LINE
  5
2dd
100
AcDbEntity
  8
Laag_1
 62
7
100
AcDbLine
 10
206.079825
 20
29.671822
 30
0.0
 11
207.282892
 21
29.007633
 31
0.0
  0
LINE
  5
2de
100
AcDbEntity
  8
Laag_1
 62
7
100
AcDbLine
 10
207.282892
 20
29.007633
 30
0.0
 11
207.964108
 21
30.241546
 31
0.0
  0
LINE
  5
2df
100
AcDbEntity
  8
Laag_1
 62
7
100
AcDbLine
 10
207.964108
 20
30.241546
 30
0.0
 11
208.149194
 21
30.139363
 31
0.0
  0
LINE
  5
2e0
100
AcDbEntity
  8
Laag_1
 62
7
100
AcDbLine
 10
208.149194
 20
30.139363
 30
0.0
 11
207.467978
 21
28.905451
 31
0.0
  0
LINE
  5
2e1
100
AcDbEntity
  8
Laag_1
 62
7
100
AcDbLine
 10
207.467978
 20
28.905451
 30
0.0
 11
207.467975
 21
28.905456
 31
0.0
  0
SPLINE
  5
2e2
100
AcDbEntity
  8
Laag_1
 62
7
100
AcDbSpline
 70
8
 71
3
 72
8
 73
4
 74
0
 40
0
 40
0
 40
0
 40
0
 40
1
 40
1
 40
1
 40
1
 10
212.954935
 20
31.383339
 30
0.0
 10
212.930448
 20
31.184130
 30
0.0
 10
212.852982
 20
30.959578
 30
0.0
 10
212.722538
 20
30.709682
 30
0.0
  0
SPLINE
  5
2e3
100
AcDbEntity
  8
Laag_1
 62
7
100
AcDbSpline
 70
8
 71
3
 72
8
 73
4
 74
0
 40
0
 40
0
 40
0
 40
0
 40
1
 40
1
 40
1
 40
1
 10
212.722538
 20
30.709682
 30
0.0
 10
212.526872
 20
30.334835
 30
0.0
 10
212.291388
 20
30.086770
 30
0.0
 10
212.016088
 20
29.965487
 30
0.0
  0
SPLINE
  5
2e4
100
AcDbEntity
  8
Laag_1
 62
7
100
AcDbSpline
 70
8
 71
3
 72
8
 73
4
 74
0
 40
0
 40
0
 40
0
 40
0
 40
1
 40
1
 40
1
 40
1
 10
212.016088
 20
29.965487
 30
0.0
 10
211.719962
 20
29.855073
 30
0.0
 10
211.457363
 20
29.859653
 30
0.0
 10
211.228292
 20
29.979225
 30
0.0
  0
SPLINE
  5
2e5
100
AcDbEntity
  8
Laag_1
 62
7
100
AcDbSpline
 70
8
 71
3
 72
8
 73
4
 74
0
 40
0
 40
0
 40
0
 40
0
 40
1
 40
1
 40
1
 40
1
 10
211.228292
 20
29.979225
 30
0.0
 10
210.853445
 20
30.174892
 30
0.0
 10
210.633013
 20
30.488697
 30
0.0
 10
210.566996
 20
30.920641
 30
0.0
  0
SPLINE
  5
2e6
100
AcDbEntity
  8
Laag_1
 62
7
100
AcDbSpline
 70
8
 71
3
 72
8
 73
4
 74
0
 40
0
 40
0
 40
0
 40
0
 40
1
 40
1
 40
1
 40
1
 10
210.566996
 20
30.920641
 30
0.0
 10
210.491025
 20
31.384281
 30
0.0
 10
210.650995
 20
32.122246
 30
0.0
 10
211.046907
 20
33.134535
 30
0.0
  0
LINE
  5
2e7
100
AcDbEntity
  8
Laag_1
 62
7
100
AcDbLine
 10
211.046907
 20
33.134535
 30
0.0
 11
210.672063
 21
33.330201
 31
0.0
  0
SPLINE
  5
2e8
100
AcDbEntity
  8
Laag_1
 62
7
100
AcDbSpline
 70
8
 71
3
 72
8
 73
4
 74
0
 40
0
 40
0
 40
0
 40
0
 40
1
 40
1
 40
1
 40
1
 10
210.672063
 20
33.330201
 30
0.0
 10
210.463815
 20
33.438904
 30
0.0
 10
210.270041
 20
33.473804
 30
0.0
 10
210.090741
 20
33.434902
 30
0.0
  0
SPLINE
  5
2e9
100
AcDbEntity
  8
Laag_1
 62
7
100
AcDbSpline
 70
8
 71
3
 72
8
 73
4
 74
0
 40
0
 40
0
 40
0
 40
0
 40
1
 40
1
 40
1
 40
1
 10
210.090741
 20
33.434902
 30
0.0
 10
209.901487
 20
33.427695
 30
0.0
 10
209.719897
 20
33.257494
 30
0.0
 10
209.545971
 20
32.924300
 30
0.0
  0
SPLINE
  5
2ea
100
AcDbEntity
  8
Laag_1
 62
7
100
AcDbSpline
 70
8
 71
3
 72
8
 73
4
 74
0
 40
0
 40
0
 40
0
 40
0
 40
1
 40
1
 40
1
 40
1
 10
209.545971
 20
32.924300
 30
0.0
 10
209.361177
 20
32.570280
 30
0.0
 10
209.293207
 20
32.287773
 30
0.0
 10
209.342063
 20
32.076777
 30
0.0
  0
SPLINE
  5
2eb
100
AcDbEntity
  8
Laag_1
 62
7
100
AcDbSpline
 70
8
 71
3
 72
8
 73
4
 74
0
 40
0
 40
0
 40
0
 40
0
 40
1
 40
1
 40
1
 40
1
 10
209.342063
 20
32.076777
 30
0.0
 10
209.370094
 20
31.876652
 30
0.0
 10
209.457454
 20
31.764803
 30
0.0
 10
209.604142
 20
31.741231
 30
0.0
  0
SPLINE
  5
2ec
100
AcDbEntity
  8
Laag_1
 62
7
100
AcDbSpline
 70
8
 71
3
 72
8
 73
4
 74
0
 40
0
 40
0
 40
0
 40
0
 40
1
 40
1
 40
1
 40
1
 10
209.604142
 20
31.741231
 30
0.0
 10
209.709182
 20
31.739399
 30
0.0
 10
209.792481
 20
31.695918
 30
0.0
 10
209.854039
 20
31.610786
 30
0.0
  0
SPLINE
  5
2ed
100
AcDbEntity
  8
Laag_1
 62
7
100
AcDbSpline
 70
8
 71
3
 72
8
 73
4
 74
0
 40
0
 40
0
 40
0
 40
0
 40
1
 40
1
 40
1
 40
1
 10
209.854039
 20
31.610786
 30
0.0
 10
209.915600
 20
31.525658
 30
0.0
 10
209.913769
 20
31.420618
 30
0.0
 10
209.848545
 20
31.295666
 30
0.0
  0
SPLINE
  5
2ee
100
AcDbEntity
  8
Laag_1
 62
7
100
AcDbSpline
 70
8
 71
3
 72
8
 73
4
 74
0
 40
0
 40
0
 40
0
 40
0
 40
1
 40
1
 40
1
 40
1
 10
209.848545
 20
31.295666
 30
0.0
 10
209.805062
 20
31.212368
 30
0.0
 10
209.746192
 20
31.150352
 30
0.0
 10
209.671933
 20
31.109619
 30
0.0
  0
SPLINE
  5
2ef
100
AcDbEntity
  8
Laag_1
 62
7
100
AcDbSpline
 70
8
 71
3
 72
8
 73
4
 74
0
 40
0
 40
0
 40
0
 40
0
 40
1
 40
1
 40
1
 40
1
 10
209.671933
 20
31.109619
 30
0.0
 10
209.587717
 20
31.100581
 30
0.0
 10
209.493547
 20
31.123237
 30
0.0
 10
209.389423
 20
31.177588
 30
0.0
  0
SPLINE
  5
2f0
100
AcDbEntity
  8
Laag_1
 62
7
100
AcDbSpline
 70
8
 71
3
 72
8
 73
4
 74
0
 40
0
 40
0
 40
0
 40
0
 40
1
 40
1
 40
1
 40
1
 10
209.389423
 20
31.177588
 30
0.0
 10
209.202001
 20
31.275421
 30
0.0
 10
209.095649
 20
31.503179
 30
0.0
 10
209.070365
 20
31.860863
 30
0.0
  0
SPLINE
  5
2f1
100
AcDbEntity
  8
Laag_1
 62
7
100
AcDbSpline
 70
8
 71
3
 72
8
 73
4
 74
0
 40
0
 40
0
 40
0
 40
0
 40
1
 40
1
 40
1
 40
1
 10
209.070365
 20
31.860863
 30
0.0
 10
209.045081
 20
32.218548
 30
0.0
 10
209.135707
 20
32.595225
 30
0.0
 10
209.342244
 20
32.990894
 30
0.0
  0
SPLINE
  5
2f2
100
AcDbEntity
  8
Laag_1
 62
7
100
AcDbSpline
 70
8
 71
3
 72
8
 73
4
 74
0
 40
0
 40
0
 40
0
 40
0
 40
1
 40
1
 40
1
 40
1
 10
209.342244
 20
32.990894
 30
0.0
 10
209.559650
 20
33.407390
 30
0.0
 10
209.806004
 20
33.676280
 30
0.0
 10
210.081306
 20
33.797565
 30
0.0
  0
SPLINE
  5
2f3
100
AcDbEntity
  8
Laag_1
 62
7
100
AcDbSpline
 70
8
 71
3
 72
8
 73
4
 74
0
 40
0
 40
0
 40
0
 40
0
 40
1
 40
1
 40
1
 40
1
 10
210.081306
 20
33.797565
 30
0.0
 10
210.335782
 20
33.929718
 30
0.0
 10
210.608793
 20
33.919703
 30
0.0
 10
210.900339
 20
33.767519
 30
0.0
  0
LINE
  5
2f4
100
AcDbEntity
  8
Laag_1
 62
7
100
AcDbLine
 10
210.900339
 20
33.767519
 30
0.0
 11
212.961987
 21
32.691358
 31
0.0
  0
SPLINE
  5
2f5
100
AcDbEntity
  8
Laag_1
 62
7
100
AcDbSpline
 70
8
 71
3
 72
8
 73
4
 74
0
 40
0
 40
0
 40
0
 40
0
 40
1
 40
1
 40
1
 40
1
 10
212.961987
 20
32.691358
 30
0.0
 10
213.128585
 20
32.604394
 30
0.0
 10
213.238144
 20
32.560454
 30
0.0
 10
213.290663
 20
32.559538
 30
0.0
  0
SPLINE
  5
2f6
100
AcDbEntity
  8
Laag_1
 62
7
100
AcDbSpline
 70
8
 71
3
 72
8
 73
4
 74
0
 40
0
 40
0
 40
0
 40
0
 40
1
 40
1
 40
1
 40
1
 10
213.290663
 20
32.559538
 30
0.0
 10
213.333233
 20
32.590311
 30
0.0
 10
213.376257
 20
32.647351
 30
0.0
 10
213.419734
 20
32.730657
 30
0.0
  0
SPLINE
  5
2f7
100
AcDbEntity
  8
Laag_1
 62
7
100
AcDbSpline
 70
8
 71
3
 72
8
 73
4
 74
0
 40
0
 40
0
 40
0
 40
0
 40
1
 40
1
 40
1
 40
1
 10
213.419734
 20
32.730657
 30
0.0
 10
213.474085
 20
32.834779
 30
0.0
 10
213.470482
 20
32.929406
 30
0.0
 10
213.408923
 20
33.014538
 30
0.0
  0
SPLINE
  5
2f8
100
AcDbEntity
  8
Laag_1
 62
7
100
AcDbSpline
 70
8
 71
3
 72
8
 73
4
 74
0
 40
0
 40
0
 40
0
 40
0
 40
1
 40
1
 40
1
 40
1
 10
213.408923
 20
33.014538
 30
0.0
 10
213.326548
 20
33.110543
 30
0.0
 10
213.202058
 20
33.202025
 30
0.0
 10
213.035454
 20
33.288982
 30
0.0
  0
LINE
  5
2f9
100
AcDbEntity
  8
Laag_1
 62
7
100
AcDbLine
 10
213.035454
 20
33.288982
 30
0.0
 11
213.116980
 21
33.445167
 31
0.0
  0
SPLINE
  5
2fa
100
AcDbEntity
  8
Laag_1
 62
7
100
AcDbSpline
 70
8
 71
3
 72
8
 73
4
 74
0
 40
0
 40
0
 40
0
 40
0
 40
1
 40
1
 40
1
 40
1
 10
213.116980
 20
33.445167
 30
0.0
 10
213.408525
 20
33.292984
 30
0.0
 10
213.589597
 20
33.132219
 30
0.0
 10
213.660194
 20
32.962874
 30
0.0
  0
SPLINE
  5
2fb
100
AcDbEntity
  8
Laag_1
 62
7
100
AcDbSpline
 70
8
 71
3
 72
8
 73
4
 74
0
 40
0
 40
0
 40
0
 40
0
 40
1
 40
1
 40
1
 40
1
 10
213.660194
 20
32.962874
 30
0.0
 10
213.709965
 20
32.804398
 30
0.0
 10
213.691370
 20
32.641862
 30
0.0
 10
213.604408
 20
32.475265
 30
0.0
  0
SPLINE
  5
2fc
100
AcDbEntity
  8
Laag_1
 62
7
100
AcDbSpline
 70
8
 71
3
 72
8
 73
4
 74
0
 40
0
 40
0
 40
0
 40
0
 40
1
 40
1
 40
1
 40
1
 10
213.604408
 20
32.475265
 30
0.0
 10
213.528316
 20
32.329491
 30
0.0
 10
213.437292
 20
32.231260
 30
0.0
 10
213.331336
 20
32.180572
 30
0.0
  0
SPLINE
  5
2fd
100
AcDbEntity
  8
Laag_1
 62
7
100
AcDbSpline
 70
8
 71
3
 72
8
 73
4
 74
0
 40
0
 40
0
 40
0
 40
0
 40
1
 40
1
 40
1
 40
1
 10
213.331336
 20
32.180572
 30
0.0
 10
213.225381
 20
32.129883
 30
0.0
 10
213.088646
 20
32.121760
 30
0.0
 10
212.921132
 20
32.156203
 30
0.0
  0
SPLINE
  5
2fe
100
AcDbEntity
  8
Laag_1
 62
7
100
AcDbSpline
 70
8
 71
3
 72
8
 73
4
 74
0
 40
0
 40
0
 40
0
 40
0
 40
1
 40
1
 40
1
 40
1
 10
212.921132
 20
32.156203
 30
0.0
 10
212.958202
 20
31.871864
 30
0.0
 10
212.969470
 20
31.614243
 30
0.0
 10
212.954935
 20
31.383339
 30
0.0
  0
LINE
  5
2ff
100
AcDbEntity
  8
Laag_1
 62
7
100
AcDbLine
 10
212.954935
 20
31.383339
 30
0.0
 11
212.954935
 21
31.383339
 31
0.0
  0
SPLINE
  5
300
100
AcDbEntity
  8
Laag_1
 62
7
100
AcDbSpline
 70
8
 71
3
 72
8
 73
4
 74
0
 40
0
 40
0
 40
0
 40
0
 40
1
 40
1
 40
1
 40
1
 10
210.905291
 20
31.340281
 30
0.0
 10
210.951399
 20
30.971726
 30
0.0
 10
211.120224
 20
30.711356
 30
0.0
 10
211.411764
 20
30.559169
 30
0.0
  0
SPLINE
  5
301
100
AcDbEntity
  8
Laag_1
 62
7
100
AcDbSpline
 70
8
 71
3
 72
8
 73
4
 74
0
 40
0
 40
0
 40
0
 40
0
 40
1
 40
1
 40
1
 40
1
 10
211.411764
 20
30.559169
 30
0.0
 10
211.599187
 20
30.461334
 30
0.0
 10
211.803374
 20
30.420998
 30
0.0
 10
212.024323
 20
30.438161
 30
0.0
  0
SPLINE
  5
302
100
AcDbEntity
  8
Laag_1
 62
7
100
AcDbSpline
 70
8
 71
3
 72
8
 73
4
 74
0
 40
0
 40
0
 40
0
 40
0
 40
1
 40
1
 40
1
 40
1
 10
212.024323
 20
30.438161
 30
0.0
 10
212.235318
 20
30.487016
 30
0.0
 10
212.406038
 20
30.636392
 30
0.0
 10
212.536483
 20
30.886289
 30
0.0
  0
SPLINE
  5
303
100
AcDbEntity
  8
Laag_1
 62
7
100
AcDbSpline
 70
8
 71
3
 72
8
 73
4
 74
0
 40
0
 40
0
 40
0
 40
0
 40
1
 40
1
 40
1
 40
1
 10
212.536483
 20
30.886289
 30
0.0
 10
212.634315
 20
31.073712
 30
0.0
 10
212.700911
 20
31.277441
 30
0.0
 10
212.736270
 20
31.497474
 30
0.0
  0
SPLINE
  5
304
100
AcDbEntity
  8
Laag_1
 62
7
100
AcDbSpline
 70
8
 71
3
 72
8
 73
4
 74
0
 40
0
 40
0
 40
0
 40
0
 40
1
 40
1
 40
1
 40
1
 10
212.736270
 20
31.497474
 30
0.0
 10
212.750804
 20
31.728378
 30
0.0
 10
212.739536
 20
31.985999
 30
0.0
 10
212.702466
 20
32.270338
 30
0.0
  0
LINE
  5
305
100
AcDbEntity
  8
Laag_1
 62
7
100
AcDbLine
 10
212.702466
 20
32.270338
 30
0.0
 11
211.234323
 21
33.036695
 31
0.0
  0
SPLINE
  5
306
100
AcDbEntity
  8
Laag_1
 62
7
100
AcDbSpline
 70
8
 71
3
 72
8
 73
4
 74
0
 40
0
 40
0
 40
0
 40
0
 40
1
 40
1
 40
1
 40
1
 10
211.234323
 20
33.036695
 30
0.0
 10
210.948030
 20
32.285175
 30
0.0
 10
210.838350
 20
31.719702
 30
0.0
 10
210.905284
 20
31.340277
 30
0.0
  0
LINE
  5
307
100
AcDbEntity
  8
Laag_1
 62
7
100
AcDbLine
 10
210.905284
 20
31.340277
 30
0.0
 11
210.905291
 21
31.340281
 31
0.0
  0
LINE
  5
308
100
AcDbEntity
  8
Laag_1
 62
7
100
AcDbLine
 10
212.513196
 20
35.161300
 30
0.0
 11
213.505718
 21
37.186293
 31
0.0
  0
SPLINE
  5
309
100
AcDbEntity
  8
Laag_1
 62
7
100
AcDbSpline
 70
8
 71
3
 72
8
 73
4
 74
0
 40
0
 40
0
 40
0
 40
0
 40
1
 40
1
 40
1
 40
1
 10
213.505718
 20
37.186293
 30
0.0
 10
213.051995
 20
37.434840
 30
0.0
 10
212.662595
 20
37.521055
 30
0.0
 10
212.337516
 20
37.444939
 30
0.0
  0
SPLINE
  5
30a
100
AcDbEntity
  8
Laag_1
 62
7
100
AcDbSpline
 70
8
 71
3
 72
8
 73
4
 74
0
 40
0
 40
0
 40
0
 40
0
 40
1
 40
1
 40
1
 40
1
 10
212.337516
 20
37.444939
 30
0.0
 10
212.001681
 20
37.400254
 30
0.0
 10
211.761392
 20
37.230256
 30
0.0
 10
211.616649
 20
36.934945
 30
0.0
  0
SPLINE
  5
30b
100
AcDbEntity
  8
Laag_1
 62
7
100
AcDbSpline
 70
8
 71
3
 72
8
 73
4
 74
0
 40
0
 40
0
 40
0
 40
0
 40
1
 40
1
 40
1
 40
1
 10
211.616649
 20
36.934945
 30
0.0
 10
211.461569
 20
36.618540
 30
0.0
 10
211.458897
 20
36.292836
 30
0.0
 10
211.608633
 20
35.957835
 30
0.0
  0
SPLINE
  5
30c
100
AcDbEntity
  8
Laag_1
 62
7
100
AcDbSpline
 70
8
 71
3
 72
8
 73
4
 74
0
 40
0
 40
0
 40
0
 40
0
 40
1
 40
1
 40
1
 40
1
 10
211.608633
 20
35.957835
 30
0.0
 10
211.768707
 20
35.643925
 30
0.0
 10
212.070228
 20
35.378414
 30
0.0
 10
212.513196
 20
35.161300
 30
0.0
  0
LINE
  5
30d
100
AcDbEntity
  8
Laag_1
 62
7
100
AcDbLine
 10
212.513196
 20
35.161300
 30
0.0
 11
212.513196
 21
35.161300
 31
0.0
  0
LINE
  5
30e
100
AcDbEntity
  8
Laag_1
 62
7
100
AcDbLine
 10
213.959199
 20
37.631133
 30
0.0
 11
212.703039
 21
35.068251
 31
0.0
  0
SPLINE
  5
30f
100
AcDbEntity
  8
Laag_1
 62
7
100
AcDbSpline
 70
8
 71
3
 72
8
 73
4
 74
0
 40
0
 40
0
 40
0
 40
0
 40
1
 40
1
 40
1
 40
1
 10
212.703039
 20
35.068251
 30
0.0
 10
213.272567
 20
34.789104
 30
0.0
 10
213.735587
 20
34.692967
 30
0.0
 10
214.092098
 20
34.779839
 30
0.0
  0
SPLINE
  5
310
100
AcDbEntity
  8
Laag_1
 62
7
100
AcDbSpline
 70
8
 71
3
 72
8
 73
4
 74
0
 40
0
 40
0
 40
0
 40
0
 40
1
 40
1
 40
1
 40
1
 10
214.092098
 20
34.779839
 30
0.0
 10
214.437855
 20
34.898143
 30
0.0
 10
214.698614
 20
35.136592
 30
0.0
 10
214.874373
 20
35.495185
 30
0.0
  0
SPLINE
  5
311
100
AcDbEntity
  8
Laag_1
 62
7
100
AcDbSpline
 70
8
 71
3
 72
8
 73
4
 74
0
 40
0
 40
0
 40
0
 40
0
 40
1
 40
1
 40
1
 40
1
 10
214.874373
 20
35.495185
 30
0.0
 10
215.008777
 20
35.769402
 30
0.0
 10
215.048675
 20
36.037617
 30
0.0
 10
214.994069
 20
36.299831
 30
0.0
  0
SPLINE
  5
312
100
AcDbEntity
  8
Laag_1
 62
7
100
AcDbSpline
 70
8
 71
3
 72
8
 73
4
 74
0
 40
0
 40
0
 40
0
 40
0
 40
1
 40
1
 40
1
 40
1
 10
214.994069
 20
36.299831
 30
0.0
 10
214.918369
 20
36.572384
 30
0.0
 10
214.785181
 20
36.807711
 30
0.0
 10
214.594505
 20
37.005814
 30
0.0
  0
LINE
  5
313
100
AcDbEntity
  8
Laag_1
 62
7
100
AcDbLine
 10
214.594505
 20
37.005814
 30
0.0
 11
214.735327
 21
37.132999
 31
0.0
  0
SPLINE
  5
314
100
AcDbEntity
  8
Laag_1
 62
7
100
AcDbSpline
 70
8
 71
3
 72
8
 73
4
 74
0
 40
0
 40
0
 40
0
 40
0
 40
1
 40
1
 40
1
 40
1
 10
214.735327
 20
37.132999
 30
0.0
 10
214.936342
 20
36.955992
 30
0.0
 10
215.096004
 20
36.694612
 30
0.0
 10
215.214315
 20
36.348858
 30
0.0
  0
SPLINE
  5
315
100
AcDbEntity
  8
Laag_1
 62
7
100
AcDbSpline
 70
8
 71
3
 72
8
 73
4
 74
0
 40
0
 40
0
 40
0
 40
0
 40
1
 40
1
 40
1
 40
1
 10
215.214315
 20
36.348858
 30
0.0
 10
215.321864
 20
36.034536
 30
0.0
 10
215.282589
 20
35.687531
 30
0.0
 10
215.096490
 20
35.307845
 30
0.0
  0
SPLINE
  5
316
100
AcDbEntity
  8
Laag_1
 62
7
100
AcDbSpline
 70
8
 71
3
 72
8
 73
4
 74
0
 40
0
 40
0
 40
0
 40
0
 40
1
 40
1
 40
1
 40
1
 10
215.096490
 20
35.307845
 30
0.0
 10
214.858699
 20
34.822690
 30
0.0
 10
214.504060
 20
34.499451
 30
0.0
 10
214.032574
 20
34.338128
 30
0.0
  0
SPLINE
  5
317
100
AcDbEntity
  8
Laag_1
 62
7
100
AcDbSpline
 70
8
 71
3
 72
8
 73
4
 74
0
 40
0
 40
0
 40
0
 40
0
 40
1
 40
1
 40
1
 40
1
 10
214.032574
 20
34.338128
 30
0.0
 10
213.571425
 20
34.197897
 30
0.0
 10
213.045540
 20
34.272525
 30
0.0
 10
212.454918
 20
34.562012
 30
0.0
  0
SPLINE
  5
318
100
AcDbEntity
  8
Laag_1
 62
7
100
AcDbSpline
 70
8
 71
3
 72
8
 73
4
 74
0
 40
0
 40
0
 40
0
 40
0
 40
1
 40
1
 40
1
 40
1
 10
212.454918
 20
34.562012
 30
0.0
 10
211.927575
 20
34.820479
 30
0.0
 10
211.567527
 20
35.180079
 30
0.0
 10
211.374772
 20
35.640813
 30
0.0
  0
SPLINE
  5
319
100
AcDbEntity
  8
Laag_1
 62
7
100
AcDbSpline
 70
8
 71
3
 72
8
 73
4
 74
0
 40
0
 40
0
 40
0
 40
0
 40
1
 40
1
 40
1
 40
1
 10
211.374772
 20
35.640813
 30
0.0
 10
211.171260
 20
36.132975
 30
0.0
 10
211.178061
 20
36.600541
 30
0.0
 10
211.395175
 20
37.043509
 30
0.0
  0
SPLINE
  5
31a
100
AcDbEntity
  8
Laag_1
 62
7
100
AcDbSpline
 70
8
 71
3
 72
8
 73
4
 74
0
 40
0
 40
0
 40
0
 40
0
 40
1
 40
1
 40
1
 40
1
 10
211.395175
 20
37.043509
 30
0.0
 10
211.591612
 20
37.444288
 30
0.0
 10
211.899310
 20
37.725131
 30
0.0
 10
212.318271
 20
37.886038
 30
0.0
  0
SPLINE
  5
31b
100
AcDbEntity
  8
Laag_1
 62
7
100
AcDbSpline
 70
8
 71
3
 72
8
 73
4
 74
0
 40
0
 40
0
 40
0
 40
0
 40
1
 40
1
 40
1
 40
1
 10
212.318271
 20
37.886038
 30
0.0
 10
212.737232
 20
38.046945
 30
0.0
 10
213.284211
 20
37.961979
 30
0.0
 10
213.959209
 20
37.631140
 30
0.0
  0
LINE
  5
31c
100
AcDbEntity
  8
Laag_1
 62
7
100
AcDbLine
 10
213.959209
 20
37.631140
 30
0.0
 11
213.959199
 21
37.631133
 31
0.0
  0
LINE
  5
31d
100
AcDbEntity
  8
Laag_1
 62
7
100
AcDbLine
 10
213.006505
 20
40.643408
 30
0.0
 11
214.152897
 21
40.100334
 31
0.0
  0
SPLINE
  5
31e
100
AcDbEntity
  8
Laag_1
 62
7
100
AcDbSpline
 70
8
 71
3
 72
8
 73
4
 74
0
 40
0
 40
0
 40
0
 40
0
 40
1
 40
1
 40
1
 40
1
 10
214.152897
 20
40.100334
 30
0.0
 10
213.913830
 20
40.473561
 30
0.0
 10
213.764674
 20
40.817153
 30
0.0
 10
213.705430
 20
41.131112
 30
0.0
  0
SPLINE
  5
31f
100
AcDbEntity
  8
Laag_1
 62
7
100
AcDbSpline
 70
8
 71
3
 72
8
 73
4
 74
0
 40
0
 40
0
 40
0
 40
0
 40
1
 40
1
 40
1
 40
1
 10
213.705430
 20
41.131112
 30
0.0
 10
213.635047
 20
41.476377
 30
0.0
 10
213.660197
 20
41.776387
 30
0.0
 10
213.780880
 20
42.031141
 30
0.0
  0
SPLINE
  5
320
100
AcDbEntity
  8
Laag_1
 62
7
100
AcDbSpline
 70
8
 71
3
 72
8
 73
4
 74
0
 40
0
 40
0
 40
0
 40
0
 40
1
 40
1
 40
1
 40
1
 10
213.780880
 20
42.031141
 30
0.0
 10
213.881450
 20
42.243436
 30
0.0
 10
214.009950
 20
42.377516
 30
0.0
 10
214.166382
 20
42.433379
 30
0.0
  0
SPLINE
  5
321
100
AcDbEntity
  8
Laag_1
 62
7
100
AcDbSpline
 70
8
 71
3
 72
8
 73
4
 74
0
 40
0
 40
0
 40
0
 40
0
 40
1
 40
1
 40
1
 40
1
 10
214.166382
 20
42.433379
 30
0.0
 10
214.311645
 20
42.520522
 30
0.0
 10
214.447963
 20
42.533926
 30
0.0
 10
214.575337
 20
42.473590
 30
0.0
  0
SPLINE
  5
322
100
AcDbEntity
  8
Laag_1
 62
7
100
AcDbSpline
 70
8
 71
3
 72
8
 73
4
 74
0
 40
0
 40
0
 40
0
 40
0
 40
1
 40
1
 40
1
 40
1
 10
214.575337
 20
42.473590
 30
0.0
 10
214.681484
 20
42.423305
 30
0.0
 10
214.751316
 20
42.351233
 30
0.0
 10
214.784835
 20
42.257376
 30
0.0
  0
SPLINE
  5
323
100
AcDbEntity
  8
Laag_1
 62
7
100
AcDbSpline
 70
8
 71
3
 72
8
 73
4
 74
0
 40
0
 40
0
 40
0
 40
0
 40
1
 40
1
 40
1
 40
1
 10
214.784835
 20
42.257376
 30
0.0
 10
214.828406
 20
42.184744
 30
0.0
 10
214.825051
 20
42.095355
 30
0.0
 10
214.774770
 20
41.989208
 30
0.0
  0
SPLINE
  5
324
100
AcDbEntity
  8
Laag_1
 62
7
100
AcDbSpline
 70
8
 71
3
 72
8
 73
4
 74
0
 40
0
 40
0
 40
0
 40
0
 40
1
 40
1
 40
1
 40
1
 10
214.774770
 20
41.989208
 30
0.0
 10
214.724485
 20
41.883061
 30
0.0
 10
214.652413
 20
41.813228
 30
0.0
 10
214.558554
 20
41.779709
 30
0.0
  0
SPLINE
  5
325
100
AcDbEntity
  8
Laag_1
 62
7
100
AcDbSpline
 70
8
 71
3
 72
8
 73
4
 74
0
 40
0
 40
0
 40
0
 40
0
 40
1
 40
1
 40
1
 40
1
 10
214.558554
 20
41.779709
 30
0.0
 10
214.474751
 20
41.767422
 30
0.0
 10
214.384805
 20
41.797035
 30
0.0
 10
214.288714
 20
41.868548
 30
0.0
  0
SPLINE
  5
326
100
AcDbEntity
  8
Laag_1
 62
7
100
AcDbSpline
 70
8
 71
3
 72
8
 73
4
 74
0
 40
0
 40
0
 40
0
 40
0
 40
1
 40
1
 40
1
 40
1
 10
214.288714
 20
41.868548
 30
0.0
 10
214.225025
 20
41.898720
 30
0.0
 10
214.166923
 20
41.913247
 30
0.0
 10
214.114408
 20
41.912130
 30
0.0
  0
SPLINE
  5
327
100
AcDbEntity
  8
Laag_1
 62
7
100
AcDbSpline
 70
8
 71
3
 72
8
 73
4
 74
0
 40
0
 40
0
 40
0
 40
0
 40
1
 40
1
 40
1
 40
1
 10
214.114408
 20
41.912130
 30
0.0
 10
214.061891
 20
41.911016
 30
0.0
 10
214.010491
 20
41.857385
 30
0.0
 10
213.960207
 20
41.751239
 30
0.0
  0
SPLINE
  5
328
100
AcDbEntity
  8
Laag_1
 62
7
100
AcDbSpline
 70
8
 71
3
 72
8
 73
4
 74
0
 40
0
 40
0
 40
0
 40
0
 40
1
 40
1
 40
1
 40
1
 10
213.960207
 20
41.751239
 30
0.0
 10
213.879752
 20
41.581402
 30
0.0
 10
213.885330
 20
41.318821
 30
0.0
 10
213.976942
 20
40.963497
 30
0.0
  0
SPLINE
  5
329
100
AcDbEntity
  8
Laag_1
 62
7
100
AcDbSpline
 70
8
 71
3
 72
8
 73
4
 74
0
 40
0
 40
0
 40
0
 40
0
 40
1
 40
1
 40
1
 40
1
 10
213.976942
 20
40.963497
 30
0.0
 10
214.078612
 20
40.629404
 30
0.0
 10
214.275256
 20
40.276313
 30
0.0
 10
214.566874
 20
39.904223
 30
0.0
  0
LINE
  5
32a
100
AcDbEntity
  8
Laag_1
 62
7
100
AcDbLine
 10
214.566874
 20
39.904223
 30
0.0
 11
216.286462
 21
39.089613
 31
0.0
  0
SPLINE
  5
32b
100
AcDbEntity
  8
Laag_1
 62
7
100
AcDbSpline
 70
8
 71
3
 72
8
 73
4
 74
0
 40
0
 40
0
 40
0
 40
0
 40
1
 40
1
 40
1
 40
1
 10
216.286462
 20
39.089613
 30
0.0
 10
216.371380
 20
39.049386
 30
0.0
 10
216.445125
 20
39.040445
 30
0.0
 10
216.507697
 20
39.062789
 30
0.0
  0
SPLINE
  5
32c
100
AcDbEntity
  8
Laag_1
 62
7
100
AcDbSpline
 70
8
 71
3
 72
8
 73
4
 74
0
 40
0
 40
0
 40
0
 40
0
 40
1
 40
1
 40
1
 40
1
 10
216.507697
 20
39.062789
 30
0.0
 10
216.580329
 20
39.106361
 30
0.0
 10
216.636759
 20
39.170607
 30
0.0
 10
216.676986
 20
39.255528
 30
0.0
  0
LINE
  5
32d
100
AcDbEntity
  8
Laag_1
 62
7
100
AcDbLine
 10
216.676986
 20
39.255528
 30
0.0
 11
217.008863
 21
39.956101
 31
0.0
  0
LINE
  5
32e
100
AcDbEntity
  8
Laag_1
 62
7
100
AcDbLine
 10
217.008863
 20
39.956101
 30
0.0
 11
217.199928
 21
39.865589
 31
0.0
  0
LINE
  5
32f
100
AcDbEntity
  8
Laag_1
 62
7
100
AcDbLine
 10
217.199928
 20
39.865589
 30
0.0
 11
216.083609
 21
37.509114
 31
0.0
  0
LINE
  5
330
100
AcDbEntity
  8
Laag_1
 62
7
100
AcDbLine
 10
216.083609
 20
37.509114
 30
0.0
 11
215.892545
 21
37.599626
 31
0.0
  0
LINE
  5
331
100
AcDbEntity
  8
Laag_1
 62
7
100
AcDbLine
 10
215.892545
 20
37.599626
 30
0.0
 11
216.194253
 21
38.236513
 31
0.0
  0
SPLINE
  5
332
100
AcDbEntity
  8
Laag_1
 62
7
100
AcDbSpline
 70
8
 71
3
 72
8
 73
4
 74
0
 40
0
 40
0
 40
0
 40
0
 40
1
 40
1
 40
1
 40
1
 10
216.194253
 20
38.236513
 30
0.0
 10
216.244537
 20
38.342659
 30
0.0
 10
216.258506
 20
38.427019
 30
0.0
 10
216.236161
 20
38.489593
 30
0.0
  0
SPLINE
  5
333
100
AcDbEntity
  8
Laag_1
 62
7
100
AcDbSpline
 70
8
 71
3
 72
8
 73
4
 74
0
 40
0
 40
0
 40
0
 40
0
 40
1
 40
1
 40
1
 40
1
 10
216.236161
 20
38.489593
 30
0.0
 10
216.213816
 20
38.552165
 30
0.0
 10
216.160185
 20
38.603565
 30
0.0
 10
216.075267
 20
38.643792
 30
0.0
  0
LINE
  5
334
100
AcDbEntity
  8
Laag_1
 62
7
100
AcDbLine
 10
216.075267
 20
38.643792
 30
0.0
 11
213.432194
 21
39.895879
 31
0.0
  0
SPLINE
  5
335
100
AcDbEntity
  8
Laag_1
 62
7
100
AcDbSpline
 70
8
 71
3
 72
8
 73
4
 74
0
 40
0
 40
0
 40
0
 40
0
 40
1
 40
1
 40
1
 40
1
 10
213.432194
 20
39.895879
 30
0.0
 10
213.347277
 20
39.936107
 30
0.0
 10
213.273532
 20
39.945048
 30
0.0
 10
213.210958
 20
39.922703
 30
0.0
  0
SPLINE
  5
336
100
AcDbEntity
  8
Laag_1
 62
7
100
AcDbSpline
 70
8
 71
3
 72
8
 73
4
 74
0
 40
0
 40
0
 40
0
 40
0
 40
1
 40
1
 40
1
 40
1
 10
213.210958
 20
39.922703
 30
0.0
 10
213.127157
 20
39.910414
 30
0.0
 10
213.060113
 20
39.851197
 30
0.0
 10
213.009828
 20
39.745050
 30
0.0
  0
LINE
  5
337
100
AcDbEntity
  8
Laag_1
 62
7
100
AcDbLine
 10
213.009828
 20
39.745050
 30
0.0
 11
212.723205
 21
39.140008
 31
0.0
  0
LINE
  5
338
100
AcDbEntity
  8
Laag_1
 62
7
100
AcDbLine
 10
212.723205
 20
39.140008
 30
0.0
 11
212.532139
 21
39.230522
 31
0.0
  0
LINE
  5
339
100
AcDbEntity
  8
Laag_1
 62
7
100
AcDbLine
 10
212.532139
 20
39.230522
 30
0.0
 11
212.652824
 21
39.485276
 31
0.0
  0
SPLINE
  5
33a
100
AcDbEntity
  8
Laag_1
 62
7
100
AcDbSpline
 70
8
 71
3
 72
8
 73
4
 74
0
 40
0
 40
0
 40
0
 40
0
 40
1
 40
1
 40
1
 40
1
 10
212.652824
 20
39.485276
 30
0.0
 10
212.723222
 20
39.633883
 30
0.0
 10
212.793062
 20
39.808747
 30
0.0
 10
212.862345
 20
40.009868
 30
0.0
  0
SPLINE
  5
33b
100
AcDbEntity
  8
Laag_1
 62
7
100
AcDbSpline
 70
8
 71
3
 72
8
 73
4
 74
0
 40
0
 40
0
 40
0
 40
0
 40
1
 40
1
 40
1
 40
1
 10
212.862345
 20
40.009868
 30
0.0
 10
212.920455
 20
40.242276
 30
0.0
 10
212.953423
 20
40.421612
 30
0.0
 10
212.961249
 20
40.547875
 30
0.0
  0
LINE
  5
33c
100
AcDbEntity
  8
Laag_1
 62
7
100
AcDbLine
 10
212.961249
 20
40.547875
 30
0.0
 11
213.006505
 21
40.643408
 31
0.0
  0
LINE
  5
33d
100
AcDbEntity
  8
Laag_1
 62
7
100
AcDbLine
 10
213.006505
 20
40.643408
 30
0.0
 11
213.006505
 21
40.643408
 31
0.0
  0
LINE
  5
33e
100
AcDbEntity
  8
Laag_1
 62
7
100
AcDbLine
 10
215.402538
 20
44.050380
 30
0.0
 11
217.934805
 21
43.840459
 31
0.0
  0
LINE
  5
33f
100
AcDbEntity
  8
Laag_1
 62
7
100
AcDbLine
 10
217.934805
 20
43.840459
 30
0.0
 11
217.963669
 21
43.904752
 31
0.0
  0
LINE
  5
340
100
AcDbEntity
  8
Laag_1
 62
7
100
AcDbLine
 10
217.963669
 20
43.904752
 30
0.0
 11
216.127442
 21
45.578925
 31
0.0
  0
SPLINE
  5
341
100
AcDbEntity
  8
Laag_1
 62
7
100
AcDbSpline
 70
8
 71
3
 72
8
 73
4
 74
0
 40
0
 40
0
 40
0
 40
0
 40
1
 40
1
 40
1
 40
1
 10
216.127442
 20
45.578925
 30
0.0
 10
216.039533
 20
45.669896
 30
0.0
 10
215.949001
 20
45.697668
 30
0.0
 10
215.855847
 20
45.662241
 30
0.0
  0
SPLINE
  5
342
100
AcDbEntity
  8
Laag_1
 62
7
100
AcDbSpline
 70
8
 71
3
 72
8
 73
4
 74
0
 40
0
 40
0
 40
0
 40
0
 40
1
 40
1
 40
1
 40
1
 10
215.855847
 20
45.662241
 30
0.0
 10
215.772311
 20
45.648246
 30
0.0
 10
215.711299
 20
45.598389
 30
0.0
 10
215.672811
 20
45.512670
 30
0.0
  0
LINE
  5
343
100
AcDbEntity
  8
Laag_1
 62
7
100
AcDbLine
 10
215.672811
 20
45.512670
 30
0.0
 11
215.586217
 21
45.319798
 31
0.0
  0
LINE
  5
344
100
AcDbEntity
  8
Laag_1
 62
7
100
AcDbLine
 10
215.586217
 20
45.319798
 30
0.0
 11
215.393343
 21
45.406394
 31
0.0
  0
LINE
  5
345
100
AcDbEntity
  8
Laag_1
 62
7
100
AcDbLine
 10
215.393343
 20
45.406394
 30
0.0
 11
215.999509
 21
46.756502
 31
0.0
  0
LINE
  5
346
100
AcDbEntity
  8
Laag_1
 62
7
100
AcDbLine
 10
215.999509
 20
46.756502
 30
0.0
 11
216.192380
 21
46.669905
 31
0.0
  0
LINE
  5
347
100
AcDbEntity
  8
Laag_1
 62
7
100
AcDbLine
 10
216.192380
 20
46.669905
 30
0.0
 11
216.105786
 21
46.477032
 31
0.0
  0
SPLINE
  5
348
100
AcDbEntity
  8
Laag_1
 62
7
100
AcDbSpline
 70
8
 71
3
 72
8
 73
4
 74
0
 40
0
 40
0
 40
0
 40
0
 40
1
 40
1
 40
1
 40
1
 10
216.105786
 20
46.477032
 30
0.0
 10
216.067300
 20
46.391312
 30
0.0
 10
216.060958
 20
46.291160
 30
0.0
 10
216.086763
 20
46.176575
 30
0.0
  0
SPLINE
  5
349
100
AcDbEntity
  8
Laag_1
 62
7
100
AcDbSpline
 70
8
 71
3
 72
8
 73
4
 74
0
 40
0
 40
0
 40
0
 40
0
 40
1
 40
1
 40
1
 40
1
 10
216.086763
 20
46.176575
 30
0.0
 10
216.112567
 20
46.061987
 30
0.0
 10
216.169425
 20
45.959210
 30
0.0
 10
216.257338
 20
45.868244
 30
0.0
  0
LINE
  5
34a
100
AcDbEntity
  8
Laag_1
 62
7
100
AcDbLine
 10
216.257338
 20
45.868244
 30
0.0
 11
218.949029
 21
43.346485
 31
0.0
  0
SPLINE
  5
34b
100
AcDbEntity
  8
Laag_1
 62
7
100
AcDbSpline
 70
8
 71
3
 72
8
 73
4
 74
0
 40
0
 40
0
 40
0
 40
0
 40
1
 40
1
 40
1
 40
1
 10
218.949029
 20
43.346485
 30
0.0
 10
219.222376
 20
43.095009
 30
0.0
 10
219.406283
 20
42.845062
 30
0.0
 10
219.500751
 20
42.596645
 30
0.0
  0
SPLINE
  5
34c
100
AcDbEntity
  8
Laag_1
 62
7
100
AcDbSpline
 70
8
 71
3
 72
8
 73
4
 74
0
 40
0
 40
0
 40
0
 40
0
 40
1
 40
1
 40
1
 40
1
 10
219.500751
 20
42.596645
 30
0.0
 10
219.626272
 20
42.360040
 30
0.0
 10
219.631302
 20
42.113155
 30
0.0
 10
219.515842
 20
41.855991
 30
0.0
  0
SPLINE
  5
34d
100
AcDbEntity
  8
Laag_1
 62
7
100
AcDbSpline
 70
8
 71
3
 72
8
 73
4
 74
0
 40
0
 40
0
 40
0
 40
0
 40
1
 40
1
 40
1
 40
1
 10
219.515842
 20
41.855991
 30
0.0
 10
219.448490
 20
41.705979
 30
0.0
 10
219.363425
 20
41.602546
 30
0.0
 10
219.260648
 20
41.545690
 30
0.0
  0
SPLINE
  5
34e
100
AcDbEntity
  8
Laag_1
 62
7
100
AcDbSpline
 70
8
 71
3
 72
8
 73
4
 74
0
 40
0
 40
0
 40
0
 40
0
 40
1
 40
1
 40
1
 40
1
 10
219.260648
 20
41.545690
 30
0.0
 10
219.179300
 20
41.479215
 30
0.0
 10
219.085052
 20
41.470030
 30
0.0
 10
218.977903
 20
41.518136
 30
0.0
  0
SPLINE
  5
34f
100
AcDbEntity
  8
Laag_1
 62
7
100
AcDbSpline
 70
8
 71
3
 72
8
 73
4
 74
0
 40
0
 40
0
 40
0
 40
0
 40
1
 40
1
 40
1
 40
1
 10
218.977903
 20
41.518136
 30
0.0
 10
218.913611
 20
41.547001
 30
0.0
 10
218.858942
 20
41.597296
 30
0.0
 10
218.813894
 20
41.669022
 30
0.0
  0
SPLINE
  5
350
100
AcDbEntity
  8
Laag_1
 62
7
100
AcDbSpline
 70
8
 71
3
 72
8
 73
4
 74
0
 40
0
 40
0
 40
0
 40
0
 40
1
 40
1
 40
1
 40
1
 10
218.813894
 20
41.669022
 30
0.0
 10
218.778469
 20
41.762177
 30
0.0
 10
218.784810
 20
41.862330
 30
0.0
 10
218.832916
 20
41.969482
 30
0.0
  0
SPLINE
  5
351
100
AcDbEntity
  8
Laag_1
 62
7
100
AcDbSpline
 70
8
 71
3
 72
8
 73
4
 74
0
 40
0
 40
0
 40
0
 40
0
 40
1
 40
1
 40
1
 40
1
 10
218.832916
 20
41.969482
 30
0.0
 10
218.871404
 20
42.055203
 30
0.0
 10
218.942037
 20
42.126492
 30
0.0
 10
219.044814
 20
42.183348
 30
0.0
  0
SPLINE
  5
352
100
AcDbEntity
  8
Laag_1
 62
7
100
AcDbSpline
 70
8
 71
3
 72
8
 73
4
 74
0
 40
0
 40
0
 40
0
 40
0
 40
1
 40
1
 40
1
 40
1
 10
219.044814
 20
42.183348
 30
0.0
 10
219.169023
 20
42.230582
 30
0.0
 10
219.240769
 20
42.275597
 30
0.0
 10
219.260053
 20
42.318394
 30
0.0
  0
SPLINE
  5
353
100
AcDbEntity
  8
Laag_1
 62
7
100
AcDbSpline
 70
8
 71
3
 72
8
 73
4
 74
0
 40
0
 40
0
 40
0
 40
0
 40
1
 40
1
 40
1
 40
1
 10
219.260053
 20
42.318394
 30
0.0
 10
219.288916
 20
42.382684
 30
0.0
 10
219.302256
 20
42.441070
 30
0.0
 10
219.300071
 20
42.493552
 30
0.0
  0
SPLINE
  5
354
100
AcDbEntity
  8
Laag_1
 62
7
100
AcDbSpline
 70
8
 71
3
 72
8
 73
4
 74
0
 40
0
 40
0
 40
0
 40
0
 40
1
 40
1
 40
1
 40
1
 10
219.300071
 20
42.493552
 30
0.0
 10
219.297883
 20
42.546034
 30
0.0
 10
219.269453
 20
42.597422
 30
0.0
 10
219.214782
 20
42.647718
 30
0.0
  0
SPLINE
  5
355
100
AcDbEntity
  8
Laag_1
 62
7
100
AcDbSpline
 70
8
 71
3
 72
8
 73
4
 74
0
 40
0
 40
0
 40
0
 40
0
 40
1
 40
1
 40
1
 40
1
 10
219.214782
 20
42.647718
 30
0.0
 10
219.136498
 20
42.760117
 30
0.0
 10
219.026066
 20
42.886948
 30
0.0
 10
218.883487
 20
43.028212
 30
0.0
  0
SPLINE
  5
356
100
AcDbEntity
  8
Laag_1
 62
7
100
AcDbSpline
 70
8
 71
3
 72
8
 73
4
 74
0
 40
0
 40
0
 40
0
 40
0
 40
1
 40
1
 40
1
 40
1
 10
218.883487
 20
43.028212
 30
0.0
 10
218.762340
 20
43.159855
 30
0.0
 10
218.625667
 20
43.285592
 30
0.0
 10
218.473469
 20
43.405425
 30
0.0
  0
LINE
  5
357
100
AcDbEntity
  8
Laag_1
 62
7
100
AcDbLine
 10
218.473469
 20
43.405425
 30
0.0
 11
215.153967
 21
43.582541
 31
0.0
  0
SPLINE
  5
358
100
AcDbEntity
  8
Laag_1
 62
7
100
AcDbSpline
 70
8
 71
3
 72
8
 73
4
 74
0
 40
0
 40
0
 40
0
 40
0
 40
1
 40
1
 40
1
 40
1
 10
215.153967
 20
43.582541
 30
0.0
 10
215.058624
 20
43.599598
 30
0.0
 10
214.970279
 20
43.574887
 30
0.0
 10
214.888934
 20
43.508409
 30
0.0
  0
SPLINE
  5
359
100
AcDbEntity
  8
Laag_1
 62
7
100
AcDbSpline
 70
8
 71
3
 72
8
 73
4
 74
0
 40
0
 40
0
 40
0
 40
0
 40
1
 40
1
 40
1
 40
1
 10
214.888934
 20
43.508409
 30
0.0
 10
214.795777
 20
43.472983
 30
0.0
 10
214.729956
 20
43.412410
 30
0.0
 10
214.691470
 20
43.326688
 30
0.0
  0
LINE
  5
35a
100
AcDbEntity
  8
Laag_1
 62
7
100
AcDbLine
 10
214.691470
 20
43.326688
 30
0.0
 11
214.633740
 21
43.198108
 31
0.0
  0
LINE
  5
35b
100
AcDbEntity
  8
Laag_1
 62
7
100
AcDbLine
 10
214.633740
 20
43.198108
 30
0.0
 11
214.440867
 21
43.284702
 31
0.0
  0
LINE
  5
35c
100
AcDbEntity
  8
Laag_1
 62
7
100
AcDbLine
 10
214.440867
 20
43.284702
 30
0.0
 11
215.047030
 21
44.634808
 31
0.0
  0
LINE
  5
35d
100
AcDbEntity
  8
Laag_1
 62
7
100
AcDbLine
 10
215.047030
 20
44.634808
 30
0.0
 11
215.239903
 21
44.548215
 31
0.0
  0
LINE
  5
35e
100
AcDbEntity
  8
Laag_1
 62
7
100
AcDbLine
 10
215.239903
 20
44.548215
 30
0.0
 11
215.182174
 21
44.419632
 31
0.0
  0
SPLINE
  5
35f
100
AcDbEntity
  8
Laag_1
 62
7
100
AcDbSpline
 70
8
 71
3
 72
8
 73
4
 74
0
 40
0
 40
0
 40
0
 40
0
 40
1
 40
1
 40
1
 40
1
 10
215.182174
 20
44.419632
 30
0.0
 10
215.143687
 20
44.333912
 30
0.0
 10
215.146968
 20
44.255190
 30
0.0
 10
215.192016
 20
44.183464
 30
0.0
  0
SPLINE
  5
360
100
AcDbEntity
  8
Laag_1
 62
7
100
AcDbSpline
 70
8
 71
3
 72
8
 73
4
 74
0
 40
0
 40
0
 40
0
 40
0
 40
1
 40
1
 40
1
 40
1
 10
215.192016
 20
44.183464
 30
0.0
 10
215.215636
 20
44.121361
 30
0.0
 10
215.285832
 20
44.076970
 30
0.0
 10
215.402602
 20
44.050290
 30
0.0
  0
LINE
  5
361
100
AcDbEntity
  8
Laag_1
 62
7
100
AcDbLine
 10
215.402602
 20
44.050290
 30
0.0
 11
215.402538
 21
44.050380
 31
0.0
  0
SPLINE
  5
362
100
AcDbEntity
  8
Laag_1
 62
7
100
AcDbSpline
 70
8
 71
3
 72
8
 73
4
 74
0
 40
0
 40
0
 40
0
 40
0
 40
1
 40
1
 40
1
 40
1
 10
219.839894
 20
46.962460
 30
0.0
 10
220.026109
 20
47.033566
 30
0.0
 10
220.171974
 20
47.187058
 30
0.0
 10
220.277490
 20
47.422936
 30
0.0
  0
SPLINE
  5
363
100
AcDbEntity
  8
Laag_1
 62
7
100
AcDbSpline
 70
8
 71
3
 72
8
 73
4
 74
0
 40
0
 40
0
 40
0
 40
0
 40
1
 40
1
 40
1
 40
1
 10
220.277490
 20
47.422936
 30
0.0
 10
220.392598
 20
47.680257
 30
0.0
 10
220.424190
 20
47.923467
 30
0.0
 10
220.372267
 20
48.152569
 30
0.0
  0
SPLINE
  5
364
100
AcDbEntity
  8
Laag_1
 62
7
100
AcDbSpline
 70
8
 71
3
 72
8
 73
4
 74
0
 40
0
 40
0
 40
0
 40
0
 40
1
 40
1
 40
1
 40
1
 10
220.372267
 20
48.152569
 30
0.0
 10
220.329939
 20
48.403114
 30
0.0
 10
220.188579
 20
48.633625
 30
0.0
 10
219.948186
 20
48.844100
 30
0.0
  0
LINE
  5
365
100
AcDbEntity
  8
Laag_1
 62
7
100
AcDbLine
 10
219.948186
 20
48.844100
 30
0.0
 11
217.921783
 21
49.750576
 31
0.0
  0
SPLINE
  5
366
100
AcDbEntity
  8
Laag_1
 62
7
100
AcDbSpline
 70
8
 71
3
 72
8
 73
4
 74
0
 40
0
 40
0
 40
0
 40
0
 40
1
 40
1
 40
1
 40
1
 10
217.921783
 20
49.750576
 30
0.0
 10
217.836009
 20
49.788944
 30
0.0
 10
217.762086
 20
49.796277
 30
0.0
 10
217.700015
 20
49.772576
 30
0.0
  0
SPLINE
  5
367
100
AcDbEntity
  8
Laag_1
 62
7
100
AcDbSpline
 70
8
 71
3
 72
8
 73
4
 74
0
 40
0
 40
0
 40
0
 40
0
 40
1
 40
1
 40
1
 40
1
 10
217.700015
 20
49.772576
 30
0.0
 10
217.616499
 20
49.758466
 30
0.0
 10
217.550761
 20
49.697802
 30
0.0
 10
217.502799
 20
49.590585
 30
0.0
  0
LINE
  5
368
100
AcDbEntity
  8
Laag_1
 62
7
100
AcDbLine
 10
217.502799
 20
49.590585
 30
0.0
 11
217.416470
 21
49.397595
 31
0.0
  0
LINE
  5
369
100
AcDbEntity
  8
Laag_1
 62
7
100
AcDbLine
 10
217.416470
 20
49.397595
 30
0.0
 11
217.223478
 21
49.483926
 31
0.0
  0
LINE
  5
36a
100
AcDbEntity
  8
Laag_1
 62
7
100
AcDbLine
 10
217.223478
 20
49.483926
 30
0.0
 11
217.309811
 21
49.676916
 31
0.0
  0
SPLINE
  5
36b
100
AcDbEntity
  8
Laag_1
 62
7
100
AcDbSpline
 70
8
 71
3
 72
8
 73
4
 74
0
 40
0
 40
0
 40
0
 40
0
 40
1
 40
1
 40
1
 40
1
 10
217.309811
 20
49.676916
 30
0.0
 10
217.367364
 20
49.805576
 30
0.0
 10
217.409400
 20
49.928312
 30
0.0
 10
217.435918
 20
50.045123
 30
0.0
  0
SPLINE
  5
36c
100
AcDbEntity
  8
Laag_1
 62
7
100
AcDbSpline
 70
8
 71
3
 72
8
 73
4
 74
0
 40
0
 40
0
 40
0
 40
0
 40
1
 40
1
 40
1
 40
1
 10
217.435918
 20
50.045123
 30
0.0
 10
217.462436
 20
50.161931
 30
0.0
 10
217.456789
 20
50.293128
 30
0.0
 10
217.418978
 20
50.438715
 30
0.0
  0
LINE
  5
36d
100
AcDbEntity
  8
Laag_1
 62
7
100
AcDbLine
 10
217.418978
 20
50.438715
 30
0.0
 11
217.447756
 21
50.503045
 31
0.0
  0
LINE
  5
36e
100
AcDbEntity
  8
Laag_1
 62
7
100
AcDbLine
 10
217.447756
 20
50.503045
 30
0.0
 11
220.599937
 21
49.092974
 31
0.0
  0
SPLINE
  5
36f
100
AcDbEntity
  8
Laag_1
 62
7
100
AcDbSpline
 70
8
 71
3
 72
8
 73
4
 74
0
 40
0
 40
0
 40
0
 40
0
 40
1
 40
1
 40
1
 40
1
 10
220.599937
 20
49.092974
 30
0.0
 10
220.685710
 20
49.054604
 30
0.0
 10
220.759633
 20
49.047269
 30
0.0
 10
220.821705
 20
49.070971
 30
0.0
  0
SPLINE
  5
370
100
AcDbEntity
  8
Laag_1
 62
7
100
AcDbSpline
 70
8
 71
3
 72
8
 73
4
 74
0
 40
0
 40
0
 40
0
 40
0
 40
1
 40
1
 40
1
 40
1
 10
220.821705
 20
49.070971
 30
0.0
 10
220.893400
 20
49.116068
 30
0.0
 10
220.948417
 20
49.181529
 30
0.0
 10
220.986755
 20
49.267352
 30
0.0
  0
LINE
  5
371
100
AcDbEntity
  8
Laag_1
 62
7
100
AcDbLine
 10
220.986755
 20
49.267352
 30
0.0
 11
221.073085
 21
49.460343
 31
0.0
  0
LINE
  5
372
100
AcDbEntity
  8
Laag_1
 62
7
100
AcDbLine
 10
221.073085
 20
49.460343
 30
0.0
 11
221.266077
 21
49.374011
 31
0.0
  0
LINE
  5
373
100
AcDbEntity
  8
Laag_1
 62
7
100
AcDbLine
 10
221.266077
 20
49.374011
 30
0.0
 11
221.179745
 21
49.181019
 31
0.0
  0
SPLINE
  5
374
100
AcDbEntity
  8
Laag_1
 62
7
100
AcDbSpline
 70
8
 71
3
 72
8
 73
4
 74
0
 40
0
 40
0
 40
0
 40
0
 40
1
 40
1
 40
1
 40
1
 10
221.179745
 20
49.181019
 30
0.0
 10
221.131784
 20
49.073802
 30
0.0
 10
221.105265
 20
48.956993
 30
0.0
 10
221.100190
 20
48.830591
 30
0.0
  0
SPLINE
  5
375
100
AcDbEntity
  8
Laag_1
 62
7
100
AcDbSpline
 70
8
 71
3
 72
8
 73
4
 74
0
 40
0
 40
0
 40
0
 40
0
 40
1
 40
1
 40
1
 40
1
 10
221.100190
 20
48.830591
 30
0.0
 10
221.073672
 20
48.713783
 30
0.0
 10
221.063801
 20
48.576660
 30
0.0
 10
221.070577
 20
48.419222
 30
0.0
  0
LINE
  5
376
100
AcDbEntity
  8
Laag_1
 62
7
100
AcDbLine
 10
221.070577
 20
48.419222
 30
0.0
 11
221.041801
 21
48.354890
 31
0.0
  0
LINE
  5
377
100
AcDbEntity
  8
Laag_1
 62
7
100
AcDbLine
 10
221.041801
 20
48.354890
 30
0.0
 11
220.366333
 21
48.657048
 31
0.0
  0
SPLINE
  5
378
100
AcDbEntity
  8
Laag_1
 62
7
100
AcDbSpline
 70
8
 71
3
 72
8
 73
4
 74
0
 40
0
 40
0
 40
0
 40
0
 40
1
 40
1
 40
1
 40
1
 10
220.366333
 20
48.657048
 30
0.0
 10
220.554249
 20
48.444317
 30
0.0
 10
220.664575
 20
48.201957
 30
0.0
 10
220.697311
 20
47.929968
 30
0.0
  0
SPLINE
  5
379
100
AcDbEntity
  8
Laag_1
 62
7
100
AcDbSpline
 70
8
 71
3
 72
8
 73
4
 74
0
 40
0
 40
0
 40
0
 40
0
 40
1
 40
1
 40
1
 40
1
 10
220.697311
 20
47.929968
 30
0.0
 10
220.708606
 20
47.667571
 30
0.0
 10
220.651904
 20
47.396991
 30
0.0
 10
220.527204
 20
47.118227
 30
0.0
  0
SPLINE
  5
37a
100
AcDbEntity
  8
Laag_1
 62
7
100
AcDbSpline
 70
8
 71
3
 72
8
 73
4
 74
0
 40
0
 40
0
 40
0
 40
0
 40
1
 40
1
 40
1
 40
1
 10
220.527204
 20
47.118227
 30
0.0
 10
220.373727
 20
46.775132
 30
0.0
 10
220.162123
 20
46.560977
 30
0.0
 10
219.892393
 20
46.475761
 30
0.0
  0
SPLINE
  5
37b
100
AcDbEntity
  8
Laag_1
 62
7
100
AcDbSpline
 70
8
 71
3
 72
8
 73
4
 74
0
 40
0
 40
0
 40
0
 40
0
 40
1
 40
1
 40
1
 40
1
 10
219.892393
 20
46.475761
 30
0.0
 10
219.622664
 20
46.390545
 30
0.0
 10
219.273365
 20
46.443860
 30
0.0
 10
218.844498
 20
46.635706
 30
0.0
  0
LINE
  5
37c
100
AcDbEntity
  8
Laag_1
 62
7
100
AcDbLine
 10
218.844498
 20
46.635706
 30
0.0
 11
216.914588
 21
47.499016
 31
0.0
  0
SPLINE
  5
37d
100
AcDbEntity
  8
Laag_1
 62
7
100
AcDbSpline
 70
8
 71
3
 72
8
 73
4
 74
0
 40
0
 40
0
 40
0
 40
0
 40
1
 40
1
 40
1
 40
1
 10
216.914588
 20
47.499016
 30
0.0
 10
216.828815
 20
47.537386
 30
0.0
 10
216.754892
 20
47.544719
 30
0.0
 10
216.692820
 20
47.521015
 30
0.0
  0
SPLINE
  5
37e
100
AcDbEntity
  8
Laag_1
 62
7
100
AcDbSpline
 70
8
 71
3
 72
8
 73
4
 74
0
 40
0
 40
0
 40
0
 40
0
 40
1
 40
1
 40
1
 40
1
 10
216.692820
 20
47.521015
 30
0.0
 10
216.609306
 20
47.506906
 30
0.0
 10
216.543569
 20
47.446243
 30
0.0
 10
216.495607
 20
47.339026
 30
0.0
  0
LINE
  5
37f
100
AcDbEntity
  8
Laag_1
 62
7
100
AcDbLine
 10
216.495607
 20
47.339026
 30
0.0
 11
216.409275
 21
47.146034
 31
0.0
  0
LINE
  5
380
100
AcDbEntity
  8
Laag_1
 62
7
100
AcDbLine
 10
216.409275
 20
47.146034
 30
0.0
 11
216.216283
 21
47.232366
 31
0.0
  0
LINE
  5
381
100
AcDbEntity
  8
Laag_1
 62
7
100
AcDbLine
 10
216.216283
 20
47.232366
 30
0.0
 11
216.302615
 21
47.425358
 31
0.0
  0
SPLINE
  5
382
100
AcDbEntity
  8
Laag_1
 62
7
100
AcDbSpline
 70
8
 71
3
 72
8
 73
4
 74
0
 40
0
 40
0
 40
0
 40
0
 40
1
 40
1
 40
1
 40
1
 10
216.302615
 20
47.425358
 30
0.0
 10
216.360169
 20
47.554017
 30
0.0
 10
216.402205
 20
47.676752
 30
0.0
 10
216.428724
 20
47.793562
 30
0.0
  0
SPLINE
  5
383
100
AcDbEntity
  8
Laag_1
 62
7
100
AcDbSpline
 70
8
 71
3
 72
8
 73
4
 74
0
 40
0
 40
0
 40
0
 40
0
 40
1
 40
1
 40
1
 40
1
 10
216.428724
 20
47.793562
 30
0.0
 10
216.455240
 20
47.910372
 30
0.0
 10
216.449594
 20
48.041569
 30
0.0
 10
216.411783
 20
48.187155
 30
0.0
  0
LINE
  5
384
100
AcDbEntity
  8
Laag_1
 62
7
100
AcDbLine
 10
216.411783
 20
48.187155
 30
0.0
 11
216.440559
 21
48.251487
 31
0.0
  0
LINE
  5
385
100
AcDbEntity
  8
Laag_1
 62
7
100
AcDbLine
 10
216.440559
 20
48.251487
 30
0.0
 11
219.110267
 21
47.057241
 31
0.0
  0
SPLINE
  5
386
100
AcDbEntity
  8
Laag_1
 62
7
100
AcDbSpline
 70
8
 71
3
 72
8
 73
4
 74
0
 40
0
 40
0
 40
0
 40
0
 40
1
 40
1
 40
1
 40
1
 10
219.110267
 20
47.057241
 30
0.0
 10
219.410474
 20
46.922947
 30
0.0
 10
219.653684
 20
46.891355
 30
0.0
 10
219.839899
 20
46.962463
 30
0.0
  0
LINE
  5
387
100
AcDbEntity
  8
Laag_1
 62
7
100
AcDbLine
 10
219.839899
 20
46.962463
 30
0.0
 11
219.839894
 21
46.962460
 31
0.0
  0
LINE
  5
388
100
AcDbEntity
  8
Laag_1
 62
7
100
AcDbLine
 10
218.008130
 20
51.216765
 30
0.0
 11
218.049664
 21
51.313974
 31
0.0
  0
SPLINE
  5
389
100
AcDbEntity
  8
Laag_1
 62
7
100
AcDbSpline
 70
8
 71
3
 72
8
 73
4
 74
0
 40
0
 40
0
 40
0
 40
0
 40
1
 40
1
 40
1
 40
1
 10
218.049664
 20
51.313974
 30
0.0
 10
218.095811
 20
51.421983
 30
0.0
 10
218.131158
 20
51.534607
 30
0.0
 10
218.155706
 20
51.651845
 30
0.0
  0
SPLINE
  5
38a
100
AcDbEntity
  8
Laag_1
 62
7
100
AcDbSpline
 70
8
 71
3
 72
8
 73
4
 74
0
 40
0
 40
0
 40
0
 40
0
 40
1
 40
1
 40
1
 40
1
 10
218.155706
 20
51.651845
 30
0.0
 10
218.180253
 20
51.769085
 30
0.0
 10
218.184769
 20
51.869337
 30
0.0
 10
218.169255
 20
51.952603
 30
0.0
  0
LINE
  5
38b
100
AcDbEntity
  8
Laag_1
 62
7
100
AcDbLine
 10
218.169255
 20
51.952603
 30
0.0
 11
218.196944
 21
52.017411
 31
0.0
  0
LINE
  5
38c
100
AcDbEntity
  8
Laag_1
 62
7
100
AcDbLine
 10
218.196944
 20
52.017411
 30
0.0
 11
218.747793
 21
51.782052
 31
0.0
  0
SPLINE
  5
38d
100
AcDbEntity
  8
Laag_1
 62
7
100
AcDbSpline
 70
8
 71
3
 72
8
 73
4
 74
0
 40
0
 40
0
 40
0
 40
0
 40
1
 40
1
 40
1
 40
1
 10
218.747793
 20
51.782052
 30
0.0
 10
218.621122
 20
51.963896
 30
0.0
 10
218.553075
 20
52.133471
 30
0.0
 10
218.543651
 20
52.290776
 30
0.0
  0
SPLINE
  5
38e
100
AcDbEntity
  8
Laag_1
 62
7
100
AcDbSpline
 70
8
 71
3
 72
8
 73
4
 74
0
 40
0
 40
0
 40
0
 40
0
 40
1
 40
1
 40
1
 40
1
 10
218.543651
 20
52.290776
 30
0.0
 10
218.512622
 20
52.457305
 30
0.0
 10
218.529413
 20
52.616177
 30
0.0
 10
218.594022
 20
52.767391
 30
0.0
  0
SPLINE
  5
38f
100
AcDbEntity
  8
Laag_1
 62
7
100
AcDbSpline
 70
8
 71
3
 72
8
 73
4
 74
0
 40
0
 40
0
 40
0
 40
0
 40
1
 40
1
 40
1
 40
1
 10
218.594022
 20
52.767391
 30
0.0
 10
218.677089
 20
52.961809
 30
0.0
 10
218.784901
 20
53.094564
 30
0.0
 10
218.917458
 20
53.165655
 30
0.0
  0
SPLINE
  5
390
100
AcDbEntity
  8
Laag_1
 62
7
100
AcDbSpline
 70
8
 71
3
 72
8
 73
4
 74
0
 40
0
 40
0
 40
0
 40
0
 40
1
 40
1
 40
1
 40
1
 10
218.917458
 20
53.165655
 30
0.0
 10
219.028408
 20
53.245983
 30
0.0
 10
219.174908
 20
53.260025
 30
0.0
 10
219.356957
 20
53.207783
 30
0.0
  0
SPLINE
  5
391
100
AcDbEntity
  8
Laag_1
 62
7
100
AcDbSpline
 70
8
 71
3
 72
8
 73
4
 74
0
 40
0
 40
0
 40
0
 40
0
 40
1
 40
1
 40
1
 40
1
 10
219.356957
 20
53.207783
 30
0.0
 10
219.230286
 20
53.389627
 30
0.0
 10
219.162239
 20
53.559201
 30
0.0
 10
219.152816
 20
53.716506
 30
0.0
  0
SPLINE
  5
392
100
AcDbEntity
  8
Laag_1
 62
7
100
AcDbSpline
 70
8
 71
3
 72
8
 73
4
 74
0
 40
0
 40
0
 40
0
 40
0
 40
1
 40
1
 40
1
 40
1
 10
219.152816
 20
53.716506
 30
0.0
 10
219.131015
 20
53.904638
 30
0.0
 10
219.152420
 20
54.074311
 30
0.0
 10
219.217029
 20
54.225525
 30
0.0
  0
SPLINE
  5
393
100
AcDbEntity
  8
Laag_1
 62
7
100
AcDbSpline
 70
8
 71
3
 72
8
 73
4
 74
0
 40
0
 40
0
 40
0
 40
0
 40
1
 40
1
 40
1
 40
1
 10
219.217029
 20
54.225525
 30
0.0
 10
219.327785
 20
54.484749
 30
0.0
 10
219.477230
 20
54.625260
 30
0.0
 10
219.665362
 20
54.647058
 30
0.0
  0
SPLINE
  5
394
100
AcDbEntity
  8
Laag_1
 62
7
100
AcDbSpline
 70
8
 71
3
 72
8
 73
4
 74
0
 40
0
 40
0
 40
0
 40
0
 40
1
 40
1
 40
1
 40
1
 10
219.665362
 20
54.647058
 30
0.0
 10
219.862725
 20
54.690460
 30
0.0
 10
220.080217
 20
54.661397
 30
0.0
 10
220.317839
 20
54.559870
 30
0.0
  0
LINE
  5
395
100
AcDbEntity
  8
Laag_1
 62
7
100
AcDbLine
 10
220.317839
 20
54.559870
 30
0.0
 11
222.780462
 21
53.507681
 31
0.0
  0
SPLINE
  5
396
100
AcDbEntity
  8
Laag_1
 62
7
100
AcDbSpline
 70
8
 71
3
 72
8
 73
4
 74
0
 40
0
 40
0
 40
0
 40
0
 40
1
 40
1
 40
1
 40
1
 10
222.780462
 20
53.507681
 30
0.0
 10
222.866870
 20
53.470761
 30
0.0
 10
222.940906
 20
53.464673
 30
0.0
 10
223.002569
 20
53.489418
 30
0.0
  0
SPLINE
  5
397
100
AcDbEntity
  8
Laag_1
 62
7
100
AcDbSpline
 70
8
 71
3
 72
8
 73
4
 74
0
 40
0
 40
0
 40
0
 40
0
 40
1
 40
1
 40
1
 40
1
 10
223.002569
 20
53.489418
 30
0.0
 10
223.042636
 20
53.523386
 30
0.0
 10
223.081126
 20
53.583577
 30
0.0
 10
223.118040
 20
53.669991
 30
0.0
  0
LINE
  5
398
100
AcDbEntity
  8
Laag_1
 62
7
100
AcDbLine
 10
223.118040
 20
53.669991
 30
0.0
 11
223.145731
 21
53.734796
 31
0.0
  0
LINE
  5
399
100
AcDbEntity
  8
Laag_1
 62
7
100
AcDbLine
 10
223.145731
 20
53.734796
 30
0.0
 11
223.340147
 21
53.651728
 31
0.0
  0
LINE
  5
39a
100
AcDbEntity
  8
Laag_1
 62
7
100
AcDbLine
 10
223.340147
 20
53.651728
 30
0.0
 11
222.869429
 21
52.550030
 31
0.0
  0
LINE
  5
39b
100
AcDbEntity
  8
Laag_1
 62
7
100
AcDbLine
 10
222.869429
 20
52.550030
 30
0.0
 11
222.675013
 21
52.633098
 31
0.0
  0
LINE
  5
39c
100
AcDbEntity
  8
Laag_1
 62
7
100
AcDbLine
 10
222.675013
 20
52.633098
 30
0.0
 11
222.702703
 21
52.697903
 31
0.0
  0
SPLINE
  5
39d
100
AcDbEntity
  8
Laag_1
 62
7
100
AcDbSpline
 70
8
 71
3
 72
8
 73
4
 74
0
 40
0
 40
0
 40
0
 40
0
 40
1
 40
1
 40
1
 40
1
 10
222.702703
 20
52.697903
 30
0.0
 10
222.739621
 20
52.784311
 30
0.0
 10
222.756509
 20
52.853731
 30
0.0
 10
222.753367
 20
52.906165
 30
0.0
  0
SPLINE
  5
39e
100
AcDbEntity
  8
Laag_1
 62
7
100
AcDbSpline
 70
8
 71
3
 72
8
 73
4
 74
0
 40
0
 40
0
 40
0
 40
0
 40
1
 40
1
 40
1
 40
1
 10
222.753367
 20
52.906165
 30
0.0
 10
222.728614
 20
52.967823
 30
0.0
 10
222.673038
 20
53.017114
 30
0.0
 10
222.586638
 20
53.054037
 30
0.0
  0
LINE
  5
39f
100
AcDbEntity
  8
Laag_1
 62
7
100
AcDbLine
 10
222.586638
 20
53.054037
 30
0.0
 11
220.156417
 21
54.092385
 31
0.0
  0
SPLINE
  5
3a0
100
AcDbEntity
  8
Laag_1
 62
7
100
AcDbSpline
 70
8
 71
3
 72
8
 73
4
 74
0
 40
0
 40
0
 40
0
 40
0
 40
1
 40
1
 40
1
 40
1
 10
220.156417
 20
54.092385
 30
0.0
 10
219.918795
 20
54.193913
 30
0.0
 10
219.753737
 20
54.226118
 30
0.0
 10
219.661242
 20
54.189002
 30
0.0
  0
SPLINE
  5
3a1
100
AcDbEntity
  8
Laag_1
 62
7
100
AcDbSpline
 70
8
 71
3
 72
8
 73
4
 74
0
 40
0
 40
0
 40
0
 40
0
 40
1
 40
1
 40
1
 40
1
 10
219.661242
 20
54.189002
 30
0.0
 10
219.556374
 20
54.182717
 30
0.0
 10
219.480866
 20
54.125569
 30
0.0
 10
219.434717
 20
54.017558
 30
0.0
  0
SPLINE
  5
3a2
100
AcDbEntity
  8
Laag_1
 62
7
100
AcDbSpline
 70
8
 71
3
 72
8
 73
4
 74
0
 40
0
 40
0
 40
0
 40
0
 40
1
 40
1
 40
1
 40
1
 10
219.434717
 20
54.017558
 30
0.0
 10
219.370110
 20
53.866345
 30
0.0
 10
219.364121
 20
53.702858
 30
0.0
 10
219.416751
 20
53.527097
 30
0.0
  0
SPLINE
  5
3a3
100
AcDbEntity
  8
Laag_1
 62
7
100
AcDbSpline
 70
8
 71
3
 72
8
 73
4
 74
0
 40
0
 40
0
 40
0
 40
0
 40
1
 40
1
 40
1
 40
1
 10
219.416751
 20
53.527097
 30
0.0
 10
219.478612
 20
53.372939
 30
0.0
 10
219.592908
 20
53.221923
 30
0.0
 10
219.759638
 20
53.074049
 30
0.0
  0
LINE
  5
3a4
100
AcDbEntity
  8
Laag_1
 62
7
100
AcDbLine
 10
219.759638
 20
53.074049
 30
0.0
 11
222.157454
 21
52.049547
 31
0.0
  0
SPLINE
  5
3a5
100
AcDbEntity
  8
Laag_1
 62
7
100
AcDbSpline
 70
8
 71
3
 72
8
 73
4
 74
0
 40
0
 40
0
 40
0
 40
0
 40
1
 40
1
 40
1
 40
1
 10
222.157454
 20
52.049547
 30
0.0
 10
222.243862
 20
52.012629
 30
0.0
 10
222.317898
 20
52.006541
 30
0.0
 10
222.379561
 20
52.031284
 30
0.0
  0
SPLINE
  5
3a6
100
AcDbEntity
  8
Laag_1
 62
7
100
AcDbSpline
 70
8
 71
3
 72
8
 73
4
 74
0
 40
0
 40
0
 40
0
 40
0
 40
1
 40
1
 40
1
 40
1
 10
222.379561
 20
52.031284
 30
0.0
 10
222.419628
 20
52.065252
 30
0.0
 10
222.458118
 20
52.125443
 30
0.0
 10
222.495033
 20
52.211857
 30
0.0
  0
LINE
  5
3a7
100
AcDbEntity
  8
Laag_1
 62
7
100
AcDbLine
 10
222.495033
 20
52.211857
 30
0.0
 11
222.522722
 21
52.276665
 31
0.0
  0
LINE
  5
3a8
100
AcDbEntity
  8
Laag_1
 62
7
100
AcDbLine
 10
222.522722
 20
52.276665
 30
0.0
 11
222.717138
 21
52.193597
 31
0.0
  0
LINE
  5
3a9
100
AcDbEntity
  8
Laag_1
 62
7
100
AcDbLine
 10
222.717138
 20
52.193597
 30
0.0
 11
222.246422
 21
51.091896
 31
0.0
  0
LINE
  5
3aa
100
AcDbEntity
  8
Laag_1
 62
7
100
AcDbLine
 10
222.246422
 20
51.091896
 30
0.0
 11
222.052005
 21
51.174964
 31
0.0
  0
LINE
  5
3ab
100
AcDbEntity
  8
Laag_1
 62
7
100
AcDbLine
 10
222.052005
 20
51.174964
 30
0.0
 11
222.079694
 21
51.239772
 31
0.0
  0
SPLINE
  5
3ac
100
AcDbEntity
  8
Laag_1
 62
7
100
AcDbSpline
 70
8
 71
3
 72
8
 73
4
 74
0
 40
0
 40
0
 40
0
 40
0
 40
1
 40
1
 40
1
 40
1
 10
222.079694
 20
51.239772
 30
0.0
 10
222.116614
 20
51.326178
 30
0.0
 10
222.133502
 20
51.395598
 30
0.0
 10
222.130359
 20
51.448032
 30
0.0
  0
SPLINE
  5
3ad
100
AcDbEntity
  8
Laag_1
 62
7
100
AcDbSpline
 70
8
 71
3
 72
8
 73
4
 74
0
 40
0
 40
0
 40
0
 40
0
 40
1
 40
1
 40
1
 40
1
 10
222.130359
 20
51.448032
 30
0.0
 10
222.105606
 20
51.509689
 30
0.0
 10
222.050030
 20
51.558981
 30
0.0
 10
221.963629
 20
51.595906
 30
0.0
  0
LINE
  5
3ae
100
AcDbEntity
  8
Laag_1
 62
7
100
AcDbLine
 10
221.963629
 20
51.595906
 30
0.0
 11
219.533410
 21
52.634251
 31
0.0
  0
SPLINE
  5
3af
100
AcDbEntity
  8
Laag_1
 62
7
100
AcDbSpline
 70
8
 71
3
 72
8
 73
4
 74
0
 40
0
 40
0
 40
0
 40
0
 40
1
 40
1
 40
1
 40
1
 10
219.533410
 20
52.634251
 30
0.0
 10
219.338992
 20
52.717321
 30
0.0
 10
219.189349
 20
52.755713
 30
0.0
 10
219.084481
 20
52.749428
 30
0.0
  0
SPLINE
  5
3b0
100
AcDbEntity
  8
Laag_1
 62
7
100
AcDbSpline
 70
8
 71
3
 72
8
 73
4
 74
0
 40
0
 40
0
 40
0
 40
0
 40
1
 40
1
 40
1
 40
1
 10
219.084481
 20
52.749428
 30
0.0
 10
218.958013
 20
52.752372
 30
0.0
 10
218.867090
 20
52.689036
 30
0.0
 10
218.811713
 20
52.559419
 30
0.0
  0
SPLINE
  5
3b1
100
AcDbEntity
  8
Laag_1
 62
7
100
AcDbSpline
 70
8
 71
3
 72
8
 73
4
 74
0
 40
0
 40
0
 40
0
 40
0
 40
1
 40
1
 40
1
 40
1
 10
218.811713
 20
52.559419
 30
0.0
 10
218.747105
 20
52.408206
 30
0.0
 10
218.741117
 20
52.244720
 30
0.0
 10
218.793750
 20
52.068960
 30
0.0
  0
SPLINE
  5
3b2
100
AcDbEntity
  8
Laag_1
 62
7
100
AcDbSpline
 70
8
 71
3
 72
8
 73
4
 74
0
 40
0
 40
0
 40
0
 40
0
 40
1
 40
1
 40
1
 40
1
 10
218.793750
 20
52.068960
 30
0.0
 10
218.855609
 20
51.914801
 30
0.0
 10
218.980705
 20
51.759170
 30
0.0
 10
219.169037
 20
51.602067
 30
0.0
  0
LINE
  5
3b3
100
AcDbEntity
  8
Laag_1
 62
7
100
AcDbLine
 10
219.169037
 20
51.602067
 30
0.0
 11
221.534450
 21
50.591408
 31
0.0
  0
SPLINE
  5
3b4
100
AcDbEntity
  8
Laag_1
 62
7
100
AcDbSpline
 70
8
 71
3
 72
8
 73
4
 74
0
 40
0
 40
0
 40
0
 40
0
 40
1
 40
1
 40
1
 40
1
 10
221.534450
 20
50.591408
 30
0.0
 10
221.620857
 20
50.554490
 30
0.0
 10
221.694893
 20
50.548403
 30
0.0
 10
221.756556
 20
50.573148
 30
0.0
  0
SPLINE
  5
3b5
100
AcDbEntity
  8
Laag_1
 62
7
100
AcDbSpline
 70
8
 71
3
 72
8
 73
4
 74
0
 40
0
 40
0
 40
0
 40
0
 40
1
 40
1
 40
1
 40
1
 10
221.756556
 20
50.573148
 30
0.0
 10
221.796622
 20
50.607116
 30
0.0
 10
221.835113
 20
50.667307
 30
0.0
 10
221.872027
 20
50.753721
 30
0.0
  0
LINE
  5
3b6
100
AcDbEntity
  8
Laag_1
 62
7
100
AcDbLine
 10
221.872027
 20
50.753721
 30
0.0
 11
221.899717
 21
50.818526
 31
0.0
  0
LINE
  5
3b7
100
AcDbEntity
  8
Laag_1
 62
7
100
AcDbLine
 10
221.899717
 20
50.818526
 30
0.0
 11
222.094134
 21
50.735459
 31
0.0
  0
LINE
  5
3b8
100
AcDbEntity
  8
Laag_1
 62
7
100
AcDbLine
 10
222.094134
 20
50.735459
 30
0.0
 11
221.623418
 21
49.633757
 31
0.0
  0
LINE
  5
3b9
100
AcDbEntity
  8
Laag_1
 62
7
100
AcDbLine
 10
221.623418
 20
49.633757
 30
0.0
 11
221.428999
 21
49.716828
 31
0.0
  0
LINE
  5
3ba
100
AcDbEntity
  8
Laag_1
 62
7
100
AcDbLine
 10
221.428999
 20
49.716828
 30
0.0
 11
221.456690
 21
49.781633
 31
0.0
  0
SPLINE
  5
3bb
100
AcDbEntity
  8
Laag_1
 62
7
100
AcDbSpline
 70
8
 71
3
 72
8
 73
4
 74
0
 40
0
 40
0
 40
0
 40
0
 40
1
 40
1
 40
1
 40
1
 10
221.456690
 20
49.781633
 30
0.0
 10
221.493608
 20
49.868041
 30
0.0
 10
221.510496
 20
49.937461
 30
0.0
 10
221.507353
 20
49.989895
 30
0.0
  0
SPLINE
  5
3bc
100
AcDbEntity
  8
Laag_1
 62
7
100
AcDbSpline
 70
8
 71
3
 72
8
 73
4
 74
0
 40
0
 40
0
 40
0
 40
0
 40
1
 40
1
 40
1
 40
1
 10
221.507353
 20
49.989895
 30
0.0
 10
221.482601
 20
50.051553
 30
0.0
 10
221.427024
 20
50.100844
 30
0.0
 10
221.340625
 20
50.137767
 30
0.0
  0
LINE
  5
3bd
100
AcDbEntity
  8
Laag_1
 62
7
100
AcDbLine
 10
221.340625
 20
50.137767
 30
0.0
 11
218.521568
 21
51.342250
 31
0.0
  0
SPLINE
  5
3be
100
AcDbEntity
  8
Laag_1
 62
7
100
AcDbSpline
 70
8
 71
3
 72
8
 73
4
 74
0
 40
0
 40
0
 40
0
 40
0
 40
1
 40
1
 40
1
 40
1
 10
218.521568
 20
51.342250
 30
0.0
 10
218.456763
 20
51.369939
 30
0.0
 10
218.408944
 20
51.377598
 30
0.0
 10
218.378112
 20
51.365226
 30
0.0
  0
SPLINE
  5
3bf
100
AcDbEntity
  8
Laag_1
 62
7
100
AcDbSpline
 70
8
 71
3
 72
8
 73
4
 74
0
 40
0
 40
0
 40
0
 40
0
 40
1
 40
1
 40
1
 40
1
 10
218.378112
 20
51.365226
 30
0.0
 10
218.325678
 20
51.362084
 30
0.0
 10
218.285617
 20
51.328108
 30
0.0
 10
218.257930
 20
51.263299
 30
0.0
  0
LINE
  5
3c0
100
AcDbEntity
  8
Laag_1
 62
7
100
AcDbLine
 10
218.257930
 20
51.263299
 30
0.0
 11
218.202553
 21
51.133688
 31
0.0
  0
LINE
  5
3c1
100
AcDbEntity
  8
Laag_1
 62
7
100
AcDbLine
 10
218.202553
 20
51.133688
 30
0.0
 11
218.008136
 21
51.216756
 31
0.0
  0
LINE
  5
3c2
100
AcDbEntity
  8
Laag_1
 62
7
100
AcDbLine
 10
218.008136
 20
51.216756
 30
0.0
 11
218.008130
 21
51.216765
 31
0.0
  0
SPLINE
  5
3c3
100
AcDbEntity
  8
Laag_1
 62
7
100
AcDbSpline
 70
8
 71
3
 72
8
 73
4
 74
0
 40
0
 40
0
 40
0
 40
0
 40
1
 40
1
 40
1
 40
1
 10
223.386924
 20
55.205469
 30
0.0
 10
223.568078
 20
55.288625
 30
0.0
 10
223.703571
 20
55.451345
 30
0.0
 10
223.793404
 20
55.693628
 30
0.0
  0
SPLINE
  5
3c4
100
AcDbEntity
  8
Laag_1
 62
7
100
AcDbSpline
 70
8
 71
3
 72
8
 73
4
 74
0
 40
0
 40
0
 40
0
 40
0
 40
1
 40
1
 40
1
 40
1
 10
223.793404
 20
55.693628
 30
0.0
 10
223.891403
 20
55.957941
 30
0.0
 10
223.906991
 20
56.202700
 30
0.0
 10
223.840169
 20
56.427906
 30
0.0
  0
SPLINE
  5
3c5
100
AcDbEntity
  8
Laag_1
 62
7
100
AcDbSpline
 70
8
 71
3
 72
8
 73
4
 74
0
 40
0
 40
0
 40
0
 40
0
 40
1
 40
1
 40
1
 40
1
 10
223.840169
 20
56.427906
 30
0.0
 10
223.781512
 20
56.675139
 30
0.0
 10
223.625349
 20
56.895889
 30
0.0
 10
223.371679
 20
57.090159
 30
0.0
  0
LINE
  5
3c6
100
AcDbEntity
  8
Laag_1
 62
7
100
AcDbLine
 10
223.371679
 20
57.090159
 30
0.0
 11
221.290230
 21
57.861899
 31
0.0
  0
SPLINE
  5
3c7
100
AcDbEntity
  8
Laag_1
 62
7
100
AcDbSpline
 70
8
 71
3
 72
8
 73
4
 74
0
 40
0
 40
0
 40
0
 40
0
 40
1
 40
1
 40
1
 40
1
 10
221.290230
 20
57.861899
 30
0.0
 10
221.202127
 20
57.894565
 30
0.0
 10
221.127883
 20
57.897038
 30
0.0
 10
221.067497
 20
57.869320
 30
0.0
  0
SPLINE
  5
3c8
100
AcDbEntity
  8
Laag_1
 62
7
100
AcDbSpline
 70
8
 71
3
 72
8
 73
4
 74
0
 40
0
 40
0
 40
0
 40
0
 40
1
 40
1
 40
1
 40
1
 10
221.067497
 20
57.869320
 30
0.0
 10
220.985087
 20
57.849768
 30
0.0
 10
220.923466
 20
57.784927
 30
0.0
 10
220.882633
 20
57.674797
 30
0.0
  0
LINE
  5
3c9
100
AcDbEntity
  8
Laag_1
 62
7
100
AcDbLine
 10
220.882633
 20
57.674797
 30
0.0
 11
220.809135
 21
57.476564
 31
0.0
  0
LINE
  5
3ca
100
AcDbEntity
  8
Laag_1
 62
7
100
AcDbLine
 10
220.809135
 20
57.476564
 30
0.0
 11
220.610898
 21
57.550064
 31
0.0
  0
LINE
  5
3cb
100
AcDbEntity
  8
Laag_1
 62
7
100
AcDbLine
 10
220.610898
 20
57.550064
 30
0.0
 11
220.684399
 21
57.748298
 31
0.0
  0
SPLINE
  5
3cc
100
AcDbEntity
  8
Laag_1
 62
7
100
AcDbSpline
 70
8
 71
3
 72
8
 73
4
 74
0
 40
0
 40
0
 40
0
 40
0
 40
1
 40
1
 40
1
 40
1
 10
220.684399
 20
57.748298
 30
0.0
 10
220.733398
 20
57.880453
 30
0.0
 10
220.767301
 20
58.005678
 30
0.0
 10
220.786107
 20
58.123974
 30
0.0
  0
SPLINE
  5
3cd
100
AcDbEntity
  8
Laag_1
 62
7
100
AcDbSpline
 70
8
 71
3
 72
8
 73
4
 74
0
 40
0
 40
0
 40
0
 40
0
 40
1
 40
1
 40
1
 40
1
 10
220.786107
 20
58.123974
 30
0.0
 10
220.804915
 20
58.242271
 30
0.0
 10
220.790684
 20
58.372817
 30
0.0
 10
220.743414
 20
58.515613
 30
0.0
  0
LINE
  5
3ce
100
AcDbEntity
  8
Laag_1
 62
7
100
AcDbLine
 10
220.743414
 20
58.515613
 30
0.0
 11
220.767912
 21
58.581689
 31
0.0
  0
LINE
  5
3cf
100
AcDbEntity
  8
Laag_1
 62
7
100
AcDbLine
 10
220.767912
 20
58.581689
 30
0.0
 11
224.005719
 21
57.381204
 31
0.0
  0
SPLINE
  5
3d0
100
AcDbEntity
  8
Laag_1
 62
7
100
AcDbSpline
 70
8
 71
3
 72
8
 73
4
 74
0
 40
0
 40
0
 40
0
 40
0
 40
1
 40
1
 40
1
 40
1
 10
224.005719
 20
57.381204
 30
0.0
 10
224.093823
 20
57.348536
 30
0.0
 10
224.168067
 20
57.346063
 30
0.0
 10
224.228452
 20
57.373783
 30
0.0
  0
SPLINE
  5
3d1
100
AcDbEntity
  8
Laag_1
 62
7
100
AcDbSpline
 70
8
 71
3
 72
8
 73
4
 74
0
 40
0
 40
0
 40
0
 40
0
 40
1
 40
1
 40
1
 40
1
 10
224.228452
 20
57.373783
 30
0.0
 10
224.297008
 20
57.423520
 30
0.0
 10
224.347617
 20
57.492444
 30
0.0
 10
224.380279
 20
57.580556
 30
0.0
  0
LINE
  5
3d2
100
AcDbEntity
  8
Laag_1
 62
7
100
AcDbLine
 10
224.380279
 20
57.580556
 30
0.0
 11
224.453778
 21
57.778788
 31
0.0
  0
LINE
  5
3d3
100
AcDbEntity
  8
Laag_1
 62
7
100
AcDbLine
 10
224.453778
 20
57.778788
 30
0.0
 11
224.652012
 21
57.705287
 31
0.0
  0
LINE
  5
3d4
100
AcDbEntity
  8
Laag_1
 62
7
100
AcDbLine
 10
224.652012
 20
57.705287
 30
0.0
 11
224.578513
 21
57.507055
 31
0.0
  0
SPLINE
  5
3d5
100
AcDbEntity
  8
Laag_1
 62
7
100
AcDbSpline
 70
8
 71
3
 72
8
 73
4
 74
0
 40
0
 40
0
 40
0
 40
0
 40
1
 40
1
 40
1
 40
1
 10
224.578513
 20
57.507055
 30
0.0
 10
224.537679
 20
57.396926
 30
0.0
 10
224.518872
 20
57.278630
 30
0.0
 10
224.522092
 20
57.152166
 30
0.0
  0
SPLINE
  5
3d6
100
AcDbEntity
  8
Laag_1
 62
7
100
AcDbSpline
 70
8
 71
3
 72
8
 73
4
 74
0
 40
0
 40
0
 40
0
 40
0
 40
1
 40
1
 40
1
 40
1
 10
224.522092
 20
57.152166
 30
0.0
 10
224.503285
 20
57.033870
 30
0.0
 10
224.502421
 20
56.896395
 30
0.0
 10
224.519498
 20
56.739740
 30
0.0
  0
LINE
  5
3d7
100
AcDbEntity
  8
Laag_1
 62
7
100
AcDbLine
 10
224.519498
 20
56.739740
 30
0.0
 11
224.494998
 21
56.673662
 31
0.0
  0
LINE
  5
3d8
100
AcDbEntity
  8
Laag_1
 62
7
100
AcDbLine
 10
224.494998
 20
56.673662
 30
0.0
 11
223.801182
 21
56.930909
 31
0.0
  0
SPLINE
  5
3d9
100
AcDbEntity
  8
Laag_1
 62
7
100
AcDbSpline
 70
8
 71
3
 72
8
 73
4
 74
0
 40
0
 40
0
 40
0
 40
0
 40
1
 40
1
 40
1
 40
1
 10
223.801182
 20
56.930909
 30
0.0
 10
224.002635
 20
56.730947
 30
0.0
 10
224.128606
 20
56.496338
 30
0.0
 10
224.179096
 20
56.227081
 30
0.0
  0
SPLINE
  5
3da
100
AcDbEntity
  8
Laag_1
 62
7
100
AcDbSpline
 70
8
 71
3
 72
8
 73
4
 74
0
 40
0
 40
0
 40
0
 40
0
 40
1
 40
1
 40
1
 40
1
 10
224.179096
 20
56.227081
 30
0.0
 10
224.207559
 20
55.965988
 30
0.0
 10
224.168707
 20
55.692273
 30
0.0
 10
224.062542
 20
55.405936
 30
0.0
  0
SPLINE
  5
3db
100
AcDbEntity
  8
Laag_1
 62
7
100
AcDbSpline
 70
8
 71
3
 72
8
 73
4
 74
0
 40
0
 40
0
 40
0
 40
0
 40
1
 40
1
 40
1
 40
1
 10
224.062542
 20
55.405936
 30
0.0
 10
223.931877
 20
55.053522
 30
0.0
 10
223.734762
 20
54.825961
 30
0.0
 10
223.471197
 20
54.723254
 30
0.0
  0
SPLINE
  5
3dc
100
AcDbEntity
  8
Laag_1
 62
7
100
AcDbSpline
 70
8
 71
3
 72
8
 73
4
 74
0
 40
0
 40
0
 40
0
 40
0
 40
1
 40
1
 40
1
 40
1
 10
223.471197
 20
54.723254
 30
0.0
 10
223.207632
 20
54.620545
 30
0.0
 10
222.855590
 20
54.650857
 30
0.0
 10
222.415072
 20
54.814189
 30
0.0
  0
LINE
  5
3dd
100
AcDbEntity
  8
Laag_1
 62
7
100
AcDbLine
 10
222.415072
 20
54.814189
 30
0.0
 11
220.432740
 21
55.549178
 31
0.0
  0
SPLINE
  5
3de
100
AcDbEntity
  8
Laag_1
 62
7
100
AcDbSpline
 70
8
 71
3
 72
8
 73
4
 74
0
 40
0
 40
0
 40
0
 40
0
 40
1
 40
1
 40
1
 40
1
 10
220.432740
 20
55.549178
 30
0.0
 10
220.344636
 20
55.581845
 30
0.0
 10
220.270392
 20
55.584320
 30
0.0
 10
220.210008
 20
55.556602
 30
0.0
  0
SPLINE
  5
3df
100
AcDbEntity
  8
Laag_1
 62
7
100
AcDbSpline
 70
8
 71
3
 72
8
 73
4
 74
0
 40
0
 40
0
 40
0
 40
0
 40
1
 40
1
 40
1
 40
1
 10
220.210008
 20
55.556602
 30
0.0
 10
220.127596
 20
55.537049
 30
0.0
 10
220.065974
 20
55.472208
 30
0.0
 10
220.025142
 20
55.362077
 30
0.0
  0
LINE
  5
3e0
100
AcDbEntity
  8
Laag_1
 62
7
100
AcDbLine
 10
220.025142
 20
55.362077
 30
0.0
 11
219.951643
 21
55.163845
 31
0.0
  0
LINE
  5
3e1
100
AcDbEntity
  8
Laag_1
 62
7
100
AcDbLine
 10
219.951643
 20
55.163845
 30
0.0
 11
219.753410
 21
55.237344
 31
0.0
  0
LINE
  5
3e2
100
AcDbEntity
  8
Laag_1
 62
7
100
AcDbLine
 10
219.753410
 20
55.237344
 30
0.0
 11
219.826909
 21
55.435576
 31
0.0
  0
SPLINE
  5
3e3
100
AcDbEntity
  8
Laag_1
 62
7
100
AcDbSpline
 70
8
 71
3
 72
8
 73
4
 74
0
 40
0
 40
0
 40
0
 40
0
 40
1
 40
1
 40
1
 40
1
 10
219.826909
 20
55.435576
 30
0.0
 10
219.875909
 20
55.567734
 30
0.0
 10
219.909812
 20
55.692960
 30
0.0
 10
219.928620
 20
55.811254
 30
0.0
  0
SPLINE
  5
3e4
100
AcDbEntity
  8
Laag_1
 62
7
100
AcDbSpline
 70
8
 71
3
 72
8
 73
4
 74
0
 40
0
 40
0
 40
0
 40
0
 40
1
 40
1
 40
1
 40
1
 10
219.928620
 20
55.811254
 30
0.0
 10
219.947426
 20
55.929549
 30
0.0
 10
219.933194
 20
56.060096
 30
0.0
 10
219.885922
 20
56.202893
 30
0.0
  0
LINE
  5
3e5
100
AcDbEntity
  8
Laag_1
 62
7
100
AcDbLine
 10
219.885922
 20
56.202893
 30
0.0
 11
219.910422
 21
56.268971
 31
0.0
  0
LINE
  5
3e6
100
AcDbEntity
  8
Laag_1
 62
7
100
AcDbLine
 10
219.910422
 20
56.268971
 30
0.0
 11
222.652648
 21
55.252232
 31
0.0
  0
SPLINE
  5
3e7
100
AcDbEntity
  8
Laag_1
 62
7
100
AcDbSpline
 70
8
 71
3
 72
8
 73
4
 74
0
 40
0
 40
0
 40
0
 40
0
 40
1
 40
1
 40
1
 40
1
 10
222.652648
 20
55.252232
 30
0.0
 10
222.961009
 20
55.137900
 30
0.0
 10
223.205768
 20
55.122312
 30
0.0
 10
223.386924
 20
55.205469
 30
0.0
  0
LINE
  5
3e8
100
AcDbEntity
  8
Laag_1
 62
7
100
AcDbLine
 10
223.386924
 20
55.205469
 30
0.0
 11
223.386924
 21
55.205469
 31
0.0
  0
SPLINE
  5
3e9
100
AcDbEntity
  8
Laag_1
 62
7
100
AcDbSpline
 70
8
 71
3
 72
8
 73
4
 74
0
 40
0
 40
0
 40
0
 40
0
 40
1
 40
1
 40
1
 40
1
 10
222.870491
 20
59.566806
 30
0.0
 10
222.708664
 20
59.516734
 30
0.0
 10
222.548917
 20
59.515047
 30
0.0
 10
222.391248
 20
59.561744
 30
0.0
  0
SPLINE
  5
3ea
100
AcDbEntity
  8
Laag_1
 62
7
100
AcDbSpline
 70
8
 71
3
 72
8
 73
4
 74
0
 40
0
 40
0
 40
0
 40
0
 40
1
 40
1
 40
1
 40
1
 10
222.391248
 20
59.561744
 30
0.0
 10
222.053387
 20
59.661806
 30
0.0
 10
221.831050
 20
59.862403
 30
0.0
 10
221.724237
 20
60.163536
 30
0.0
  0
SPLINE
  5
3eb
100
AcDbEntity
  8
Laag_1
 62
7
100
AcDbSpline
 70
8
 71
3
 72
8
 73
4
 74
0
 40
0
 40
0
 40
0
 40
0
 40
1
 40
1
 40
1
 40
1
 10
221.724237
 20
60.163536
 30
0.0
 10
221.624095
 20
60.487190
 30
0.0
 10
221.627391
 20
60.829210
 30
0.0
 10
221.734126
 20
61.189597
 30
0.0
  0
SPLINE
  5
3ec
100
AcDbEntity
  8
Laag_1
 62
7
100
AcDbSpline
 70
8
 71
3
 72
8
 73
4
 74
0
 40
0
 40
0
 40
0
 40
0
 40
1
 40
1
 40
1
 40
1
 10
221.734126
 20
61.189597
 30
0.0
 10
221.794163
 20
61.392311
 30
0.0
 10
221.884651
 20
61.573759
 30
0.0
 10
222.005590
 20
61.733938
 30
0.0
  0
SPLINE
  5
3ed
100
AcDbEntity
  8
Laag_1
 62
7
100
AcDbSpline
 70
8
 71
3
 72
8
 73
4
 74
0
 40
0
 40
0
 40
0
 40
0
 40
1
 40
1
 40
1
 40
1
 10
222.005590
 20
61.733938
 30
0.0
 10
222.104006
 20
61.900789
 30
0.0
 10
222.163220
 20
62.018001
 30
0.0
 10
222.183233
 20
62.085574
 30
0.0
  0
SPLINE
  5
3ee
100
AcDbEntity
  8
Laag_1
 62
7
100
AcDbSpline
 70
8
 71
3
 72
8
 73
4
 74
0
 40
0
 40
0
 40
0
 40
0
 40
1
 40
1
 40
1
 40
1
 10
222.183233
 20
62.085574
 30
0.0
 10
222.203246
 20
62.153146
 30
0.0
 10
222.208661
 20
62.212791
 30
0.0
 10
222.199478
 20
62.264511
 30
0.0
  0
SPLINE
  5
3ef
100
AcDbEntity
  8
Laag_1
 62
7
100
AcDbSpline
 70
8
 71
3
 72
8
 73
4
 74
0
 40
0
 40
0
 40
0
 40
0
 40
1
 40
1
 40
1
 40
1
 10
222.199478
 20
62.264511
 30
0.0
 10
222.190296
 20
62.316229
 30
0.0
 10
222.161925
 20
62.385881
 30
0.0
 10
222.114364
 20
62.473465
 30
0.0
  0
LINE
  5
3f0
100
AcDbEntity
  8
Laag_1
 62
7
100
AcDbLine
 10
222.114364
 20
62.473465
 30
0.0
 11
223.269330
 21
62.278401
 31
0.0
  0
LINE
  5
3f1
100
AcDbEntity
  8
Laag_1
 62
7
100
AcDbLine
 10
223.269330
 20
62.278401
 30
0.0
 11
223.243079
 21
62.065679
 31
0.0
  0
SPLINE
  5
3f2
100
AcDbEntity
  8
Laag_1
 62
7
100
AcDbSpline
 70
8
 71
3
 72
8
 73
4
 74
0
 40
0
 40
0
 40
0
 40
0
 40
1
 40
1
 40
1
 40
1
 10
223.243079
 20
62.065679
 30
0.0
 10
222.923582
 20
62.062303
 30
0.0
 10
222.651646
 20
61.971344
 30
0.0
 10
222.427271
 20
61.792800
 30
0.0
  0
SPLINE
  5
3f3
100
AcDbEntity
  8
Laag_1
 62
7
100
AcDbSpline
 70
8
 71
3
 72
8
 73
4
 74
0
 40
0
 40
0
 40
0
 40
0
 40
1
 40
1
 40
1
 40
1
 10
222.427271
 20
61.792800
 30
0.0
 10
222.187040
 20
61.643452
 30
0.0
 10
222.026899
 20
61.433633
 30
0.0
 10
221.946850
 20
61.163343
 30
0.0
  0
SPLINE
  5
3f4
100
AcDbEntity
  8
Laag_1
 62
7
100
AcDbSpline
 70
8
 71
3
 72
8
 73
4
 74
0
 40
0
 40
0
 40
0
 40
0
 40
1
 40
1
 40
1
 40
1
 10
221.946850
 20
61.163343
 30
0.0
 10
221.860128
 20
60.870531
 30
0.0
 10
221.846394
 20
60.617351
 30
0.0
 10
221.905646
 20
60.403806
 30
0.0
  0
SPLINE
  5
3f5
100
AcDbEntity
  8
Laag_1
 62
7
100
AcDbSpline
 70
8
 71
3
 72
8
 73
4
 74
0
 40
0
 40
0
 40
0
 40
0
 40
1
 40
1
 40
1
 40
1
 10
221.905646
 20
60.403806
 30
0.0
 10
221.971570
 20
60.212782
 30
0.0
 10
222.105891
 20
60.087251
 30
0.0
 10
222.308608
 20
60.027213
 30
0.0
  0
SPLINE
  5
3f6
100
AcDbEntity
  8
Laag_1
 62
7
100
AcDbSpline
 70
8
 71
3
 72
8
 73
4
 74
0
 40
0
 40
0
 40
0
 40
0
 40
1
 40
1
 40
1
 40
1
 10
222.308608
 20
60.027213
 30
0.0
 10
222.488800
 20
59.973847
 30
0.0
 10
222.645212
 20
59.964273
 30
0.0
 10
222.777845
 20
59.998490
 30
0.0
  0
SPLINE
  5
3f7
100
AcDbEntity
  8
Laag_1
 62
7
100
AcDbSpline
 70
8
 71
3
 72
8
 73
4
 74
0
 40
0
 40
0
 40
0
 40
0
 40
1
 40
1
 40
1
 40
1
 10
222.777845
 20
59.998490
 30
0.0
 10
222.894621
 20
60.061909
 30
0.0
 10
223.005553
 20
60.188303
 30
0.0
 10
223.110643
 20
60.377672
 30
0.0
  0
SPLINE
  5
3f8
100
AcDbEntity
  8
Laag_1
 62
7
100
AcDbSpline
 70
8
 71
3
 72
8
 73
4
 74
0
 40
0
 40
0
 40
0
 40
0
 40
1
 40
1
 40
1
 40
1
 10
223.110643
 20
60.377672
 30
0.0
 10
223.224912
 20
60.515326
 30
0.0
 10
223.360448
 20
60.683432
 30
0.0
 10
223.517252
 20
60.881990
 30
0.0
  0
SPLINE
  5
3f9
100
AcDbEntity
  8
Laag_1
 62
7
100
AcDbSpline
 70
8
 71
3
 72
8
 73
4
 74
0
 40
0
 40
0
 40
0
 40
0
 40
1
 40
1
 40
1
 40
1
 10
223.517252
 20
60.881990
 30
0.0
 10
223.658205
 20
61.109741
 30
0.0
 10
223.803748
 20
61.311633
 30
0.0
 10
223.953882
 20
61.487666
 30
0.0
  0
SPLINE
  5
3fa
100
AcDbEntity
  8
Laag_1
 62
7
100
AcDbSpline
 70
8
 71
3
 72
8
 73
4
 74
0
 40
0
 40
0
 40
0
 40
0
 40
1
 40
1
 40
1
 40
1
 10
223.953882
 20
61.487666
 30
0.0
 10
224.097345
 20
61.641174
 30
0.0
 10
224.264586
 20
61.750894
 30
0.0
 10
224.455606
 20
61.816825
 30
0.0
  0
SPLINE
  5
3fb
100
AcDbEntity
  8
Laag_1
 62
7
100
AcDbSpline
 70
8
 71
3
 72
8
 73
4
 74
0
 40
0
 40
0
 40
0
 40
0
 40
1
 40
1
 40
1
 40
1
 10
224.455606
 20
61.816825
 30
0.0
 10
224.630779
 20
61.911936
 30
0.0
 10
224.808459
 20
61.932812
 30
0.0
 10
224.988646
 20
61.879452
 30
0.0
  0
SPLINE
  5
3fc
100
AcDbEntity
  8
Laag_1
 62
7
100
AcDbSpline
 70
8
 71
3
 72
8
 73
4
 74
0
 40
0
 40
0
 40
0
 40
0
 40
1
 40
1
 40
1
 40
1
 10
224.988646
 20
61.879452
 30
0.0
 10
225.326509
 20
61.779388
 30
0.0
 10
225.560109
 20
61.575455
 30
0.0
 10
225.689445
 20
61.267654
 30
0.0
  0
SPLINE
  5
3fd
100
AcDbEntity
  8
Laag_1
 62
7
100
AcDbSpline
 70
8
 71
3
 72
8
 73
4
 74
0
 40
0
 40
0
 40
0
 40
0
 40
1
 40
1
 40
1
 40
1
 10
225.689445
 20
61.267654
 30
0.0
 10
225.802928
 20
60.989047
 30
0.0
 10
225.792960
 20
60.624501
 30
0.0
 10
225.659543
 20
60.174019
 30
0.0
  0
SPLINE
  5
3fe
100
AcDbEntity
  8
Laag_1
 62
7
100
AcDbSpline
 70
8
 71
3
 72
8
 73
4
 74
0
 40
0
 40
0
 40
0
 40
0
 40
1
 40
1
 40
1
 40
1
 10
225.659543
 20
60.174019
 30
0.0
 10
225.572822
 20
59.881207
 30
0.0
 10
225.483589
 20
59.662637
 30
0.0
 10
225.391847
 20
59.518312
 30
0.0
  0
SPLINE
  5
3ff
100
AcDbEntity
  8
Laag_1
 62
7
100
AcDbSpline
 70
8
 71
3
 72
8
 73
4
 74
0
 40
0
 40
0
 40
0
 40
0
 40
1
 40
1
 40
1
 40
1
 10
225.391847
 20
59.518312
 30
0.0
 10
225.284248
 20
59.403181
 30
0.0
 10
225.217107
 20
59.300567
 30
0.0
 10
225.190423
 20
59.210470
 30
0.0
  0
SPLINE
  5
400
100
AcDbEntity
  8
Laag_1
 62
7
100
AcDbSpline
 70
8
 71
3
 72
8
 73
4
 74
0
 40
0
 40
0
 40
0
 40
0
 40
1
 40
1
 40
1
 40
1
 10
225.190423
 20
59.210470
 30
0.0
 10
225.170410
 20
59.142899
 30
0.0
 10
225.169586
 20
59.057394
 30
0.0
 10
225.187951
 20
58.953956
 30
0.0
  0
SPLINE
  5
401
100
AcDbEntity
  8
Laag_1
 62
7
100
AcDbSpline
 70
8
 71
3
 72
8
 73
4
 74
0
 40
0
 40
0
 40
0
 40
0
 40
1
 40
1
 40
1
 40
1
 10
225.187951
 20
58.953956
 30
0.0
 10
225.190463
 20
58.879712
 30
0.0
 10
225.200901
 20
58.790871
 30
0.0
 10
225.219266
 20
58.687433
 30
0.0
  0
LINE
  5
402
100
AcDbEntity
  8
Laag_1
 62
7
100
AcDbLine
 10
225.219266
 20
58.687433
 30
0.0
 11
223.939162
 21
58.956310
 31
0.0
  0
LINE
  5
403
100
AcDbEntity
  8
Laag_1
 62
7
100
AcDbLine
 10
223.939162
 20
58.956310
 30
0.0
 11
223.965413
 21
59.169032
 31
0.0
  0
SPLINE
  5
404
100
AcDbEntity
  8
Laag_1
 62
7
100
AcDbSpline
 70
8
 71
3
 72
8
 73
4
 74
0
 40
0
 40
0
 40
0
 40
0
 40
1
 40
1
 40
1
 40
1
 10
223.965413
 20
59.169032
 30
0.0
 10
224.345811
 20
59.129870
 30
0.0
 10
224.659461
 20
59.196226
 30
0.0
 10
224.906362
 20
59.368099
 30
0.0
  0
SPLINE
  5
405
100
AcDbEntity
  8
Laag_1
 62
7
100
AcDbSpline
 70
8
 71
3
 72
8
 73
4
 74
0
 40
0
 40
0
 40
0
 40
0
 40
1
 40
1
 40
1
 40
1
 10
224.906362
 20
59.368099
 30
0.0
 10
225.153262
 20
59.539974
 30
0.0
 10
225.336751
 20
59.828628
 30
0.0
 10
225.456828
 20
60.234060
 30
0.0
  0
SPLINE
  5
406
100
AcDbEntity
  8
Laag_1
 62
7
100
AcDbSpline
 70
8
 71
3
 72
8
 73
4
 74
0
 40
0
 40
0
 40
0
 40
0
 40
1
 40
1
 40
1
 40
1
 10
225.456828
 20
60.234060
 30
0.0
 10
225.550221
 20
60.549396
 30
0.0
 10
225.563954
 20
60.802575
 30
0.0
 10
225.498028
 20
60.993598
 30
0.0
  0
SPLINE
  5
407
100
AcDbEntity
  8
Laag_1
 62
7
100
AcDbSpline
 70
8
 71
3
 72
8
 73
4
 74
0
 40
0
 40
0
 40
0
 40
0
 40
1
 40
1
 40
1
 40
1
 10
225.498028
 20
60.993598
 30
0.0
 10
225.438776
 20
61.207144
 30
0.0
 10
225.296530
 20
61.347271
 30
0.0
 10
225.071290
 20
61.413981
 30
0.0
  0
SPLINE
  5
408
100
AcDbEntity
  8
Laag_1
 62
7
100
AcDbSpline
 70
8
 71
3
 72
8
 73
4
 74
0
 40
0
 40
0
 40
0
 40
0
 40
1
 40
1
 40
1
 40
1
 10
225.071290
 20
61.413981
 30
0.0
 10
224.913620
 20
61.460677
 30
0.0
 10
224.776395
 20
61.452318
 30
0.0
 10
224.659616
 20
61.388904
 30
0.0
  0
SPLINE
  5
409
100
AcDbEntity
  8
Laag_1
 62
7
100
AcDbSpline
 70
8
 71
3
 72
8
 73
4
 74
0
 40
0
 40
0
 40
0
 40
0
 40
1
 40
1
 40
1
 40
1
 10
224.659616
 20
61.388904
 30
0.0
 10
224.520313
 20
61.332163
 30
0.0
 10
224.414821
 20
61.265376
 30
0.0
 10
224.343141
 20
61.188544
 30
0.0
  0
SPLINE
  5
40a
100
AcDbEntity
  8
Laag_1
 62
7
100
AcDbSpline
 70
8
 71
3
 72
8
 73
4
 74
0
 40
0
 40
0
 40
0
 40
0
 40
1
 40
1
 40
1
 40
1
 10
224.343141
 20
61.188544
 30
0.0
 10
224.186335
 20
60.989985
 30
0.0
 10
224.022860
 20
60.768904
 30
0.0
 10
223.852713
 20
60.525301
 30
0.0
  0
SPLINE
  5
40b
100
AcDbEntity
  8
Laag_1
 62
7
100
AcDbSpline
 70
8
 71
3
 72
8
 73
4
 74
0
 40
0
 40
0
 40
0
 40
0
 40
1
 40
1
 40
1
 40
1
 10
223.852713
 20
60.525301
 30
0.0
 10
223.660043
 20
60.288366
 30
0.0
 10
223.488640
 20
60.081882
 30
0.0
 10
223.338507
 20
59.905850
 30
0.0
  0
SPLINE
  5
40c
100
AcDbEntity
  8
Laag_1
 62
7
100
AcDbSpline
 70
8
 71
3
 72
8
 73
4
 74
0
 40
0
 40
0
 40
0
 40
0
 40
1
 40
1
 40
1
 40
1
 10
223.338507
 20
59.905850
 30
0.0
 10
223.188371
 20
59.729816
 30
0.0
 10
223.032390
 20
59.616765
 30
0.0
 10
222.870563
 20
59.566694
 30
0.0
  0
LINE
  5
40d
100
AcDbEntity
  8
Laag_1
 62
7
100
AcDbLine
 10
222.870563
 20
59.566694
 30
0.0
 11
222.870491
 21
59.566806
 31
0.0
  0
SPLINE
  5
40e
100
AcDbEntity
  8
Laag_1
 62
5
100
AcDbSpline
 70
8
 71
3
 72
8
 73
4
 74
0
 40
0
 40
0
 40
0
 40
0
 40
1
 40
1
 40
1
 40
1
 10
125.850791
 20
-19.006480
 30
0.0
 10
125.850790
 20
-19.638598
 30
0.0
 10
125.338357
 20
-20.151031
 30
0.0
 10
124.706239
 20
-20.151032
 30
0.0
  0
SPLINE
  5
40f
100
AcDbEntity
  8
Laag_1
 62
5
100
AcDbSpline
 70
8
 71
3
 72
8
 73
4
 74
0
 40
0
 40
0
 40
0
 40
0
 40
1
 40
1
 40
1
 40
1
 10
124.706239
 20
-20.151032
 30
0.0
 10
124.074121
 20
-20.151031
 30
0.0
 10
123.561688
 20
-19.638598
 30
0.0
 10
123.561687
 20
-19.006480
 30
0.0
  0
SPLINE
  5
410
100
AcDbEntity
  8
Laag_1
 62
5
100
AcDbSpline
 70
8
 71
3
 72
8
 73
4
 74
0
 40
0
 40
0
 40
0
 40
0
 40
1
 40
1
 40
1
 40
1
 10
123.561687
 20
-19.006480
 30
0.0
 10
123.561688
 20
-18.374361
 30
0.0
 10
124.074121
 20
-17.861928
 30
0.0
 10
124.706239
 20
-17.861927
 30
0.0
  0
SPLINE
  5
411
100
AcDbEntity
  8
Laag_1
 62
5
100
AcDbSpline
 70
8
 71
3
 72
8
 73
4
 74
0
 40
0
 40
0
 40
0
 40
0
 40
1
 40
1
 40
1
 40
1
 10
124.706239
 20
-17.861927
 30
0.0
 10
125.338357
 20
-17.861928
 30
0.0
 10
125.850790
 20
-18.374361
 30
0.0
 10
125.850791
 20
-19.006480
 30
0.0
  0
LINE
  5
412
100
AcDbEntity
  8
Laag_1
 62
5
100
AcDbLine
 10
125.850791
 20
-19.006480
 30
0.0
 11
125.850791
 21
-19.006480
 31
0.0
  0
SPLINE
  5
413
100
AcDbEntity
  8
Laag_1
 62
5
100
AcDbSpline
 70
8
 71
3
 72
8
 73
4
 74
0
 40
0
 40
0
 40
0
 40
0
 40
1
 40
1
 40
1
 40
1
 10
35.529986
 20
109.713894
 30
0.0
 10
35.529986
 20
108.580392
 30
0.0
 10
35.079704
 20
107.493315
 30
0.0
 10
34.278197
 20
106.691808
 30
0.0
  0
SPLINE
  5
414
100
AcDbEntity
  8
Laag_1
 62
5
100
AcDbSpline
 70
8
 71
3
 72
8
 73
4
 74
0
 40
0
 40
0
 40
0
 40
0
 40
1
 40
1
 40
1
 40
1
 10
34.278197
 20
106.691808
 30
0.0
 10
33.476690
 20
105.890301
 30
0.0
 10
32.389613
 20
105.440019
 30
0.0
 10
31.256111
 20
105.440019
 30
0.0
  0
SPLINE
  5
415
100
AcDbEntity
  8
Laag_1
 62
5
100
AcDbSpline
 70
8
 71
3
 72
8
 73
4
 74
0
 40
0
 40
0
 40
0
 40
0
 40
1
 40
1
 40
1
 40
1
 10
31.256111
 20
105.440019
 30
0.0
 10
28.895715
 20
105.440019
 30
0.0
 10
26.982237
 20
107.353498
 30
0.0
 10
26.982237
 20
109.713894
 30
0.0
  0
SPLINE
  5
416
100
AcDbEntity
  8
Laag_1
 62
5
100
AcDbSpline
 70
8
 71
3
 72
8
 73
4
 74
0
 40
0
 40
0
 40
0
 40
0
 40
1
 40
1
 40
1
 40
1
 10
26.982237
 20
109.713894
 30
0.0
 10
26.982237
 20
110.847396
 30
0.0
 10
27.432518
 20
111.934472
 30
0.0
 10
28.234025
 20
112.735979
 30
0.0
  0
SPLINE
  5
417
100
AcDbEntity
  8
Laag_1
 62
5
100
AcDbSpline
 70
8
 71
3
 72
8
 73
4
 74
0
 40
0
 40
0
 40
0
 40
0
 40
1
 40
1
 40
1
 40
1
 10
28.234025
 20
112.735979
 30
0.0
 10
29.035532
 20
113.537486
 30
0.0
 10
30.122609
 20
113.987768
 30
0.0
 10
31.256111
 20
113.987768
 30
0.0
  0
SPLINE
  5
418
100
AcDbEntity
  8
Laag_1
 62
5
100
AcDbSpline
 70
8
 71
3
 72
8
 73
4
 74
0
 40
0
 40
0
 40
0
 40
0
 40
1
 40
1
 40
1
 40
1
 10
31.256111
 20
113.987768
 30
0.0
 10
32.389613
 20
113.987768
 30
0.0
 10
33.476690
 20
113.537486
 30
0.0
 10
34.278197
 20
112.735979
 30
0.0
  0
SPLINE
  5
419
100
AcDbEntity
  8
Laag_1
 62
5
100
AcDbSpline
 70
8
 71
3
 72
8
 73
4
 74
0
 40
0
 40
0
 40
0
 40
0
 40
1
 40
1
 40
1
 40
1
 10
34.278197
 20
112.735979
 30
0.0
 10
35.079704
 20
111.934472
 30
0.0
 10
35.529986
 20
110.847396
 30
0.0
 10
35.529986
 20
109.713894
 30
0.0
  0
LINE
  5
41a
100
AcDbEntity
  8
Laag_1
 62
5
100
AcDbLine
 10
35.529986
 20
109.713894
 30
0.0
 11
35.529986
 21
109.713894
 31
0.0
  0
SPLINE
  5
41b
100
AcDbEntity
  8
Laag_1
 62
5
100
AcDbSpline
 70
8
 71
3
 72
8
 73
4
 74
0
 40
0
 40
0
 40
0
 40
0
 40
1
 40
1
 40
1
 40
1
 10
160.483875
 20
85.089999
 30
0.0
 10
160.483875
 20
83.956497
 30
0.0
 10
160.033593
 20
82.869420
 30
0.0
 10
159.232086
 20
82.067913
 30
0.0
  0
SPLINE
  5
41c
100
AcDbEntity
  8
Laag_1
 62
5
100
AcDbSpline
 70
8
 71
3
 72
8
 73
4
 74
0
 40
0
 40
0
 40
0
 40
0
 40
1
 40
1
 40
1
 40
1
 10
159.232086
 20
82.067913
 30
0.0
 10
158.430579
 20
81.266406
 30
0.0
 10
157.343502
 20
80.816124
 30
0.0
 10
156.210000
 20
80.816124
 30
0.0
  0
SPLINE
  5
41d
100
AcDbEntity
  8
Laag_1
 62
5
100
AcDbSpline
 70
8
 71
3
 72
8
 73
4
 74
0
 40
0
 40
0
 40
0
 40
0
 40
1
 40
1
 40
1
 40
1
 10
156.210000
 20
80.816124
 30
0.0
 10
155.076498
 20
80.816124
 30
0.0
 10
153.989421
 20
81.266406
 30
0.0
 10
153.187914
 20
82.067913
 30
0.0
  0
SPLINE
  5
41e
100
AcDbEntity
  8
Laag_1
 62
5
100
AcDbSpline
 70
8
 71
3
 72
8
 73
4
 74
0
 40
0
 40
0
 40
0
 40
0
 40
1
 40
1
 40
1
 40
1
 10
153.187914
 20
82.067913
 30
0.0
 10
152.386407
 20
82.869420
 30
0.0
 10
151.936125
 20
83.956497
 30
0.0
 10
151.936125
 20
85.089999
 30
0.0
  0
SPLINE
  5
41f
100
AcDbEntity
  8
Laag_1
 62
5
100
AcDbSpline
 70
8
 71
3
 72
8
 73
4
 74
0
 40
0
 40
0
 40
0
 40
0
 40
1
 40
1
 40
1
 40
1
 10
151.936125
 20
85.089999
 30
0.0
 10
151.936125
 20
86.223501
 30
0.0
 10
152.386407
 20
87.310578
 30
0.0
 10
153.187914
 20
88.112085
 30
0.0
  0
SPLINE
  5
420
100
AcDbEntity
  8
Laag_1
 62
5
100
AcDbSpline
 70
8
 71
3
 72
8
 73
4
 74
0
 40
0
 40
0
 40
0
 40
0
 40
1
 40
1
 40
1
 40
1
 10
153.187914
 20
88.112085
 30
0.0
 10
153.989421
 20
88.913592
 30
0.0
 10
155.076498
 20
89.363874
 30
0.0
 10
156.210000
 20
89.363874
 30
0.0
  0
SPLINE
  5
421
100
AcDbEntity
  8
Laag_1
 62
5
100
AcDbSpline
 70
8
 71
3
 72
8
 73
4
 74
0
 40
0
 40
0
 40
0
 40
0
 40
1
 40
1
 40
1
 40
1
 10
156.210000
 20
89.363874
 30
0.0
 10
157.343502
 20
89.363874
 30
0.0
 10
158.430579
 20
88.913592
 30
0.0
 10
159.232086
 20
88.112085
 30
0.0
  0
SPLINE
  5
422
100
AcDbEntity
  8
Laag_1
 62
5
100
AcDbSpline
 70
8
 71
3
 72
8
 73
4
 74
0
 40
0
 40
0
 40
0
 40
0
 40
1
 40
1
 40
1
 40
1
 10
159.232086
 20
88.112085
 30
0.0
 10
160.033593
 20
87.310578
 30
0.0
 10
160.483875
 20
86.223501
 30
0.0
 10
160.483875
 20
85.089999
 30
0.0
  0
LINE
  5
423
100
AcDbEntity
  8
Laag_1
 62
5
100
AcDbLine
 10
160.483875
 20
85.089999
 30
0.0
 11
160.483875
 21
85.089999
 31
0.0
  0
SPLINE
  5
424
100
AcDbEntity
  8
Laag_1
 62
5
100
AcDbSpline
 70
8
 71
3
 72
8
 73
4
 74
0
 40
0
 40
0
 40
0
 40
0
 40
1
 40
1
 40
1
 40
1
 10
89.219095
 20
175.143099
 30
0.0
 10
89.219095
 20
174.513375
 30
0.0
 10
88.968938
 20
173.909444
 30
0.0
 10
88.523656
 20
173.464162
 30
0.0
  0
SPLINE
  5
425
100
AcDbEntity
  8
Laag_1
 62
5
100
AcDbSpline
 70
8
 71
3
 72
8
 73
4
 74
0
 40
0
 40
0
 40
0
 40
0
 40
1
 40
1
 40
1
 40
1
 10
88.523656
 20
173.464162
 30
0.0
 10
88.078374
 20
173.018880
 30
0.0
 10
87.474443
 20
172.768724
 30
0.0
 10
86.844719
 20
172.768724
 30
0.0
  0
SPLINE
  5
426
100
AcDbEntity
  8
Laag_1
 62
5
100
AcDbSpline
 70
8
 71
3
 72
8
 73
4
 74
0
 40
0
 40
0
 40
0
 40
0
 40
1
 40
1
 40
1
 40
1
 10
86.844719
 20
172.768724
 30
0.0
 10
86.214996
 20
172.768724
 30
0.0
 10
85.611065
 20
173.018880
 30
0.0
 10
85.165783
 20
173.464162
 30
0.0
  0
SPLINE
  5
427
100
AcDbEntity
  8
Laag_1
 62
5
100
AcDbSpline
 70
8
 71
3
 72
8
 73
4
 74
0
 40
0
 40
0
 40
0
 40
0
 40
1
 40
1
 40
1
 40
1
 10
85.165783
 20
173.464162
 30
0.0
 10
84.720501
 20
173.909444
 30
0.0
 10
84.470344
 20
174.513375
 30
0.0
 10
84.470344
 20
175.143099
 30
0.0
  0
SPLINE
  5
428
100
AcDbEntity
  8
Laag_1
 62
5
100
AcDbSpline
 70
8
 71
3
 72
8
 73
4
 74
0
 40
0
 40
0
 40
0
 40
0
 40
1
 40
1
 40
1
 40
1
 10
84.470344
 20
175.143099
 30
0.0
 10
84.470344
 20
175.772822
 30
0.0
 10
84.720501
 20
176.376754
 30
0.0
 10
85.165783
 20
176.822035
 30
0.0
  0
SPLINE
  5
429
100
AcDbEntity
  8
Laag_1
 62
5
100
AcDbSpline
 70
8
 71
3
 72
8
 73
4
 74
0
 40
0
 40
0
 40
0
 40
0
 40
1
 40
1
 40
1
 40
1
 10
85.165783
 20
176.822035
 30
0.0
 10
85.611065
 20
177.267317
 30
0.0
 10
86.214996
 20
177.517473
 30
0.0
 10
86.844719
 20
177.517473
 30
0.0
  0
SPLINE
  5
42a
100
AcDbEntity
  8
Laag_1
 62
5
100
AcDbSpline
 70
8
 71
3
 72
8
 73
4
 74
0
 40
0
 40
0
 40
0
 40
0
 40
1
 40
1
 40
1
 40
1
 10
86.844719
 20
177.517473
 30
0.0
 10
87.474443
 20
177.517473
 30
0.0
 10
88.078374
 20
177.267317
 30
0.0
 10
88.523656
 20
176.822035
 30
0.0
  0
SPLINE
  5
42b
100
AcDbEntity
  8
Laag_1
 62
5
100
AcDbSpline
 70
8
 71
3
 72
8
 73
4
 74
0
 40
0
 40
0
 40
0
 40
0
 40
1
 40
1
 40
1
 40
1
 10
88.523656
 20
176.822035
 30
0.0
 10
88.968938
 20
176.376754
 30
0.0
 10
89.219095
 20
175.772822
 30
0.0
 10
89.219095
 20
175.143099
 30
0.0
  0
LINE
  5
42c
100
AcDbEntity
  8
Laag_1
 62
5
100
AcDbLine
 10
89.219095
 20
175.143099
 30
0.0
 11
89.219095
 21
175.143099
 31
0.0
  0
ENDSEC
  0
SECTION
  2
OBJECTS
  0
DICTIONARY
  5
C
330
0
100
AcDbDictionary
  3
ACAD_GROUP
350
D
  3
ACAD_MLINESTYLE
350
17
  0
DICTIONARY
  5
D
330
C
100
AcDbDictionary
  0
DICTIONARY
  5
1A
330
C
100
AcDbDictionary
  0
DICTIONARY
  5
17
330
C
100
AcDbDictionary
  3
STANDARD
350
18
  0
DICTIONARY
  5
19
330
C
100
AcDbDictionary
  0
ENDSEC
  0
EOF
