  0
SECTION
  2
HEADER
  9
$ACADVER
  1
AC1009
  9
$DWGCODEPAGE
  3
ansi_1252
  9
$INSBASE
 10
0.0
 20
0.0
 30
0.0
  9
$EXTMIN
 10
-1736.845209622581
 20
-1828.8
 30
1.542802548035694
  9
$EXTMAX
 10
-1432.045209622581
 20
-1219.2
 30
3.089910218088789
  9
$LIMMIN
 10
0.0
 20
0.0
  9
$LIMMAX
 10
12.0
 20
9.0
  9
$ORTHOMODE
 70
     0
  9
$REGENMODE
 70
     1
  9
$FILLMODE
 70
     1
  9
$QTEXTMODE
 70
     0
  9
$MIRRTEXT
 70
     1
  9
$DRAGMODE
 70
     2
  9
$LTSCALE
 40
1.0
  9
$OSMODE
 70
    37
  9
$ATTMODE
 70
     1
  9
$TEXTSIZE
 40
0.2
  9
$TRACEWID
 40
0.05
  9
$TEXTSTYLE
  7
STANDARD
  9
$CLAYER
  8
DEFAULT
  9
$CELTYPE
  6
BYLAYER
  9
$CECOLOR
 62
   256
  9
$DIMSCALE
 40
1.0
  9
$DIMASZ
 40
0.18
  9
$DIMEXO
 40
0.0625
  9
$DIMDLI
 40
0.38
  9
$DIMRND
 40
0.0
  9
$DIMDLE
 40
0.0
  9
$DIMEXE
 40
0.18
  9
$DIMTP
 40
0.0
  9
$DIMTM
 40
0.0
  9
$DIMTXT
 40
0.18
  9
$DIMCEN
 40
0.09
  9
$DIMTSZ
 40
0.0
  9
$DIMTOL
 70
     0
  9
$DIMLIM
 70
     0
  9
$DIMTIH
 70
     1
  9
$DIMTOH
 70
     1
  9
$DIMSE1
 70
     0
  9
$DIMSE2
 70
     0
  9
$DIMTAD
 70
     0
  9
$DIMZIN
 70
     0
  9
$DIMBLK
  1

  9
$DIMASO
 70
     1
  9
$DIMSHO
 70
     1
  9
$DIMPOST
  1

  9
$DIMAPOST
  1

  9
$DIMALT
 70
     0
  9
$DIMALTD
 70
     2
  9
$DIMALTF
 40
25.4
  9
$DIMLFAC
 40
1.0
  9
$DIMTOFL
 70
     0
  9
$DIMTVP
 40
0.0
  9
$DIMTIX
 70
     0
  9
$DIMSOXD
 70
     0
  9
$DIMSAH
 70
     0
  9
$DIMBLK1
  1

  9
$DIMBLK2
  1

  9
$DIMSTYLE
  2
STANDARD
  9
$DIMCLRD
 70
     0
  9
$DIMCLRE
 70
     0
  9
$DIMCLRT
 70
     0
  9
$DIMTFAC
 40
1.0
  9
$DIMGAP
 40
0.09
  9
$LUNITS
 70
     2
  9
$LUPREC
 70
     2
  9
$SKETCHINC
 40
0.1
  9
$FILLETRAD
 40
0.5
  9
$AUNITS
 70
     0
  9
$AUPREC
 70
     0
  9
$MENU
  1
.
  9
$ELEVATION
 40
0.0
  9
$PELEVATION
 40
0.0
  9
$THICKNESS
 40
0.0
  9
$LIMCHECK
 70
     0
  9
$CHAMFERA
 40
0.0
  9
$CHAMFERB
 40
0.0
  9
$SKPOLY
 70
     0
  9
$TDCREATE
 40
2458244.635043229
  9
$TDUPDATE
 40
2458244.635056285
  9
$TDINDWG
 40
0.0000000116
  9
$TDUSRTIMER
 40
0.0000000116
  9
$USRTIMER
 70
     1
  9
$ANGBASE
 50
0.0
  9
$ANGDIR
 70
     0
  9
$PDMODE
 70
     0
  9
$PDSIZE
 40
0.0
  9
$PLINEWID
 40
0.0
  9
$COORDS
 70
     1
  9
$SPLFRAME
 70
     0
  9
$SPLINETYPE
 70
     6
  9
$SPLINESEGS
 70
     8
  9
$ATTDIA
 70
     0
  9
$ATTREQ
 70
     1
  9
$HANDLING
 70
     1
  9
$HANDSEED
  5
186
  9
$SURFTAB1
 70
     6
  9
$SURFTAB2
 70
     6
  9
$SURFTYPE
 70
     6
  9
$SURFU
 70
     6
  9
$SURFV
 70
     6
  9
$UCSNAME
  2

  9
$UCSORG
 10
0.0
 20
0.0
 30
0.0
  9
$UCSXDIR
 10
1.0
 20
0.0
 30
0.0
  9
$UCSYDIR
 10
0.0
 20
1.0
 30
0.0
  9
$PUCSNAME
  2

  9
$PUCSORG
 10
0.0
 20
0.0
 30
0.0
  9
$PUCSXDIR
 10
1.0
 20
0.0
 30
0.0
  9
$PUCSYDIR
 10
0.0
 20
1.0
 30
0.0
  9
$USERI1
 70
     0
  9
$USERI2
 70
     0
  9
$USERI3
 70
     0
  9
$USERI4
 70
     0
  9
$USERI5
 70
     0
  9
$USERR1
 40
0.0
  9
$USERR2
 40
0.0
  9
$USERR3
 40
0.0
  9
$USERR4
 40
0.0
  9
$USERR5
 40
0.0
  9
$WORLDVIEW
 70
     1
  9
$SHADEDGE
 70
     3
  9
$SHADEDIF
 70
    70
  9
$TILEMODE
 70
     1
  9
$MAXACTVP
 70
    64
  9
$PLIMCHECK
 70
     0
  9
$PEXTMIN
 10
1.000000000000000E+20
 20
1.000000000000000E+20
 30
1.000000000000000E+20
  9
$PEXTMAX
 10
-1.000000000000000E+20
 20
-1.000000000000000E+20
 30
-1.000000000000000E+20
  9
$PLIMMIN
 10
0.0
 20
0.0
  9
$PLIMMAX
 10
12.0
 20
9.0
  9
$UNITMODE
 70
     0
  9
$VISRETAIN
 70
     1
  9
$PLINEGEN
 70
     0
  9
$PSLTSCALE
 70
     1
  0
ENDSEC
  0
SECTION
  2
TABLES
  0
TABLE
  2
VPORT
 70
     1
  0
VPORT
  2
*ACTIVE
 70
     0
 10
0.0
 20
0.0
 11
1.0
 21
1.0
 12
-1584.445209622581
 22
-1524.0
 13
0.0
 23
0.0
 14
0.5
 24
0.5
 15
0.5
 25
0.5
 16
0.0
 26
0.0
 36
1.0
 17
0.0
 27
0.0
 37
0.0
 40
621.7919999999999
 41
0.4999999999999996
 42
50.0
 43
0.0
 44
0.0
 50
0.0
 51
0.0
 71
     0
 72
   100
 73
     1
 74
     3
 75
     0
 76
     0
 77
     0
 78
     0
  0
ENDTAB
  0
TABLE
  2
LTYPE
 70
     1
  0
LTYPE
  2
CONTINUOUS
 70
     0
  3
Solid line
 72
    65
 73
     0
 40
0.0
  0
ENDTAB
  0
TABLE
  2
LAYER
 70
     2
  0
LAYER
  2
0
 70
     0
 62
     7
  6
CONTINUOUS
  0
LAYER
  2
DEFAULT
 70
     0
 62
     7
  6
CONTINUOUS
  0
ENDTAB
  0
TABLE
  2
STYLE
 70
     1
  0
STYLE
  2
STANDARD
 70
     0
 40
0.0
 41
1.0
 50
0.0
 71
     0
 42
0.2
  3
txt
  4

  0
ENDTAB
  0
TABLE
  2
VIEW
 70
     0
  0
ENDTAB
  0
TABLE
  2
UCS
 70
     0
  0
ENDTAB
  0
TABLE
  2
APPID
 70
     1
  0
APPID
  2
ACAD
 70
     0
  0
ENDTAB
  0
TABLE
  2
DIMSTYLE
 70
     1
  0
DIMSTYLE
  2
STANDARD
 70
     0
  3

  4

  5

  6

  7

 40
1.0
 41
0.18
 42
0.0625
 43
0.38
 44
0.18
 45
0.0
 46
0.0
 47
0.0
 48
0.0
140
0.18
141
0.09
142
0.0
143
25.4
144
1.0
145
0.0
146
1.0
147
0.09
 71
     0
 72
     0
 73
     1
 74
     1
 75
     0
 76
     0
 77
     0
 78
     0
170
     0
171
     2
172
     0
173
     0
174
     0
175
     0
176
     0
177
     0
178
     0
  0
ENDTAB
  0
ENDSEC
  0
SECTION
  2
BLOCKS
  0
BLOCK
  8
0
  2
$MODEL_SPACE
 70
     0
 10
0.0
 20
0.0
 30
0.0
  3
$MODEL_SPACE
  1

  0
ENDBLK
  5
21
  8
0
  0
BLOCK
 67
     1
  8
0
  2
$PAPER_SPACE
 70
     0
 10
0.0
 20
0.0
 30
0.0
  3
$PAPER_SPACE
  1

  0
ENDBLK
  5
1D
 67
     1
  8
0
  0
ENDSEC
  0
SECTION
  2
ENTITIES
  0
POLYLINE
  5
6F
  8
DEFAULT
 66
     1
 10
0.0
 20
0.0
 30
1.542802548035694
 70
     1
  0
VERTEX
  5
70
  8
DEFAULT
 10
-1736.845209622581
 20
-1219.2
 30
1.542802548035694
  0
VERTEX
  5
71
  8
DEFAULT
 10
-1736.845209622581
 20
-1828.8
 30
1.542802548035694
  0
VERTEX
  5
72
  8
DEFAULT
 10
-1432.045209622581
 20
-1828.8
 30
1.542802548035694
  0
VERTEX
  5
73
  8
DEFAULT
 10
-1432.045209622581
 20
-1219.2
 30
1.542802548035694
  0
SEQEND
  5
74
  8
DEFAULT
  0
POLYLINE
  5
75
  8
DEFAULT
 66
     1
 10
0.0
 20
0.0
 30
3.089688073450816
 70
     1
  0
VERTEX
  5
76
  8
DEFAULT
 10
-1551.645208016393
 20
-1527.288260361383
 30
3.089688073450816
  0
VERTEX
  5
77
  8
DEFAULT
 10
-1551.645208016393
 20
-1417.288263527612
 30
3.089688073450816
 42
-0.4142135623730911
  0
VERTEX
  5
78
  8
DEFAULT
 10
-1541.645208016393
 20
-1407.288263527612
 30
3.089688073450816
  0
VERTEX
  5
79
  8
DEFAULT
 10
-1487.645211228769
 20
-1407.288263527612
 30
3.089688073450816
 42
-0.4142135623730978
  0
VERTEX
  5
7A
  8
DEFAULT
 10
-1477.645211228769
 20
-1417.288263527612
 30
3.089688073450816
  0
VERTEX
  5
7B
  8
DEFAULT
 10
-1477.645211228769
 20
-1527.288260361383
 30
3.089688073450816
 42
-0.4142135623730922
  0
VERTEX
  5
7C
  8
DEFAULT
 10
-1487.645211228769
 20
-1537.288260361383
 30
3.089688073450816
  0
VERTEX
  5
7D
  8
DEFAULT
 10
-1541.645208016393
 20
-1537.288260361383
 30
3.089688073450816
 42
-0.4142135623730931
  0
SEQEND
  5
7E
  8
DEFAULT
  0
POLYLINE
  5
7F
  8
DEFAULT
 66
     1
 10
0.0
 20
0.0
 30
3.089688073450588
 70
     1
  0
VERTEX
  5
80
  8
DEFAULT
 10
-1574.645209622581
 20
-1402.288261944497
 30
3.089688073450588
  0
VERTEX
  5
81
  8
DEFAULT
 10
-1579.445209622581
 20
-1402.288261944497
 30
3.089688073450588
  0
VERTEX
  5
82
  8
DEFAULT
 10
-1579.445209622581
 20
-1430.788261944497
 30
3.089688073450588
  0
VERTEX
  5
83
  8
DEFAULT
 10
-1569.645209917766
 20
-1430.788261944497
 30
3.089688073450588
  0
VERTEX
  5
84
  8
DEFAULT
 10
-1569.645209917766
 20
-1428.288261944497
 30
3.089688073450588
  0
VERTEX
  5
85
  8
DEFAULT
 10
-1563.645209599875
 20
-1428.288261944497
 30
3.089688073450588
  0
VERTEX
  5
86
  8
DEFAULT
 10
-1563.645209599875
 20
-1436.288261944497
 30
3.089688073450588
  0
VERTEX
  5
87
  8
DEFAULT
 10
-1569.645209917766
 20
-1436.288261944497
 30
3.089688073450588
  0
VERTEX
  5
88
  8
DEFAULT
 10
-1569.645209917766
 20
-1433.788261944497
 30
3.089688073450588
  0
VERTEX
  5
89
  8
DEFAULT
 10
-1579.445209622581
 20
-1433.788261944497
 30
3.089688073450588
  0
VERTEX
  5
8A
  8
DEFAULT
 10
-1579.445209622581
 20
-1462.288261944497
 30
3.089688073450588
  0
VERTEX
  5
8B
  8
DEFAULT
 10
-1574.645209622581
 20
-1462.288261944497
 30
3.089688073450588
  0
VERTEX
  5
8C
  8
DEFAULT
 10
-1574.645209622581
 20
-1482.288261944497
 30
3.089688073450588
  0
VERTEX
  5
8D
  8
DEFAULT
 10
-1579.445209622581
 20
-1482.288261944497
 30
3.089688073450588
  0
VERTEX
  5
8E
  8
DEFAULT
 10
-1579.445209622581
 20
-1510.788261944497
 30
3.089688073450588
  0
VERTEX
  5
8F
  8
DEFAULT
 10
-1569.645209917766
 20
-1510.788261944497
 30
3.089688073450588
  0
VERTEX
  5
90
  8
DEFAULT
 10
-1569.645209917766
 20
-1508.288261944497
 30
3.089688073450588
  0
VERTEX
  5
91
  8
DEFAULT
 10
-1563.645209599875
 20
-1508.288261944497
 30
3.089688073450588
  0
VERTEX
  5
92
  8
DEFAULT
 10
-1563.645209599875
 20
-1516.288261944497
 30
3.089688073450588
  0
VERTEX
  5
93
  8
DEFAULT
 10
-1569.645209917766
 20
-1516.288261944497
 30
3.089688073450588
  0
VERTEX
  5
94
  8
DEFAULT
 10
-1569.645209917766
 20
-1513.788261944497
 30
3.089688073450588
  0
VERTEX
  5
95
  8
DEFAULT
 10
-1579.445209622581
 20
-1513.788261944497
 30
3.089688073450588
  0
VERTEX
  5
96
  8
DEFAULT
 10
-1579.445209622581
 20
-1542.288261944497
 30
3.089688073450588
  0
VERTEX
  5
97
  8
DEFAULT
 10
-1574.645209622581
 20
-1542.288261944497
 30
3.089688073450588
  0
VERTEX
  5
98
  8
DEFAULT
 10
-1574.645209622581
 20
-1562.288261944497
 30
3.089688073450588
  0
VERTEX
  5
99
  8
DEFAULT
 10
-1454.645209622581
 20
-1562.288261944497
 30
3.089688073450588
  0
VERTEX
  5
9A
  8
DEFAULT
 10
-1454.645209622581
 20
-1542.288261944497
 30
3.089688073450588
  0
VERTEX
  5
9B
  8
DEFAULT
 10
-1449.845209622581
 20
-1542.288261944497
 30
3.089688073450588
  0
VERTEX
  5
9C
  8
DEFAULT
 10
-1449.845209622581
 20
-1513.788261944497
 30
3.089688073450588
  0
VERTEX
  5
9D
  8
DEFAULT
 10
-1459.645209327396
 20
-1513.788261944497
 30
3.089688073450588
  0
VERTEX
  5
9E
  8
DEFAULT
 10
-1459.645209327396
 20
-1516.288261944497
 30
3.089688073450588
  0
VERTEX
  5
9F
  8
DEFAULT
 10
-1465.645209645288
 20
-1516.288261944497
 30
3.089688073450588
  0
VERTEX
  5
A0
  8
DEFAULT
 10
-1465.645209645288
 20
-1508.288261944497
 30
3.089688073450588
  0
VERTEX
  5
A1
  8
DEFAULT
 10
-1459.645209327396
 20
-1508.288261944497
 30
3.089688073450588
  0
VERTEX
  5
A2
  8
DEFAULT
 10
-1459.645209327396
 20
-1510.788261944497
 30
3.089688073450588
  0
VERTEX
  5
A3
  8
DEFAULT
 10
-1449.845209622581
 20
-1510.788261944497
 30
3.089688073450588
  0
VERTEX
  5
A4
  8
DEFAULT
 10
-1449.845209622581
 20
-1482.288261944497
 30
3.089688073450588
  0
VERTEX
  5
A5
  8
DEFAULT
 10
-1454.645209622581
 20
-1482.288261944497
 30
3.089688073450588
  0
VERTEX
  5
A6
  8
DEFAULT
 10
-1454.645209622581
 20
-1462.288261944497
 30
3.089688073450588
  0
VERTEX
  5
A7
  8
DEFAULT
 10
-1449.845209622581
 20
-1462.288261944497
 30
3.089688073450588
  0
VERTEX
  5
A8
  8
DEFAULT
 10
-1449.845209622581
 20
-1433.788261944497
 30
3.089688073450588
  0
VERTEX
  5
A9
  8
DEFAULT
 10
-1459.645209327396
 20
-1433.788261944497
 30
3.089688073450588
  0
VERTEX
  5
AA
  8
DEFAULT
 10
-1459.645209327396
 20
-1436.288261944497
 30
3.089688073450588
  0
VERTEX
  5
AB
  8
DEFAULT
 10
-1465.645209645288
 20
-1436.288261944497
 30
3.089688073450588
  0
VERTEX
  5
AC
  8
DEFAULT
 10
-1465.645209645288
 20
-1428.288261944497
 30
3.089688073450588
  0
VERTEX
  5
AD
  8
DEFAULT
 10
-1459.645209327396
 20
-1428.288261944497
 30
3.089688073450588
  0
VERTEX
  5
AE
  8
DEFAULT
 10
-1459.645209327396
 20
-1430.788261944497
 30
3.089688073450588
  0
VERTEX
  5
AF
  8
DEFAULT
 10
-1449.845209622581
 20
-1430.788261944497
 30
3.089688073450588
  0
VERTEX
  5
B0
  8
DEFAULT
 10
-1449.845209622581
 20
-1402.288261944497
 30
3.089688073450588
  0
VERTEX
  5
B1
  8
DEFAULT
 10
-1454.645209622581
 20
-1402.288261944497
 30
3.089688073450588
  0
VERTEX
  5
B2
  8
DEFAULT
 10
-1454.645209622581
 20
-1382.288261944497
 30
3.089688073450588
  0
VERTEX
  5
B3
  8
DEFAULT
 10
-1574.645209622581
 20
-1382.288261944497
 30
3.089688073450588
  0
SEQEND
  5
B4
  8
DEFAULT
  0
POLYLINE
  5
B5
  8
DEFAULT
 66
     1
 10
0.0
 20
0.0
 30
3.089688073450816
 70
     1
  0
VERTEX
  5
B6
  8
DEFAULT
 10
-1691.245208016393
 20
-1527.288260361383
 30
3.089688073450816
  0
VERTEX
  5
B7
  8
DEFAULT
 10
-1691.245208016393
 20
-1417.288263527612
 30
3.089688073450816
 42
-0.4142135623730911
  0
VERTEX
  5
B8
  8
DEFAULT
 10
-1681.245208016393
 20
-1407.288263527612
 30
3.089688073450816
  0
VERTEX
  5
B9
  8
DEFAULT
 10
-1627.24521122877
 20
-1407.288263527612
 30
3.089688073450816
 42
-0.414213562373117
  0
VERTEX
  5
BA
  8
DEFAULT
 10
-1617.245211228769
 20
-1417.288263527612
 30
3.089688073450816
  0
VERTEX
  5
BB
  8
DEFAULT
 10
-1617.24521122877
 20
-1527.288260361383
 30
3.089688073450816
 42
-0.4142135623730922
  0
VERTEX
  5
BC
  8
DEFAULT
 10
-1627.24521122877
 20
-1537.288260361383
 30
3.089688073450816
  0
VERTEX
  5
BD
  8
DEFAULT
 10
-1681.245208016393
 20
-1537.288260361383
 30
3.089688073450816
 42
-0.4142135623730978
  0
SEQEND
  5
BE
  8
DEFAULT
  0
POLYLINE
  5
BF
  8
DEFAULT
 66
     1
 10
0.0
 20
0.0
 30
3.089688073450588
 70
     1
  0
VERTEX
  5
C0
  8
DEFAULT
 10
-1714.245209622581
 20
-1402.288261944497
 30
3.089688073450588
  0
VERTEX
  5
C1
  8
DEFAULT
 10
-1719.045209622581
 20
-1402.288261944497
 30
3.089688073450588
  0
VERTEX
  5
C2
  8
DEFAULT
 10
-1719.045209622581
 20
-1430.788261944497
 30
3.089688073450588
  0
VERTEX
  5
C3
  8
DEFAULT
 10
-1709.245209917767
 20
-1430.788261944497
 30
3.089688073450588
  0
VERTEX
  5
C4
  8
DEFAULT
 10
-1709.245209917767
 20
-1428.288261944497
 30
3.089688073450588
  0
VERTEX
  5
C5
  8
DEFAULT
 10
-1703.245209599875
 20
-1428.288261944497
 30
3.089688073450588
  0
VERTEX
  5
C6
  8
DEFAULT
 10
-1703.245209599875
 20
-1436.288261944497
 30
3.089688073450588
  0
VERTEX
  5
C7
  8
DEFAULT
 10
-1709.245209917767
 20
-1436.288261944497
 30
3.089688073450588
  0
VERTEX
  5
C8
  8
DEFAULT
 10
-1709.245209917767
 20
-1433.788261944497
 30
3.089688073450588
  0
VERTEX
  5
C9
  8
DEFAULT
 10
-1719.045209622581
 20
-1433.788261944497
 30
3.089688073450588
  0
VERTEX
  5
CA
  8
DEFAULT
 10
-1719.045209622581
 20
-1462.288261944497
 30
3.089688073450588
  0
VERTEX
  5
CB
  8
DEFAULT
 10
-1714.245209622581
 20
-1462.288261944497
 30
3.089688073450588
  0
VERTEX
  5
CC
  8
DEFAULT
 10
-1714.245209622581
 20
-1482.288261944497
 30
3.089688073450588
  0
VERTEX
  5
CD
  8
DEFAULT
 10
-1719.045209622581
 20
-1482.288261944497
 30
3.089688073450588
  0
VERTEX
  5
CE
  8
DEFAULT
 10
-1719.045209622581
 20
-1510.788261944497
 30
3.089688073450588
  0
VERTEX
  5
CF
  8
DEFAULT
 10
-1709.245209917767
 20
-1510.788261944497
 30
3.089688073450588
  0
VERTEX
  5
D0
  8
DEFAULT
 10
-1709.245209917767
 20
-1508.288261944497
 30
3.089688073450588
  0
VERTEX
  5
D1
  8
DEFAULT
 10
-1703.245209599875
 20
-1508.288261944497
 30
3.089688073450588
  0
VERTEX
  5
D2
  8
DEFAULT
 10
-1703.245209599875
 20
-1516.288261944497
 30
3.089688073450588
  0
VERTEX
  5
D3
  8
DEFAULT
 10
-1709.245209917767
 20
-1516.288261944497
 30
3.089688073450588
  0
VERTEX
  5
D4
  8
DEFAULT
 10
-1709.245209917767
 20
-1513.788261944497
 30
3.089688073450588
  0
VERTEX
  5
D5
  8
DEFAULT
 10
-1719.045209622581
 20
-1513.788261944497
 30
3.089688073450588
  0
VERTEX
  5
D6
  8
DEFAULT
 10
-1719.045209622581
 20
-1542.288261944497
 30
3.089688073450588
  0
VERTEX
  5
D7
  8
DEFAULT
 10
-1714.245209622581
 20
-1542.288261944497
 30
3.089688073450588
  0
VERTEX
  5
D8
  8
DEFAULT
 10
-1714.245209622581
 20
-1562.288261944497
 30
3.089688073450588
  0
VERTEX
  5
D9
  8
DEFAULT
 10
-1594.245209622582
 20
-1562.288261944497
 30
3.089688073450588
  0
VERTEX
  5
DA
  8
DEFAULT
 10
-1594.245209622582
 20
-1542.288261944497
 30
3.089688073450588
  0
VERTEX
  5
DB
  8
DEFAULT
 10
-1589.445209622581
 20
-1542.288261944497
 30
3.089688073450588
  0
VERTEX
  5
DC
  8
DEFAULT
 10
-1589.445209622582
 20
-1513.788261944497
 30
3.089688073450588
  0
VERTEX
  5
DD
  8
DEFAULT
 10
-1599.245209327396
 20
-1513.788261944497
 30
3.089688073450588
  0
VERTEX
  5
DE
  8
DEFAULT
 10
-1599.245209327396
 20
-1516.288261944497
 30
3.089688073450588
  0
VERTEX
  5
DF
  8
DEFAULT
 10
-1605.245209645288
 20
-1516.288261944497
 30
3.089688073450588
  0
VERTEX
  5
E0
  8
DEFAULT
 10
-1605.245209645288
 20
-1508.288261944497
 30
3.089688073450588
  0
VERTEX
  5
E1
  8
DEFAULT
 10
-1599.245209327396
 20
-1508.288261944497
 30
3.089688073450588
  0
VERTEX
  5
E2
  8
DEFAULT
 10
-1599.245209327396
 20
-1510.788261944497
 30
3.089688073450588
  0
VERTEX
  5
E3
  8
DEFAULT
 10
-1589.445209622582
 20
-1510.788261944497
 30
3.089688073450588
  0
VERTEX
  5
E4
  8
DEFAULT
 10
-1589.445209622581
 20
-1482.288261944497
 30
3.089688073450588
  0
VERTEX
  5
E5
  8
DEFAULT
 10
-1594.245209622582
 20
-1482.288261944497
 30
3.089688073450588
  0
VERTEX
  5
E6
  8
DEFAULT
 10
-1594.245209622582
 20
-1462.288261944497
 30
3.089688073450588
  0
VERTEX
  5
E7
  8
DEFAULT
 10
-1589.445209622581
 20
-1462.288261944497
 30
3.089688073450588
  0
VERTEX
  5
E8
  8
DEFAULT
 10
-1589.445209622582
 20
-1433.788261944497
 30
3.089688073450588
  0
VERTEX
  5
E9
  8
DEFAULT
 10
-1599.245209327396
 20
-1433.788261944497
 30
3.089688073450588
  0
VERTEX
  5
EA
  8
DEFAULT
 10
-1599.245209327396
 20
-1436.288261944497
 30
3.089688073450588
  0
VERTEX
  5
EB
  8
DEFAULT
 10
-1605.245209645288
 20
-1436.288261944497
 30
3.089688073450588
  0
VERTEX
  5
EC
  8
DEFAULT
 10
-1605.245209645288
 20
-1428.288261944497
 30
3.089688073450588
  0
VERTEX
  5
ED
  8
DEFAULT
 10
-1599.245209327396
 20
-1428.288261944497
 30
3.089688073450588
  0
VERTEX
  5
EE
  8
DEFAULT
 10
-1599.245209327396
 20
-1430.788261944497
 30
3.089688073450588
  0
VERTEX
  5
EF
  8
DEFAULT
 10
-1589.445209622582
 20
-1430.788261944497
 30
3.089688073450588
  0
VERTEX
  5
F0
  8
DEFAULT
 10
-1589.445209622581
 20
-1402.288261944497
 30
3.089688073450588
  0
VERTEX
  5
F1
  8
DEFAULT
 10
-1594.245209622582
 20
-1402.288261944497
 30
3.089688073450588
  0
VERTEX
  5
F2
  8
DEFAULT
 10
-1594.245209622582
 20
-1382.288261944497
 30
3.089688073450588
  0
VERTEX
  5
F3
  8
DEFAULT
 10
-1714.245209622581
 20
-1382.288261944497
 30
3.089688073450588
  0
SEQEND
  5
F4
  8
DEFAULT
  0
POLYLINE
  5
F5
  8
DEFAULT
 10
0.0
 20
0.0
 30
0.0
 66
     1
 70
     9
  0
VERTEX
  5
F6
  8
DEFAULT
 10
-1469.445209622581
 20
-1247.488261944497
 30
3.089670835467359
 70
    32
  0
VERTEX
  5
F7
  8
DEFAULT
 10
-1489.445209622581
 20
-1247.488261944497
 30
3.089680029072952
 70
    32
  0
VERTEX
  5
F8
  8
DEFAULT
 10
-1489.445209622581
 20
-1242.688261944497
 30
3.089688073469233
 70
    32
  0
VERTEX
  5
F9
  8
DEFAULT
 10
-1549.445209622581
 20
-1242.688261944497
 30
3.089688073469233
 70
    32
  0
VERTEX
  5
FA
  8
DEFAULT
 10
-1549.445209622581
 20
-1247.488261944497
 30
3.089681752861907
 70
    32
  0
VERTEX
  5
FB
  8
DEFAULT
 10
-1619.445209622581
 20
-1247.488261944497
 30
3.089679454473298
 70
    32
  0
VERTEX
  5
FC
  8
DEFAULT
 10
-1619.445209622581
 20
-1242.688261944497
 30
3.089688073469233
 70
    32
  0
VERTEX
  5
FD
  8
DEFAULT
 10
-1679.445209622581
 20
-1242.688261944497
 30
3.089688073469233
 70
    32
  0
VERTEX
  5
FE
  8
DEFAULT
 10
-1679.445209622581
 20
-1247.488261944497
 30
3.089679454463067
 70
    32
  0
VERTEX
  5
FF
  8
DEFAULT
 10
-1699.445209622581
 20
-1247.488261944497
 30
3.089670835477591
 70
    32
  0
VERTEX
  5
100
  8
DEFAULT
 10
-1699.445209622581
 20
-1367.488261944497
 30
3.089670835477591
 70
    32
  0
VERTEX
  5
101
  8
DEFAULT
 10
-1679.445209622581
 20
-1367.488261944497
 30
3.089680029072952
 70
    32
  0
VERTEX
  5
102
  8
DEFAULT
 10
-1679.445209622581
 20
-1372.288261944497
 30
3.089688073469233
 70
    32
  0
VERTEX
  5
103
  8
DEFAULT
 10
-1619.445209622581
 20
-1372.288261944497
 30
3.089688073469233
 70
    32
  0
VERTEX
  5
104
  8
DEFAULT
 10
-1619.445209622581
 20
-1367.488261944497
 30
3.089681752872139
 70
    32
  0
VERTEX
  5
105
  8
DEFAULT
 10
-1549.445209622581
 20
-1367.488261944497
 30
3.089679454473298
 70
    32
  0
VERTEX
  5
106
  8
DEFAULT
 10
-1549.445209622581
 20
-1372.288261944497
 30
3.089688073469233
 70
    32
  0
VERTEX
  5
107
  8
DEFAULT
 10
-1489.445209622581
 20
-1372.288261944497
 30
3.089688073469233
 70
    32
  0
VERTEX
  5
108
  8
DEFAULT
 10
-1489.445209622581
 20
-1367.488261944497
 30
3.089679454473298
 70
    32
  0
VERTEX
  5
109
  8
DEFAULT
 10
-1469.445209622581
 20
-1367.488261944497
 30
3.089670835467359
 70
    32
  0
SEQEND
  5
10A
  8
DEFAULT
  0
POLYLINE
  5
10B
  8
DEFAULT
 66
     1
 10
0.0
 20
0.0
 30
3.089910218088789
 70
     1
  0
VERTEX
  5
10C
  8
DEFAULT
 10
-1515.985366528142
 20
-1762.288261944497
 30
3.089910218088789
  0
VERTEX
  5
10D
  8
DEFAULT
 10
-1515.985366528142
 20
-1757.488261944497
 30
3.089910218088789
  0
VERTEX
  5
10E
  8
DEFAULT
 10
-1455.985366528142
 20
-1757.488261944497
 30
3.089910218088789
  0
VERTEX
  5
10F
  8
DEFAULT
 10
-1455.985366528142
 20
-1762.288261944497
 30
3.089910218088789
  0
SEQEND
  5
110
  8
DEFAULT
  0
POLYLINE
  5
111
  8
DEFAULT
 66
     1
 10
0.0
 20
0.0
 30
3.089910218088789
 70
     1
  0
VERTEX
  5
112
  8
DEFAULT
 10
-1595.985366528142
 20
-1762.288261944497
 30
3.089910218088789
  0
VERTEX
  5
113
  8
DEFAULT
 10
-1595.985366528142
 20
-1757.488261944497
 30
3.089910218088789
  0
VERTEX
  5
114
  8
DEFAULT
 10
-1535.985366528142
 20
-1757.488261944497
 30
3.089910218088789
  0
VERTEX
  5
115
  8
DEFAULT
 10
-1535.985366528142
 20
-1762.288261944497
 30
3.089910218088789
  0
SEQEND
  5
116
  8
DEFAULT
  0
POLYLINE
  5
117
  8
DEFAULT
 66
     1
 10
0.0
 20
0.0
 30
3.089910218088789
 70
     1
  0
VERTEX
  5
118
  8
DEFAULT
 10
-1457.113166246576
 20
-1606.810173604652
 30
3.089910218088789
  0
VERTEX
  5
119
  8
DEFAULT
 10
-1499.539573117769
 20
-1649.236580475845
 30
3.089910218088789
  0
VERTEX
  5
11A
  8
DEFAULT
 10
-1502.933685667464
 20
-1645.84246792615
 30
3.089910218088789
  0
VERTEX
  5
11B
  8
DEFAULT
 10
-1460.507278796272
 20
-1603.416061054957
 30
3.089910218088789
  0
SEQEND
  5
11C
  8
DEFAULT
  0
POLYLINE
  5
11D
  8
DEFAULT
 66
     1
 10
0.0
 20
0.0
 30
3.089910218088789
 70
     1
  0
VERTEX
  5
11E
  8
DEFAULT
 10
-1549.037047800827
 20
-1698.734055158903
 30
3.089910218088789
  0
VERTEX
  5
11F
  8
DEFAULT
 10
-1591.46345467202
 20
-1741.160462030096
 30
3.089910218088789
  0
VERTEX
  5
120
  8
DEFAULT
 10
-1594.857567221716
 20
-1737.766349480401
 30
3.089910218088789
  0
VERTEX
  5
121
  8
DEFAULT
 10
-1552.431160350523
 20
-1695.339942609208
 30
3.089910218088789
  0
SEQEND
  5
122
  8
DEFAULT
  0
POLYLINE
  5
123
  8
DEFAULT
 66
     1
 10
0.0
 20
0.0
 30
3.089910218088789
 70
     1
  0
VERTEX
  5
124
  8
DEFAULT
 10
-1535.985366528142
 20
-1587.088261944497
 30
3.089910218088789
  0
VERTEX
  5
125
  8
DEFAULT
 10
-1595.985366528142
 20
-1587.088261944497
 30
3.089910218088789
  0
VERTEX
  5
126
  8
DEFAULT
 10
-1595.985366528142
 20
-1582.288261944497
 30
3.089910218088789
  0
VERTEX
  5
127
  8
DEFAULT
 10
-1535.985366528142
 20
-1582.288261944497
 30
3.089910218088789
  0
SEQEND
  5
128
  8
DEFAULT
  0
POLYLINE
  5
129
  8
DEFAULT
 66
     1
 10
0.0
 20
0.0
 30
3.089910218088789
 70
     1
  0
VERTEX
  5
12A
  8
DEFAULT
 10
-1455.985366528142
 20
-1587.088261944497
 30
3.089910218088789
  0
VERTEX
  5
12B
  8
DEFAULT
 10
-1515.985366528142
 20
-1587.088261944497
 30
3.089910218088789
  0
VERTEX
  5
12C
  8
DEFAULT
 10
-1515.985366528142
 20
-1582.288261944497
 30
3.089910218088789
  0
VERTEX
  5
12D
  8
DEFAULT
 10
-1455.985366528142
 20
-1582.288261944497
 30
3.089910218088789
  0
SEQEND
  5
12E
  8
DEFAULT
  0
POLYLINE
  5
12F
  8
DEFAULT
 66
     1
 10
0.0
 20
0.0
 30
3.089910218088789
 70
     1
  0
VERTEX
  5
130
  8
DEFAULT
 10
-1435.985366528142
 20
-1614.203990697036
 30
3.089910218088789
  0
VERTEX
  5
131
  8
DEFAULT
 10
-1435.985366528142
 20
-1582.288261944497
 30
3.089910218088789
 42
0.414213562373227
  0
VERTEX
  5
132
  8
DEFAULT
 10
-1445.985366528142
 20
-1572.288261944497
 30
3.089910218088789
  0
VERTEX
  5
133
  8
DEFAULT
 10
-1605.985368420562
 20
-1572.288261944497
 30
3.089910218088789
 42
0.4142135623731104
  0
VERTEX
  5
134
  8
DEFAULT
 10
-1615.985368420562
 20
-1582.288261944497
 30
3.089910218088789
  0
VERTEX
  5
135
  8
DEFAULT
 10
-1615.985368420562
 20
-1592.088261944497
 30
3.089910218088789
 42
0.4142135623730911
  0
VERTEX
  5
136
  8
DEFAULT
 10
-1605.985368420562
 20
-1602.088261944497
 30
3.089910218088789
  0
VERTEX
  5
137
  8
DEFAULT
 10
-1520.127504044294
 20
-1602.088261944497
 30
3.089910218088789
 42
-0.6681786379194209
  0
VERTEX
  5
138
  8
DEFAULT
 10
-1513.056436232428
 20
-1619.159329756363
 30
3.089910218088789
  0
VERTEX
  5
139
  8
DEFAULT
 10
-1610.127504044294
 20
-1716.230397568228
 30
3.089910218088789
 42
0.1989123673796372
  0
VERTEX
  5
13A
  8
DEFAULT
 10
-1615.985368420562
 20
-1730.372533191959
 30
3.089910218088789
  0
VERTEX
  5
13B
  8
DEFAULT
 10
-1615.985368420562
 20
-1762.288261944497
 30
3.089910218088789
 42
0.4142135623730911
  0
VERTEX
  5
13C
  8
DEFAULT
 10
-1605.985368420562
 20
-1772.288261944497
 30
3.089910218088789
  0
VERTEX
  5
13D
  8
DEFAULT
 10
-1445.985366528142
 20
-1772.288261944497
 30
3.089910218088789
 42
0.4142135623730978
  0
VERTEX
  5
13E
  8
DEFAULT
 10
-1435.985366528142
 20
-1762.288261944497
 30
3.089910218088789
  0
VERTEX
  5
13F
  8
DEFAULT
 10
-1435.985366528142
 20
-1752.488261944498
 30
3.089910218088789
 42
0.4142135623731075
  0
VERTEX
  5
140
  8
DEFAULT
 10
-1445.985366528142
 20
-1742.488261944497
 30
3.089910218088789
  0
VERTEX
  5
141
  8
DEFAULT
 10
-1531.843230904411
 20
-1742.488261944497
 30
3.089910218088789
 42
-0.6681786379193985
  0
VERTEX
  5
142
  8
DEFAULT
 10
-1538.914298716276
 20
-1725.417194132632
 30
3.089910218088789
  0
VERTEX
  5
143
  8
DEFAULT
 10
-1441.843230904411
 20
-1628.346126320766
 30
3.089910218088789
 42
0.1989123673795458
  0
SEQEND
  5
144
  8
DEFAULT
  0
POLYLINE
  5
145
  8
DEFAULT
 66
     1
 10
0.0
 20
0.0
 30
3.089910218088789
 70
     1
  0
VERTEX
  5
146
  8
DEFAULT
 10
-1632.9050508246
 20
-1795.311738055503
 30
3.089910218088789
  0
VERTEX
  5
147
  8
DEFAULT
 10
-1632.9050508246
 20
-1790.511738055503
 30
3.089910218088789
  0
VERTEX
  5
148
  8
DEFAULT
 10
-1572.9050508246
 20
-1790.511738055503
 30
3.089910218088789
  0
VERTEX
  5
149
  8
DEFAULT
 10
-1572.9050508246
 20
-1795.311738055503
 30
3.089910218088789
  0
SEQEND
  5
14A
  8
DEFAULT
  0
POLYLINE
  5
14B
  8
DEFAULT
 66
     1
 10
0.0
 20
0.0
 30
3.089910218088789
 70
     1
  0
VERTEX
  5
14C
  8
DEFAULT
 10
-1712.9050508246
 20
-1795.311738055503
 30
3.089910218088789
  0
VERTEX
  5
14D
  8
DEFAULT
 10
-1712.9050508246
 20
-1790.511738055503
 30
3.089910218088789
  0
VERTEX
  5
14E
  8
DEFAULT
 10
-1652.9050508246
 20
-1790.511738055503
 30
3.089910218088789
  0
VERTEX
  5
14F
  8
DEFAULT
 10
-1652.9050508246
 20
-1795.311738055503
 30
3.089910218088789
  0
SEQEND
  5
150
  8
DEFAULT
  0
POLYLINE
  5
151
  8
DEFAULT
 66
     1
 10
0.0
 20
0.0
 30
3.089910218088789
 70
     1
  0
VERTEX
  5
152
  8
DEFAULT
 10
-1574.032850543034
 20
-1639.833649715658
 30
3.089910218088789
  0
VERTEX
  5
153
  8
DEFAULT
 10
-1616.459257414227
 20
-1682.26005658685
 30
3.089910218088789
  0
VERTEX
  5
154
  8
DEFAULT
 10
-1619.853369963922
 20
-1678.865944037155
 30
3.089910218088789
  0
VERTEX
  5
155
  8
DEFAULT
 10
-1577.42696309273
 20
-1636.439537165962
 30
3.089910218088789
  0
SEQEND
  5
156
  8
DEFAULT
  0
POLYLINE
  5
157
  8
DEFAULT
 66
     1
 10
0.0
 20
0.0
 30
3.089910218088789
 70
     1
  0
VERTEX
  5
158
  8
DEFAULT
 10
-1665.956732097285
 20
-1731.757531269909
 30
3.089910218088789
  0
VERTEX
  5
159
  8
DEFAULT
 10
-1708.383138968478
 20
-1774.183938141102
 30
3.089910218088789
  0
VERTEX
  5
15A
  8
DEFAULT
 10
-1711.777251518174
 20
-1770.789825591406
 30
3.089910218088789
  0
VERTEX
  5
15B
  8
DEFAULT
 10
-1669.350844646981
 20
-1728.363418720214
 30
3.089910218088789
  0
SEQEND
  5
15C
  8
DEFAULT
  0
POLYLINE
  5
15D
  8
DEFAULT
 66
     1
 10
0.0
 20
0.0
 30
3.089910218088789
 70
     1
  0
VERTEX
  5
15E
  8
DEFAULT
 10
-1652.9050508246
 20
-1620.111738055503
 30
3.089910218088789
  0
VERTEX
  5
15F
  8
DEFAULT
 10
-1712.9050508246
 20
-1620.111738055503
 30
3.089910218088789
  0
VERTEX
  5
160
  8
DEFAULT
 10
-1712.9050508246
 20
-1615.311738055503
 30
3.089910218088789
  0
VERTEX
  5
161
  8
DEFAULT
 10
-1652.9050508246
 20
-1615.311738055503
 30
3.089910218088789
  0
SEQEND
  5
162
  8
DEFAULT
  0
POLYLINE
  5
163
  8
DEFAULT
 66
     1
 10
0.0
 20
0.0
 30
3.089910218088789
 70
     1
  0
VERTEX
  5
164
  8
DEFAULT
 10
-1572.9050508246
 20
-1620.111738055503
 30
3.089910218088789
  0
VERTEX
  5
165
  8
DEFAULT
 10
-1632.9050508246
 20
-1620.111738055503
 30
3.089910218088789
  0
VERTEX
  5
166
  8
DEFAULT
 10
-1632.9050508246
 20
-1615.311738055503
 30
3.089910218088789
  0
VERTEX
  5
167
  8
DEFAULT
 10
-1572.9050508246
 20
-1615.311738055503
 30
3.089910218088789
  0
SEQEND
  5
168
  8
DEFAULT
  0
POLYLINE
  5
169
  8
DEFAULT
 66
     1
 10
0.0
 20
0.0
 30
3.089910218088789
 70
     1
  0
VERTEX
  5
16A
  8
DEFAULT
 10
-1552.9050508246
 20
-1647.227466808041
 30
3.089910218088789
  0
VERTEX
  5
16B
  8
DEFAULT
 10
-1552.9050508246
 20
-1615.311738055503
 30
3.089910218088789
 42
0.4142135623730922
  0
VERTEX
  5
16C
  8
DEFAULT
 10
-1562.9050508246
 20
-1605.311738055503
 30
3.089910218088789
  0
VERTEX
  5
16D
  8
DEFAULT
 10
-1722.905052717021
 20
-1605.311738055503
 30
3.089910218088789
 42
0.4142135623730931
  0
VERTEX
  5
16E
  8
DEFAULT
 10
-1732.905052717021
 20
-1615.311738055503
 30
3.089910218088789
  0
VERTEX
  5
16F
  8
DEFAULT
 10
-1732.905052717021
 20
-1625.111738055503
 30
3.089910218088789
 42
0.4142135623730911
  0
VERTEX
  5
170
  8
DEFAULT
 10
-1722.905052717021
 20
-1635.111738055502
 30
3.089910218088789
  0
VERTEX
  5
171
  8
DEFAULT
 10
-1637.047188340751
 20
-1635.111738055502
 30
3.089910218088789
 42
-0.668178637919378
  0
VERTEX
  5
172
  8
DEFAULT
 10
-1629.976120528886
 20
-1652.182805867368
 30
3.089910218088789
  0
VERTEX
  5
173
  8
DEFAULT
 10
-1727.047188340751
 20
-1749.253873679234
 30
3.089910218088789
 42
0.1989123673796623
  0
VERTEX
  5
174
  8
DEFAULT
 10
-1732.90505271702
 20
-1763.396009302965
 30
3.089910218088789
  0
VERTEX
  5
175
  8
DEFAULT
 10
-1732.905052717021
 20
-1795.311738055503
 30
3.089910218088789
 42
0.4142135623730922
  0
VERTEX
  5
176
  8
DEFAULT
 10
-1722.905052717021
 20
-1805.311738055503
 30
3.089910218088789
  0
VERTEX
  5
177
  8
DEFAULT
 10
-1562.9050508246
 20
-1805.311738055503
 30
3.089910218088789
 42
0.414213562373117
  0
VERTEX
  5
178
  8
DEFAULT
 10
-1552.905050824599
 20
-1795.311738055503
 30
3.089910218088789
  0
VERTEX
  5
179
  8
DEFAULT
 10
-1552.9050508246
 20
-1785.511738055503
 30
3.089910218088789
 42
0.4142135623731075
  0
VERTEX
  5
17A
  8
DEFAULT
 10
-1562.9050508246
 20
-1775.511738055503
 30
3.089910218088789
  0
VERTEX
  5
17B
  8
DEFAULT
 10
-1648.762915200869
 20
-1775.511738055503
 30
3.089910218088789
 42
-0.668178637919378
  0
VERTEX
  5
17C
  8
DEFAULT
 10
-1655.833983012734
 20
-1758.440670243637
 30
3.089910218088789
  0
VERTEX
  5
17D
  8
DEFAULT
 10
-1558.762915200869
 20
-1661.369602431772
 30
3.089910218088789
 42
0.1989123673796712
  0
SEQEND
  5
17E
  8
DEFAULT
  0
ENDSEC
  0
EOF
