  0
SECTION
  2
BLOCKS
  0
ENDSEC
  0
SECTION
  2
ENTITIES
  0
LINE
  8
0
 10
-55.000000
 11
-54.866000
 20
0.000000
 21
3.837000
  0
LINE
  8
0
 10
-54.866000
 11
-54.465000
 20
3.837000
 21
7.655000
  0
LINE
  8
0
 10
-54.465000
 11
-53.798000
 20
7.655000
 21
11.435000
  0
LINE
  8
0
 10
-53.798000
 11
-52.869000
 20
11.435000
 21
15.160000
  0
LINE
  8
0
 10
-52.869000
 11
-51.683000
 20
15.160000
 21
18.811000
  0
LINE
  8
0
 10
-51.683000
 11
-50.245000
 20
18.811000
 21
22.371000
  0
LINE
  8
0
 10
-50.245000
 11
-48.562000
 20
22.371000
 21
25.821000
  0
LINE
  8
0
 10
-48.562000
 11
-46.643000
 20
25.821000
 21
29.146000
  0
LINE
  8
0
 10
-46.643000
 11
-44.496000
 20
29.146000
 21
32.328000
  0
LINE
  8
0
 10
-44.496000
 11
-42.132000
 20
32.328000
 21
35.353000
  0
LINE
  8
0
 10
-42.132000
 11
-39.564000
 20
35.353000
 21
38.206000
  0
LINE
  8
0
 10
-39.564000
 11
-36.802000
 20
38.206000
 21
40.873000
  0
LINE
  8
0
 10
-36.802000
 11
-33.861000
 20
40.873000
 21
43.341000
  0
LINE
  8
0
 10
-33.861000
 11
-30.756000
 20
43.341000
 21
45.597000
  0
LINE
  8
0
 10
-30.756000
 11
-27.500000
 20
45.597000
 21
47.631000
  0
LINE
  8
0
 10
-27.500000
 11
-24.110000
 20
47.631000
 21
49.434000
  0
LINE
  8
0
 10
-24.110000
 11
-20.603000
 20
49.434000
 21
50.995000
  0
LINE
  8
0
 10
-20.603000
 11
-16.996000
 20
50.995000
 21
52.308000
  0
LINE
  8
0
 10
-16.996000
 11
-13.306000
 20
52.308000
 21
53.366000
  0
LINE
  8
0
 10
-13.306000
 11
-9.551000
 20
53.366000
 21
54.164000
  0
LINE
  8
0
 10
-9.551000
 11
-5.749000
 20
54.164000
 21
54.699000
  0
LINE
  8
0
 10
-5.749000
 11
-1.919000
 20
54.699000
 21
54.966000
  0
LINE
  8
0
 10
-1.919000
 11
1.919000
 20
54.966000
 21
54.966000
  0
LINE
  8
0
 10
1.919000
 11
5.749000
 20
54.966000
 21
54.699000
  0
LINE
  8
0
 10
5.749000
 11
9.551000
 20
54.699000
 21
54.164000
  0
LINE
  8
0
 10
9.551000
 11
13.306000
 20
54.164000
 21
53.366000
  0
LINE
  8
0
 10
13.306000
 11
16.996000
 20
53.366000
 21
52.308000
  0
LINE
  8
0
 10
16.996000
 11
20.603000
 20
52.308000
 21
50.995000
  0
LINE
  8
0
 10
20.603000
 11
24.110000
 20
50.995000
 21
49.434000
  0
LINE
  8
0
 10
24.110000
 11
27.500000
 20
49.434000
 21
47.631000
  0
LINE
  8
0
 10
27.500000
 11
30.756000
 20
47.631000
 21
45.597000
  0
LINE
  8
0
 10
30.756000
 11
33.861000
 20
45.597000
 21
43.341000
  0
LINE
  8
0
 10
33.861000
 11
36.802000
 20
43.341000
 21
40.873000
  0
LINE
  8
0
 10
36.802000
 11
39.564000
 20
40.873000
 21
38.206000
  0
LINE
  8
0
 10
39.564000
 11
42.132000
 20
38.206000
 21
35.353000
  0
LINE
  8
0
 10
42.132000
 11
44.496000
 20
35.353000
 21
32.328000
  0
LINE
  8
0
 10
44.496000
 11
46.643000
 20
32.328000
 21
29.146000
  0
LINE
  8
0
 10
46.643000
 11
48.562000
 20
29.146000
 21
25.821000
  0
LINE
  8
0
 10
48.562000
 11
50.245000
 20
25.821000
 21
22.371000
  0
LINE
  8
0
 10
50.245000
 11
51.683000
 20
22.371000
 21
18.811000
  0
LINE
  8
0
 10
51.683000
 11
52.869000
 20
18.811000
 21
15.160000
  0
LINE
  8
0
 10
52.869000
 11
53.798000
 20
15.160000
 21
11.435000
  0
LINE
  8
0
 10
53.798000
 11
54.465000
 20
11.435000
 21
7.655000
  0
LINE
  8
0
 10
54.465000
 11
54.866000
 20
7.655000
 21
3.837000
  0
LINE
  8
0
 10
54.866000
 11
55.000000
 20
3.837000
 21
0.000000
  0
LINE
  8
0
 10
55.000000
 11
54.866000
 20
0.000000
 21
-3.837000
  0
LINE
  8
0
 10
54.866000
 11
54.465000
 20
-3.837000
 21
-7.655000
  0
LINE
  8
0
 10
54.465000
 11
53.798000
 20
-7.655000
 21
-11.435000
  0
LINE
  8
0
 10
53.798000
 11
52.869000
 20
-11.435000
 21
-15.160000
  0
LINE
  8
0
 10
52.869000
 11
51.683000
 20
-15.160000
 21
-18.811000
  0
LINE
  8
0
 10
51.683000
 11
50.245000
 20
-18.811000
 21
-22.371000
  0
LINE
  8
0
 10
50.245000
 11
48.562000
 20
-22.371000
 21
-25.821000
  0
LINE
  8
0
 10
48.562000
 11
46.643000
 20
-25.821000
 21
-29.146000
  0
LINE
  8
0
 10
46.643000
 11
44.496000
 20
-29.146000
 21
-32.328000
  0
LINE
  8
0
 10
44.496000
 11
42.132000
 20
-32.328000
 21
-35.353000
  0
LINE
  8
0
 10
42.132000
 11
39.564000
 20
-35.353000
 21
-38.206000
  0
LINE
  8
0
 10
39.564000
 11
36.802000
 20
-38.206000
 21
-40.873000
  0
LINE
  8
0
 10
36.802000
 11
33.861000
 20
-40.873000
 21
-43.341000
  0
LINE
  8
0
 10
33.861000
 11
30.756000
 20
-43.341000
 21
-45.597000
  0
LINE
  8
0
 10
30.756000
 11
27.500000
 20
-45.597000
 21
-47.631000
  0
LINE
  8
0
 10
27.500000
 11
24.110000
 20
-47.631000
 21
-49.434000
  0
LINE
  8
0
 10
24.110000
 11
20.603000
 20
-49.434000
 21
-50.995000
  0
LINE
  8
0
 10
20.603000
 11
16.996000
 20
-50.995000
 21
-52.308000
  0
LINE
  8
0
 10
16.996000
 11
13.306000
 20
-52.308000
 21
-53.366000
  0
LINE
  8
0
 10
13.306000
 11
9.551000
 20
-53.366000
 21
-54.164000
  0
LINE
  8
0
 10
9.551000
 11
5.749000
 20
-54.164000
 21
-54.699000
  0
LINE
  8
0
 10
5.749000
 11
1.919000
 20
-54.699000
 21
-54.966000
  0
LINE
  8
0
 10
1.919000
 11
-1.919000
 20
-54.966000
 21
-54.966000
  0
LINE
  8
0
 10
-1.919000
 11
-5.749000
 20
-54.966000
 21
-54.699000
  0
LINE
  8
0
 10
-5.749000
 11
-9.551000
 20
-54.699000
 21
-54.164000
  0
LINE
  8
0
 10
-9.551000
 11
-13.306000
 20
-54.164000
 21
-53.366000
  0
LINE
  8
0
 10
-13.306000
 11
-16.996000
 20
-53.366000
 21
-52.308000
  0
LINE
  8
0
 10
-16.996000
 11
-20.603000
 20
-52.308000
 21
-50.995000
  0
LINE
  8
0
 10
-20.603000
 11
-24.110000
 20
-50.995000
 21
-49.434000
  0
LINE
  8
0
 10
-24.110000
 11
-27.500000
 20
-49.434000
 21
-47.631000
  0
LINE
  8
0
 10
-27.500000
 11
-30.756000
 20
-47.631000
 21
-45.597000
  0
LINE
  8
0
 10
-30.756000
 11
-33.861000
 20
-45.597000
 21
-43.341000
  0
LINE
  8
0
 10
-33.861000
 11
-36.802000
 20
-43.341000
 21
-40.873000
  0
LINE
  8
0
 10
-36.802000
 11
-39.564000
 20
-40.873000
 21
-38.206000
  0
LINE
  8
0
 10
-39.564000
 11
-42.132000
 20
-38.206000
 21
-35.353000
  0
LINE
  8
0
 10
-42.132000
 11
-44.496000
 20
-35.353000
 21
-32.328000
  0
LINE
  8
0
 10
-44.496000
 11
-46.643000
 20
-32.328000
 21
-29.146000
  0
LINE
  8
0
 10
-46.643000
 11
-48.562000
 20
-29.146000
 21
-25.821000
  0
LINE
  8
0
 10
-48.562000
 11
-50.245000
 20
-25.821000
 21
-22.371000
  0
LINE
  8
0
 10
-50.245000
 11
-51.683000
 20
-22.371000
 21
-18.811000
  0
LINE
  8
0
 10
-51.683000
 11
-52.869000
 20
-18.811000
 21
-15.160000
  0
LINE
  8
0
 10
-52.869000
 11
-53.798000
 20
-15.160000
 21
-11.435000
  0
LINE
  8
0
 10
-53.798000
 11
-54.465000
 20
-11.435000
 21
-7.655000
  0
LINE
  8
0
 10
-54.465000
 11
-54.866000
 20
-7.655000
 21
-3.837000
  0
LINE
  8
0
 10
-54.866000
 11
-55.000000
 20
-3.837000
 21
0.000000
  0
LINE
  8
0
 10
-48.341000
 11
-48.308000
 20
-20.000000
 21
-19.044000
  0
LINE
  8
0
 10
-48.308000
 11
-48.208000
 20
-19.044000
 21
-18.093000
  0
LINE
  8
0
 10
-48.208000
 11
-48.042000
 20
-18.093000
 21
-17.152000
  0
LINE
  8
0
 10
-48.042000
 11
-47.810000
 20
-17.152000
 21
-16.224000
  0
LINE
  8
0
 10
-47.810000
 11
-47.515000
 20
-16.224000
 21
-15.314000
  0
LINE
  8
0
 10
-47.515000
 11
-47.157000
 20
-15.314000
 21
-14.427000
  0
LINE
  8
0
 10
-47.157000
 11
-46.737000
 20
-14.427000
 21
-13.569000
  0
LINE
  8
0
 10
-46.737000
 11
-46.259000
 20
-13.569000
 21
-12.741000
  0
LINE
  8
0
 10
-46.259000
 11
-45.725000
 20
-12.741000
 21
-11.947000
  0
LINE
  8
0
 10
-45.725000
 11
-45.136000
 20
-11.947000
 21
-11.194000
  0
LINE
  8
0
 10
-45.136000
 11
-44.496000
 20
-11.194000
 21
-10.483000
  0
LINE
  8
0
 10
-44.496000
 11
-43.808000
 20
-10.483000
 21
-9.818000
  0
LINE
  8
0
 10
-43.808000
 11
-43.076000
 20
-9.818000
 21
-9.204000
  0
LINE
  8
0
 10
-43.076000
 11
-42.302000
 20
-9.204000
 21
-8.642000
  0
LINE
  8
0
 10
-42.302000
 11
-41.491000
 20
-8.642000
 21
-8.135000
  0
LINE
  8
0
 10
-41.491000
 11
-40.647000
 20
-8.135000
 21
-7.686000
  0
LINE
  8
0
 10
-40.647000
 11
-39.773000
 20
-7.686000
 21
-7.297000
  0
LINE
  8
0
 10
-39.773000
 11
-38.875000
 20
-7.297000
 21
-6.970000
  0
LINE
  8
0
 10
-38.875000
 11
-37.955000
 20
-6.970000
 21
-6.707000
  0
LINE
  8
0
 10
-37.955000
 11
-37.020000
 20
-6.707000
 21
-6.508000
  0
LINE
  8
0
 10
-37.020000
 11
-36.074000
 20
-6.508000
 21
-6.375000
  0
LINE
  8
0
 10
-36.074000
 11
-35.119000
 20
-6.375000
 21
-6.309000
  0
LINE
  8
0
 10
-35.119000
 11
-34.163000
 20
-6.309000
 21
-6.309000
  0
LINE
  8
0
 10
-34.163000
 11
-33.209000
 20
-6.309000
 21
-6.374000
  0
LINE
  8
0
 10
-33.209000
 11
-32.262000
 20
-6.374000
 21
-6.508000
  0
LINE
  8
0
 10
-32.262000
 11
-31.327000
 20
-6.508000
 21
-6.707000
  0
LINE
  8
0
 10
-31.327000
 11
-30.408000
 20
-6.707000
 21
-6.971000
  0
LINE
  8
0
 10
-30.408000
 11
-29.509000
 20
-6.971000
 21
-7.297000
  0
LINE
  8
0
 10
-29.509000
 11
-28.635000
 20
-7.297000
 21
-7.686000
  0
LINE
  8
0
 10
-28.635000
 11
-27.791000
 20
-7.686000
 21
-8.135000
  0
LINE
  8
0
 10
-27.791000
 11
-26.981000
 20
-8.135000
 21
-8.642000
  0
LINE
  8
0
 10
-26.981000
 11
-26.207000
 20
-8.642000
 21
-9.205000
  0
LINE
  8
0
 10
-26.207000
 11
-25.475000
 20
-9.205000
 21
-9.819000
  0
LINE
  8
0
 10
-25.475000
 11
-24.786000
 20
-9.819000
 21
-10.483000
  0
LINE
  8
0
 10
-24.786000
 11
-24.146000
 20
-10.483000
 21
-11.194000
  0
LINE
  8
0
 10
-24.146000
 11
-23.557000
 20
-11.194000
 21
-11.947000
  0
LINE
  8
0
 10
-23.557000
 11
-23.022000
 20
-11.947000
 21
-12.740000
  0
LINE
  8
0
 10
-23.022000
 11
-22.544000
 20
-12.740000
 21
-13.568000
  0
LINE
  8
0
 10
-22.544000
 11
-22.125000
 20
-13.568000
 21
-14.428000
  0
LINE
  8
0
 10
-22.125000
 11
-21.767000
 20
-14.428000
 21
-15.314000
  0
LINE
  8
0
 10
-21.767000
 11
-21.472000
 20
-15.314000
 21
-16.224000
  0
LINE
  8
0
 10
-21.472000
 11
-21.241000
 20
-16.224000
 21
-17.152000
  0
LINE
  8
0
 10
-21.241000
 11
-21.075000
 20
-17.152000
 21
-18.093000
  0
LINE
  8
0
 10
-21.075000
 11
-20.975000
 20
-18.093000
 21
-19.045000
  0
LINE
  8
0
 10
-20.975000
 11
-20.941000
 20
-19.045000
 21
-20.000000
  0
LINE
  8
0
 10
-20.941000
 11
-20.974000
 20
-20.000000
 21
-20.956000
  0
LINE
  8
0
 10
-20.974000
 11
-21.074000
 20
-20.956000
 21
-21.907000
  0
LINE
  8
0
 10
-21.074000
 11
-21.241000
 20
-21.907000
 21
-22.848000
  0
LINE
  8
0
 10
-21.241000
 11
-21.472000
 20
-22.848000
 21
-23.776000
  0
LINE
  8
0
 10
-21.472000
 11
-21.767000
 20
-23.776000
 21
-24.686000
  0
LINE
  8
0
 10
-21.767000
 11
-22.125000
 20
-24.686000
 21
-25.573000
  0
LINE
  8
0
 10
-22.125000
 11
-22.545000
 20
-25.573000
 21
-26.431000
  0
LINE
  8
0
 10
-22.545000
 11
-23.023000
 20
-26.431000
 21
-27.259000
  0
LINE
  8
0
 10
-23.023000
 11
-23.558000
 20
-27.259000
 21
-28.053000
  0
LINE
  8
0
 10
-23.558000
 11
-24.146000
 20
-28.053000
 21
-28.806000
  0
LINE
  8
0
 10
-24.146000
 11
-24.786000
 20
-28.806000
 21
-29.517000
  0
LINE
  8
0
 10
-24.786000
 11
-25.474000
 20
-29.517000
 21
-30.182000
  0
LINE
  8
0
 10
-25.474000
 11
-26.206000
 20
-30.182000
 21
-30.796000
  0
LINE
  8
0
 10
-26.206000
 11
-26.980000
 20
-30.796000
 21
-31.358000
  0
LINE
  8
0
 10
-26.980000
 11
-27.791000
 20
-31.358000
 21
-31.865000
  0
LINE
  8
0
 10
-27.791000
 11
-28.635000
 20
-31.865000
 21
-32.314000
  0
LINE
  8
0
 10
-28.635000
 11
-29.509000
 20
-32.314000
 21
-32.703000
  0
LINE
  8
0
 10
-29.509000
 11
-30.407000
 20
-32.703000
 21
-33.030000
  0
LINE
  8
0
 10
-30.407000
 11
-31.327000
 20
-33.030000
 21
-33.293000
  0
LINE
  8
0
 10
-31.327000
 11
-32.262000
 20
-33.293000
 21
-33.492000
  0
LINE
  8
0
 10
-32.262000
 11
-33.209000
 20
-33.492000
 21
-33.625000
  0
LINE
  8
0
 10
-33.209000
 11
-34.163000
 20
-33.625000
 21
-33.691000
  0
LINE
  8
0
 10
-34.163000
 11
-35.119000
 20
-33.691000
 21
-33.691000
  0
LINE
  8
0
 10
-35.119000
 11
-36.073000
 20
-33.691000
 21
-33.626000
  0
LINE
  8
0
 10
-36.073000
 11
-37.020000
 20
-33.626000
 21
-33.492000
  0
LINE
  8
0
 10
-37.020000
 11
-37.955000
 20
-33.492000
 21
-33.293000
  0
LINE
  8
0
 10
-37.955000
 11
-38.875000
 20
-33.293000
 21
-33.029000
  0
LINE
  8
0
 10
-38.875000
 11
-39.773000
 20
-33.029000
 21
-32.703000
  0
LINE
  8
0
 10
-39.773000
 11
-40.647000
 20
-32.703000
 21
-32.314000
  0
LINE
  8
0
 10
-40.647000
 11
-41.491000
 20
-32.314000
 21
-31.865000
  0
LINE
  8
0
 10
-41.491000
 11
-42.301000
 20
-31.865000
 21
-31.358000
  0
LINE
  8
0
 10
-42.301000
 11
-43.075000
 20
-31.358000
 21
-30.795000
  0
LINE
  8
0
 10
-43.075000
 11
-43.807000
 20
-30.795000
 21
-30.181000
  0
LINE
  8
0
 10
-43.807000
 11
-44.496000
 20
-30.181000
 21
-29.517000
  0
LINE
  8
0
 10
-44.496000
 11
-45.136000
 20
-29.517000
 21
-28.806000
  0
LINE
  8
0
 10
-45.136000
 11
-45.725000
 20
-28.806000
 21
-28.053000
  0
LINE
  8
0
 10
-45.725000
 11
-46.260000
 20
-28.053000
 21
-27.260000
  0
LINE
  8
0
 10
-46.260000
 11
-46.738000
 20
-27.260000
 21
-26.432000
  0
LINE
  8
0
 10
-46.738000
 11
-47.157000
 20
-26.432000
 21
-25.572000
  0
LINE
  8
0
 10
-47.157000
 11
-47.515000
 20
-25.572000
 21
-24.686000
  0
LINE
  8
0
 10
-47.515000
 11
-47.810000
 20
-24.686000
 21
-23.776000
  0
LINE
  8
0
 10
-47.810000
 11
-48.041000
 20
-23.776000
 21
-22.848000
  0
LINE
  8
0
 10
-48.041000
 11
-48.207000
 20
-22.848000
 21
-21.907000
  0
LINE
  8
0
 10
-48.207000
 11
-48.307000
 20
-21.907000
 21
-20.955000
  0
LINE
  8
0
 10
-48.307000
 11
-48.341000
 20
-20.955000
 21
-20.000000
  0
LINE
  8
0
 10
-48.341000
 11
-48.307000
 20
20.000000
 21
20.955000
  0
LINE
  8
0
 10
-48.307000
 11
-48.207000
 20
20.955000
 21
21.907000
  0
LINE
  8
0
 10
-48.207000
 11
-48.041000
 20
21.907000
 21
22.848000
  0
LINE
  8
0
 10
-48.041000
 11
-47.810000
 20
22.848000
 21
23.776000
  0
LINE
  8
0
 10
-47.810000
 11
-47.515000
 20
23.776000
 21
24.686000
  0
LINE
  8
0
 10
-47.515000
 11
-47.157000
 20
24.686000
 21
25.572000
  0
LINE
  8
0
 10
-47.157000
 11
-46.738000
 20
25.572000
 21
26.432000
  0
LINE
  8
0
 10
-46.738000
 11
-46.260000
 20
26.432000
 21
27.260000
  0
LINE
  8
0
 10
-46.260000
 11
-45.725000
 20
27.260000
 21
28.053000
  0
LINE
  8
0
 10
-45.725000
 11
-45.136000
 20
28.053000
 21
28.806000
  0
LINE
  8
0
 10
-45.136000
 11
-44.496000
 20
28.806000
 21
29.517000
  0
LINE
  8
0
 10
-44.496000
 11
-43.807000
 20
29.517000
 21
30.181000
  0
LINE
  8
0
 10
-43.807000
 11
-43.075000
 20
30.181000
 21
30.795000
  0
LINE
  8
0
 10
-43.075000
 11
-42.301000
 20
30.795000
 21
31.358000
  0
LINE
  8
0
 10
-42.301000
 11
-41.491000
 20
31.358000
 21
31.865000
  0
LINE
  8
0
 10
-41.491000
 11
-40.647000
 20
31.865000
 21
32.314000
  0
LINE
  8
0
 10
-40.647000
 11
-39.773000
 20
32.314000
 21
32.703000
  0
LINE
  8
0
 10
-39.773000
 11
-38.875000
 20
32.703000
 21
33.029000
  0
LINE
  8
0
 10
-38.875000
 11
-37.955000
 20
33.029000
 21
33.293000
  0
LINE
  8
0
 10
-37.955000
 11
-37.020000
 20
33.293000
 21
33.492000
  0
LINE
  8
0
 10
-37.020000
 11
-36.073000
 20
33.492000
 21
33.626000
  0
LINE
  8
0
 10
-36.073000
 11
-35.119000
 20
33.626000
 21
33.691000
  0
LINE
  8
0
 10
-35.119000
 11
-34.163000
 20
33.691000
 21
33.691000
  0
LINE
  8
0
 10
-34.163000
 11
-33.209000
 20
33.691000
 21
33.625000
  0
LINE
  8
0
 10
-33.209000
 11
-32.262000
 20
33.625000
 21
33.492000
  0
LINE
  8
0
 10
-32.262000
 11
-31.327000
 20
33.492000
 21
33.293000
  0
LINE
  8
0
 10
-31.327000
 11
-30.407000
 20
33.293000
 21
33.030000
  0
LINE
  8
0
 10
-30.407000
 11
-29.509000
 20
33.030000
 21
32.703000
  0
LINE
  8
0
 10
-29.509000
 11
-28.635000
 20
32.703000
 21
32.314000
  0
LINE
  8
0
 10
-28.635000
 11
-27.791000
 20
32.314000
 21
31.865000
  0
LINE
  8
0
 10
-27.791000
 11
-26.980000
 20
31.865000
 21
31.358000
  0
LINE
  8
0
 10
-26.980000
 11
-26.206000
 20
31.358000
 21
30.796000
  0
LINE
  8
0
 10
-26.206000
 11
-25.474000
 20
30.796000
 21
30.182000
  0
LINE
  8
0
 10
-25.474000
 11
-24.786000
 20
30.182000
 21
29.517000
  0
LINE
  8
0
 10
-24.786000
 11
-24.146000
 20
29.517000
 21
28.806000
  0
LINE
  8
0
 10
-24.146000
 11
-23.558000
 20
28.806000
 21
28.053000
  0
LINE
  8
0
 10
-23.558000
 11
-23.023000
 20
28.053000
 21
27.259000
  0
LINE
  8
0
 10
-23.023000
 11
-22.545000
 20
27.259000
 21
26.431000
  0
LINE
  8
0
 10
-22.545000
 11
-22.125000
 20
26.431000
 21
25.573000
  0
LINE
  8
0
 10
-22.125000
 11
-21.767000
 20
25.573000
 21
24.686000
  0
LINE
  8
0
 10
-21.767000
 11
-21.472000
 20
24.686000
 21
23.776000
  0
LINE
  8
0
 10
-21.472000
 11
-21.241000
 20
23.776000
 21
22.848000
  0
LINE
  8
0
 10
-21.241000
 11
-21.074000
 20
22.848000
 21
21.907000
  0
LINE
  8
0
 10
-21.074000
 11
-20.974000
 20
21.907000
 21
20.956000
  0
LINE
  8
0
 10
-20.974000
 11
-20.941000
 20
20.956000
 21
20.000000
  0
LINE
  8
0
 10
-20.941000
 11
-20.975000
 20
20.000000
 21
19.045000
  0
LINE
  8
0
 10
-20.975000
 11
-21.075000
 20
19.045000
 21
18.093000
  0
LINE
  8
0
 10
-21.075000
 11
-21.241000
 20
18.093000
 21
17.152000
  0
LINE
  8
0
 10
-21.241000
 11
-21.472000
 20
17.152000
 21
16.224000
  0
LINE
  8
0
 10
-21.472000
 11
-21.767000
 20
16.224000
 21
15.314000
  0
LINE
  8
0
 10
-21.767000
 11
-22.125000
 20
15.314000
 21
14.428000
  0
LINE
  8
0
 10
-22.125000
 11
-22.544000
 20
14.428000
 21
13.568000
  0
LINE
  8
0
 10
-22.544000
 11
-23.022000
 20
13.568000
 21
12.740000
  0
LINE
  8
0
 10
-23.022000
 11
-23.557000
 20
12.740000
 21
11.947000
  0
LINE
  8
0
 10
-23.557000
 11
-24.146000
 20
11.947000
 21
11.194000
  0
LINE
  8
0
 10
-24.146000
 11
-24.786000
 20
11.194000
 21
10.483000
  0
LINE
  8
0
 10
-24.786000
 11
-25.475000
 20
10.483000
 21
9.819000
  0
LINE
  8
0
 10
-25.475000
 11
-26.207000
 20
9.819000
 21
9.205000
  0
LINE
  8
0
 10
-26.207000
 11
-26.981000
 20
9.205000
 21
8.642000
  0
LINE
  8
0
 10
-26.981000
 11
-27.791000
 20
8.642000
 21
8.135000
  0
LINE
  8
0
 10
-27.791000
 11
-28.635000
 20
8.135000
 21
7.686000
  0
LINE
  8
0
 10
-28.635000
 11
-29.509000
 20
7.686000
 21
7.297000
  0
LINE
  8
0
 10
-29.509000
 11
-30.408000
 20
7.297000
 21
6.971000
  0
LINE
  8
0
 10
-30.408000
 11
-31.327000
 20
6.971000
 21
6.707000
  0
LINE
  8
0
 10
-31.327000
 11
-32.262000
 20
6.707000
 21
6.508000
  0
LINE
  8
0
 10
-32.262000
 11
-33.209000
 20
6.508000
 21
6.374000
  0
LINE
  8
0
 10
-33.209000
 11
-34.163000
 20
6.374000
 21
6.309000
  0
LINE
  8
0
 10
-34.163000
 11
-35.119000
 20
6.309000
 21
6.309000
  0
LINE
  8
0
 10
-35.119000
 11
-36.074000
 20
6.309000
 21
6.375000
  0
LINE
  8
0
 10
-36.074000
 11
-37.020000
 20
6.375000
 21
6.508000
  0
LINE
  8
0
 10
-37.020000
 11
-37.955000
 20
6.508000
 21
6.707000
  0
LINE
  8
0
 10
-37.955000
 11
-38.875000
 20
6.707000
 21
6.970000
  0
LINE
  8
0
 10
-38.875000
 11
-39.773000
 20
6.970000
 21
7.297000
  0
LINE
  8
0
 10
-39.773000
 11
-40.647000
 20
7.297000
 21
7.686000
  0
LINE
  8
0
 10
-40.647000
 11
-41.491000
 20
7.686000
 21
8.135000
  0
LINE
  8
0
 10
-41.491000
 11
-42.302000
 20
8.135000
 21
8.642000
  0
LINE
  8
0
 10
-42.302000
 11
-43.076000
 20
8.642000
 21
9.204000
  0
LINE
  8
0
 10
-43.076000
 11
-43.808000
 20
9.204000
 21
9.818000
  0
LINE
  8
0
 10
-43.808000
 11
-44.496000
 20
9.818000
 21
10.483000
  0
LINE
  8
0
 10
-44.496000
 11
-45.136000
 20
10.483000
 21
11.194000
  0
LINE
  8
0
 10
-45.136000
 11
-45.725000
 20
11.194000
 21
11.947000
  0
LINE
  8
0
 10
-45.725000
 11
-46.259000
 20
11.947000
 21
12.741000
  0
LINE
  8
0
 10
-46.259000
 11
-46.737000
 20
12.741000
 21
13.569000
  0
LINE
  8
0
 10
-46.737000
 11
-47.157000
 20
13.569000
 21
14.427000
  0
LINE
  8
0
 10
-47.157000
 11
-47.515000
 20
14.427000
 21
15.314000
  0
LINE
  8
0
 10
-47.515000
 11
-47.810000
 20
15.314000
 21
16.224000
  0
LINE
  8
0
 10
-47.810000
 11
-48.042000
 20
16.224000
 21
17.152000
  0
LINE
  8
0
 10
-48.042000
 11
-48.208000
 20
17.152000
 21
18.093000
  0
LINE
  8
0
 10
-48.208000
 11
-48.308000
 20
18.093000
 21
19.044000
  0
LINE
  8
0
 10
-48.308000
 11
-48.341000
 20
19.044000
 21
20.000000
  0
LINE
  8
0
 10
-13.700000
 11
-13.667000
 20
-40.000000
 21
-39.044000
  0
LINE
  8
0
 10
-13.667000
 11
-13.567000
 20
-39.044000
 21
-38.093000
  0
LINE
  8
0
 10
-13.567000
 11
-13.401000
 20
-38.093000
 21
-37.152000
  0
LINE
  8
0
 10
-13.401000
 11
-13.169000
 20
-37.152000
 21
-36.224000
  0
LINE
  8
0
 10
-13.169000
 11
-12.874000
 20
-36.224000
 21
-35.314000
  0
LINE
  8
0
 10
-12.874000
 11
-12.516000
 20
-35.314000
 21
-34.428000
  0
LINE
  8
0
 10
-12.516000
 11
-12.096000
 20
-34.428000
 21
-33.568000
  0
LINE
  8
0
 10
-12.096000
 11
-11.618000
 20
-33.568000
 21
-32.740000
  0
LINE
  8
0
 10
-11.618000
 11
-11.084000
 20
-32.740000
 21
-31.947000
  0
LINE
  8
0
 10
-11.084000
 11
-10.495000
 20
-31.947000
 21
-31.194000
  0
LINE
  8
0
 10
-10.495000
 11
-9.855000
 20
-31.194000
 21
-30.483000
  0
LINE
  8
0
 10
-9.855000
 11
-9.167000
 20
-30.483000
 21
-29.819000
  0
LINE
  8
0
 10
-9.167000
 11
-8.435000
 20
-29.819000
 21
-29.204000
  0
LINE
  8
0
 10
-8.435000
 11
-7.661000
 20
-29.204000
 21
-28.642000
  0
LINE
  8
0
 10
-7.661000
 11
-6.850000
 20
-28.642000
 21
-28.135000
  0
LINE
  8
0
 10
-6.850000
 11
-6.006000
 20
-28.135000
 21
-27.687000
  0
LINE
  8
0
 10
-6.006000
 11
-5.132000
 20
-27.687000
 21
-27.298000
  0
LINE
  8
0
 10
-5.132000
 11
-4.234000
 20
-27.298000
 21
-26.971000
  0
LINE
  8
0
 10
-4.234000
 11
-3.314000
 20
-26.971000
 21
-26.707000
  0
LINE
  8
0
 10
-3.314000
 11
-2.379000
 20
-26.707000
 21
-26.508000
  0
LINE
  8
0
 10
-2.379000
 11
-1.432000
 20
-26.508000
 21
-26.375000
  0
LINE
  8
0
 10
-1.432000
 11
-0.478000
 20
-26.375000
 21
-26.308000
  0
LINE
  8
0
 10
-0.478000
 11
0.478000
 20
-26.308000
 21
-26.308000
  0
LINE
  8
0
 10
0.478000
 11
1.432000
 20
-26.308000
 21
-26.375000
  0
LINE
  8
0
 10
1.432000
 11
2.379000
 20
-26.375000
 21
-26.508000
  0
LINE
  8
0
 10
2.379000
 11
3.314000
 20
-26.508000
 21
-26.707000
  0
LINE
  8
0
 10
3.314000
 11
4.234000
 20
-26.707000
 21
-26.971000
  0
LINE
  8
0
 10
4.234000
 11
5.132000
 20
-26.971000
 21
-27.298000
  0
LINE
  8
0
 10
5.132000
 11
6.006000
 20
-27.298000
 21
-27.687000
  0
LINE
  8
0
 10
6.006000
 11
6.850000
 20
-27.687000
 21
-28.135000
  0
LINE
  8
0
 10
6.850000
 11
7.661000
 20
-28.135000
 21
-28.642000
  0
LINE
  8
0
 10
7.661000
 11
8.435000
 20
-28.642000
 21
-29.204000
  0
LINE
  8
0
 10
8.435000
 11
9.167000
 20
-29.204000
 21
-29.819000
  0
LINE
  8
0
 10
9.167000
 11
9.855000
 20
-29.819000
 21
-30.483000
  0
LINE
  8
0
 10
9.855000
 11
10.495000
 20
-30.483000
 21
-31.194000
  0
LINE
  8
0
 10
10.495000
 11
11.084000
 20
-31.194000
 21
-31.947000
  0
LINE
  8
0
 10
11.084000
 11
11.618000
 20
-31.947000
 21
-32.740000
  0
LINE
  8
0
 10
11.618000
 11
12.096000
 20
-32.740000
 21
-33.568000
  0
LINE
  8
0
 10
12.096000
 11
12.516000
 20
-33.568000
 21
-34.428000
  0
LINE
  8
0
 10
12.516000
 11
12.874000
 20
-34.428000
 21
-35.314000
  0
LINE
  8
0
 10
12.874000
 11
13.169000
 20
-35.314000
 21
-36.224000
  0
LINE
  8
0
 10
13.169000
 11
13.401000
 20
-36.224000
 21
-37.152000
  0
LINE
  8
0
 10
13.401000
 11
13.567000
 20
-37.152000
 21
-38.093000
  0
LINE
  8
0
 10
13.567000
 11
13.667000
 20
-38.093000
 21
-39.044000
  0
LINE
  8
0
 10
13.667000
 11
13.700000
 20
-39.044000
 21
-40.000000
  0
LINE
  8
0
 10
13.700000
 11
13.667000
 20
-40.000000
 21
-40.956000
  0
LINE
  8
0
 10
13.667000
 11
13.567000
 20
-40.956000
 21
-41.907000
  0
LINE
  8
0
 10
13.567000
 11
13.401000
 20
-41.907000
 21
-42.848000
  0
LINE
  8
0
 10
13.401000
 11
13.169000
 20
-42.848000
 21
-43.776000
  0
LINE
  8
0
 10
13.169000
 11
12.874000
 20
-43.776000
 21
-44.686000
  0
LINE
  8
0
 10
12.874000
 11
12.516000
 20
-44.686000
 21
-45.572000
  0
LINE
  8
0
 10
12.516000
 11
12.096000
 20
-45.572000
 21
-46.432000
  0
LINE
  8
0
 10
12.096000
 11
11.618000
 20
-46.432000
 21
-47.260000
  0
LINE
  8
0
 10
11.618000
 11
11.084000
 20
-47.260000
 21
-48.053000
  0
LINE
  8
0
 10
11.084000
 11
10.495000
 20
-48.053000
 21
-48.806000
  0
LINE
  8
0
 10
10.495000
 11
9.855000
 20
-48.806000
 21
-49.517000
  0
LINE
  8
0
 10
9.855000
 11
9.167000
 20
-49.517000
 21
-50.181000
  0
LINE
  8
0
 10
9.167000
 11
8.435000
 20
-50.181000
 21
-50.796000
  0
LINE
  8
0
 10
8.435000
 11
7.661000
 20
-50.796000
 21
-51.358000
  0
LINE
  8
0
 10
7.661000
 11
6.850000
 20
-51.358000
 21
-51.865000
  0
LINE
  8
0
 10
6.850000
 11
6.006000
 20
-51.865000
 21
-52.313000
  0
LINE
  8
0
 10
6.006000
 11
5.132000
 20
-52.313000
 21
-52.702000
  0
LINE
  8
0
 10
5.132000
 11
4.234000
 20
-52.702000
 21
-53.029000
  0
LINE
  8
0
 10
4.234000
 11
3.314000
 20
-53.029000
 21
-53.293000
  0
LINE
  8
0
 10
3.314000
 11
2.379000
 20
-53.293000
 21
-53.492000
  0
LINE
  8
0
 10
2.379000
 11
1.432000
 20
-53.492000
 21
-53.625000
  0
LINE
  8
0
 10
1.432000
 11
0.478000
 20
-53.625000
 21
-53.692000
  0
LINE
  8
0
 10
0.478000
 11
-0.478000
 20
-53.692000
 21
-53.692000
  0
LINE
  8
0
 10
-0.478000
 11
-1.432000
 20
-53.692000
 21
-53.625000
  0
LINE
  8
0
 10
-1.432000
 11
-2.379000
 20
-53.625000
 21
-53.492000
  0
LINE
  8
0
 10
-2.379000
 11
-3.314000
 20
-53.492000
 21
-53.293000
  0
LINE
  8
0
 10
-3.314000
 11
-4.234000
 20
-53.293000
 21
-53.029000
  0
LINE
  8
0
 10
-4.234000
 11
-5.132000
 20
-53.029000
 21
-52.702000
  0
LINE
  8
0
 10
-5.132000
 11
-6.006000
 20
-52.702000
 21
-52.313000
  0
LINE
  8
0
 10
-6.006000
 11
-6.850000
 20
-52.313000
 21
-51.865000
  0
LINE
  8
0
 10
-6.850000
 11
-7.661000
 20
-51.865000
 21
-51.358000
  0
LINE
  8
0
 10
-7.661000
 11
-8.435000
 20
-51.358000
 21
-50.796000
  0
LINE
  8
0
 10
-8.435000
 11
-9.167000
 20
-50.796000
 21
-50.181000
  0
LINE
  8
0
 10
-9.167000
 11
-9.855000
 20
-50.181000
 21
-49.517000
  0
LINE
  8
0
 10
-9.855000
 11
-10.495000
 20
-49.517000
 21
-48.806000
  0
LINE
  8
0
 10
-10.495000
 11
-11.084000
 20
-48.806000
 21
-48.053000
  0
LINE
  8
0
 10
-11.084000
 11
-11.618000
 20
-48.053000
 21
-47.260000
  0
LINE
  8
0
 10
-11.618000
 11
-12.096000
 20
-47.260000
 21
-46.432000
  0
LINE
  8
0
 10
-12.096000
 11
-12.516000
 20
-46.432000
 21
-45.572000
  0
LINE
  8
0
 10
-12.516000
 11
-12.874000
 20
-45.572000
 21
-44.686000
  0
LINE
  8
0
 10
-12.874000
 11
-13.169000
 20
-44.686000
 21
-43.776000
  0
LINE
  8
0
 10
-13.169000
 11
-13.401000
 20
-43.776000
 21
-42.848000
  0
LINE
  8
0
 10
-13.401000
 11
-13.567000
 20
-42.848000
 21
-41.907000
  0
LINE
  8
0
 10
-13.567000
 11
-13.667000
 20
-41.907000
 21
-40.956000
  0
LINE
  8
0
 10
-13.667000
 11
-13.700000
 20
-40.956000
 21
-40.000000
  0
LINE
  8
0
 10
-13.700000
 11
-13.667000
 20
40.000000
 21
40.956000
  0
LINE
  8
0
 10
-13.667000
 11
-13.567000
 20
40.956000
 21
41.907000
  0
LINE
  8
0
 10
-13.567000
 11
-13.401000
 20
41.907000
 21
42.848000
  0
LINE
  8
0
 10
-13.401000
 11
-13.169000
 20
42.848000
 21
43.776000
  0
LINE
  8
0
 10
-13.169000
 11
-12.874000
 20
43.776000
 21
44.686000
  0
LINE
  8
0
 10
-12.874000
 11
-12.516000
 20
44.686000
 21
45.572000
  0
LINE
  8
0
 10
-12.516000
 11
-12.096000
 20
45.572000
 21
46.432000
  0
LINE
  8
0
 10
-12.096000
 11
-11.618000
 20
46.432000
 21
47.260000
  0
LINE
  8
0
 10
-11.618000
 11
-11.084000
 20
47.260000
 21
48.053000
  0
LINE
  8
0
 10
-11.084000
 11
-10.495000
 20
48.053000
 21
48.806000
  0
LINE
  8
0
 10
-10.495000
 11
-9.855000
 20
48.806000
 21
49.517000
  0
LINE
  8
0
 10
-9.855000
 11
-9.167000
 20
49.517000
 21
50.181000
  0
LINE
  8
0
 10
-9.167000
 11
-8.435000
 20
50.181000
 21
50.796000
  0
LINE
  8
0
 10
-8.435000
 11
-7.661000
 20
50.796000
 21
51.358000
  0
LINE
  8
0
 10
-7.661000
 11
-6.850000
 20
51.358000
 21
51.865000
  0
LINE
  8
0
 10
-6.850000
 11
-6.006000
 20
51.865000
 21
52.313000
  0
LINE
  8
0
 10
-6.006000
 11
-5.132000
 20
52.313000
 21
52.702000
  0
LINE
  8
0
 10
-5.132000
 11
-4.234000
 20
52.702000
 21
53.029000
  0
LINE
  8
0
 10
-4.234000
 11
-3.314000
 20
53.029000
 21
53.293000
  0
LINE
  8
0
 10
-3.314000
 11
-2.379000
 20
53.293000
 21
53.492000
  0
LINE
  8
0
 10
-2.379000
 11
-1.432000
 20
53.492000
 21
53.625000
  0
LINE
  8
0
 10
-1.432000
 11
-0.478000
 20
53.625000
 21
53.692000
  0
LINE
  8
0
 10
-0.478000
 11
0.478000
 20
53.692000
 21
53.692000
  0
LINE
  8
0
 10
0.478000
 11
1.432000
 20
53.692000
 21
53.625000
  0
LINE
  8
0
 10
1.432000
 11
2.379000
 20
53.625000
 21
53.492000
  0
LINE
  8
0
 10
2.379000
 11
3.314000
 20
53.492000
 21
53.293000
  0
LINE
  8
0
 10
3.314000
 11
4.234000
 20
53.293000
 21
53.029000
  0
LINE
  8
0
 10
4.234000
 11
5.132000
 20
53.029000
 21
52.702000
  0
LINE
  8
0
 10
5.132000
 11
6.006000
 20
52.702000
 21
52.313000
  0
LINE
  8
0
 10
6.006000
 11
6.850000
 20
52.313000
 21
51.865000
  0
LINE
  8
0
 10
6.850000
 11
7.661000
 20
51.865000
 21
51.358000
  0
LINE
  8
0
 10
7.661000
 11
8.435000
 20
51.358000
 21
50.796000
  0
LINE
  8
0
 10
8.435000
 11
9.167000
 20
50.796000
 21
50.181000
  0
LINE
  8
0
 10
9.167000
 11
9.855000
 20
50.181000
 21
49.517000
  0
LINE
  8
0
 10
9.855000
 11
10.495000
 20
49.517000
 21
48.806000
  0
LINE
  8
0
 10
10.495000
 11
11.084000
 20
48.806000
 21
48.053000
  0
LINE
  8
0
 10
11.084000
 11
11.618000
 20
48.053000
 21
47.260000
  0
LINE
  8
0
 10
11.618000
 11
12.096000
 20
47.260000
 21
46.432000
  0
LINE
  8
0
 10
12.096000
 11
12.516000
 20
46.432000
 21
45.572000
  0
LINE
  8
0
 10
12.516000
 11
12.874000
 20
45.572000
 21
44.686000
  0
LINE
  8
0
 10
12.874000
 11
13.169000
 20
44.686000
 21
43.776000
  0
LINE
  8
0
 10
13.169000
 11
13.401000
 20
43.776000
 21
42.848000
  0
LINE
  8
0
 10
13.401000
 11
13.567000
 20
42.848000
 21
41.907000
  0
LINE
  8
0
 10
13.567000
 11
13.667000
 20
41.907000
 21
40.956000
  0
LINE
  8
0
 10
13.667000
 11
13.700000
 20
40.956000
 21
40.000000
  0
LINE
  8
0
 10
13.700000
 11
13.667000
 20
40.000000
 21
39.044000
  0
LINE
  8
0
 10
13.667000
 11
13.567000
 20
39.044000
 21
38.093000
  0
LINE
  8
0
 10
13.567000
 11
13.401000
 20
38.093000
 21
37.152000
  0
LINE
  8
0
 10
13.401000
 11
13.169000
 20
37.152000
 21
36.224000
  0
LINE
  8
0
 10
13.169000
 11
12.874000
 20
36.224000
 21
35.314000
  0
LINE
  8
0
 10
12.874000
 11
12.516000
 20
35.314000
 21
34.428000
  0
LINE
  8
0
 10
12.516000
 11
12.096000
 20
34.428000
 21
33.568000
  0
LINE
  8
0
 10
12.096000
 11
11.618000
 20
33.568000
 21
32.740000
  0
LINE
  8
0
 10
11.618000
 11
11.084000
 20
32.740000
 21
31.947000
  0
LINE
  8
0
 10
11.084000
 11
10.495000
 20
31.947000
 21
31.194000
  0
LINE
  8
0
 10
10.495000
 11
9.855000
 20
31.194000
 21
30.483000
  0
LINE
  8
0
 10
9.855000
 11
9.167000
 20
30.483000
 21
29.819000
  0
LINE
  8
0
 10
9.167000
 11
8.435000
 20
29.819000
 21
29.204000
  0
LINE
  8
0
 10
8.435000
 11
7.661000
 20
29.204000
 21
28.642000
  0
LINE
  8
0
 10
7.661000
 11
6.850000
 20
28.642000
 21
28.135000
  0
LINE
  8
0
 10
6.850000
 11
6.006000
 20
28.135000
 21
27.687000
  0
LINE
  8
0
 10
6.006000
 11
5.132000
 20
27.687000
 21
27.298000
  0
LINE
  8
0
 10
5.132000
 11
4.234000
 20
27.298000
 21
26.971000
  0
LINE
  8
0
 10
4.234000
 11
3.314000
 20
26.971000
 21
26.707000
  0
LINE
  8
0
 10
3.314000
 11
2.379000
 20
26.707000
 21
26.508000
  0
LINE
  8
0
 10
2.379000
 11
1.432000
 20
26.508000
 21
26.375000
  0
LINE
  8
0
 10
1.432000
 11
0.478000
 20
26.375000
 21
26.308000
  0
LINE
  8
0
 10
0.478000
 11
-0.478000
 20
26.308000
 21
26.308000
  0
LINE
  8
0
 10
-0.478000
 11
-1.432000
 20
26.308000
 21
26.375000
  0
LINE
  8
0
 10
-1.432000
 11
-2.379000
 20
26.375000
 21
26.508000
  0
LINE
  8
0
 10
-2.379000
 11
-3.314000
 20
26.508000
 21
26.707000
  0
LINE
  8
0
 10
-3.314000
 11
-4.234000
 20
26.707000
 21
26.971000
  0
LINE
  8
0
 10
-4.234000
 11
-5.132000
 20
26.971000
 21
27.298000
  0
LINE
  8
0
 10
-5.132000
 11
-6.006000
 20
27.298000
 21
27.687000
  0
LINE
  8
0
 10
-6.006000
 11
-6.850000
 20
27.687000
 21
28.135000
  0
LINE
  8
0
 10
-6.850000
 11
-7.661000
 20
28.135000
 21
28.642000
  0
LINE
  8
0
 10
-7.661000
 11
-8.435000
 20
28.642000
 21
29.204000
  0
LINE
  8
0
 10
-8.435000
 11
-9.167000
 20
29.204000
 21
29.819000
  0
LINE
  8
0
 10
-9.167000
 11
-9.855000
 20
29.819000
 21
30.483000
  0
LINE
  8
0
 10
-9.855000
 11
-10.495000
 20
30.483000
 21
31.194000
  0
LINE
  8
0
 10
-10.495000
 11
-11.084000
 20
31.194000
 21
31.947000
  0
LINE
  8
0
 10
-11.084000
 11
-11.618000
 20
31.947000
 21
32.740000
  0
LINE
  8
0
 10
-11.618000
 11
-12.096000
 20
32.740000
 21
33.568000
  0
LINE
  8
0
 10
-12.096000
 11
-12.516000
 20
33.568000
 21
34.428000
  0
LINE
  8
0
 10
-12.516000
 11
-12.874000
 20
34.428000
 21
35.314000
  0
LINE
  8
0
 10
-12.874000
 11
-13.169000
 20
35.314000
 21
36.224000
  0
LINE
  8
0
 10
-13.169000
 11
-13.401000
 20
36.224000
 21
37.152000
  0
LINE
  8
0
 10
-13.401000
 11
-13.567000
 20
37.152000
 21
38.093000
  0
LINE
  8
0
 10
-13.567000
 11
-13.667000
 20
38.093000
 21
39.044000
  0
LINE
  8
0
 10
-13.667000
 11
-13.700000
 20
39.044000
 21
40.000000
  0
LINE
  8
0
 10
-4.500000
 11
-4.489000
 20
0.000000
 21
0.314000
  0
LINE
  8
0
 10
-4.489000
 11
-4.456000
 20
0.314000
 21
0.626000
  0
LINE
  8
0
 10
-4.456000
 11
-4.402000
 20
0.626000
 21
0.936000
  0
LINE
  8
0
 10
-4.402000
 11
-4.326000
 20
0.936000
 21
1.240000
  0
LINE
  8
0
 10
-4.326000
 11
-4.229000
 20
1.240000
 21
1.539000
  0
LINE
  8
0
 10
-4.229000
 11
-4.111000
 20
1.539000
 21
1.830000
  0
LINE
  8
0
 10
-4.111000
 11
-3.973000
 20
1.830000
 21
2.113000
  0
LINE
  8
0
 10
-3.973000
 11
-3.816000
 20
2.113000
 21
2.385000
  0
LINE
  8
0
 10
-3.816000
 11
-3.641000
 20
2.385000
 21
2.645000
  0
LINE
  8
0
 10
-3.641000
 11
-3.447000
 20
2.645000
 21
2.893000
  0
LINE
  8
0
 10
-3.447000
 11
-3.237000
 20
2.893000
 21
3.126000
  0
LINE
  8
0
 10
-3.237000
 11
-3.011000
 20
3.126000
 21
3.344000
  0
LINE
  8
0
 10
-3.011000
 11
-2.770000
 20
3.344000
 21
3.546000
  0
LINE
  8
0
 10
-2.770000
 11
-2.516000
 20
3.546000
 21
3.731000
  0
LINE
  8
0
 10
-2.516000
 11
-2.250000
 20
3.731000
 21
3.897000
  0
LINE
  8
0
 10
-2.250000
 11
-1.973000
 20
3.897000
 21
4.045000
  0
LINE
  8
0
 10
-1.973000
 11
-1.686000
 20
4.045000
 21
4.172000
  0
LINE
  8
0
 10
-1.686000
 11
-1.391000
 20
4.172000
 21
4.280000
  0
LINE
  8
0
 10
-1.391000
 11
-1.089000
 20
4.280000
 21
4.366000
  0
LINE
  8
0
 10
-1.089000
 11
-0.781000
 20
4.366000
 21
4.432000
  0
LINE
  8
0
 10
-0.781000
 11
-0.470000
 20
4.432000
 21
4.475000
  0
LINE
  8
0
 10
-0.470000
 11
-0.157000
 20
4.475000
 21
4.497000
  0
LINE
  8
0
 10
-0.157000
 11
0.157000
 20
4.497000
 21
4.497000
  0
LINE
  8
0
 10
0.157000
 11
0.470000
 20
4.497000
 21
4.475000
  0
LINE
  8
0
 10
0.470000
 11
0.781000
 20
4.475000
 21
4.432000
  0
LINE
  8
0
 10
0.781000
 11
1.089000
 20
4.432000
 21
4.366000
  0
LINE
  8
0
 10
1.089000
 11
1.391000
 20
4.366000
 21
4.280000
  0
LINE
  8
0
 10
1.391000
 11
1.686000
 20
4.280000
 21
4.172000
  0
LINE
  8
0
 10
1.686000
 11
1.973000
 20
4.172000
 21
4.045000
  0
LINE
  8
0
 10
1.973000
 11
2.250000
 20
4.045000
 21
3.897000
  0
LINE
  8
0
 10
2.250000
 11
2.516000
 20
3.897000
 21
3.731000
  0
LINE
  8
0
 10
2.516000
 11
2.770000
 20
3.731000
 21
3.546000
  0
LINE
  8
0
 10
2.770000
 11
3.011000
 20
3.546000
 21
3.344000
  0
LINE
  8
0
 10
3.011000
 11
3.237000
 20
3.344000
 21
3.126000
  0
LINE
  8
0
 10
3.237000
 11
3.447000
 20
3.126000
 21
2.893000
  0
LINE
  8
0
 10
3.447000
 11
3.641000
 20
2.893000
 21
2.645000
  0
LINE
  8
0
 10
3.641000
 11
3.816000
 20
2.645000
 21
2.385000
  0
LINE
  8
0
 10
3.816000
 11
3.973000
 20
2.385000
 21
2.113000
  0
LINE
  8
0
 10
3.973000
 11
4.111000
 20
2.113000
 21
1.830000
  0
LINE
  8
0
 10
4.111000
 11
4.229000
 20
1.830000
 21
1.539000
  0
LINE
  8
0
 10
4.229000
 11
4.326000
 20
1.539000
 21
1.240000
  0
LINE
  8
0
 10
4.326000
 11
4.402000
 20
1.240000
 21
0.936000
  0
LINE
  8
0
 10
4.402000
 11
4.456000
 20
0.936000
 21
0.626000
  0
LINE
  8
0
 10
4.456000
 11
4.489000
 20
0.626000
 21
0.314000
  0
LINE
  8
0
 10
4.489000
 11
4.500000
 20
0.314000
 21
0.000000
  0
LINE
  8
0
 10
4.500000
 11
4.489000
 20
0.000000
 21
-0.314000
  0
LINE
  8
0
 10
4.489000
 11
4.456000
 20
-0.314000
 21
-0.626000
  0
LINE
  8
0
 10
4.456000
 11
4.402000
 20
-0.626000
 21
-0.936000
  0
LINE
  8
0
 10
4.402000
 11
4.326000
 20
-0.936000
 21
-1.240000
  0
LINE
  8
0
 10
4.326000
 11
4.229000
 20
-1.240000
 21
-1.539000
  0
LINE
  8
0
 10
4.229000
 11
4.111000
 20
-1.539000
 21
-1.830000
  0
LINE
  8
0
 10
4.111000
 11
3.973000
 20
-1.830000
 21
-2.113000
  0
LINE
  8
0
 10
3.973000
 11
3.816000
 20
-2.113000
 21
-2.385000
  0
LINE
  8
0
 10
3.816000
 11
3.641000
 20
-2.385000
 21
-2.645000
  0
LINE
  8
0
 10
3.641000
 11
3.447000
 20
-2.645000
 21
-2.893000
  0
LINE
  8
0
 10
3.447000
 11
3.237000
 20
-2.893000
 21
-3.126000
  0
LINE
  8
0
 10
3.237000
 11
3.011000
 20
-3.126000
 21
-3.344000
  0
LINE
  8
0
 10
3.011000
 11
2.770000
 20
-3.344000
 21
-3.546000
  0
LINE
  8
0
 10
2.770000
 11
2.516000
 20
-3.546000
 21
-3.731000
  0
LINE
  8
0
 10
2.516000
 11
2.250000
 20
-3.731000
 21
-3.897000
  0
LINE
  8
0
 10
2.250000
 11
1.973000
 20
-3.897000
 21
-4.045000
  0
LINE
  8
0
 10
1.973000
 11
1.686000
 20
-4.045000
 21
-4.172000
  0
LINE
  8
0
 10
1.686000
 11
1.391000
 20
-4.172000
 21
-4.280000
  0
LINE
  8
0
 10
1.391000
 11
1.089000
 20
-4.280000
 21
-4.366000
  0
LINE
  8
0
 10
1.089000
 11
0.781000
 20
-4.366000
 21
-4.432000
  0
LINE
  8
0
 10
0.781000
 11
0.470000
 20
-4.432000
 21
-4.475000
  0
LINE
  8
0
 10
0.470000
 11
0.157000
 20
-4.475000
 21
-4.497000
  0
LINE
  8
0
 10
0.157000
 11
-0.157000
 20
-4.497000
 21
-4.497000
  0
LINE
  8
0
 10
-0.157000
 11
-0.470000
 20
-4.497000
 21
-4.475000
  0
LINE
  8
0
 10
-0.470000
 11
-0.781000
 20
-4.475000
 21
-4.432000
  0
LINE
  8
0
 10
-0.781000
 11
-1.089000
 20
-4.432000
 21
-4.366000
  0
LINE
  8
0
 10
-1.089000
 11
-1.391000
 20
-4.366000
 21
-4.280000
  0
LINE
  8
0
 10
-1.391000
 11
-1.686000
 20
-4.280000
 21
-4.172000
  0
LINE
  8
0
 10
-1.686000
 11
-1.973000
 20
-4.172000
 21
-4.045000
  0
LINE
  8
0
 10
-1.973000
 11
-2.250000
 20
-4.045000
 21
-3.897000
  0
LINE
  8
0
 10
-2.250000
 11
-2.516000
 20
-3.897000
 21
-3.731000
  0
LINE
  8
0
 10
-2.516000
 11
-2.770000
 20
-3.731000
 21
-3.546000
  0
LINE
  8
0
 10
-2.770000
 11
-3.011000
 20
-3.546000
 21
-3.344000
  0
LINE
  8
0
 10
-3.011000
 11
-3.237000
 20
-3.344000
 21
-3.126000
  0
LINE
  8
0
 10
-3.237000
 11
-3.447000
 20
-3.126000
 21
-2.893000
  0
LINE
  8
0
 10
-3.447000
 11
-3.641000
 20
-2.893000
 21
-2.645000
  0
LINE
  8
0
 10
-3.641000
 11
-3.816000
 20
-2.645000
 21
-2.385000
  0
LINE
  8
0
 10
-3.816000
 11
-3.973000
 20
-2.385000
 21
-2.113000
  0
LINE
  8
0
 10
-3.973000
 11
-4.111000
 20
-2.113000
 21
-1.830000
  0
LINE
  8
0
 10
-4.111000
 11
-4.229000
 20
-1.830000
 21
-1.539000
  0
LINE
  8
0
 10
-4.229000
 11
-4.326000
 20
-1.539000
 21
-1.240000
  0
LINE
  8
0
 10
-4.326000
 11
-4.402000
 20
-1.240000
 21
-0.936000
  0
LINE
  8
0
 10
-4.402000
 11
-4.456000
 20
-0.936000
 21
-0.626000
  0
LINE
  8
0
 10
-4.456000
 11
-4.489000
 20
-0.626000
 21
-0.314000
  0
LINE
  8
0
 10
-4.489000
 11
-4.500000
 20
-0.314000
 21
0.000000
  0
LINE
  8
0
 10
20.941000
 11
20.975000
 20
-20.000000
 21
-19.045000
  0
LINE
  8
0
 10
20.975000
 11
21.075000
 20
-19.045000
 21
-18.093000
  0
LINE
  8
0
 10
21.075000
 11
21.241000
 20
-18.093000
 21
-17.152000
  0
LINE
  8
0
 10
21.241000
 11
21.472000
 20
-17.152000
 21
-16.224000
  0
LINE
  8
0
 10
21.472000
 11
21.767000
 20
-16.224000
 21
-15.314000
  0
LINE
  8
0
 10
21.767000
 11
22.125000
 20
-15.314000
 21
-14.428000
  0
LINE
  8
0
 10
22.125000
 11
22.544000
 20
-14.428000
 21
-13.568000
  0
LINE
  8
0
 10
22.544000
 11
23.022000
 20
-13.568000
 21
-12.740000
  0
LINE
  8
0
 10
23.022000
 11
23.557000
 20
-12.740000
 21
-11.947000
  0
LINE
  8
0
 10
23.557000
 11
24.146000
 20
-11.947000
 21
-11.194000
  0
LINE
  8
0
 10
24.146000
 11
24.786000
 20
-11.194000
 21
-10.483000
  0
LINE
  8
0
 10
24.786000
 11
25.475000
 20
-10.483000
 21
-9.819000
  0
LINE
  8
0
 10
25.475000
 11
26.207000
 20
-9.819000
 21
-9.205000
  0
LINE
  8
0
 10
26.207000
 11
26.981000
 20
-9.205000
 21
-8.642000
  0
LINE
  8
0
 10
26.981000
 11
27.791000
 20
-8.642000
 21
-8.135000
  0
LINE
  8
0
 10
27.791000
 11
28.635000
 20
-8.135000
 21
-7.686000
  0
LINE
  8
0
 10
28.635000
 11
29.509000
 20
-7.686000
 21
-7.297000
  0
LINE
  8
0
 10
29.509000
 11
30.408000
 20
-7.297000
 21
-6.971000
  0
LINE
  8
0
 10
30.408000
 11
31.327000
 20
-6.971000
 21
-6.707000
  0
LINE
  8
0
 10
31.327000
 11
32.262000
 20
-6.707000
 21
-6.508000
  0
LINE
  8
0
 10
32.262000
 11
33.209000
 20
-6.508000
 21
-6.374000
  0
LINE
  8
0
 10
33.209000
 11
34.163000
 20
-6.374000
 21
-6.309000
  0
LINE
  8
0
 10
34.163000
 11
35.119000
 20
-6.309000
 21
-6.309000
  0
LINE
  8
0
 10
35.119000
 11
36.074000
 20
-6.309000
 21
-6.375000
  0
LINE
  8
0
 10
36.074000
 11
37.020000
 20
-6.375000
 21
-6.508000
  0
LINE
  8
0
 10
37.020000
 11
37.955000
 20
-6.508000
 21
-6.707000
  0
LINE
  8
0
 10
37.955000
 11
38.875000
 20
-6.707000
 21
-6.970000
  0
LINE
  8
0
 10
38.875000
 11
39.773000
 20
-6.970000
 21
-7.297000
  0
LINE
  8
0
 10
39.773000
 11
40.647000
 20
-7.297000
 21
-7.686000
  0
LINE
  8
0
 10
40.647000
 11
41.491000
 20
-7.686000
 21
-8.135000
  0
LINE
  8
0
 10
41.491000
 11
42.302000
 20
-8.135000
 21
-8.642000
  0
LINE
  8
0
 10
42.302000
 11
43.076000
 20
-8.642000
 21
-9.204000
  0
LINE
  8
0
 10
43.076000
 11
43.808000
 20
-9.204000
 21
-9.818000
  0
LINE
  8
0
 10
43.808000
 11
44.496000
 20
-9.818000
 21
-10.483000
  0
LINE
  8
0
 10
44.496000
 11
45.136000
 20
-10.483000
 21
-11.194000
  0
LINE
  8
0
 10
45.136000
 11
45.725000
 20
-11.194000
 21
-11.947000
  0
LINE
  8
0
 10
45.725000
 11
46.259000
 20
-11.947000
 21
-12.741000
  0
LINE
  8
0
 10
46.259000
 11
46.737000
 20
-12.741000
 21
-13.569000
  0
LINE
  8
0
 10
46.737000
 11
47.157000
 20
-13.569000
 21
-14.427000
  0
LINE
  8
0
 10
47.157000
 11
47.515000
 20
-14.427000
 21
-15.314000
  0
LINE
  8
0
 10
47.515000
 11
47.810000
 20
-15.314000
 21
-16.224000
  0
LINE
  8
0
 10
47.810000
 11
48.042000
 20
-16.224000
 21
-17.152000
  0
LINE
  8
0
 10
48.042000
 11
48.208000
 20
-17.152000
 21
-18.093000
  0
LINE
  8
0
 10
48.208000
 11
48.308000
 20
-18.093000
 21
-19.044000
  0
LINE
  8
0
 10
48.308000
 11
48.341000
 20
-19.044000
 21
-20.000000
  0
LINE
  8
0
 10
48.341000
 11
48.307000
 20
-20.000000
 21
-20.955000
  0
LINE
  8
0
 10
48.307000
 11
48.207000
 20
-20.955000
 21
-21.907000
  0
LINE
  8
0
 10
48.207000
 11
48.041000
 20
-21.907000
 21
-22.848000
  0
LINE
  8
0
 10
48.041000
 11
47.810000
 20
-22.848000
 21
-23.776000
  0
LINE
  8
0
 10
47.810000
 11
47.515000
 20
-23.776000
 21
-24.686000
  0
LINE
  8
0
 10
47.515000
 11
47.157000
 20
-24.686000
 21
-25.572000
  0
LINE
  8
0
 10
47.157000
 11
46.738000
 20
-25.572000
 21
-26.432000
  0
LINE
  8
0
 10
46.738000
 11
46.260000
 20
-26.432000
 21
-27.260000
  0
LINE
  8
0
 10
46.260000
 11
45.725000
 20
-27.260000
 21
-28.053000
  0
LINE
  8
0
 10
45.725000
 11
45.136000
 20
-28.053000
 21
-28.806000
  0
LINE
  8
0
 10
45.136000
 11
44.496000
 20
-28.806000
 21
-29.517000
  0
LINE
  8
0
 10
44.496000
 11
43.807000
 20
-29.517000
 21
-30.181000
  0
LINE
  8
0
 10
43.807000
 11
43.075000
 20
-30.181000
 21
-30.795000
  0
LINE
  8
0
 10
43.075000
 11
42.301000
 20
-30.795000
 21
-31.358000
  0
LINE
  8
0
 10
42.301000
 11
41.491000
 20
-31.358000
 21
-31.865000
  0
LINE
  8
0
 10
41.491000
 11
40.647000
 20
-31.865000
 21
-32.314000
  0
LINE
  8
0
 10
40.647000
 11
39.773000
 20
-32.314000
 21
-32.703000
  0
LINE
  8
0
 10
39.773000
 11
38.875000
 20
-32.703000
 21
-33.029000
  0
LINE
  8
0
 10
38.875000
 11
37.955000
 20
-33.029000
 21
-33.293000
  0
LINE
  8
0
 10
37.955000
 11
37.020000
 20
-33.293000
 21
-33.492000
  0
LINE
  8
0
 10
37.020000
 11
36.073000
 20
-33.492000
 21
-33.626000
  0
LINE
  8
0
 10
36.073000
 11
35.119000
 20
-33.626000
 21
-33.691000
  0
LINE
  8
0
 10
35.119000
 11
34.163000
 20
-33.691000
 21
-33.691000
  0
LINE
  8
0
 10
34.163000
 11
33.209000
 20
-33.691000
 21
-33.625000
  0
LINE
  8
0
 10
33.209000
 11
32.262000
 20
-33.625000
 21
-33.492000
  0
LINE
  8
0
 10
32.262000
 11
31.327000
 20
-33.492000
 21
-33.293000
  0
LINE
  8
0
 10
31.327000
 11
30.407000
 20
-33.293000
 21
-33.030000
  0
LINE
  8
0
 10
30.407000
 11
29.509000
 20
-33.030000
 21
-32.703000
  0
LINE
  8
0
 10
29.509000
 11
28.635000
 20
-32.703000
 21
-32.314000
  0
LINE
  8
0
 10
28.635000
 11
27.791000
 20
-32.314000
 21
-31.865000
  0
LINE
  8
0
 10
27.791000
 11
26.980000
 20
-31.865000
 21
-31.358000
  0
LINE
  8
0
 10
26.980000
 11
26.206000
 20
-31.358000
 21
-30.796000
  0
LINE
  8
0
 10
26.206000
 11
25.474000
 20
-30.796000
 21
-30.182000
  0
LINE
  8
0
 10
25.474000
 11
24.786000
 20
-30.182000
 21
-29.517000
  0
LINE
  8
0
 10
24.786000
 11
24.146000
 20
-29.517000
 21
-28.806000
  0
LINE
  8
0
 10
24.146000
 11
23.558000
 20
-28.806000
 21
-28.053000
  0
LINE
  8
0
 10
23.558000
 11
23.023000
 20
-28.053000
 21
-27.259000
  0
LINE
  8
0
 10
23.023000
 11
22.545000
 20
-27.259000
 21
-26.431000
  0
LINE
  8
0
 10
22.545000
 11
22.125000
 20
-26.431000
 21
-25.573000
  0
LINE
  8
0
 10
22.125000
 11
21.767000
 20
-25.573000
 21
-24.686000
  0
LINE
  8
0
 10
21.767000
 11
21.472000
 20
-24.686000
 21
-23.776000
  0
LINE
  8
0
 10
21.472000
 11
21.241000
 20
-23.776000
 21
-22.848000
  0
LINE
  8
0
 10
21.241000
 11
21.074000
 20
-22.848000
 21
-21.907000
  0
LINE
  8
0
 10
21.074000
 11
20.974000
 20
-21.907000
 21
-20.956000
  0
LINE
  8
0
 10
20.974000
 11
20.941000
 20
-20.956000
 21
-20.000000
  0
LINE
  8
0
 10
20.941000
 11
20.974000
 20
20.000000
 21
20.956000
  0
LINE
  8
0
 10
20.974000
 11
21.074000
 20
20.956000
 21
21.907000
  0
LINE
  8
0
 10
21.074000
 11
21.241000
 20
21.907000
 21
22.848000
  0
LINE
  8
0
 10
21.241000
 11
21.472000
 20
22.848000
 21
23.776000
  0
LINE
  8
0
 10
21.472000
 11
21.767000
 20
23.776000
 21
24.686000
  0
LINE
  8
0
 10
21.767000
 11
22.125000
 20
24.686000
 21
25.573000
  0
LINE
  8
0
 10
22.125000
 11
22.545000
 20
25.573000
 21
26.431000
  0
LINE
  8
0
 10
22.545000
 11
23.023000
 20
26.431000
 21
27.259000
  0
LINE
  8
0
 10
23.023000
 11
23.558000
 20
27.259000
 21
28.053000
  0
LINE
  8
0
 10
23.558000
 11
24.146000
 20
28.053000
 21
28.806000
  0
LINE
  8
0
 10
24.146000
 11
24.786000
 20
28.806000
 21
29.517000
  0
LINE
  8
0
 10
24.786000
 11
25.474000
 20
29.517000
 21
30.182000
  0
LINE
  8
0
 10
25.474000
 11
26.206000
 20
30.182000
 21
30.796000
  0
LINE
  8
0
 10
26.206000
 11
26.980000
 20
30.796000
 21
31.358000
  0
LINE
  8
0
 10
26.980000
 11
27.791000
 20
31.358000
 21
31.865000
  0
LINE
  8
0
 10
27.791000
 11
28.635000
 20
31.865000
 21
32.314000
  0
LINE
  8
0
 10
28.635000
 11
29.509000
 20
32.314000
 21
32.703000
  0
LINE
  8
0
 10
29.509000
 11
30.407000
 20
32.703000
 21
33.030000
  0
LINE
  8
0
 10
30.407000
 11
31.327000
 20
33.030000
 21
33.293000
  0
LINE
  8
0
 10
31.327000
 11
32.262000
 20
33.293000
 21
33.492000
  0
LINE
  8
0
 10
32.262000
 11
33.209000
 20
33.492000
 21
33.625000
  0
LINE
  8
0
 10
33.209000
 11
34.163000
 20
33.625000
 21
33.691000
  0
LINE
  8
0
 10
34.163000
 11
35.119000
 20
33.691000
 21
33.691000
  0
LINE
  8
0
 10
35.119000
 11
36.073000
 20
33.691000
 21
33.626000
  0
LINE
  8
0
 10
36.073000
 11
37.020000
 20
33.626000
 21
33.492000
  0
LINE
  8
0
 10
37.020000
 11
37.955000
 20
33.492000
 21
33.293000
  0
LINE
  8
0
 10
37.955000
 11
38.875000
 20
33.293000
 21
33.029000
  0
LINE
  8
0
 10
38.875000
 11
39.773000
 20
33.029000
 21
32.703000
  0
LINE
  8
0
 10
39.773000
 11
40.647000
 20
32.703000
 21
32.314000
  0
LINE
  8
0
 10
40.647000
 11
41.491000
 20
32.314000
 21
31.865000
  0
LINE
  8
0
 10
41.491000
 11
42.301000
 20
31.865000
 21
31.358000
  0
LINE
  8
0
 10
42.301000
 11
43.075000
 20
31.358000
 21
30.795000
  0
LINE
  8
0
 10
43.075000
 11
43.807000
 20
30.795000
 21
30.181000
  0
LINE
  8
0
 10
43.807000
 11
44.496000
 20
30.181000
 21
29.517000
  0
LINE
  8
0
 10
44.496000
 11
45.136000
 20
29.517000
 21
28.806000
  0
LINE
  8
0
 10
45.136000
 11
45.725000
 20
28.806000
 21
28.053000
  0
LINE
  8
0
 10
45.725000
 11
46.260000
 20
28.053000
 21
27.260000
  0
LINE
  8
0
 10
46.260000
 11
46.738000
 20
27.260000
 21
26.432000
  0
LINE
  8
0
 10
46.738000
 11
47.157000
 20
26.432000
 21
25.572000
  0
LINE
  8
0
 10
47.157000
 11
47.515000
 20
25.572000
 21
24.686000
  0
LINE
  8
0
 10
47.515000
 11
47.810000
 20
24.686000
 21
23.776000
  0
LINE
  8
0
 10
47.810000
 11
48.041000
 20
23.776000
 21
22.848000
  0
LINE
  8
0
 10
48.041000
 11
48.207000
 20
22.848000
 21
21.907000
  0
LINE
  8
0
 10
48.207000
 11
48.307000
 20
21.907000
 21
20.955000
  0
LINE
  8
0
 10
48.307000
 11
48.341000
 20
20.955000
 21
20.000000
  0
LINE
  8
0
 10
48.341000
 11
48.308000
 20
20.000000
 21
19.044000
  0
LINE
  8
0
 10
48.308000
 11
48.208000
 20
19.044000
 21
18.093000
  0
LINE
  8
0
 10
48.208000
 11
48.042000
 20
18.093000
 21
17.152000
  0
LINE
  8
0
 10
48.042000
 11
47.810000
 20
17.152000
 21
16.224000
  0
LINE
  8
0
 10
47.810000
 11
47.515000
 20
16.224000
 21
15.314000
  0
LINE
  8
0
 10
47.515000
 11
47.157000
 20
15.314000
 21
14.427000
  0
LINE
  8
0
 10
47.157000
 11
46.737000
 20
14.427000
 21
13.569000
  0
LINE
  8
0
 10
46.737000
 11
46.259000
 20
13.569000
 21
12.741000
  0
LINE
  8
0
 10
46.259000
 11
45.725000
 20
12.741000
 21
11.947000
  0
LINE
  8
0
 10
45.725000
 11
45.136000
 20
11.947000
 21
11.194000
  0
LINE
  8
0
 10
45.136000
 11
44.496000
 20
11.194000
 21
10.483000
  0
LINE
  8
0
 10
44.496000
 11
43.808000
 20
10.483000
 21
9.818000
  0
LINE
  8
0
 10
43.808000
 11
43.076000
 20
9.818000
 21
9.204000
  0
LINE
  8
0
 10
43.076000
 11
42.302000
 20
9.204000
 21
8.642000
  0
LINE
  8
0
 10
42.302000
 11
41.491000
 20
8.642000
 21
8.135000
  0
LINE
  8
0
 10
41.491000
 11
40.647000
 20
8.135000
 21
7.686000
  0
LINE
  8
0
 10
40.647000
 11
39.773000
 20
7.686000
 21
7.297000
  0
LINE
  8
0
 10
39.773000
 11
38.875000
 20
7.297000
 21
6.970000
  0
LINE
  8
0
 10
38.875000
 11
37.955000
 20
6.970000
 21
6.707000
  0
LINE
  8
0
 10
37.955000
 11
37.020000
 20
6.707000
 21
6.508000
  0
LINE
  8
0
 10
37.020000
 11
36.074000
 20
6.508000
 21
6.375000
  0
LINE
  8
0
 10
36.074000
 11
35.119000
 20
6.375000
 21
6.309000
  0
LINE
  8
0
 10
35.119000
 11
34.163000
 20
6.309000
 21
6.309000
  0
LINE
  8
0
 10
34.163000
 11
33.209000
 20
6.309000
 21
6.374000
  0
LINE
  8
0
 10
33.209000
 11
32.262000
 20
6.374000
 21
6.508000
  0
LINE
  8
0
 10
32.262000
 11
31.327000
 20
6.508000
 21
6.707000
  0
LINE
  8
0
 10
31.327000
 11
30.408000
 20
6.707000
 21
6.971000
  0
LINE
  8
0
 10
30.408000
 11
29.509000
 20
6.971000
 21
7.297000
  0
LINE
  8
0
 10
29.509000
 11
28.635000
 20
7.297000
 21
7.686000
  0
LINE
  8
0
 10
28.635000
 11
27.791000
 20
7.686000
 21
8.135000
  0
LINE
  8
0
 10
27.791000
 11
26.981000
 20
8.135000
 21
8.642000
  0
LINE
  8
0
 10
26.981000
 11
26.207000
 20
8.642000
 21
9.205000
  0
LINE
  8
0
 10
26.207000
 11
25.475000
 20
9.205000
 21
9.819000
  0
LINE
  8
0
 10
25.475000
 11
24.786000
 20
9.819000
 21
10.483000
  0
LINE
  8
0
 10
24.786000
 11
24.146000
 20
10.483000
 21
11.194000
  0
LINE
  8
0
 10
24.146000
 11
23.557000
 20
11.194000
 21
11.947000
  0
LINE
  8
0
 10
23.557000
 11
23.022000
 20
11.947000
 21
12.740000
  0
LINE
  8
0
 10
23.022000
 11
22.544000
 20
12.740000
 21
13.568000
  0
LINE
  8
0
 10
22.544000
 11
22.125000
 20
13.568000
 21
14.428000
  0
LINE
  8
0
 10
22.125000
 11
21.767000
 20
14.428000
 21
15.314000
  0
LINE
  8
0
 10
21.767000
 11
21.472000
 20
15.314000
 21
16.224000
  0
LINE
  8
0
 10
21.472000
 11
21.241000
 20
16.224000
 21
17.152000
  0
LINE
  8
0
 10
21.241000
 11
21.075000
 20
17.152000
 21
18.093000
  0
LINE
  8
0
 10
21.075000
 11
20.975000
 20
18.093000
 21
19.045000
  0
LINE
  8
0
 10
20.975000
 11
20.941000
 20
19.045000
 21
20.000000
  0
ENDSEC
  0
SECTION
  2
OBJECTS
  0
DICTIONARY
  0
ENDSEC
  0
EOF
