  0
SECTION
  2
HEADER
  9
$ACADVER
  1
AC1014
  9
$HANDSEED
  5
FFFF
  9
$MEASUREMENT
 70
     1
  0
ENDSEC
  0
SECTION
  2
TABLES
  0
TABLE
  2
VPORT
  5
8
330
0
100
AcDbSymbolTable
 70
     4
  0
VPORT
  5
2E
330
8
100
AcDbSymbolTableRecord
100
AcDbViewportTableRecord
  2
*ACTIVE
 70
     0
 10
0.0
 20
0.0
 11
1.0
 21
1.0
 12
210.0
 22
148.5
 13
0.0
 23
0.0
 14
10.0
 24
10.0
 15
10.0
 25
10.0
 16
0.0
 26
0.0
 36
1.0
 17
0.0
 27
0.0
 37
0.0
 40
341.0
 41
1.24
 42
50.0
 43
0.0
 44
0.0
 50
0.0
 51
0.0
 71
     0
 72
   100
 73
     1
 74
     3
 75
     0
 76
     0
 77
     0
 78
     0
  0
ENDTAB
  0
TABLE
  2
LTYPE
  5
5
330
0
100
AcDbSymbolTable
 70
     1
  0
LTYPE
  5
14
330
5
100
AcDbSymbolTableRecord
100
AcDbLinetypeTableRecord
  2
BYBLOCK
 70
     0
  3

 72
    65
 73
     0
 40
0.0
  0
LTYPE
  5
15
330
5
100
AcDbSymbolTableRecord
100
AcDbLinetypeTableRecord
  2
BYLAYER
 70
     0
  3

 72
    65
 73
     0
 40
0.0
  0
LTYPE
  5
16
330
5
100
AcDbSymbolTableRecord
100
AcDbLinetypeTableRecord
  2
CONTINUOUS
 70
     0
  3
Solid line
 72
    65
 73
     0
 40
0.0
  0
ENDTAB
  0
TABLE
  2
LAYER
  5
2
100
AcDbSymbolTable
 70
1
  0
LAYER
  5
50
100
AcDbSymbolTableRecord
100
AcDbLayerTableRecord
  2
0
 70
0
  6
CONTINUOUS
  0
ENDTAB
  0
TABLE
  2
STYLE
  5
3
330
0
100
AcDbSymbolTable
 70
     1
  0
STYLE
  5
11
330
3
100
AcDbSymbolTableRecord
100
AcDbTextStyleTableRecord
  2
STANDARD
 70
     0
 40
0.0
 41
1.0
 50
0.0
 71
     0
 42
2.5
  3
txt
  4

  0
ENDTAB
  0
TABLE
  2
VIEW
  5
6
330
0
100
AcDbSymbolTable
 70
     0
  0
ENDTAB
  0
TABLE
  2
UCS
  5
7
330
0
100
AcDbSymbolTable
 70
     0
  0
ENDTAB
  0
TABLE
  2
APPID
  5
9
330
0
100
AcDbSymbolTable
 70
     2
  0
APPID
  5
12
330
9
100
AcDbSymbolTableRecord
100
AcDbRegAppTableRecord
  2
ACAD
 70
     0
  0
ENDTAB
  0
TABLE
  2
DIMSTYLE
  5
A
330
0
100
AcDbSymbolTable
 70
     1
  0
DIMSTYLE
105
27
330
A
100
AcDbSymbolTableRecord
100
AcDbDimStyleTableRecord
  2
ISO-25
 70
     0
  3

  4

  5

  6

  7

 40
1.0
 41
2.5
 42
0.625
 43
3.75
 44
1.25
 45
0.0
 46
0.0
 47
0.0
 48
0.0
140
2.5
141
2.5
142
0.0
143
0.03937007874016
144
1.0
145
0.0
146
1.0
147
0.625
 71
     0
 72
     0
 73
     0
 74
     0
 75
     0
 76
     0
 77
     1
 78
     8
170
     0
171
     3
172
     1
173
     0
174
     0
175
     0
176
     0
177
     0
178
     0
270
     2
271
     2
272
     2
273
     2
274
     3
340
11
275
     0
280
     0
281
     0
282
     0
283
     0
284
     8
285
     0
286
     0
287
     3
288
     0
  0
ENDTAB
  0
TABLE
  2
BLOCK_RECORD
  5
1
330
0
100
AcDbSymbolTable
 70
     1
  0
BLOCK_RECORD
  5
1F
330
1
100
AcDbSymbolTableRecord
100
AcDbBlockTableRecord
  2
*MODEL_SPACE
  0
BLOCK_RECORD
  5
1B
330
1
100
AcDbSymbolTableRecord
100
AcDbBlockTableRecord
  2
*PAPER_SPACE
  0
ENDTAB
  0
ENDSEC
  0
SECTION
  2
BLOCKS
  0
BLOCK
  5
20
330
1F
100
AcDbEntity
  8
0
100
AcDbBlockBegin
  2
*MODEL_SPACE
 70
     0
 10
0.0
 20
0.0
 30
0.0
  3
*MODEL_SPACE
  1

  0
ENDBLK
  5
21
330
1F
100
AcDbEntity
  8
0
100
AcDbBlockEnd
  0
BLOCK
  5
1C
330
1B
100
AcDbEntity
 67
     1
  8
0
100
AcDbBlockBegin
  2
*PAPER_SPACE
  1

  0
ENDBLK
  5
1D
330
1B
100
AcDbEntity
 67
     1
  8
0
100
AcDbBlockEnd
  0
ENDSEC
  0
SECTION
  2
ENTITIES
  0
LWPOLYLINE
  5
100
100
AcDbEntity
  8
0
 62
7
100
AcDbPolyline
 90
49
 70
1
 10
360.982080
 20
816.673526
 30
0.0
 10
360.982080
 20
795.413666
 30
0.0
 10
352.478136
 20
795.413666
 30
0.0
 10
352.478136
 20
774.153806
 30
0.0
 10
360.982080
 20
774.153806
 30
0.0
 10
360.982080
 20
757.145918
 30
0.0
 10
352.478136
 20
757.145918
 30
0.0
 10
352.478136
 20
735.886054
 30
0.0
 10
360.982080
 20
735.886054
 30
0.0
 10
360.982080
 20
714.626198
 30
0.0
 10
339.013560
 20
714.626198
 30
0.0
 10
339.013560
 20
723.130142
 30
0.0
 10
317.045032
 20
723.130142
 30
0.0
 10
317.045032
 20
714.626198
 30
0.0
 10
300.037144
 20
714.626198
 30
0.0
 10
300.037144
 20
723.130142
 30
0.0
 10
283.029256
 20
723.130142
 30
0.0
 10
283.029256
 20
714.626198
 30
0.0
 10
266.021368
 20
714.626198
 30
0.0
 10
266.021368
 20
723.130142
 30
0.0
 10
249.013480
 20
723.130142
 30
0.0
 10
249.013480
 20
714.626198
 30
0.0
 10
232.005592
 20
714.626198
 30
0.0
 10
232.005592
 20
723.130142
 30
0.0
 10
214.997712
 20
723.130142
 30
0.0
 10
214.997712
 20
714.626198
 30
0.0
 10
197.989824
 20
714.626198
 30
0.0
 10
197.989824
 20
723.130142
 30
0.0
 10
180.981928
 20
723.130142
 30
0.0
 10
180.981928
 20
714.626198
 30
0.0
 10
163.974044
 20
714.626198
 30
0.0
 10
163.974044
 20
723.130142
 30
0.0
 10
146.966156
 20
723.130142
 30
0.0
 10
146.966156
 20
714.626198
 30
0.0
 10
129.958268
 20
714.626198
 30
0.0
 10
129.958268
 20
723.130142
 30
0.0
 10
107.989746
 20
723.130142
 30
0.0
 10
107.989746
 20
714.626198
 30
0.0
 10
86.021224
 20
714.626198
 30
0.0
 10
86.021224
 20
735.886054
 30
0.0
 10
94.525168
 20
735.886054
 30
0.0
 10
94.525168
 20
757.145918
 30
0.0
 10
86.021224
 20
757.145918
 30
0.0
 10
86.021224
 20
774.153806
 30
0.0
 10
94.525168
 20
774.153806
 30
0.0
 10
94.525168
 20
795.413666
 30
0.0
 10
86.021224
 20
795.413666
 30
0.0
 10
86.021224
 20
816.673526
 30
0.0
 10
360.982080
 20
816.673526
 30
0.0
  0
LWPOLYLINE
  5
101
100
AcDbEntity
  8
0
 62
7
100
AcDbPolyline
 90
49
 70
1
 10
642.662400
 20
816.422174
 30
0.0
 10
642.662400
 20
795.162314
 30
0.0
 10
634.158456
 20
795.162314
 30
0.0
 10
634.158456
 20
773.902454
 30
0.0
 10
642.662400
 20
773.902454
 30
0.0
 10
642.662400
 20
756.894566
 30
0.0
 10
634.158456
 20
756.894566
 30
0.0
 10
634.158456
 20
735.634702
 30
0.0
 10
642.662400
 20
735.634702
 30
0.0
 10
642.662400
 20
714.374846
 30
0.0
 10
620.693880
 20
714.374846
 30
0.0
 10
620.693880
 20
722.878790
 30
0.0
 10
598.725352
 20
722.878790
 30
0.0
 10
598.725352
 20
714.374846
 30
0.0
 10
581.717464
 20
714.374846
 30
0.0
 10
581.717464
 20
722.878790
 30
0.0
 10
564.709576
 20
722.878790
 30
0.0
 10
564.709576
 20
714.374846
 30
0.0
 10
547.701688
 20
714.374846
 30
0.0
 10
547.701688
 20
722.878790
 30
0.0
 10
530.693800
 20
722.878790
 30
0.0
 10
530.693800
 20
714.374846
 30
0.0
 10
513.685912
 20
714.374846
 30
0.0
 10
513.685912
 20
722.878790
 30
0.0
 10
496.678032
 20
722.878790
 30
0.0
 10
496.678032
 20
714.374846
 30
0.0
 10
479.670144
 20
714.374846
 30
0.0
 10
479.670144
 20
722.878790
 30
0.0
 10
462.662248
 20
722.878790
 30
0.0
 10
462.662248
 20
714.374846
 30
0.0
 10
445.654364
 20
714.374846
 30
0.0
 10
445.654364
 20
722.878790
 30
0.0
 10
428.646476
 20
722.878790
 30
0.0
 10
428.646476
 20
714.374846
 30
0.0
 10
411.638588
 20
714.374846
 30
0.0
 10
411.638588
 20
722.878790
 30
0.0
 10
389.670066
 20
722.878790
 30
0.0
 10
389.670066
 20
714.374846
 30
0.0
 10
367.701544
 20
714.374846
 30
0.0
 10
367.701544
 20
735.634702
 30
0.0
 10
376.205488
 20
735.634702
 30
0.0
 10
376.205488
 20
756.894566
 30
0.0
 10
367.701544
 20
756.894566
 30
0.0
 10
367.701544
 20
773.902454
 30
0.0
 10
376.205488
 20
773.902454
 30
0.0
 10
376.205488
 20
795.162314
 30
0.0
 10
367.701544
 20
795.162314
 30
0.0
 10
367.701544
 20
816.422174
 30
0.0
 10
642.662400
 20
816.422174
 30
0.0
  0
SPLINE
  5
102
100
AcDbEntity
  8
0
 62
5
100
AcDbSpline
 70
0
 71
3
 72
10
 73
6
 74
4
 40
0.000000
 40
0.000000
 40
0.000000
 40
0.000000
 40
29.674394
 40
59.698423
 40
95.361834
 40
95.361834
 40
95.361834
 40
95.361834
 10
858.759736
 20
247.875674
 30
0.0
 10
853.471020
 20
239.463164
 30
0.0
 10
842.831274
 20
222.539025
 30
0.0
 10
810.543611
 20
207.298099
 30
0.0
 10
790.312690
 20
218.696520
 30
0.0
 10
779.328800
 20
224.885018
 30
0.0
 11
858.759736
 21
247.875674
 31
0.0
 11
840.528294
 21
224.462341
 31
0.0
 11
812.872829
 21
212.773989
 31
0.0
 11
779.328800
 21
224.885018
 31
0.0
  0
SPLINE
  5
103
100
AcDbEntity
  8
0
 62
5
100
AcDbSpline
 70
0
 71
3
 72
10
 73
6
 74
4
 40
0.000000
 40
0.000000
 40
0.000000
 40
0.000000
 40
6.473691
 40
9.823961
 40
17.433447
 40
17.433447
 40
17.433447
 40
17.433447
 10
779.328800
 20
224.885018
 30
0.0
 10
778.277649
 20
226.692379
 30
0.0
 10
776.682506
 20
229.435086
 30
0.0
 10
769.833504
 20
232.493889
 30
0.0
 10
771.513983
 20
227.177003
 30
0.0
 10
772.680760
 20
223.485426
 30
0.0
 11
779.328800
 21
224.885018
 31
0.0
 11
775.192073
 21
229.864593
 31
0.0
 11
772.066185
 21
231.070054
 31
0.0
 11
772.680760
 21
223.485426
 31
0.0
  0
SPLINE
  5
104
100
AcDbEntity
  8
0
 62
5
100
AcDbSpline
 70
0
 71
3
 72
10
 73
6
 74
4
 40
0.000000
 40
0.000000
 40
0.000000
 40
0.000000
 40
17.127151
 40
33.608429
 40
51.388941
 40
51.388941
 40
51.388941
 40
51.388941
 10
772.680760
 20
223.485426
 30
0.0
 10
769.240514
 20
228.112168
 30
0.0
 10
762.489754
 20
237.191175
 30
0.0
 10
759.103219
 20
254.620816
 30
0.0
 10
761.131351
 20
265.911650
 30
0.0
 10
762.183872
 20
271.771146
 30
0.0
 11
772.680760
 21
223.485426
 31
0.0
 11
763.538015
 21
237.968158
 31
0.0
 11
760.180612
 21
254.103844
 31
0.0
 11
762.183872
 21
271.771146
 31
0.0
  0
SPLINE
  5
105
100
AcDbEntity
  8
0
 62
5
100
AcDbSpline
 70
0
 71
3
 72
10
 73
6
 74
4
 40
0.000000
 40
0.000000
 40
0.000000
 40
0.000000
 40
5.070395
 40
6.963528
 40
12.841240
 40
12.841240
 40
12.841240
 40
12.841240
 10
762.183872
 20
271.771146
 30
0.0
 10
763.119112
 20
273.371805
 30
0.0
 10
764.403543
 20
275.570101
 30
0.0
 10
761.672276
 20
279.931004
 30
0.0
 10
759.456257
 20
276.966423
 30
0.0
 10
757.780104
 20
274.724074
 30
0.0
 11
762.183872
 21
271.771146
 31
0.0
 11
763.523354
 21
276.661412
 31
0.0
 11
762.486350
 21
278.245260
 31
0.0
 11
757.780104
 21
274.724074
 31
0.0
  0
SPLINE
  5
106
100
AcDbEntity
  8
0
 62
5
100
AcDbSpline
 70
0
 71
3
 72
10
 73
6
 74
4
 40
0.000000
 40
0.000000
 40
0.000000
 40
0.000000
 40
14.752139
 40
25.594112
 40
35.290664
 40
35.290664
 40
35.290664
 40
35.290664
 10
757.780104
 20
274.724074
 30
0.0
 10
758.947216
 20
279.550166
 30
0.0
 10
760.972087
 20
287.923158
 30
0.0
 10
768.105059
 20
297.623669
 30
0.0
 10
773.523518
 20
301.827572
 30
0.0
 10
776.081656
 20
303.812298
 30
0.0
 11
757.780104
 21
274.724074
 31
0.0
 11
762.327353
 21
288.757896
 31
0.0
 11
768.689693
 21
297.536791
 31
0.0
 11
776.081656
 21
303.812298
 31
0.0
  0
SPLINE
  5
107
100
AcDbEntity
  8
0
 62
5
100
AcDbSpline
 70
0
 71
3
 72
10
 73
6
 74
4
 40
0.000000
 40
0.000000
 40
0.000000
 40
0.000000
 40
4.902232
 40
11.594890
 40
18.198309
 40
18.198309
 40
18.198309
 40
18.198309
 10
776.081656
 20
303.812298
 30
0.0
 10
776.491651
 20
302.205624
 30
0.0
 10
777.461382
 20
298.405475
 30
0.0
 10
775.786599
 20
292.396062
 30
0.0
 10
775.114125
 20
288.035269
 30
0.0
 10
774.780144
 20
285.869506
 30
0.0
 11
776.081656
 21
303.812298
 31
0.0
 11
776.947555
 21
298.987146
 31
0.0
 11
775.918032
 21
292.374147
 31
0.0
 11
774.780144
 21
285.869506
 31
0.0
  0
SPLINE
  5
108
100
AcDbEntity
  8
0
 62
5
100
AcDbSpline
 70
0
 71
3
 72
10
 73
6
 74
4
 40
0.000000
 40
0.000000
 40
0.000000
 40
0.000000
 40
9.291377
 40
18.195694
 40
26.750234
 40
26.750234
 40
26.750234
 40
26.750234
 10
774.780144
 20
285.869506
 30
0.0
 10
777.108586
 20
287.911507
 30
0.0
 10
781.668471
 20
291.910441
 30
0.0
 10
788.976712
 20
297.090951
 30
0.0
 10
794.243156
 20
299.588700
 30
0.0
 10
796.823624
 20
300.812554
 30
0.0
 11
774.780144
 21
285.869506
 31
0.0
 11
781.872697
 21
291.871621
 31
0.0
 11
789.201455
 21
296.928909
 31
0.0
 11
796.823624
 21
300.812554
 31
0.0
  0
SPLINE
  5
109
100
AcDbEntity
  8
0
 62
5
100
AcDbSpline
 70
0
 71
3
 72
10
 73
6
 74
4
 40
0.000000
 40
0.000000
 40
0.000000
 40
0.000000
 40
5.208954
 40
9.529913
 40
12.845540
 40
12.845540
 40
12.845540
 40
12.845540
 10
796.823624
 20
300.812554
 30
0.0
 10
796.213744
 20
299.189806
 30
0.0
 10
795.097953
 20
296.220947
 30
0.0
 10
793.872903
 20
292.076803
 30
0.0
 10
793.835625
 20
289.521753
 30
0.0
 10
793.819440
 20
288.412410
 30
0.0
 11
796.823624
 21
300.812554
 31
0.0
 11
795.055810
 21
295.912755
 31
0.0
 11
793.998256
 21
291.723213
 31
0.0
 11
793.819440
 21
288.412410
 31
0.0
  0
SPLINE
  5
10a
100
AcDbEntity
  8
0
 62
5
100
AcDbSpline
 70
0
 71
3
 72
10
 73
6
 74
4
 40
0.000000
 40
0.000000
 40
0.000000
 40
0.000000
 40
5.549183
 40
10.749150
 40
16.492867
 40
16.492867
 40
16.492867
 40
16.492867
 10
793.819440
 20
288.412410
 30
0.0
 10
795.207515
 20
289.630701
 30
0.0
 10
797.896312
 20
291.990613
 30
0.0
 10
803.239934
 20
294.216681
 30
0.0
 10
806.867472
 20
293.295317
 30
0.0
 10
808.771360
 20
292.811746
 30
0.0
 11
793.819440
 21
288.412410
 31
0.0
 11
798.195241
 21
291.825004
 31
0.0
 11
803.082236
 21
293.601782
 31
0.0
 11
808.771360
 21
292.811746
 31
0.0
  0
LWPOLYLINE
  5
10b
100
AcDbEntity
  8
0
 62
5
100
AcDbPolyline
 90
2
 70
1
 10
843.009960
 20
261.274250
 30
0.0
 10
858.759736
 20
247.875674
 30
0.0
  0
SPLINE
  5
10c
100
AcDbEntity
  8
0
 62
5
100
AcDbSpline
 70
0
 71
3
 72
10
 73
6
 74
4
 40
0.000000
 40
0.000000
 40
0.000000
 40
0.000000
 40
39.742941
 40
64.660092
 40
99.477169
 40
99.477169
 40
99.477169
 40
99.477169
 10
808.771360
 20
292.811746
 30
0.0
 10
799.580135
 20
279.975625
 30
0.0
 10
784.626399
 20
259.091795
 30
0.0
 10
819.994082
 20
231.179444
 30
0.0
 10
834.534714
 20
250.192296
 30
0.0
 10
843.009960
 20
261.274250
 30
0.0
 11
808.771360
 21
292.811746
 31
0.0
 11
795.531958
 21
255.338829
 31
0.0
 11
815.309021
 21
240.181909
 31
0.0
 11
843.009960
 21
261.274250
 31
0.0
  0
SPLINE
  5
10d
100
AcDbEntity
  8
0
 62
5
100
AcDbSpline
 70
0
 71
3
 72
10
 73
6
 74
4
 40
0.000000
 40
0.000000
 40
0.000000
 40
0.000000
 40
7.407756
 40
14.836114
 40
23.274198
 40
23.274198
 40
23.274198
 40
23.274198
 10
846.960776
 20
283.819826
 30
0.0
 10
848.838109
 20
285.454995
 30
0.0
 10
852.597996
 20
288.729880
 30
0.0
 10
855.906025
 20
296.071213
 30
0.0
 10
855.999633
 20
301.395065
 30
0.0
 10
856.049416
 20
304.226394
 30
0.0
 11
846.960776
 21
283.819826
 31
0.0
 11
852.181124
 21
289.075568
 31
0.0
 11
855.288716
 21
295.822668
 31
0.0
 11
856.049416
 21
304.226394
 31
0.0
  0
SPLINE
  5
10e
100
AcDbEntity
  8
0
 62
5
100
AcDbSpline
 70
0
 71
3
 72
10
 73
6
 74
4
 40
0.000000
 40
0.000000
 40
0.000000
 40
0.000000
 40
2.667383
 40
5.245368
 40
8.033732
 40
8.033732
 40
8.033732
 40
8.033732
 10
856.049416
 20
304.226394
 30
0.0
 10
855.813808
 20
303.339832
 30
0.0
 10
855.350489
 20
301.596420
 30
0.0
 10
853.039163
 20
299.979140
 30
0.0
 10
851.408981
 20
299.275839
 30
0.0
 10
850.561936
 20
298.910402
 30
0.0
 11
856.049416
 21
304.226394
 31
0.0
 11
855.072158
 21
301.744480
 31
0.0
 11
853.079780
 21
300.108498
 31
0.0
 11
850.561936
 21
298.910402
 31
0.0
  0
SPLINE
  5
10f
100
AcDbEntity
  8
0
 62
5
100
AcDbSpline
 70
0
 71
3
 72
10
 73
6
 74
4
 40
0.000000
 40
0.000000
 40
0.000000
 40
0.000000
 40
2.505344
 40
4.690394
 40
6.955389
 40
6.955389
 40
6.955389
 40
6.955389
 10
850.561936
 20
298.910402
 30
0.0
 10
850.421555
 20
299.753303
 30
0.0
 10
850.158739
 20
301.331345
 30
0.0
 10
848.456774
 20
303.070508
 30
0.0
 10
847.124455
 20
303.722872
 30
0.0
 10
846.446328
 20
304.054914
 30
0.0
 11
850.561936
 21
298.910402
 31
0.0
 11
849.888319
 21
301.323489
 31
0.0
 11
848.417652
 21
302.939529
 31
0.0
 11
846.446328
 21
304.054914
 31
0.0
  0
SPLINE
  5
110
100
AcDbEntity
  8
0
 62
5
100
AcDbSpline
 70
0
 71
3
 72
10
 73
6
 74
4
 40
0.000000
 40
0.000000
 40
0.000000
 40
0.000000
 40
17.088290
 40
36.483134
 40
56.286284
 40
56.286284
 40
56.286284
 40
56.286284
 10
846.446328
 20
304.054914
 30
0.0
 10
845.214441
 20
309.843990
 30
0.0
 10
842.584390
 20
322.203544
 30
0.0
 10
825.058027
 20
332.647670
 30
0.0
 10
820.697464
 20
345.323474
 30
0.0
 10
818.494472
 20
351.727394
 30
0.0
 11
846.446328
 21
304.054914
 31
0.0
 11
840.835405
 21
320.195769
 31
0.0
 11
827.105737
 21
333.894535
 31
0.0
 11
818.494472
 21
351.727394
 31
0.0
  0
SPLINE
  5
111
100
AcDbEntity
  8
0
 62
5
100
AcDbSpline
 70
0
 71
3
 72
10
 73
6
 74
4
 40
0.000000
 40
0.000000
 40
0.000000
 40
0.000000
 40
3.902483
 40
8.399514
 40
14.245517
 40
14.245517
 40
14.245517
 40
14.245517
 10
818.494472
 20
351.727394
 30
0.0
 10
818.177062
 20
350.465873
 30
0.0
 10
817.493884
 20
347.750634
 30
0.0
 10
816.675271
 20
343.062428
 30
0.0
 10
816.522832
 20
339.614525
 30
0.0
 10
816.436672
 20
337.665730
 30
0.0
 11
818.494472
 21
351.727394
 31
0.0
 11
817.585523
 21
347.932242
 31
0.0
 11
816.836330
 21
343.498056
 31
0.0
 11
816.436672
 21
337.665730
 31
0.0
  0
SPLINE
  5
112
100
AcDbEntity
  8
0
 62
5
100
AcDbSpline
 70
0
 71
3
 72
10
 73
6
 74
4
 40
0.000000
 40
0.000000
 40
0.000000
 40
0.000000
 40
10.423016
 40
22.049500
 40
31.692186
 40
31.692186
 40
31.692186
 40
31.692186
 10
816.436672
 20
337.665730
 30
0.0
 10
818.855041
 20
335.180667
 30
0.0
 10
823.971010
 20
329.923608
 30
0.0
 10
832.388347
 20
323.240377
 30
0.0
 10
835.689557
 20
316.883124
 30
0.0
 10
837.186208
 20
314.000970
 30
0.0
 11
816.436672
 21
337.665730
 31
0.0
 11
823.857204
 21
330.346237
 31
0.0
 11
832.213687
 21
322.262655
 31
0.0
 11
837.186208
 21
314.000970
 31
0.0
  0
SPLINE
  5
113
100
AcDbEntity
  8
0
 62
5
100
AcDbSpline
 70
0
 71
3
 72
10
 73
6
 74
4
 40
0.000000
 40
0.000000
 40
0.000000
 40
0.000000
 40
17.402154
 40
33.296988
 40
49.755318
 40
49.755318
 40
49.755318
 40
49.755318
 10
837.186208
 20
314.000970
 30
0.0
 10
833.408311
 20
318.377880
 30
0.0
 10
826.179747
 20
326.752584
 30
0.0
 10
812.477047
 20
337.080494
 30
0.0
 10
809.304766
 20
347.698034
 30
0.0
 10
807.691000
 20
353.099266
 30
0.0
 11
837.186208
 21
314.000970
 31
0.0
 11
825.322207
 21
326.732053
 31
0.0
 11
814.017161
 21
337.905309
 31
0.0
 11
807.691000
 21
353.099266
 31
0.0
  0
SPLINE
  5
114
100
AcDbEntity
  8
0
 62
5
100
AcDbSpline
 70
0
 71
3
 72
10
 73
6
 74
4
 40
0.000000
 40
0.000000
 40
0.000000
 40
0.000000
 40
6.678192
 40
13.709053
 40
21.864299
 40
21.864299
 40
21.864299
 40
21.864299
 10
807.691000
 20
353.099266
 30
0.0
 10
806.801289
 20
351.054405
 30
0.0
 10
804.974882
 20
346.856696
 30
0.0
 10
803.932907
 20
339.483029
 30
0.0
 10
805.039128
 20
334.507332
 30
0.0
 10
805.633192
 20
331.835282
 30
0.0
 11
807.691000
 21
353.099266
 31
0.0
 11
805.300243
 21
346.863681
 31
0.0
 11
804.378739
 21
339.893470
 31
0.0
 11
805.633192
 21
331.835282
 31
0.0
  0
SPLINE
  5
115
100
AcDbEntity
  8
0
 62
5
100
AcDbSpline
 70
0
 71
3
 72
10
 73
6
 74
4
 40
0.000000
 40
0.000000
 40
0.000000
 40
0.000000
 40
6.434677
 40
11.697594
 40
16.152492
 40
16.152492
 40
16.152492
 40
16.152492
 10
805.633192
 20
331.835282
 30
0.0
 10
807.313367
 20
330.503420
 30
0.0
 10
810.367757
 20
328.082229
 30
0.0
 10
813.786211
 20
323.755709
 30
0.0
 10
814.662902
 20
320.610952
 30
0.0
 10
815.064800
 20
319.169314
 30
0.0
 11
805.633192
 21
331.835282
 31
0.0
 11
810.498591
 21
327.624229
 31
0.0
 11
813.611135
 21
323.380367
 31
0.0
 11
815.064800
 21
319.169314
 31
0.0
  0
SPLINE
  5
116
100
AcDbEntity
  8
0
 62
5
100
AcDbSpline
 70
0
 71
3
 72
10
 73
6
 74
4
 40
0.000000
 40
0.000000
 40
0.000000
 40
0.000000
 40
12.374021
 40
23.662649
 40
36.591743
 40
36.591743
 40
36.591743
 40
36.591743
 10
815.064800
 20
319.169314
 30
0.0
 10
812.257021
 20
322.250194
 30
0.0
 10
806.887748
 20
328.141711
 30
0.0
 10
795.268885
 20
332.950064
 30
0.0
 10
790.287048
 20
339.490165
 30
0.0
 10
787.627400
 20
342.981722
 30
0.0
 11
815.064800
 21
319.169314
 31
0.0
 11
806.055092
 21
327.651152
 31
0.0
 11
796.378153
 21
333.464066
 31
0.0
 11
787.627400
 21
342.981722
 31
0.0
  0
SPLINE
  5
117
100
AcDbEntity
  8
0
 62
5
100
AcDbSpline
 70
0
 71
3
 72
10
 73
6
 74
4
 40
0.000000
 40
0.000000
 40
0.000000
 40
0.000000
 40
5.643278
 40
9.799882
 40
13.480785
 40
13.480785
 40
13.480785
 40
13.480785
 10
787.627400
 20
342.981722
 30
0.0
 10
787.404472
 20
341.096232
 30
0.0
 10
787.017345
 20
337.821969
 30
0.0
 10
788.170192
 20
333.397935
 30
0.0
 10
789.317740
 20
331.051140
 30
0.0
 10
789.856688
 20
329.948962
 30
0.0
 11
787.627400
 21
342.981722
 31
0.0
 11
787.364896
 21
337.344553
 31
0.0
 11
788.345123
 21
333.305183
 31
0.0
 11
789.856688
 21
329.948962
 31
0.0
  0
SPLINE
  5
118
100
AcDbEntity
  8
0
 62
5
100
AcDbSpline
 70
0
 71
3
 72
10
 73
6
 74
4
 40
0.000000
 40
0.000000
 40
0.000000
 40
0.000000
 40
4.886132
 40
9.485916
 40
14.011212
 40
14.011212
 40
14.011212
 40
14.011212
 10
789.856688
 20
329.948962
 30
0.0
 10
788.274057
 20
330.354037
 30
0.0
 10
785.201545
 20
331.140447
 30
0.0
 10
780.512927
 20
331.307829
 30
0.0
 10
777.473708
 20
331.316518
 30
0.0
 10
775.966504
 20
331.320826
 30
0.0
 11
789.856688
 21
329.948962
 31
0.0
 11
785.081789
 21
330.985601
 31
0.0
 11
780.491643
 21
331.283227
 31
0.0
 11
775.966504
 21
331.320826
 31
0.0
  0
SPLINE
  5
119
100
AcDbEntity
  8
0
 62
5
100
AcDbSpline
 70
0
 71
3
 72
10
 73
6
 74
4
 40
0.000000
 40
0.000000
 40
0.000000
 40
0.000000
 40
12.537105
 40
21.488039
 40
38.217196
 40
38.217196
 40
38.217196
 40
38.217196
 10
775.966504
 20
331.320826
 30
0.0
 10
780.595432
 20
328.152832
 30
0.0
 10
788.529209
 20
322.723030
 30
0.0
 10
774.387749
 20
314.473127
 30
0.0
 10
767.867351
 20
310.033675
 30
0.0
 10
763.619672
 20
307.141618
 30
0.0
 11
775.966504
 21
331.320826
 31
0.0
 11
784.445904
 21
322.086175
 31
0.0
 11
777.628198
 21
316.286339
 31
0.0
 11
763.619672
 21
307.141618
 31
0.0
  0
SPLINE
  5
11a
100
AcDbEntity
  8
0
 62
5
100
AcDbSpline
 70
0
 71
3
 72
10
 73
6
 74
4
 40
0.000000
 40
0.000000
 40
0.000000
 40
0.000000
 40
9.185663
 40
16.119553
 40
27.562020
 40
27.562020
 40
27.562020
 40
27.562020
 10
763.619672
 20
307.141618
 30
0.0
 10
766.626392
 20
307.817037
 30
0.0
 10
771.902764
 20
309.002303
 30
0.0
 10
781.637530
 20
304.272142
 30
0.0
 10
779.622183
 20
297.374766
 30
0.0
 10
778.367280
 20
293.079954
 30
0.0
 11
763.619672
 21
307.141618
 31
0.0
 11
772.775233
 21
307.884667
 31
0.0
 11
778.834109
 21
304.512895
 31
0.0
 11
778.367280
 21
293.079954
 31
0.0
  0
SPLINE
  5
11b
100
AcDbEntity
  8
0
 62
5
100
AcDbSpline
 70
0
 71
3
 72
10
 73
6
 74
4
 40
0.000000
 40
0.000000
 40
0.000000
 40
0.000000
 40
7.946199
 40
15.959827
 40
24.433135
 40
24.433135
 40
24.433135
 40
24.433135
 10
778.367280
 20
293.079954
 30
0.0
 10
780.424114
 20
294.744438
 30
0.0
 10
784.555235
 20
298.087529
 30
0.0
 10
791.532493
 20
302.464855
 30
0.0
 10
796.881957
 20
303.854941
 30
0.0
 10
799.631264
 20
304.569362
 30
0.0
 11
778.367280
 21
293.079954
 31
0.0
 11
784.643496
 21
297.953474
 31
0.0
 11
791.552749
 21
302.013086
 31
0.0
 11
799.631264
 21
304.569362
 31
0.0
  0
SPLINE
  5
11c
100
AcDbEntity
  8
0
 62
5
100
AcDbSpline
 70
0
 71
3
 72
10
 73
6
 74
4
 40
0.000000
 40
0.000000
 40
0.000000
 40
0.000000
 40
2.146330
 40
4.463059
 40
7.702279
 40
7.702279
 40
7.702279
 40
7.702279
 10
799.631264
 20
304.569362
 30
0.0
 10
798.956248
 20
304.803786
 30
0.0
 10
797.552626
 20
305.291243
 30
0.0
 10
795.084947
 20
306.061378
 30
0.0
 10
793.220598
 20
306.078753
 30
0.0
 10
792.133648
 20
306.088882
 30
0.0
 11
799.631264
 21
304.569362
 31
0.0
 11
797.600142
 21
305.263102
 31
0.0
 11
795.365837
 21
305.875569
 31
0.0
 11
792.133648
 21
306.088882
 31
0.0
  0
SPLINE
  5
11d
100
AcDbEntity
  8
0
 62
5
100
AcDbSpline
 70
0
 71
3
 72
10
 73
6
 74
4
 40
0.000000
 40
0.000000
 40
0.000000
 40
0.000000
 40
9.004497
 40
17.602646
 40
27.012064
 40
27.012064
 40
27.012064
 40
27.012064
 10
792.133648
 20
306.088882
 30
0.0
 10
794.497919
 20
307.982367
 30
0.0
 10
799.119768
 20
311.683890
 30
0.0
 10
808.043483
 20
314.095247
 30
0.0
 10
814.053652
 20
313.986356
 30
0.0
 10
817.194120
 20
313.929458
 30
0.0
 11
792.133648
 21
306.088882
 31
0.0
 11
799.538736
 21
311.211932
 31
0.0
 11
807.789421
 21
313.631513
 31
0.0
 11
817.194120
 21
313.929458
 31
0.0
  0
SPLINE
  5
11e
100
AcDbEntity
  8
0
 62
5
100
AcDbSpline
 70
0
 71
3
 72
10
 73
6
 74
4
 40
0.000000
 40
0.000000
 40
0.000000
 40
0.000000
 40
7.176680
 40
12.611916
 40
17.083091
 40
17.083091
 40
17.083091
 40
17.083091
 10
817.194120
 20
313.929458
 30
0.0
 10
814.826755
 20
313.564460
 30
0.0
 10
810.666474
 20
312.923031
 30
0.0
 10
805.242954
 20
311.051923
 30
0.0
 10
802.374098
 20
309.407810
 30
0.0
 10
801.079264
 20
308.665754
 30
0.0
 11
817.194120
 21
313.929458
 31
0.0
 11
810.142625
 21
312.594862
 31
0.0
 11
805.020034
 21
310.778036
 31
0.0
 11
801.079264
 21
308.665754
 31
0.0
  0
SPLINE
  5
11f
100
AcDbEntity
  8
0
 62
5
100
AcDbSpline
 70
0
 71
3
 72
10
 73
6
 74
4
 40
0.000000
 40
0.000000
 40
0.000000
 40
0.000000
 40
2.847088
 40
5.498776
 40
7.791854
 40
7.791854
 40
7.791854
 40
7.791854
 10
801.079264
 20
308.665754
 30
0.0
 10
802.008807
 20
308.484025
 30
0.0
 10
803.804099
 20
308.133039
 30
0.0
 10
806.359972
 20
307.541998
 30
0.0
 10
807.786782
 20
306.698976
 30
0.0
 10
808.448448
 20
306.308034
 30
0.0
 11
801.079264
 21
308.665754
 31
0.0
 11
803.870149
 21
308.102842
 31
0.0
 11
806.421478
 21
307.380227
 31
0.0
 11
808.448448
 21
306.308034
 31
0.0
  0
SPLINE
  5
120
100
AcDbEntity
  8
0
 62
5
100
AcDbSpline
 70
0
 71
3
 72
10
 73
6
 74
4
 40
0.000000
 40
0.000000
 40
0.000000
 40
0.000000
 40
5.001245
 40
10.176040
 40
15.818280
 40
15.818280
 40
15.818280
 40
15.818280
 10
808.448448
 20
306.308034
 30
0.0
 10
806.976379
 20
305.514414
 30
0.0
 10
803.981159
 20
303.899633
 30
0.0
 10
800.210585
 20
300.046467
 30
0.0
 10
798.655865
 20
296.773464
 30
0.0
 10
797.844912
 20
295.066242
 30
0.0
 11
808.448448
 21
306.308034
 31
0.0
 11
804.169820
 21
303.718479
 31
0.0
 11
800.556297
 21
300.014299
 31
0.0
 11
797.844912
 21
295.066242
 31
0.0
  0
SPLINE
  5
121
100
AcDbEntity
  8
0
 62
5
100
AcDbSpline
 70
0
 71
3
 72
10
 73
6
 74
4
 40
0.000000
 40
0.000000
 40
0.000000
 40
0.000000
 40
12.410037
 40
21.069240
 40
32.461325
 40
32.461325
 40
32.461325
 40
32.461325
 10
797.844912
 20
295.066242
 30
0.0
 10
802.145495
 20
296.285497
 30
0.0
 10
809.446845
 20
298.355496
 30
0.0
 10
818.429600
 20
288.320500
 30
0.0
 10
814.206150
 20
282.060459
 30
0.0
 10
811.806608
 20
278.503834
 30
0.0
 11
797.844912
 21
295.066242
 31
0.0
 11
810.236309
 21
295.746164
 31
0.0
 11
815.850891
 21
289.153876
 31
0.0
 11
811.806608
 21
278.503834
 31
0.0
  0
SPLINE
  5
122
100
AcDbEntity
  8
0
 62
5
100
AcDbSpline
 70
0
 71
3
 72
10
 73
6
 74
4
 40
0.000000
 40
0.000000
 40
0.000000
 40
0.000000
 40
1.933966
 40
4.242103
 40
6.793778
 40
6.793778
 40
6.793778
 40
6.793778
 10
811.806608
 20
278.503834
 30
0.0
 10
812.437006
 20
278.311237
 30
0.0
 10
813.819766
 20
277.888779
 30
0.0
 10
816.053177
 20
278.637286
 30
0.0
 10
817.560189
 20
279.193187
 30
0.0
 10
818.351456
 20
279.485066
 30
0.0
 11
811.806608
 21
278.503834
 31
0.0
 11
813.700254
 21
278.110987
 31
0.0
 11
815.952674
 21
278.615071
 31
0.0
 11
818.351456
 21
279.485066
 31
0.0
  0
SPLINE
  5
123
100
AcDbEntity
  8
0
 62
5
100
AcDbSpline
 70
0
 71
3
 72
10
 73
6
 74
4
 40
0.000000
 40
0.000000
 40
0.000000
 40
0.000000
 40
2.270592
 40
5.229943
 40
8.746195
 40
8.746195
 40
8.746195
 40
8.746195
 10
818.351456
 20
279.485066
 30
0.0
 10
818.175344
 20
278.732129
 30
0.0
 10
817.769697
 20
276.997861
 30
0.0
 10
815.466276
 20
275.007650
 30
0.0
 10
813.761309
 20
273.717115
 30
0.0
 10
812.835512
 20
273.016354
 30
0.0
 11
818.351456
 21
279.485066
 31
0.0
 11
817.639960
 21
277.328828
 31
0.0
 11
815.613040
 21
275.172592
 31
0.0
 11
812.835512
 21
273.016354
 31
0.0
  0
SPLINE
  5
124
100
AcDbEntity
  8
0
 62
5
100
AcDbSpline
 70
0
 71
3
 72
10
 73
6
 74
4
 40
0.000000
 40
0.000000
 40
0.000000
 40
0.000000
 40
8.333206
 40
13.831187
 40
18.570190
 40
18.570190
 40
18.570190
 40
18.570190
 10
812.835512
 20
273.016354
 30
0.0
 10
815.645890
 20
273.266527
 30
0.0
 10
820.310464
 20
273.681756
 30
0.0
 10
825.682345
 20
277.147756
 30
0.0
 10
827.802173
 20
279.833008
 30
0.0
 10
828.783504
 20
281.076090
 30
0.0
 11
812.835512
 21
273.016354
 31
0.0
 11
821.025771
 21
274.553226
 31
0.0
 11
825.659181
 21
277.512840
 31
0.0
 11
828.783504
 21
281.076090
 31
0.0
  0
SPLINE
  5
125
100
AcDbEntity
  8
0
 62
5
100
AcDbSpline
 70
0
 71
3
 72
10
 73
6
 74
4
 40
0.000000
 40
0.000000
 40
0.000000
 40
0.000000
 40
4.884674
 40
8.708692
 40
14.515364
 40
14.515364
 40
14.515364
 40
14.515364
 10
828.783504
 20
281.076090
 30
0.0
 10
826.875061
 20
280.737402
 30
0.0
 10
823.472574
 20
280.133567
 30
0.0
 10
822.292155
 20
285.893041
 30
0.0
 10
823.239366
 20
288.878901
 30
0.0
 10
823.810472
 20
290.679178
 30
0.0
 11
828.783504
 21
281.076090
 31
0.0
 11
823.905808
 21
281.337103
 31
0.0
 11
822.726205
 21
284.974636
 31
0.0
 11
823.810472
 21
290.679178
 31
0.0
  0
SPLINE
  5
126
100
AcDbEntity
  8
0
 62
5
100
AcDbSpline
 70
0
 71
3
 72
10
 73
6
 74
4
 40
0.000000
 40
0.000000
 40
0.000000
 40
0.000000
 40
3.885549
 40
7.159363
 40
14.575438
 40
14.575438
 40
14.575438
 40
14.575438
 10
823.810472
 20
290.679178
 30
0.0
 10
822.381909
 20
289.595672
 30
0.0
 10
819.749693
 20
287.599246
 30
0.0
 10
819.824802
 20
294.331394
 30
0.0
 10
820.892658
 20
297.352682
 30
0.0
 10
821.633480
 20
299.448690
 30
0.0
 11
823.810472
 21
290.679178
 31
0.0
 11
820.310963
 21
288.990711
 31
0.0
 11
819.898445
 21
292.238432
 31
0.0
 11
821.633480
 21
299.448690
 31
0.0
  0
SPLINE
  5
127
100
AcDbEntity
  8
0
 62
5
100
AcDbSpline
 70
0
 71
3
 72
10
 73
6
 74
4
 40
0.000000
 40
0.000000
 40
0.000000
 40
0.000000
 40
3.805853
 40
6.513570
 40
9.055272
 40
9.055272
 40
9.055272
 40
9.055272
 10
821.633480
 20
299.448690
 30
0.0
 10
820.398936
 20
299.760454
 30
0.0
 10
818.286063
 20
300.294025
 30
0.0
 10
815.258531
 20
300.389598
 30
0.0
 10
813.510437
 20
300.432825
 30
0.0
 10
812.664032
 20
300.453754
 30
0.0
 11
821.633480
 21
299.448690
 31
0.0
 11
817.907703
 21
300.225289
 31
0.0
 11
815.204886
 21
300.388110
 31
0.0
 11
812.664032
 21
300.453754
 31
0.0
  0
SPLINE
  5
128
100
AcDbEntity
  8
0
 62
5
100
AcDbSpline
 70
0
 71
3
 72
10
 73
6
 74
4
 40
0.000000
 40
0.000000
 40
0.000000
 40
0.000000
 40
14.123648
 40
21.721028
 40
28.622900
 40
28.622900
 40
28.622900
 40
28.622900
 10
812.664032
 20
300.453754
 30
0.0
 10
816.865088
 20
301.418278
 30
0.0
 10
823.325973
 20
302.901638
 30
0.0
 10
835.998707
 20
302.960308
 30
0.0
 10
834.295726
 20
297.231246
 30
0.0
 10
833.485080
 20
294.504122
 30
0.0
 11
812.664032
 21
300.453754
 31
0.0
 11
826.601577
 21
302.738989
 31
0.0
 11
834.076533
 21
301.380605
 31
0.0
 11
833.485080
 21
294.504122
 31
0.0
  0
LWPOLYLINE
  5
129
100
AcDbEntity
  8
0
 62
5
100
AcDbPolyline
 90
2
 70
1
 10
843.009960
 20
261.274250
 30
0.0
 10
843.009960
 20
261.274250
 30
0.0
  0
SPLINE
  5
12a
100
AcDbEntity
  8
0
 62
5
100
AcDbSpline
 70
0
 71
3
 72
10
 73
6
 74
4
 40
0.000000
 40
0.000000
 40
0.000000
 40
0.000000
 40
7.875789
 40
13.309240
 40
20.012239
 40
20.012239
 40
20.012239
 40
20.012239
 10
833.485080
 20
294.504122
 30
0.0
 10
836.154229
 20
294.585713
 30
0.0
 10
840.664806
 20
294.723592
 30
0.0
 10
846.707851
 20
290.454955
 30
0.0
 10
846.870786
 20
286.180578
 30
0.0
 10
846.960776
 20
283.819826
 30
0.0
 11
833.485080
 21
294.504122
 31
0.0
 11
841.320377
 21
293.706516
 31
0.0
 11
845.622599
 21
290.387891
 31
0.0
 11
846.960776
 21
283.819826
 31
0.0
  0
SPLINE
  5
12b
100
AcDbEntity
  8
0
 62
5
100
AcDbSpline
 70
0
 71
3
 72
10
 73
6
 74
4
 40
0.000000
 40
0.000000
 40
0.000000
 40
0.000000
 40
4.782932
 40
8.775546
 40
13.169529
 40
13.169529
 40
13.169529
 40
13.169529
 10
827.370728
 20
314.797730
 30
0.0
 10
827.704145
 20
313.234024
 30
0.0
 10
828.315885
 20
310.364994
 30
0.0
 10
831.360090
 20
306.686794
 30
0.0
 10
834.264727
 20
306.486727
 30
0.0
 10
835.786552
 20
306.381906
 30
0.0
 11
827.370728
 21
314.797730
 31
0.0
 11
828.791840
 21
310.230798
 31
0.0
 11
831.486256
 21
307.284428
 31
0.0
 11
835.786552
 21
306.381906
 31
0.0
  0
LWPOLYLINE
  5
12c
100
AcDbEntity
  8
0
 62
5
100
AcDbPolyline
 90
2
 70
1
 10
846.960776
 20
283.819826
 30
0.0
 10
846.960776
 20
283.819826
 30
0.0
  0
SPLINE
  5
12d
100
AcDbEntity
  8
0
 62
5
100
AcDbSpline
 70
0
 71
3
 72
10
 73
6
 74
4
 40
0.000000
 40
0.000000
 40
0.000000
 40
0.000000
 40
3.999907
 40
7.960839
 40
12.159414
 40
12.159414
 40
12.159414
 40
12.159414
 10
835.786552
 20
306.381906
 30
0.0
 10
835.152874
 20
307.557306
 30
0.0
 10
833.891693
 20
309.896653
 30
0.0
 10
831.063363
 20
312.915398
 30
0.0
 10
828.625276
 20
314.158221
 30
0.0
 10
827.370728
 20
314.797730
 30
0.0
 11
835.786552
 21
306.381906
 31
0.0
 11
833.736433
 21
309.816476
 31
0.0
 11
830.991353
 21
312.671912
 31
0.0
 11
827.370728
 21
314.797730
 31
0.0
  0
SPLINE
  5
12e
100
AcDbEntity
  8
0
 62
5
100
AcDbSpline
 70
0
 71
3
 72
10
 73
6
 74
4
 40
0.000000
 40
0.000000
 40
0.000000
 40
0.000000
 40
23.090264
 40
38.927893
 40
58.189177
 40
58.189177
 40
58.189177
 40
58.189177
 10
825.165232
 20
340.287258
 30
0.0
 10
828.382630
 20
348.999857
 30
0.0
 10
833.806844
 20
363.688434
 30
0.0
 10
807.137349
 20
372.499035
 30
0.0
 10
804.770510
 20
358.293464
 30
0.0
 10
803.471656
 20
350.497850
 30
0.0
 11
825.165232
 21
340.287258
 31
0.0
 11
826.631761
 21
363.330904
 31
0.0
 11
811.499948
 21
368.006237
 31
0.0
 11
803.471656
 21
350.497850
 31
0.0
  0
SPLINE
  5
12f
100
AcDbEntity
  8
0
 62
5
100
AcDbSpline
 70
0
 71
3
 72
10
 73
6
 74
4
 40
0.000000
 40
0.000000
 40
0.000000
 40
0.000000
 40
5.628015
 40
11.433840
 40
17.541826
 40
17.541826
 40
17.541826
 40
17.541826
 10
803.471656
 20
350.497850
 30
0.0
 10
802.978735
 20
348.683321
 30
0.0
 10
801.977320
 20
344.996936
 30
0.0
 10
801.701920
 20
339.106822
 30
0.0
 10
802.158201
 20
335.159799
 30
0.0
 10
802.392128
 20
333.136234
 30
0.0
 11
803.471656
 21
350.497850
 31
0.0
 11
802.192029
 21
345.017238
 31
0.0
 11
801.859440
 21
339.220948
 31
0.0
 11
802.392128
 21
333.136234
 31
0.0
  0
SPLINE
  5
130
100
AcDbEntity
  8
0
 62
5
100
AcDbSpline
 70
0
 71
3
 72
10
 73
6
 74
4
 40
0.000000
 40
0.000000
 40
0.000000
 40
0.000000
 40
6.671785
 40
15.022188
 40
23.525929
 40
23.525929
 40
23.525929
 40
23.525929
 10
802.392128
 20
333.136234
 30
0.0
 10
800.486538
 20
334.285192
 30
0.0
 10
796.195914
 20
336.872183
 30
0.0
 10
790.619756
 20
342.682241
 30
0.0
 10
788.552604
 20
347.952212
 30
0.0
 10
787.509624
 20
350.611170
 30
0.0
 11
802.392128
 21
333.136234
 31
0.0
 11
796.819360
 21
336.804608
 31
0.0
 11
791.129283
 21
342.916258
 31
0.0
 11
787.509624
 21
350.611170
 31
0.0
  0
SPLINE
  5
131
100
AcDbEntity
  8
0
 62
5
100
AcDbSpline
 70
0
 71
3
 72
10
 73
6
 74
4
 40
0.000000
 40
0.000000
 40
0.000000
 40
0.000000
 40
5.273703
 40
11.297949
 40
18.672936
 40
18.672936
 40
18.672936
 40
18.672936
 10
787.509624
 20
350.611170
 30
0.0
 10
786.605581
 20
349.084184
 30
0.0
 10
784.668833
 20
345.812893
 30
0.0
 10
784.017827
 20
339.441331
 30
0.0
 10
784.750506
 20
335.034798
 30
0.0
 10
785.153776
 20
332.609426
 30
0.0
 11
787.509624
 21
350.611170
 31
0.0
 11
785.133665
 21
345.903012
 31
0.0
 11
784.307447
 21
339.935692
 31
0.0
 11
785.153776
 21
332.609426
 31
0.0
  0
LWPOLYLINE
  5
132
100
AcDbEntity
  8
0
 62
5
100
AcDbPolyline
 90
2
 70
1
 10
827.370728
 20
314.797730
 30
0.0
 10
827.370728
 20
314.797730
 30
0.0
  0
SPLINE
  5
133
100
AcDbEntity
  8
0
 62
5
100
AcDbSpline
 70
0
 71
3
 72
13
 73
9
 74
7
 40
0.000000
 40
0.000000
 40
0.000000
 40
0.000000
 40
26.039657
 40
49.214537
 40
73.185330
 40
98.083110
 40
122.895356
 40
156.747661
 40
156.747661
 40
156.747661
 40
156.747661
 10
785.153776
 20
332.609426
 30
0.0
 10
781.452662
 20
341.154523
 30
0.0
 10
774.457616
 20
357.304621
 30
0.0
 10
790.818729
 20
379.664754
 30
0.0
 10
814.211957
 20
388.355599
 30
0.0
 10
840.009693
 20
381.967072
 30
0.0
 10
856.594687
 20
354.633799
 30
0.0
 10
846.674680
 20
336.070748
 30
0.0
 10
840.950352
 20
325.358962
 30
0.0
 11
785.153776
 21
332.609426
 31
0.0
 11
779.088820
 21
357.932935
 31
0.0
 11
791.793111
 21
377.315300
 31
0.0
 11
814.209824
 21
385.805874
 31
0.0
 11
838.148472
 21
378.961855
 31
0.0
 11
850.943032
 21
357.702816
 31
0.0
 11
840.950352
 21
325.358962
 31
0.0
  0
SPLINE
  5
134
100
AcDbEntity
  8
0
 62
5
100
AcDbSpline
 70
0
 71
3
 72
10
 73
6
 74
4
 40
0.000000
 40
0.000000
 40
0.000000
 40
0.000000
 40
13.064191
 40
33.003739
 40
57.192122
 40
57.192122
 40
57.192122
 40
57.192122
 10
855.121072
 20
280.602298
 30
0.0
 10
857.712366
 20
284.099879
 30
0.0
 10
864.258686
 20
292.935731
 30
0.0
 10
879.172668
 20
305.592167
 30
0.0
 10
893.443256
 20
309.751461
 30
0.0
 10
901.265568
 20
312.031346
 30
0.0
 11
855.121072
 21
280.602298
 31
0.0
 11
863.217742
 21
290.854958
 31
0.0
 11
878.628909
 21
303.507290
 31
0.0
 11
901.265568
 21
312.031346
 31
0.0
  0
SPLINE
  5
135
100
AcDbEntity
  8
0
 62
5
100
AcDbSpline
 70
0
 71
3
 72
10
 73
6
 74
4
 40
0.000000
 40
0.000000
 40
0.000000
 40
0.000000
 40
14.156215
 40
28.371542
 40
42.659622
 40
42.659622
 40
42.659622
 40
42.659622
 10
901.265568
 20
312.031346
 30
0.0
 10
896.506568
 20
311.712030
 30
0.0
 10
886.968696
 20
311.072064
 30
0.0
 10
874.182750
 20
304.041293
 30
0.0
 10
867.044467
 20
297.789006
 30
0.0
 10
863.466216
 20
294.654882
 30
0.0
 11
901.265568
 21
312.031346
 31
0.0
 11
887.246079
 21
310.068604
 31
0.0
 11
874.553956
 21
303.666612
 31
0.0
 11
863.466216
 21
294.654882
 31
0.0
  0
SPLINE
  5
136
100
AcDbEntity
  8
0
 62
5
100
AcDbSpline
 70
0
 71
3
 72
10
 73
6
 74
4
 40
0.000000
 40
0.000000
 40
0.000000
 40
0.000000
 40
11.856807
 40
22.737193
 40
33.096643
 40
33.096643
 40
33.096643
 40
33.096643
 10
863.466216
 20
294.654882
 30
0.0
 10
865.098711
 20
298.254997
 30
0.0
 10
868.229264
 20
305.158751
 30
0.0
 10
874.878939
 20
314.200209
 30
0.0
 10
880.740931
 20
318.242414
 30
0.0
 10
883.600040
 20
320.213946
 30
0.0
 11
863.466216
 21
294.654882
 31
0.0
 11
868.754669
 21
305.266958
 31
0.0
 11
875.402035
 21
313.880628
 31
0.0
 11
883.600040
 21
320.213946
 31
0.0
  0
SPLINE
  5
137
100
AcDbEntity
  8
0
 62
5
100
AcDbSpline
 70
0
 71
3
 72
13
 73
9
 74
7
 40
0.000000
 40
0.000000
 40
0.000000
 40
0.000000
 40
7.560845
 40
11.450106
 40
20.915814
 40
25.519048
 40
29.806336
 40
33.400123
 40
33.400123
 40
33.400123
 40
33.400123
 10
883.600040
 20
320.213946
 30
0.0
 10
881.299742
 20
316.998569
 30
0.0
 10
877.816182
 20
312.129218
 30
0.0
 10
886.792120
 20
315.024732
 30
0.0
 10
890.157764
 20
319.198961
 30
0.0
 10
895.364823
 20
322.688506
 30
0.0
 10
899.212733
 20
324.345343
 30
0.0
 10
901.825902
 20
324.708526
 30
0.0
 10
903.017512
 20
324.874138
 30
0.0
 11
883.600040
 21
320.213946
 31
0.0
 11
880.360677
 21
313.382189
 31
0.0
 11
884.125216
 21
314.359221
 31
0.0
 11
891.682056
 21
320.059554
 31
0.0
 11
895.512965
 21
322.611789
 31
0.0
 11
899.480955
 21
324.235333
 31
0.0
 11
903.017512
 21
324.874138
 31
0.0
  0
SPLINE
  5
138
100
AcDbEntity
  8
0
 62
5
100
AcDbSpline
 70
0
 71
3
 72
16
 73
12
 74
10
 40
0.000000
 40
0.000000
 40
0.000000
 40
0.000000
 40
3.629809
 40
7.441349
 40
9.416906
 40
13.178848
 40
19.823295
 40
28.507097
 40
36.460210
 40
45.540255
 40
54.332079
 40
54.332079
 40
54.332079
 40
54.332079
 10
903.017512
 20
324.874138
 30
0.0
 10
902.000450
 20
324.247550
 30
0.0
 10
899.915404
 20
322.963003
 30
0.0
 10
897.086679
 20
321.179078
 30
0.0
 10
897.051107
 20
317.066477
 30
0.0
 10
902.665648
 20
319.310747
 30
0.0
 10
907.865956
 20
320.446814
 30
0.0
 10
916.105578
 20
321.516583
 30
0.0
 10
924.330962
 20
318.805760
 30
0.0
 10
931.836806
 20
314.505417
 30
0.0
 10
936.560231
 20
310.869767
 30
0.0
 10
938.883856
 20
309.081258
 30
0.0
 11
903.017512
 21
324.874138
 31
0.0
 11
899.930576
 21
322.964600
 31
0.0
 11
897.279910
 21
320.225658
 31
0.0
 11
897.368744
 21
318.252098
 31
0.0
 11
901.112385
 21
318.622719
 31
0.0
 11
907.545181
 21
320.286393
 31
0.0
 11
916.209744
 21
320.864106
 31
0.0
 11
923.862088
 21
318.697625
 31
0.0
 11
931.799022
 21
314.287148
 31
0.0
 11
938.883856
 21
309.081258
 31
0.0
  0
SPLINE
  5
139
100
AcDbEntity
  8
0
 62
5
100
AcDbSpline
 70
0
 71
3
 72
10
 73
6
 74
4
 40
0.000000
 40
0.000000
 40
0.000000
 40
0.000000
 40
12.991974
 40
21.254071
 40
27.732522
 40
27.732522
 40
27.732522
 40
27.732522
 10
938.883856
 20
309.081258
 30
0.0
 10
934.537864
 20
309.043569
 30
0.0
 10
927.428088
 20
308.981913
 30
0.0
 10
918.392164
 20
306.597554
 30
0.0
 10
914.006495
 20
304.366161
 30
0.0
 10
912.079000
 20
303.385466
 30
0.0
 11
938.883856
 21
309.081258
 31
0.0
 11
925.914888
 21
308.308435
 31
0.0
 11
917.942064
 21
306.141335
 31
0.0
 11
912.079000
 21
303.385466
 31
0.0
  0
SPLINE
  5
13a
100
AcDbEntity
  8
0
 62
5
100
AcDbSpline
 70
0
 71
3
 72
10
 73
6
 74
4
 40
0.000000
 40
0.000000
 40
0.000000
 40
0.000000
 40
18.937334
 40
37.586582
 40
60.424197
 40
60.424197
 40
60.424197
 40
60.424197
 10
912.079000
 20
303.385466
 30
0.0
 10
905.452469
 20
305.092742
 30
0.0
 10
892.300213
 20
308.481320
 30
0.0
 10
877.523678
 20
291.276385
 30
0.0
 10
871.528703
 20
279.153458
 30
0.0
 10
868.228600
 20
272.480050
 30
0.0
 11
912.079000
 21
303.385466
 31
0.0
 11
893.204788
 21
304.930379
 31
0.0
 11
879.386620
 21
292.406295
 31
0.0
 11
868.228600
 21
272.480050
 31
0.0
  0
LWPOLYLINE
  5
13b
100
AcDbEntity
  8
0
 62
5
100
AcDbPolyline
 90
2
 70
1
 10
840.950352
 20
325.358962
 30
0.0
 10
825.165232
 20
340.287258
 30
0.0
  0
SPLINE
  5
13c
100
AcDbEntity
  8
0
 62
5
100
AcDbSpline
 70
0
 71
3
 72
10
 73
6
 74
4
 40
0.000000
 40
0.000000
 40
0.000000
 40
0.000000
 40
5.258666
 40
10.479580
 40
15.671191
 40
15.671191
 40
15.671191
 40
15.671191
 10
868.228600
 20
272.480050
 30
0.0
 10
866.866285
 20
273.569533
 30
0.0
 10
864.151435
 20
275.740676
 30
0.0
 10
860.321166
 20
279.509250
 30
0.0
 10
856.851182
 20
280.238633
 30
0.0
 10
855.121072
 20
280.602298
 30
0.0
 11
868.228600
 21
272.480050
 31
0.0
 11
864.180304
 21
275.836368
 31
0.0
 11
860.081448
 21
279.070146
 31
0.0
 11
855.121072
 21
280.602298
 31
0.0
  0
SPLINE
  5
13d
100
AcDbEntity
  8
0
 62
5
100
AcDbSpline
 70
0
 71
3
 72
10
 73
6
 74
4
 40
0.000000
 40
0.000000
 40
0.000000
 40
0.000000
 40
6.411087
 40
12.318884
 40
19.753705
 40
19.753705
 40
19.753705
 40
19.753705
 10
826.470808
 20
298.203610
 30
0.0
 10
825.767317
 20
295.949370
 30
0.0
 10
824.415560
 20
291.617854
 30
0.0
 10
830.202721
 20
287.026504
 30
0.0
 10
833.231475
 20
283.930703
 30
0.0
 10
834.919168
 20
282.205650
 30
0.0
 11
826.470808
 21
298.203610
 31
0.0
 11
825.703932
 21
291.838555
 31
0.0
 11
829.582796
 21
287.382493
 31
0.0
 11
834.919168
 21
282.205650
 31
0.0
  0
LWPOLYLINE
  5
13e
100
AcDbEntity
  8
0
 62
5
100
AcDbPolyline
 90
2
 70
1
 10
855.121072
 20
280.602298
 30
0.0
 10
855.121072
 20
280.602298
 30
0.0
  0
SPLINE
  5
13f
100
AcDbEntity
  8
0
 62
5
100
AcDbSpline
 70
0
 71
3
 72
10
 73
6
 74
4
 40
0.000000
 40
0.000000
 40
0.000000
 40
0.000000
 40
5.225987
 40
10.410890
 40
19.515301
 40
19.515301
 40
19.515301
 40
19.515301
 10
834.919168
 20
282.205650
 30
0.0
 10
835.585103
 20
280.589179
 30
0.0
 10
836.911737
 20
277.368943
 30
0.0
 10
837.093139
 20
270.614831
 30
0.0
 10
840.596263
 20
267.044502
 30
0.0
 10
842.828272
 20
264.769674
 30
0.0
 11
834.919168
 21
282.205650
 31
0.0
 11
836.607076
 21
277.259753
 31
0.0
 11
837.500444
 21
272.152393
 31
0.0
 11
842.828272
 21
264.769674
 31
0.0
  0
SPLINE
  5
140
100
AcDbEntity
  8
0
 62
5
100
AcDbSpline
 70
0
 71
3
 72
10
 73
6
 74
4
 40
0.000000
 40
0.000000
 40
0.000000
 40
0.000000
 40
13.322347
 40
27.457916
 40
44.244214
 40
44.244214
 40
44.244214
 40
44.244214
 10
859.185736
 20
251.647754
 30
0.0
 10
861.381464
 20
247.690480
 30
0.0
 10
865.906953
 20
239.534372
 30
0.0
 10
862.365631
 20
223.141807
 30
0.0
 10
871.838672
 20
216.802089
 30
0.0
 10
876.981224
 20
213.360498
 30
0.0
 11
859.185736
 21
251.647754
 31
0.0
 11
864.190201
 21
239.301084
 31
0.0
 11
865.074642
 21
225.193212
 31
0.0
 11
876.981224
 21
213.360498
 31
0.0
  0
SPLINE
  5
141
100
AcDbEntity
  8
0
 62
5
100
AcDbSpline
 70
0
 71
3
 72
10
 73
6
 74
4
 40
0.000000
 40
0.000000
 40
0.000000
 40
0.000000
 40
6.542432
 40
13.168560
 40
19.932903
 40
19.932903
 40
19.932903
 40
19.932903
 10
876.981224
 20
213.360498
 30
0.0
 10
875.884353
 20
215.249046
 30
0.0
 10
873.676578
 20
219.050302
 30
0.0
 10
872.965985
 20
226.139850
 30
0.0
 10
875.514209
 20
229.950170
 30
0.0
 10
876.801472
 20
231.874994
 30
0.0
 11
876.981224
 21
213.360498
 31
0.0
 11
874.119685
 21
219.243950
 31
0.0
 11
873.711774
 21
225.857511
 31
0.0
 11
876.801472
 21
231.874994
 31
0.0
  0
SPLINE
  5
142
100
AcDbEntity
  8
0
 62
5
100
AcDbSpline
 70
0
 71
3
 72
10
 73
6
 74
4
 40
0.000000
 40
0.000000
 40
0.000000
 40
0.000000
 40
20.194572
 40
38.050262
 40
58.943278
 40
58.943278
 40
58.943278
 40
58.943278
 10
876.801472
 20
231.874994
 30
0.0
 10
879.230862
 20
225.128996
 30
0.0
 10
883.808276
 20
212.418303
 30
0.0
 10
906.126981
 20
207.719145
 30
0.0
 10
917.204604
 20
215.004571
 30
0.0
 10
923.177576
 20
218.932818
 30
0.0
 11
876.801472
 21
231.874994
 31
0.0
 11
886.858602
 21
214.362860
 31
0.0
 11
904.213646
 21
210.164270
 31
0.0
 11
923.177576
 21
218.932818
 31
0.0
  0
SPLINE
  5
143
100
AcDbEntity
  8
0
 62
5
100
AcDbSpline
 70
0
 71
3
 72
10
 73
6
 74
4
 40
0.000000
 40
0.000000
 40
0.000000
 40
0.000000
 40
7.768327
 40
13.724955
 40
18.796633
 40
18.796633
 40
18.796633
 40
18.796633
 10
923.177576
 20
218.932818
 30
0.0
 10
920.589173
 20
218.740628
 30
0.0
 10
916.016023
 20
218.401070
 30
0.0
 10
909.743877
 20
219.872129
 30
0.0
 10
906.756107
 20
222.060663
 30
0.0
 10
905.382096
 20
223.067122
 30
0.0
 11
923.177576
 21
218.932818
 31
0.0
 11
915.410233
 21
218.809135
 31
0.0
 11
909.650521
 21
220.328059
 31
0.0
 11
905.382096
 21
223.067122
 31
0.0
  0
SPLINE
  5
144
100
AcDbEntity
  8
0
 62
5
100
AcDbSpline
 70
0
 71
3
 72
10
 73
6
 74
4
 40
0.000000
 40
0.000000
 40
0.000000
 40
0.000000
 40
25.671819
 40
46.786691
 40
73.699337
 40
73.699337
 40
73.699337
 40
73.699337
 10
905.382096
 20
223.067122
 30
0.0
 10
914.838129
 20
224.505233
 30
0.0
 10
932.071676
 20
227.126177
 30
0.0
 10
935.054990
 20
259.675089
 30
0.0
 10
917.190270
 20
263.976890
 30
0.0
 10
907.179616
 20
266.387442
 30
0.0
 11
905.382096
 21
223.067122
 31
0.0
 11
929.131876
 21
232.813415
 31
0.0
 11
930.991559
 21
253.846232
 31
0.0
 11
907.179616
 21
266.387442
 31
0.0
  0
SPLINE
  5
145
100
AcDbEntity
  8
0
 62
5
100
AcDbSpline
 70
0
 71
3
 72
10
 73
6
 74
4
 40
0.000000
 40
0.000000
 40
0.000000
 40
0.000000
 40
14.405979
 40
25.082820
 40
39.708603
 40
39.708603
 40
39.708603
 40
39.708603
 10
907.179616
 20
266.387442
 30
0.0
 10
911.653608
 20
263.048011
 30
0.0
 10
919.443453
 20
257.233595
 30
0.0
 10
911.171960
 20
242.624830
 30
0.0
 10
902.149200
 20
242.988926
 30
0.0
 10
896.933736
 20
243.199386
 30
0.0
 11
907.179616
 21
266.387442
 31
0.0
 11
916.308527
 21
255.243152
 31
0.0
 11
911.326463
 21
245.799954
 31
0.0
 11
896.933736
 21
243.199386
 31
0.0
  0
SPLINE
  5
146
100
AcDbEntity
  8
0
 62
5
100
AcDbSpline
 70
0
 71
3
 72
10
 73
6
 74
4
 40
0.000000
 40
0.000000
 40
0.000000
 40
0.000000
 40
8.871094
 40
18.505368
 40
28.127149
 40
28.127149
 40
28.127149
 40
28.127149
 10
896.933736
 20
243.199386
 30
0.0
 10
898.714898
 20
245.633604
 30
0.0
 10
902.430455
 20
250.711456
 30
0.0
 10
901.588834
 20
261.218776
 30
0.0
 10
896.686850
 20
265.624189
 30
0.0
 10
894.237448
 20
267.825466
 30
0.0
 11
896.933736
 21
243.199386
 31
0.0
 11
901.296122
 21
250.923757
 31
0.0
 11
900.505606
 21
260.525544
 31
0.0
 11
894.237448
 21
267.825466
 31
0.0
  0
LWPOLYLINE
  5
147
100
AcDbEntity
  8
0
 62
5
100
AcDbPolyline
 90
2
 70
1
 10
842.828272
 20
264.769674
 30
0.0
 10
859.185736
 20
251.647754
 30
0.0
  0
SPLINE
  5
148
100
AcDbEntity
  8
0
 62
5
100
AcDbSpline
 70
0
 71
3
 72
10
 73
6
 74
4
 40
0.000000
 40
0.000000
 40
0.000000
 40
0.000000
 40
7.535365
 40
14.251993
 40
22.071486
 40
22.071486
 40
22.071486
 40
22.071486
 10
894.237448
 20
267.825466
 30
0.0
 10
894.704588
 20
265.145799
 30
0.0
 10
895.588112
 20
260.077617
 30
0.0
 10
888.100854
 20
255.033086
 30
0.0
 10
883.441960
 20
257.156388
 30
0.0
 10
880.935776
 20
258.298586
 30
0.0
 11
894.237448
 21
267.825466
 31
0.0
 11
894.040354
 21
260.292679
 31
0.0
 11
888.533083
 21
256.447805
 31
0.0
 11
880.935776
 21
258.298586
 31
0.0
  0
SPLINE
  5
149
100
AcDbEntity
  8
0
 62
5
100
AcDbSpline
 70
0
 71
3
 72
10
 73
6
 74
4
 40
0.000000
 40
0.000000
 40
0.000000
 40
0.000000
 40
5.256679
 40
10.103649
 40
15.139762
 40
15.139762
 40
15.139762
 40
15.139762
 10
859.724992
 20
275.195314
 30
0.0
 10
858.376096
 20
276.451064
 30
0.0
 10
855.783438
 20
278.864690
 30
0.0
 10
850.430402
 20
278.271223
 30
0.0
 10
847.299648
 20
279.329573
 30
0.0
 10
845.704312
 20
279.868874
 30
0.0
 11
859.724992
 21
275.195314
 31
0.0
 11
855.413103
 21
278.202022
 31
0.0
 11
850.584745
 21
278.626375
 31
0.0
 11
845.704312
 21
279.868874
 31
0.0
  0
SPLINE
  5
14a
100
AcDbEntity
  8
0
 62
5
100
AcDbSpline
 70
0
 71
3
 72
10
 73
6
 74
4
 40
0.000000
 40
0.000000
 40
0.000000
 40
0.000000
 40
3.420174
 40
7.456369
 40
11.799829
 40
11.799829
 40
11.799829
 40
11.799829
 10
845.704312
 20
279.868874
 30
0.0
 10
845.016940
 20
280.811539
 30
0.0
 10
843.518392
 20
282.866656
 30
0.0
 10
843.917063
 20
287.196717
 30
0.0
 10
841.660923
 20
289.118585
 30
0.0
 10
840.491488
 20
290.114754
 30
0.0
 11
845.704312
 21
279.868874
 31
0.0
 11
844.010492
 21
282.840165
 31
0.0
 11
843.317569
 21
286.816435
 31
0.0
 11
840.491488
 21
290.114754
 31
0.0
  0
LWPOLYLINE
  5
14b
100
AcDbEntity
  8
0
 62
5
100
AcDbPolyline
 90
2
 70
1
 10
880.935776
 20
258.298586
 30
0.0
 10
859.724992
 20
275.195314
 30
0.0
  0
LWPOLYLINE
  5
14c
100
AcDbEntity
  8
0
 62
5
100
AcDbPolyline
 90
2
 70
1
 10
826.470808
 20
298.203610
 30
0.0
 10
826.470808
 20
298.203610
 30
0.0
  0
LWPOLYLINE
  5
14d
100
AcDbEntity
  8
0
 62
3
100
AcDbPolyline
 90
5
 70
1
 10
971.563348
 20
729.819666
 30
0.0
 10
971.563348
 20
162.890066
 30
0.0
 10
713.610396
 20
162.890066
 30
0.0
 10
713.610396
 20
729.819666
 30
0.0
 10
971.563348
 20
729.819666
 30
0.0
  0
LWPOLYLINE
  5
14e
100
AcDbEntity
  8
0
 62
7
100
AcDbPolyline
 90
85
 70
1
 10
79.805649
 20
322.288174
 30
0.0
 10
79.805649
 20
343.548035
 30
0.0
 10
71.301705
 20
343.548035
 30
0.0
 10
71.301705
 20
364.807896
 30
0.0
 10
79.805649
 20
364.807896
 30
0.0
 10
79.805649
 20
381.815784
 30
0.0
 10
71.301705
 20
381.815784
 30
0.0
 10
71.301705
 20
403.075649
 30
0.0
 10
79.805649
 20
403.075649
 30
0.0
 10
79.805649
 20
424.335506
 30
0.0
 10
93.978890
 20
424.335506
 30
0.0
 10
93.978890
 20
415.831562
 30
0.0
 10
116.656075
 20
415.831562
 30
0.0
 10
116.656075
 20
424.335506
 30
0.0
 10
133.663964
 20
424.335506
 30
0.0
 10
133.663964
 20
415.831562
 30
0.0
 10
150.671852
 20
415.831562
 30
0.0
 10
150.671852
 20
424.335506
 30
0.0
 10
167.679741
 20
424.335506
 30
0.0
 10
167.679741
 20
415.831562
 30
0.0
 10
184.687630
 20
415.831562
 30
0.0
 10
184.687630
 20
424.335506
 30
0.0
 10
201.695518
 20
424.335506
 30
0.0
 10
201.695518
 20
415.831562
 30
0.0
 10
218.703407
 20
415.831562
 30
0.0
 10
218.703407
 20
424.335506
 30
0.0
 10
235.711296
 20
424.335506
 30
0.0
 10
235.711296
 20
415.831562
 30
0.0
 10
252.719184
 20
415.831562
 30
0.0
 10
252.719184
 20
424.335506
 30
0.0
 10
269.727073
 20
424.335506
 30
0.0
 10
269.727073
 20
415.831562
 30
0.0
 10
286.734962
 20
415.831562
 30
0.0
 10
286.734962
 20
424.335506
 30
0.0
 10
303.742850
 20
424.335506
 30
0.0
 10
303.742850
 20
415.831562
 30
0.0
 10
320.750739
 20
415.831562
 30
0.0
 10
320.750739
 20
424.335506
 30
0.0
 10
337.758628
 20
424.335506
 30
0.0
 10
337.758628
 20
415.831562
 30
0.0
 10
354.766516
 20
415.831562
 30
0.0
 10
354.766516
 20
424.335506
 30
0.0
 10
371.774405
 20
424.335506
 30
0.0
 10
371.774405
 20
415.831562
 30
0.0
 10
388.782294
 20
415.831562
 30
0.0
 10
388.782294
 20
424.335506
 30
0.0
 10
405.790183
 20
424.335506
 30
0.0
 10
405.790183
 20
415.831562
 30
0.0
 10
422.798071
 20
415.831562
 30
0.0
 10
422.798071
 20
424.335506
 30
0.0
 10
439.805960
 20
424.335506
 30
0.0
 10
439.805960
 20
415.831562
 30
0.0
 10
456.813849
 20
415.831562
 30
0.0
 10
456.813849
 20
424.335506
 30
0.0
 10
473.821737
 20
424.335506
 30
0.0
 10
473.821737
 20
415.831562
 30
0.0
 10
490.829626
 20
415.831562
 30
0.0
 10
490.829626
 20
424.335506
 30
0.0
 10
507.837515
 20
424.335506
 30
0.0
 10
507.837515
 20
415.831562
 30
0.0
 10
524.845403
 20
415.831562
 30
0.0
 10
524.845403
 20
424.335506
 30
0.0
 10
541.853292
 20
424.335506
 30
0.0
 10
541.853292
 20
415.831562
 30
0.0
 10
558.861181
 20
415.831562
 30
0.0
 10
558.861181
 20
424.335506
 30
0.0
 10
575.869069
 20
424.335506
 30
0.0
 10
575.869069
 20
415.831562
 30
0.0
 10
592.876958
 20
415.831562
 30
0.0
 10
592.876958
 20
424.335506
 30
0.0
 10
609.884847
 20
424.335506
 30
0.0
 10
609.884847
 20
415.831562
 30
0.0
 10
632.562032
 20
415.831562
 30
0.0
 10
632.562032
 20
424.335506
 30
0.0
 10
646.735272
 20
424.335506
 30
0.0
 10
646.735272
 20
403.075649
 30
0.0
 10
655.239217
 20
403.075649
 30
0.0
 10
655.239217
 20
381.815784
 30
0.0
 10
646.735272
 20
381.815784
 30
0.0
 10
646.735272
 20
364.807896
 30
0.0
 10
655.239217
 20
364.807896
 30
0.0
 10
655.239217
 20
343.548035
 30
0.0
 10
646.735272
 20
343.548035
 30
0.0
 10
646.735272
 20
322.288174
 30
0.0
 10
79.805649
 20
322.288174
 30
0.0
  0
LWPOLYLINE
  5
14f
100
AcDbEntity
  8
0
 62
7
100
AcDbPolyline
 90
85
 70
1
 10
79.621657
 20
428.878225
 30
0.0
 10
79.621657
 20
450.138086
 30
0.0
 10
71.117713
 20
450.138086
 30
0.0
 10
71.117713
 20
471.397946
 30
0.0
 10
79.621657
 20
471.397946
 30
0.0
 10
79.621657
 20
488.405835
 30
0.0
 10
71.117713
 20
488.405835
 30
0.0
 10
71.117713
 20
509.665700
 30
0.0
 10
79.621657
 20
509.665700
 30
0.0
 10
79.621657
 20
530.925557
 30
0.0
 10
93.794898
 20
530.925557
 30
0.0
 10
93.794898
 20
522.421612
 30
0.0
 10
116.472083
 20
522.421612
 30
0.0
 10
116.472083
 20
530.925557
 30
0.0
 10
133.479972
 20
530.925557
 30
0.0
 10
133.479972
 20
522.421612
 30
0.0
 10
150.487860
 20
522.421612
 30
0.0
 10
150.487860
 20
530.925557
 30
0.0
 10
167.495749
 20
530.925557
 30
0.0
 10
167.495749
 20
522.421612
 30
0.0
 10
184.503638
 20
522.421612
 30
0.0
 10
184.503638
 20
530.925557
 30
0.0
 10
201.511526
 20
530.925557
 30
0.0
 10
201.511526
 20
522.421612
 30
0.0
 10
218.519415
 20
522.421612
 30
0.0
 10
218.519415
 20
530.925557
 30
0.0
 10
235.527304
 20
530.925557
 30
0.0
 10
235.527304
 20
522.421612
 30
0.0
 10
252.535192
 20
522.421612
 30
0.0
 10
252.535192
 20
530.925557
 30
0.0
 10
269.543081
 20
530.925557
 30
0.0
 10
269.543081
 20
522.421612
 30
0.0
 10
286.550970
 20
522.421612
 30
0.0
 10
286.550970
 20
530.925557
 30
0.0
 10
303.558858
 20
530.925557
 30
0.0
 10
303.558858
 20
522.421612
 30
0.0
 10
320.566747
 20
522.421612
 30
0.0
 10
320.566747
 20
530.925557
 30
0.0
 10
337.574636
 20
530.925557
 30
0.0
 10
337.574636
 20
522.421612
 30
0.0
 10
354.582524
 20
522.421612
 30
0.0
 10
354.582524
 20
530.925557
 30
0.0
 10
371.590413
 20
530.925557
 30
0.0
 10
371.590413
 20
522.421612
 30
0.0
 10
388.598302
 20
522.421612
 30
0.0
 10
388.598302
 20
530.925557
 30
0.0
 10
405.606191
 20
530.925557
 30
0.0
 10
405.606191
 20
522.421612
 30
0.0
 10
422.614079
 20
522.421612
 30
0.0
 10
422.614079
 20
530.925557
 30
0.0
 10
439.621968
 20
530.925557
 30
0.0
 10
439.621968
 20
522.421612
 30
0.0
 10
456.629857
 20
522.421612
 30
0.0
 10
456.629857
 20
530.925557
 30
0.0
 10
473.637745
 20
530.925557
 30
0.0
 10
473.637745
 20
522.421612
 30
0.0
 10
490.645634
 20
522.421612
 30
0.0
 10
490.645634
 20
530.925557
 30
0.0
 10
507.653523
 20
530.925557
 30
0.0
 10
507.653523
 20
522.421612
 30
0.0
 10
524.661411
 20
522.421612
 30
0.0
 10
524.661411
 20
530.925557
 30
0.0
 10
541.669300
 20
530.925557
 30
0.0
 10
541.669300
 20
522.421612
 30
0.0
 10
558.677189
 20
522.421612
 30
0.0
 10
558.677189
 20
530.925557
 30
0.0
 10
575.685077
 20
530.925557
 30
0.0
 10
575.685077
 20
522.421612
 30
0.0
 10
592.692966
 20
522.421612
 30
0.0
 10
592.692966
 20
530.925557
 30
0.0
 10
609.700855
 20
530.925557
 30
0.0
 10
609.700855
 20
522.421612
 30
0.0
 10
632.378040
 20
522.421612
 30
0.0
 10
632.378040
 20
530.925557
 30
0.0
 10
646.551280
 20
530.925557
 30
0.0
 10
646.551280
 20
509.665700
 30
0.0
 10
655.055225
 20
509.665700
 30
0.0
 10
655.055225
 20
488.405835
 30
0.0
 10
646.551280
 20
488.405835
 30
0.0
 10
646.551280
 20
471.397946
 30
0.0
 10
655.055225
 20
471.397946
 30
0.0
 10
655.055225
 20
450.138086
 30
0.0
 10
646.551280
 20
450.138086
 30
0.0
 10
646.551280
 20
428.878225
 30
0.0
 10
79.621657
 20
428.878225
 30
0.0
  0
LWPOLYLINE
  5
150
100
AcDbEntity
  8
0
 62
7
100
AcDbPolyline
 90
189
 70
1
 10
69.795964
 20
103.699312
 30
0.0
 10
69.795964
 20
120.707202
 30
0.0
 10
78.299907
 20
120.707202
 30
0.0
 10
78.299907
 20
137.715088
 30
0.0
 10
69.795964
 20
137.715088
 30
0.0
 10
69.795964
 20
154.722985
 30
0.0
 10
78.299907
 20
154.722985
 30
0.0
 10
78.299907
 20
171.730875
 30
0.0
 10
69.795964
 20
171.730875
 30
0.0
 10
69.795964
 20
188.738757
 30
0.0
 10
78.299907
 20
188.738757
 30
0.0
 10
78.299907
 20
205.746646
 30
0.0
 10
69.795964
 20
205.746646
 30
0.0
 10
69.795964
 20
222.754536
 30
0.0
 10
78.299907
 20
222.754536
 30
0.0
 10
78.299907
 20
239.762426
 30
0.0
 10
69.795964
 20
239.762426
 30
0.0
 10
69.795964
 20
256.770316
 30
0.0
 10
78.299907
 20
256.770316
 30
0.0
 10
78.299907
 20
273.778205
 30
0.0
 10
69.795964
 20
273.778205
 30
0.0
 10
69.795964
 20
295.746735
 30
0.0
 10
78.299907
 20
295.746735
 30
0.0
 10
78.299907
 20
309.211313
 30
0.0
 10
92.473146
 20
309.211313
 30
0.0
 10
92.473146
 20
317.715258
 30
0.0
 10
115.150329
 20
317.715258
 30
0.0
 10
115.150329
 20
309.211313
 30
0.0
 10
132.158216
 20
309.211313
 30
0.0
 10
132.158216
 20
317.715258
 30
0.0
 10
149.166103
 20
317.715258
 30
0.0
 10
149.166103
 20
309.211313
 30
0.0
 10
166.173990
 20
309.211313
 30
0.0
 10
166.173990
 20
317.715258
 30
0.0
 10
183.181877
 20
317.715258
 30
0.0
 10
183.181877
 20
309.211313
 30
0.0
 10
200.189764
 20
309.211313
 30
0.0
 10
200.189764
 20
317.715258
 30
0.0
 10
217.197651
 20
317.715258
 30
0.0
 10
217.197651
 20
309.211313
 30
0.0
 10
234.205538
 20
309.211313
 30
0.0
 10
234.205538
 20
317.715258
 30
0.0
 10
251.213425
 20
317.715258
 30
0.0
 10
251.213425
 20
309.211313
 30
0.0
 10
268.221312
 20
309.211313
 30
0.0
 10
268.221312
 20
317.715258
 30
0.0
 10
285.229199
 20
317.715258
 30
0.0
 10
285.229199
 20
309.211313
 30
0.0
 10
302.237086
 20
309.211313
 30
0.0
 10
302.237086
 20
317.715258
 30
0.0
 10
319.244973
 20
317.715258
 30
0.0
 10
319.244973
 20
309.211313
 30
0.0
 10
336.252860
 20
309.211313
 30
0.0
 10
336.252860
 20
317.715258
 30
0.0
 10
353.260747
 20
317.715258
 30
0.0
 10
353.260747
 20
309.211313
 30
0.0
 10
370.268634
 20
309.211313
 30
0.0
 10
370.268634
 20
317.715258
 30
0.0
 10
387.276521
 20
317.715258
 30
0.0
 10
387.276521
 20
309.211313
 30
0.0
 10
404.284408
 20
309.211313
 30
0.0
 10
404.284408
 20
317.715258
 30
0.0
 10
421.292295
 20
317.715258
 30
0.0
 10
421.292295
 20
309.211313
 30
0.0
 10
438.300182
 20
309.211313
 30
0.0
 10
438.300182
 20
317.715258
 30
0.0
 10
455.308068
 20
317.715258
 30
0.0
 10
455.308068
 20
309.211313
 30
0.0
 10
472.315955
 20
309.211313
 30
0.0
 10
472.315955
 20
317.715258
 30
0.0
 10
489.323842
 20
317.715258
 30
0.0
 10
489.323842
 20
309.211313
 30
0.0
 10
506.331729
 20
309.211313
 30
0.0
 10
506.331729
 20
317.715258
 30
0.0
 10
523.339616
 20
317.715258
 30
0.0
 10
523.339616
 20
309.211313
 30
0.0
 10
540.347503
 20
309.211313
 30
0.0
 10
540.347503
 20
317.715258
 30
0.0
 10
557.355390
 20
317.715258
 30
0.0
 10
557.355390
 20
309.211313
 30
0.0
 10
574.363277
 20
309.211313
 30
0.0
 10
574.363277
 20
317.715258
 30
0.0
 10
591.371164
 20
317.715258
 30
0.0
 10
591.371164
 20
309.211313
 30
0.0
 10
608.379051
 20
309.211313
 30
0.0
 10
608.379051
 20
317.715258
 30
0.0
 10
631.056234
 20
317.715258
 30
0.0
 10
631.056234
 20
309.211313
 30
0.0
 10
645.229473
 20
309.211313
 30
0.0
 10
645.229473
 20
295.746735
 30
0.0
 10
653.733417
 20
295.746735
 30
0.0
 10
653.733417
 20
273.778205
 30
0.0
 10
645.229473
 20
273.778205
 30
0.0
 10
645.229473
 20
256.770316
 30
0.0
 10
653.733417
 20
256.770316
 30
0.0
 10
653.733417
 20
239.762426
 30
0.0
 10
645.229473
 20
239.762426
 30
0.0
 10
645.229473
 20
222.754536
 30
0.0
 10
653.733417
 20
222.754536
 30
0.0
 10
653.733417
 20
205.746646
 30
0.0
 10
645.229473
 20
205.746646
 30
0.0
 10
645.229473
 20
188.738757
 30
0.0
 10
653.733417
 20
188.738757
 30
0.0
 10
653.733417
 20
171.730875
 30
0.0
 10
645.229473
 20
171.730875
 30
0.0
 10
645.229473
 20
154.722985
 30
0.0
 10
653.733417
 20
154.722985
 30
0.0
 10
653.733417
 20
137.715088
 30
0.0
 10
645.229473
 20
137.715088
 30
0.0
 10
645.229473
 20
120.707202
 30
0.0
 10
653.733417
 20
120.707202
 30
0.0
 10
653.733417
 20
103.699312
 30
0.0
 10
645.229473
 20
103.699312
 30
0.0
 10
645.229473
 20
86.691423
 30
0.0
 10
653.733417
 20
86.691423
 30
0.0
 10
653.733417
 20
64.722898
 30
0.0
 10
645.229473
 20
64.722898
 30
0.0
 10
645.229473
 20
51.258319
 30
0.0
 10
631.056234
 20
51.258319
 30
0.0
 10
631.056234
 20
42.754374
 30
0.0
 10
608.379051
 20
42.754374
 30
0.0
 10
608.379051
 20
51.258319
 30
0.0
 10
591.371164
 20
51.258319
 30
0.0
 10
591.371164
 20
42.754374
 30
0.0
 10
574.363277
 20
42.754374
 30
0.0
 10
574.363277
 20
51.258319
 30
0.0
 10
557.355390
 20
51.258319
 30
0.0
 10
557.355390
 20
42.754374
 30
0.0
 10
540.347503
 20
42.754374
 30
0.0
 10
540.347503
 20
51.258319
 30
0.0
 10
523.339616
 20
51.258319
 30
0.0
 10
523.339616
 20
42.754374
 30
0.0
 10
506.331729
 20
42.754374
 30
0.0
 10
506.331729
 20
51.258319
 30
0.0
 10
489.323842
 20
51.258319
 30
0.0
 10
489.323842
 20
42.754374
 30
0.0
 10
472.315955
 20
42.754374
 30
0.0
 10
472.315955
 20
51.258319
 30
0.0
 10
455.308068
 20
51.258319
 30
0.0
 10
455.308068
 20
42.754374
 30
0.0
 10
438.300182
 20
42.754374
 30
0.0
 10
438.300182
 20
51.258319
 30
0.0
 10
421.292295
 20
51.258319
 30
0.0
 10
421.292295
 20
42.754374
 30
0.0
 10
404.284408
 20
42.754374
 30
0.0
 10
404.284408
 20
51.258319
 30
0.0
 10
387.276521
 20
51.258319
 30
0.0
 10
387.276521
 20
42.754374
 30
0.0
 10
370.268634
 20
42.754374
 30
0.0
 10
370.268634
 20
51.258319
 30
0.0
 10
353.260747
 20
51.258319
 30
0.0
 10
353.260747
 20
42.754374
 30
0.0
 10
336.252860
 20
42.754374
 30
0.0
 10
336.252860
 20
51.258319
 30
0.0
 10
319.244973
 20
51.258319
 30
0.0
 10
319.244973
 20
42.754374
 30
0.0
 10
302.237086
 20
42.754374
 30
0.0
 10
302.237086
 20
51.258319
 30
0.0
 10
285.229199
 20
51.258319
 30
0.0
 10
285.229199
 20
42.754374
 30
0.0
 10
268.221312
 20
42.754374
 30
0.0
 10
268.221312
 20
51.258319
 30
0.0
 10
251.213425
 20
51.258319
 30
0.0
 10
251.213425
 20
42.754374
 30
0.0
 10
234.205538
 20
42.754374
 30
0.0
 10
234.205538
 20
51.258319
 30
0.0
 10
217.197651
 20
51.258319
 30
0.0
 10
217.197651
 20
42.754374
 30
0.0
 10
200.189764
 20
42.754374
 30
0.0
 10
200.189764
 20
51.258319
 30
0.0
 10
183.181877
 20
51.258319
 30
0.0
 10
183.181877
 20
42.754374
 30
0.0
 10
166.173990
 20
42.754374
 30
0.0
 10
166.173990
 20
51.258319
 30
0.0
 10
149.166103
 20
51.258319
 30
0.0
 10
149.166103
 20
42.754374
 30
0.0
 10
132.158216
 20
42.754374
 30
0.0
 10
132.158216
 20
51.258319
 30
0.0
 10
115.150329
 20
51.258319
 30
0.0
 10
115.150329
 20
42.754374
 30
0.0
 10
92.473146
 20
42.754374
 30
0.0
 10
92.473146
 20
51.258319
 30
0.0
 10
78.299907
 20
51.258319
 30
0.0
 10
78.299907
 20
64.722898
 30
0.0
 10
69.795964
 20
64.722898
 30
0.0
 10
69.795964
 20
86.691423
 30
0.0
 10
78.299907
 20
86.691423
 30
0.0
 10
78.299907
 20
103.699312
 30
0.0
 10
69.795964
 20
103.699312
 30
0.0
  0
LWPOLYLINE
  5
151
100
AcDbEntity
  8
0
 62
7
100
AcDbPolyline
 90
33
 70
1
 10
662.669501
 20
588.608268
 30
0.0
 10
662.669501
 20
536.722198
 30
0.0
 10
615.327378
 20
536.722198
 30
0.0
 10
615.327378
 20
557.476630
 30
0.0
 10
567.985238
 20
557.476630
 30
0.0
 10
567.985238
 20
536.722198
 30
0.0
 10
531.333269
 20
536.722198
 30
0.0
 10
531.333269
 20
557.476630
 30
0.0
 10
494.681300
 20
557.476630
 30
0.0
 10
494.681300
 20
536.722198
 30
0.0
 10
458.029331
 20
536.722198
 30
0.0
 10
458.029331
 20
557.476630
 30
0.0
 10
421.377361
 20
557.476630
 30
0.0
 10
421.377361
 20
536.722198
 30
0.0
 10
384.725392
 20
536.722198
 30
0.0
 10
384.725392
 20
557.476630
 30
0.0
 10
348.073440
 20
557.476630
 30
0.0
 10
348.073440
 20
536.722198
 30
0.0
 10
311.421471
 20
536.722198
 30
0.0
 10
311.421471
 20
557.476630
 30
0.0
 10
274.769485
 20
557.476630
 30
0.0
 10
274.769485
 20
536.722198
 30
0.0
 10
238.117524
 20
536.722198
 30
0.0
 10
238.117524
 20
557.476630
 30
0.0
 10
201.465555
 20
557.476630
 30
0.0
 10
201.465555
 20
536.722198
 30
0.0
 10
164.813585
 20
536.722198
 30
0.0
 10
164.813585
 20
557.476630
 30
0.0
 10
117.471458
 20
557.476630
 30
0.0
 10
117.471458
 20
536.722198
 30
0.0
 10
70.129332
 20
536.722198
 30
0.0
 10
70.129332
 20
588.608268
 30
0.0
 10
662.669501
 20
588.608268
 30
0.0
  0
LWPOLYLINE
  5
152
100
AcDbEntity
  8
0
 62
7
100
AcDbPolyline
 90
17
 70
1
 10
353.525457
 20
705.680422
 30
0.0
 10
353.525457
 20
653.802959
 30
0.0
 10
305.228505
 20
653.802959
 30
0.0
 10
305.228505
 20
674.553948
 30
0.0
 10
256.931536
 20
674.553948
 30
0.0
 10
256.931536
 20
653.802959
 30
0.0
 10
219.540345
 20
653.802959
 30
0.0
 10
219.540345
 20
674.553948
 30
0.0
 10
182.149153
 20
674.553948
 30
0.0
 10
182.149153
 20
653.802959
 30
0.0
 10
144.757962
 20
653.802959
 30
0.0
 10
144.757962
 20
674.553948
 30
0.0
 10
107.366770
 20
674.553948
 30
0.0
 10
107.366770
 20
653.802959
 30
0.0
 10
69.975579
 20
653.802959
 30
0.0
 10
70.134571
 20
705.680422
 30
0.0
 10
353.525457
 20
705.680422
 30
0.0
  0
LWPOLYLINE
  5
153
100
AcDbEntity
  8
0
 62
7
100
AcDbPolyline
 90
17
 70
1
 10
658.680998
 20
708.221703
 30
0.0
 10
658.680998
 20
656.344239
 30
0.0
 10
610.384047
 20
656.344239
 30
0.0
 10
610.384047
 20
677.095228
 30
0.0
 10
562.087078
 20
677.095228
 30
0.0
 10
562.087078
 20
656.344239
 30
0.0
 10
524.695886
 20
656.344239
 30
0.0
 10
524.695886
 20
677.095228
 30
0.0
 10
487.304695
 20
677.095228
 30
0.0
 10
487.304695
 20
656.344239
 30
0.0
 10
449.913503
 20
656.344239
 30
0.0
 10
449.913503
 20
677.095228
 30
0.0
 10
412.522312
 20
677.095228
 30
0.0
 10
412.522312
 20
656.344239
 30
0.0
 10
375.131120
 20
656.344239
 30
0.0
 10
375.290113
 20
708.221703
 30
0.0
 10
658.680998
 20
708.221703
 30
0.0
  0
SPLINE
  5
154
100
AcDbEntity
  8
0
 62
5
100
AcDbSpline
 70
0
 71
3
 72
10
 73
6
 74
4
 40
0.000000
 40
0.000000
 40
0.000000
 40
0.000000
 40
5.468801
 40
11.350662
 40
17.878078
 40
17.878078
 40
17.878078
 40
17.878078
 10
840.491488
 20
290.114754
 30
0.0
 10
838.759162
 20
290.527819
 30
0.0
 10
835.163667
 20
291.385147
 30
0.0
 10
828.322855
 20
291.329756
 30
0.0
 10
827.109203
 20
295.834215
 30
0.0
 10
826.470808
 20
298.203610
 30
0.0
 11
840.491488
 21
290.114754
 31
0.0
 11
835.120945
 21
291.146768
 31
0.0
 11
829.363970
 21
292.352391
 31
0.0
 11
826.470808
 21
298.203610
 31
0.0
  0
LWPOLYLINE
  5
155
100
AcDbEntity
  8
0
 62
7
100
AcDbPolyline
 90
33
 70
1
 10
662.669501
 20
646.208274
 30
0.0
 10
662.669501
 20
594.322204
 30
0.0
 10
615.327378
 20
594.322204
 30
0.0
 10
615.327378
 20
615.076636
 30
0.0
 10
567.985238
 20
615.076636
 30
0.0
 10
567.985238
 20
594.322204
 30
0.0
 10
531.333269
 20
594.322204
 30
0.0
 10
531.333269
 20
615.076636
 30
0.0
 10
494.681300
 20
615.076636
 30
0.0
 10
494.681300
 20
594.322204
 30
0.0
 10
458.029331
 20
594.322204
 30
0.0
 10
458.029331
 20
615.076636
 30
0.0
 10
421.377361
 20
615.076636
 30
0.0
 10
421.377361
 20
594.322204
 30
0.0
 10
384.725392
 20
594.322204
 30
0.0
 10
384.725392
 20
615.076636
 30
0.0
 10
348.073440
 20
615.076636
 30
0.0
 10
348.073440
 20
594.322204
 30
0.0
 10
311.421471
 20
594.322204
 30
0.0
 10
311.421471
 20
615.076636
 30
0.0
 10
274.769485
 20
615.076636
 30
0.0
 10
274.769485
 20
594.322204
 30
0.0
 10
238.117524
 20
594.322204
 30
0.0
 10
238.117524
 20
615.076636
 30
0.0
 10
201.465555
 20
615.076636
 30
0.0
 10
201.465555
 20
594.322204
 30
0.0
 10
164.813585
 20
594.322204
 30
0.0
 10
164.813585
 20
615.076636
 30
0.0
 10
117.471458
 20
615.076636
 30
0.0
 10
117.471458
 20
594.322204
 30
0.0
 10
70.129332
 20
594.322204
 30
0.0
 10
70.129332
 20
646.208274
 30
0.0
 10
662.669501
 20
646.208274
 30
0.0
  0
ENDSEC
  0
SECTION
  2
OBJECTS
  0
DICTIONARY
  5
C
330
0
100
AcDbDictionary
  3
ACAD_GROUP
350
D
  3
ACAD_MLINESTYLE
350
17
  0
DICTIONARY
  5
D
330
C
100
AcDbDictionary
  0
DICTIONARY
  5
1A
330
C
100
AcDbDictionary
  0
DICTIONARY
  5
17
330
C
100
AcDbDictionary
  3
STANDARD
350
18
  0
DICTIONARY
  5
19
330
C
100
AcDbDictionary
  0
ENDSEC
  0
EOF
