0
SECTION
2
HEADER
9
$INSUNITS
70
4
9
$ACADVER
1
AC1014
9
$HANDSEED
5
FFFF
0
ENDSEC
0
SECTION
2
TABLES
0
TABLE
2
VPORT
5
8
100
AcDbSymbolTable
0
ENDTAB
0
TABLE
2
LTYPE
5
5
100
AcDbSymbolTable
0
LTYPE
5
14
100
AcDbSymbolTableRecord
100
AcDbLinetypeTableRecord
2
BYBLOCK
70
0
0
LTYPE
5
15
100
AcDbSymbolTableRecord
100
AcDbLinetypeTableRecord
2
BYLAYER
70
0
0
ENDTAB
0
TABLE
2
LAYER
5
2
100
AcDbSymbolTable
70
2
0
LAYER
5
50
100
AcDbSymbolTableRecord
100
AcDbLayerTableRecord
2
0
70
0
6
CONTINUOUS
0
ENDTAB
0
TABLE
2
STYLE
5
3
100
AcDbSymbolTable
70
1
0
STYLE
5
11
100
AcDbSymbolTableRecord
100
AcDbTextStyleTableRecord
2
STANDARD
70
0
0
ENDTAB
0
TABLE
2
VIEW
5
6
100
AcDbSymbolTable
70
0
0
ENDTAB
0
TABLE
2
UCS
5
7
100
AcDbSymbolTable
70
0
0
ENDTAB
0
TABLE
2
APPID
5
9
100
AcDbSymbolTable
70
2
0
APPID
5
12
100
AcDbSymbolTableRecord
100
AcDbRegAppTableRecord
2
ACAD
70
0
0
ENDTAB
0
TABLE
2
DIMSTYLE
5
A
100
AcDbSymbolTable
70
1
0
ENDTAB
0
TABLE
2
BLOCK_RECORD
5
1
100
AcDbSymbolTable
70
1
0
BLOCK_RECORD
5
1F
100
AcDbSymbolTableRecord
100
AcDbBlockTableRecord
2
*MODEL_SPACE
0
BLOCK_RECORD
5
1B
100
AcDbSymbolTableRecord
100
AcDbBlockTableRecord
2
*PAPER_SPACE
0
ENDTAB
0
ENDSEC
0
SECTION
2
BLOCKS
0
BLOCK
5
20
100
AcDbEntity
100
AcDbBlockBegin
2
*MODEL_SPACE
0
ENDBLK
5
21
100
AcDbEntity
100
AcDbBlockEnd
0
BLOCK
5
1C
100
AcDbEntity
100
AcDbBlockBegin
2
*PAPER_SPACE
0
ENDBLK
5
1D
100
AcDbEntity
100
AcDbBlockEnd
0
ENDSEC
0
SECTION
2
ENTITIES
0
LWPOLYLINE
5
100
100
AcDbEntity
8
0
100
AcDbPolyline
90
4
70
1
43
0.0
10
110.67538465153248
20
41.208189335394863
10
39.375384651532471
20
41.208189335394863
10
39.375384651532471
20
65.508189335394874
10
110.67538465153248
20
65.508189335394874
0
LWPOLYLINE
5
101
100
AcDbEntity
8
0
100
AcDbPolyline
90
4
70
1
43
0.0
10
114.99267503765159
20
36.189690489838611
10
34.992675037651608
20
36.189690489838611
10
34.992675037651573
20
72.189690489838611
10
114.99267503765159
20
72.189690489838611
0
LINE
5
102
100
AcDbEntity
8
0
100
AcDbLine
10
79.308770395718327
20
65.508189335394874
30
0
11
79.308770395718327
21
72.208189335394877
31
0
0
LINE
5
103
100
AcDbEntity
8
0
100
AcDbLine
10
80.935134740427173
20
41.208189335394863
30
0
11
80.935134740427173
21
36.189690489838611
31
0
0
LINE
5
104
100
AcDbEntity
8
0
100
AcDbLine
10
34.992675037651594
20
67.539550987543024
30
0
11
39.992675037651594
21
67.539550987543024
31
0
0
LINE
5
105
100
AcDbEntity
8
0
100
AcDbLine
10
114.99267503765159
20
69.825631356452092
30
0
11
84.992675037651594
21
69.825631356452092
31
0
0
LINE
5
106
100
AcDbEntity
8
0
100
AcDbLine
10
113.05970960890713
20
72.189690489838611
30
0
11
113.05970960890713
21
60.189690489838611
31
0
0
LINE
5
107
100
AcDbEntity
8
0
100
AcDbLine
10
112.5698352441409
20
36.189690489838611
30
0
11
112.5698352441409
21
48.189690489838611
31
0
0
LINE
5
108
100
AcDbEntity
8
0
100
AcDbLine
10
40.066158083708451
20
72.189690489838611
30
0
11
85
21
72.189690489838611
31
0
0
LINE
5
109
100
AcDbEntity
8
0
100
AcDbLine
10
85
20
72.189690489838611
30
0
11
85
21
65.508189335394874
31
0
0
LINE
5
110
100
AcDbEntity
8
0
100
AcDbLine
10
40.066158083708451
20
72.189690489838611
30
0
11
40.066158083708451
21
65.508189335394874
31
0
0
LWPOLYLINE
5
111
100
AcDbEntity
8
0
100
AcDbPolyline
90
4
70
1
43
0.0
10
114.99267503765159
20
60.150467521786169
10
110.67538465153248
20
60.150467521786169
10
110.67538465153248
20
48.200956225077846
10
114.99267503765159
20
48.200956225077846
0
LINE
5
112
100
AcDbEntity
8
0
100
AcDbLine
10
0
20
69.999999999999986
30
0
11
1.1102230246251565e-15
21
10
31
0
0
ARC
5
113
100
AcDbEntity
8
0
100
AcDbCircle
10
10.000000000000009
20
69.999999999999986
30
0
40
10.000000000000009
100
AcDbArc
50
90.000000000000057
51
180
0
LINE
5
114
100
AcDbEntity
8
0
100
AcDbLine
10
140
20
80.000000000000014
30
0
11
10
21
80
31
0
0
ARC
5
115
100
AcDbEntity
8
0
100
AcDbCircle
10
140
20
70.000000000000014
30
0
40
10
100
AcDbArc
50
0
51
90
0
ARC
5
116
100
AcDbEntity
8
0
100
AcDbCircle
10
9.9999999999999893
20
9.9999999999999893
30
0
40
9.9999999999999876
100
AcDbArc
50
180
51
270.00000000000006
0
CIRCLE
5
117
100
AcDbEntity
8
0
100
AcDbCircle
10
9.9999999999999893
20
9.9999999999999893
30
0
40
2.5
0
CIRCLE
5
118
100
AcDbEntity
8
0
100
AcDbCircle
10
10.000000000000009
20
69.999999999999986
30
0
40
2.5
0
CIRCLE
5
119
100
AcDbEntity
8
0
100
AcDbCircle
10
140
20
70.000000000000014
30
0
40
2.5
0
LINE
5
120
100
AcDbEntity
8
0
100
AcDbLine
10
150
20
9.9999999999999964
30
0
11
150
21
70
31
0
0
LINE
5
121
100
AcDbEntity
8
0
100
AcDbLine
10
9.9999999999999982
20
0
30
0
11
140
21
0
31
0
0
ARC
5
122
100
AcDbEntity
8
0
100
AcDbCircle
10
140
20
9.9999999999999911
30
0
40
9.9999999999999911
100
AcDbArc
50
-90
51
0
0
CIRCLE
5
123
100
AcDbEntity
8
0
100
AcDbCircle
10
140
20
9.9999999999999911
30
0
40
2.5
0
LWPOLYLINE
5
124
100
AcDbEntity
8
0
100
AcDbPolyline
90
8
70
1
43
0.0
10
110
20
32.450463224000842
10
40.089205420656668
20
32.450463224000842
42
0.41421356237309603
10
35.089205420656668
20
27.450463224000838
10
35.089205420656668
20
9.9999999999999982
42
0.41421356237309576
10
40.089205420656668
20
5.0000000000000009
10
110
20
5.0000000000000089
42
0.41421356237309437
10
115
20
9.9999999999999982
10
115
20
27.450463224000838
42
0.41421356237309448
0
ENDSEC
0
SECTION
2
OBJECTS
0
DICTIONARY
5
C
100
AcDbDictionary
3
ACAD_GROUP
350
D
3
ACAD_MLINESTYLE
350
17
0
DICTIONARY
5
D
100
AcDbDictionary
0
DICTIONARY
5
1A
330
C
100
AcDbDictionary
0
DICTIONARY
5
17
100
AcDbDictionary
0
ENDSEC
0
EOF
