0
SECTION
2
HEADER
9
$INSUNITS
70
4
9
$ACADVER
1
AC1014
9
$HANDSEED
5
FFFF
0
ENDSEC
0
SECTION
2
TABLES
0
TABLE
2
VPORT
5
8
100
AcDbSymbolTable
0
ENDTAB
0
TABLE
2
LTYPE
5
5
100
AcDbSymbolTable
0
LTYPE
5
14
100
AcDbSymbolTableRecord
100
AcDbLinetypeTableRecord
2
BYBLOCK
70
0
0
LTYPE
5
15
100
AcDbSymbolTableRecord
100
AcDbLinetypeTableRecord
2
BYLAYER
70
0
0
ENDTAB
0
TABLE
2
LAYER
5
2
100
AcDbSymbolTable
70
2
0
LAYER
5
50
100
AcDbSymbolTableRecord
100
AcDbLayerTableRecord
2
0
70
0
6
CONTINUOUS
0
ENDTAB
0
TABLE
2
STYLE
5
3
100
AcDbSymbolTable
70
1
0
STYLE
5
11
100
AcDbSymbolTableRecord
100
AcDbTextStyleTableRecord
2
STANDARD
70
0
0
ENDTAB
0
TABLE
2
VIEW
5
6
100
AcDbSymbolTable
70
0
0
ENDTAB
0
TABLE
2
UCS
5
7
100
AcDbSymbolTable
70
0
0
ENDTAB
0
TABLE
2
APPID
5
9
100
AcDbSymbolTable
70
2
0
APPID
5
12
100
AcDbSymbolTableRecord
100
AcDbRegAppTableRecord
2
ACAD
70
0
0
ENDTAB
0
TABLE
2
DIMSTYLE
5
A
100
AcDbSymbolTable
70
1
0
ENDTAB
0
TABLE
2
BLOCK_RECORD
5
1
100
AcDbSymbolTable
70
1
0
BLOCK_RECORD
5
1F
100
AcDbSymbolTableRecord
100
AcDbBlockTableRecord
2
*MODEL_SPACE
0
BLOCK_RECORD
5
1B
100
AcDbSymbolTableRecord
100
AcDbBlockTableRecord
2
*PAPER_SPACE
0
ENDTAB
0
ENDSEC
0
SECTION
2
BLOCKS
0
BLOCK
5
20
100
AcDbEntity
100
AcDbBlockBegin
2
*MODEL_SPACE
0
ENDBLK
5
21
100
AcDbEntity
100
AcDbBlockEnd
0
BLOCK
5
1C
100
AcDbEntity
100
AcDbBlockBegin
2
*PAPER_SPACE
0
ENDBLK
5
1D
100
AcDbEntity
100
AcDbBlockEnd
0
ENDSEC
0
SECTION
2
ENTITIES
0
ARC
5
100
100
AcDbEntity
8
0
100
AcDbCircle
10
114.16666666666589
20
-26.348869883948488
30
0
40
1.5000000000000036
210
0
220
-0
230
1
100
AcDbArc
50
89.99999999999892
51
180
0
LINE
5
101
100
AcDbEntity
8
0
100
AcDbLine
10
112.66666666666589
20
-26.348869883948485
30
0
11
112.66666666666606
21
-113.04886988394841
31
0
0
ARC
5
102
100
AcDbEntity
8
0
100
AcDbCircle
10
114.16666666666607
20
-113.0488698839484
30
0
40
1.5000000000000213
210
0
220
0
230
1
100
AcDbArc
50
180
51
269.99999999999943
0
LINE
5
103
100
AcDbEntity
8
0
100
AcDbLine
10
114.16666666666606
20
-114.54886988394841
30
0
11
118.66666666666605
21
-114.54886988394841
31
0
0
LINE
5
104
100
AcDbEntity
8
0
100
AcDbLine
10
118.66666666666605
20
-114.54886988394841
30
0
11
118.66666666666598
21
-202.93291580439455
31
0
0
LINE
5
105
100
AcDbEntity
8
0
100
AcDbLine
10
118.66666666666598
20
-202.93291580439455
30
0
11
114.16666666666626
21
-202.93291580439455
31
0
0
ARC
5
106
100
AcDbEntity
8
0
100
AcDbCircle
10
114.1666666666662
20
-204.4329158043945
30
0
40
1.4999999999999503
210
0
220
-0
230
1
100
AcDbArc
50
89.999999999997826
51
180
0
LINE
5
107
100
AcDbEntity
8
0
100
AcDbLine
10
112.66666666666625
20
-204.43291580439455
30
0
11
112.66666666666625
21
-291.13291580439454
31
0
0
ARC
5
108
100
AcDbEntity
8
0
100
AcDbCircle
10
114.16666666666623
20
-291.13291580439454
30
0
40
1.4999999999999858
210
0
220
0
230
1
100
AcDbArc
50
180
51
270.00000000000108
0
LINE
5
109
100
AcDbEntity
8
0
100
AcDbLine
10
114.16666666666626
20
-292.63291580439449
30
0
11
118.6666666666663
21
-292.63291580439449
31
0
0
LINE
5
110
100
AcDbEntity
8
0
100
AcDbLine
10
118.6666666666663
20
-292.63291580439449
30
0
11
118.66666666666617
21
-371.65003477032428
31
0
0
LINE
5
111
100
AcDbEntity
8
0
100
AcDbLine
10
118.66666666666617
20
-371.65003477032428
30
0
11
114.16666666666626
21
-371.65003477032428
31
0
0
ARC
5
112
100
AcDbEntity
8
0
100
AcDbCircle
10
114.16666666666629
20
-373.15003477032434
30
0
40
1.5000000000000568
210
0
220
0
230
1
100
AcDbArc
50
90.000000000001094
51
180
0
LINE
5
113
100
AcDbEntity
8
0
100
AcDbLine
10
112.66666666666623
20
-373.15003477032417
30
0
11
112.66666666666625
21
-400.21198243762285
31
0
0
ARC
5
114
100
AcDbEntity
8
0
100
AcDbCircle
10
114.16666666666626
20
-400.21198243762285
30
0
40
1.5000000000000036
210
0
220
0
230
1
100
AcDbArc
50
180
51
270
0
LINE
5
115
100
AcDbEntity
8
0
100
AcDbLine
10
114.16666666666626
20
-401.71198243762285
30
0
11
151.22222222222169
21
-401.71198243762291
31
0
0
LINE
5
116
100
AcDbEntity
8
0
100
AcDbLine
10
151.22222222222169
20
-401.71198243762291
30
0
11
151.22222222222166
21
-406.21198243762274
31
0
0
ARC
5
117
100
AcDbEntity
8
0
100
AcDbCircle
10
152.72222222222169
20
-406.21198243762262
30
0
40
1.5000000000000213
210
0
220
0
230
1
100
AcDbArc
50
180
51
269.99999999999886
0
LINE
5
118
100
AcDbEntity
8
0
100
AcDbLine
10
152.72222222222166
20
-407.71198243762274
30
0
11
188.27777777777712
21
-407.71198243762285
31
0
0
ARC
5
119
100
AcDbEntity
8
0
100
AcDbCircle
10
188.27777777777712
20
-406.21198243762285
30
0
40
1.4999999999999858
210
0
220
0
230
1
100
AcDbArc
50
-90
51
0
0
LINE
5
120
100
AcDbEntity
8
0
100
AcDbLine
10
189.77777777777709
20
-406.21198243762285
30
0
11
189.77777777777709
21
-401.71198243762291
31
0
0
LINE
5
121
100
AcDbEntity
8
0
100
AcDbLine
10
189.77777777777709
20
-401.71198243762291
30
0
11
226.83333333333255
21
-401.71198243762291
31
0
0
ARC
5
122
100
AcDbEntity
8
0
100
AcDbCircle
10
226.83333333333258
20
-400.21198243762296
30
0
40
1.4999999999999147
210
0
220
0
230
1
100
AcDbArc
50
-90.000000000001123
51
0
0
LINE
5
123
100
AcDbEntity
8
0
100
AcDbLine
10
228.33333333333252
20
-400.21198243762296
30
0
11
228.3333333333326
21
-373.15003477033645
31
0
0
ARC
5
124
100
AcDbEntity
8
0
100
AcDbCircle
10
226.83333333333269
20
-373.15003477033633
30
0
40
1.4999999999999147
210
0
220
0
230
1
100
AcDbArc
50
0
51
90.000000000002174
0
LINE
5
125
100
AcDbEntity
8
0
100
AcDbLine
10
226.83333333333263
20
-371.65003477033645
30
0
11
222.3333333333326
21
-371.65003477033633
31
0
0
LINE
5
126
100
AcDbEntity
8
0
100
AcDbLine
10
222.3333333333326
20
-371.65003477033633
30
0
11
222.3333333333326
21
-292.63291580439449
31
0
0
LINE
5
127
100
AcDbEntity
8
0
100
AcDbLine
10
222.3333333333326
20
-292.63291580439449
30
0
11
226.83333333333263
21
-292.63291580439449
31
0
0
ARC
5
128
100
AcDbEntity
8
0
100
AcDbCircle
10
226.83333333333275
20
-291.1329158043946
30
0
40
1.4999999999999147
210
0
220
0
230
1
100
AcDbArc
50
-90.000000000004377
51
0
0
LINE
5
129
100
AcDbEntity
8
0
100
AcDbLine
10
228.33333333333263
20
-291.13291580439454
30
0
11
228.3333333333326
21
-204.43291580439453
31
0
0
ARC
5
130
100
AcDbEntity
8
0
100
AcDbCircle
10
226.83333333333277
20
-204.43291580439438
30
0
40
1.4999999999998437
210
0
220
0
230
1
100
AcDbArc
50
0
51
90.000000000005429
0
LINE
5
131
100
AcDbEntity
8
0
100
AcDbLine
10
226.83333333333263
20
-202.93291580439455
30
0
11
222.33333333333263
21
-202.93291580439455
31
0
0
LINE
5
132
100
AcDbEntity
8
0
100
AcDbLine
10
222.33333333333263
20
-202.93291580439455
30
0
11
222.3333333333326
21
-123.76579683845239
31
0
0
SPLINE
5
133
100
AcDbEntity
8
0
100
AcDbSpline
70
4
71
5
72
21
73
15
74
0
42
0.000000001
43
0.0000000001
44
0.0000000001
40
0
40
0
40
0
40
0
40
0
40
0
40
0.10000000000000001
40
0.20000000000000001
40
0.30000000000000004
40
0.40000000000000002
40
0.5
40
0.59999999999999998
40
0.69999999999999996
40
0.79999999999999993
40
0.89999999999999991
40
1
40
1
40
1
40
1
40
1
40
1
41
1
41
1
41
1
41
1
41
1
41
1
41
1
41
1
41
1
41
1
41
1
41
1
41
1
41
1
41
1
10
222.3333333333326
20
-123.76579683845239
30
0
10
218.31564609781819
20
-123.76579683845239
30
0
10
210.75577327527381
20
-123.19435609762103
30
0
10
200.84184335781879
20
-120.62368982958232
30
0
10
190.26176720662943
20
-114.06388751622002
30
0
10
180.3971130794713
20
-102.05268254814
30
0
10
172.96714970779556
20
-87.434128472496155
30
0
10
167.48562110595918
20
-70.695707167703787
30
0
10
164.89472371490859
20
-50.227850165681147
30
0
10
162.8930410143889
20
-27.965438804480485
30
0
10
157.76380687154153
20
-7.3887907876900982
30
0
10
147.757224813769
20
4.4298391289425609
30
0
10
135.32512317934908
20
9.1109073912343774
30
0
10
124.62199509426399
20
10.151130116051519
30
0
10
118.66666666666625
20
10.151130116051519
30
0
0
LINE
5
134
100
AcDbEntity
8
0
100
AcDbLine
10
118.66666666666625
20
10.151130116051517
30
0
11
118.66666666666625
21
-24.848869883948481
31
0
0
LINE
5
135
100
AcDbEntity
8
0
100
AcDbLine
10
118.66666666666625
20
-24.848869883948481
30
0
11
114.16666666666592
21
-24.848869883948485
31
0
0
ENDSEC
0
SECTION
2
OBJECTS
0
DICTIONARY
5
C
100
AcDbDictionary
3
ACAD_GROUP
350
D
3
ACAD_MLINESTYLE
350
17
0
DICTIONARY
5
D
100
AcDbDictionary
0
DICTIONARY
5
1A
330
C
100
AcDbDictionary
0
DICTIONARY
5
17
100
AcDbDictionary
0
ENDSEC
0
EOF
