0
SECTION
2
HEADER
9
$DIMALTF
40
0.03937007874016
0
ENDSEC
0
SECTION
2
TABLES
0
ENDSEC
0
SECTION
2
ENTITIES
0
POLYLINE
8
Sketch1_1
66
1
70
8
71
117
0
VERTEX
8
Sketch1_1
10
127.000000
20
0.000000
30
0.000000
70
32
0
VERTEX
8
Sketch1_1
10
126.894255
20
5.181515
30
0.000000
70
32
0
VERTEX
8
Sketch1_1
10
126.559792
20
10.564991
30
0.000000
70
32
0
VERTEX
8
Sketch1_1
10
125.969342
20
16.146979
30
0.000000
70
32
0
VERTEX
8
Sketch1_1
10
125.093809
20
21.921201
30
0.000000
70
32
0
VERTEX
8
Sketch1_1
10
123.902439
20
27.878049
30
0.000000
70
32
0
VERTEX
8
Sketch1_1
10
122.363083
20
34.004057
30
0.000000
70
32
0
VERTEX
8
Sketch1_1
10
120.442571
20
40.281349
30
0.000000
70
32
0
VERTEX
8
Sketch1_1
10
118.318500
20
46.149025
30
0.000000
70
32
0
VERTEX
8
Sketch1_1
10
115.819988
20
52.103074
30
0.000000
70
32
0
VERTEX
8
Sketch1_1
10
112.921799
20
58.117703
30
0.000000
70
32
0
VERTEX
8
Sketch1_1
10
109.599946
20
64.162697
30
0.000000
70
32
0
VERTEX
8
Sketch1_1
10
105.832420
20
70.203268
30
0.000000
70
32
0
VERTEX
8
Sketch1_1
10
101.600000
20
76.200000
30
0.000000
70
32
0
VERTEX
8
Sketch1_1
10
97.599435
20
81.261001
30
0.000000
70
32
0
VERTEX
8
Sketch1_1
10
93.240290
20
86.227886
30
0.000000
70
32
0
VERTEX
8
Sketch1_1
10
88.518409
20
91.068607
30
0.000000
70
32
0
VERTEX
8
Sketch1_1
10
83.432992
20
95.749338
30
0.000000
70
32
0
VERTEX
8
Sketch1_1
10
77.987004
20
100.234860
30
0.000000
70
32
0
VERTEX
8
Sketch1_1
10
72.294143
20
104.415310
30
0.000000
70
32
0
VERTEX
8
Sketch1_1
10
66.271190
20
108.338033
30
0.000000
70
32
0
VERTEX
8
Sketch1_1
10
59.933354
20
111.968715
30
0.000000
70
32
0
VERTEX
8
Sketch1_1
10
53.300267
20
115.273941
30
0.000000
70
32
0
VERTEX
8
Sketch1_1
10
46.252444
20
118.278111
30
0.000000
70
32
0
VERTEX
8
Sketch1_1
10
38.952400
20
120.878909
30
0.000000
70
32
0
VERTEX
8
Sketch1_1
10
31.434633
20
123.048218
30
0.000000
70
32
0
VERTEX
8
Sketch1_1
10
23.737549
20
124.761888
30
0.000000
70
32
0
VERTEX
8
Sketch1_1
10
15.902882
20
126.000390
30
0.000000
70
32
0
VERTEX
8
Sketch1_1
10
7.974980
20
126.749358
30
0.000000
70
32
0
VERTEX
8
Sketch1_1
10
0.000000
20
127.000000
30
0.000000
70
32
0
VERTEX
8
Sketch1_1
10
-7.957614
20
126.750449
30
0.000000
70
32
0
VERTEX
8
Sketch1_1
10
-15.868457
20
126.004730
30
0.000000
70
32
0
VERTEX
8
Sketch1_1
10
-23.686668
20
124.771558
30
0.000000
70
32
0
VERTEX
8
Sketch1_1
10
-31.368176
20
123.065176
30
0.000000
70
32
0
VERTEX
8
Sketch1_1
10
-38.871496
20
120.904949
30
0.000000
70
32
0
VERTEX
8
Sketch1_1
10
-46.030417
20
118.364694
30
0.000000
70
32
0
VERTEX
8
Sketch1_1
10
-52.948054
20
115.436145
30
0.000000
70
32
0
VERTEX
8
Sketch1_1
10
-59.595859
20
112.148712
30
0.000000
70
32
0
VERTEX
8
Sketch1_1
10
-65.949555
20
108.534125
30
0.000000
70
32
0
VERTEX
8
Sketch1_1
10
-72.109152
20
104.543150
30
0.000000
70
32
0
VERTEX
8
Sketch1_1
10
-77.925493
20
100.282688
30
0.000000
70
32
0
VERTEX
8
Sketch1_1
10
-83.386915
20
95.789469
30
0.000000
70
32
0
VERTEX
8
Sketch1_1
10
-88.486233
20
91.099871
30
0.000000
70
32
0
VERTEX
8
Sketch1_1
10
-93.220432
20
86.249354
30
0.000000
70
32
0
VERTEX
8
Sketch1_1
10
-97.590297
20
81.271975
30
0.000000
70
32
0
VERTEX
8
Sketch1_1
10
-101.600000
20
76.200000
30
0.000000
70
32
0
VERTEX
8
Sketch1_1
10
-105.650256
20
70.477113
30
0.000000
70
32
0
VERTEX
8
Sketch1_1
10
-109.276172
20
64.712582
30
0.000000
70
32
0
VERTEX
8
Sketch1_1
10
-112.494281
20
58.940960
30
0.000000
70
32
0
VERTEX
8
Sketch1_1
10
-115.323496
20
53.192963
30
0.000000
70
32
0
VERTEX
8
Sketch1_1
10
-117.784457
20
47.495492
30
0.000000
70
32
0
VERTEX
8
Sketch1_1
10
-119.898943
20
41.871751
30
0.000000
70
32
0
VERTEX
8
Sketch1_1
10
-121.689362
20
36.341425
30
0.000000
70
32
0
VERTEX
8
Sketch1_1
10
-123.178314
20
30.920915
30
0.000000
70
32
0
VERTEX
8
Sketch1_1
10
-124.656934
20
24.282687
30
0.000000
70
32
0
VERTEX
8
Sketch1_1
10
-125.737985
20
17.859429
30
0.000000
70
32
0
VERTEX
8
Sketch1_1
10
-126.463087
20
11.665665
30
0.000000
70
32
0
VERTEX
8
Sketch1_1
10
-126.871536
20
5.710812
30
0.000000
70
32
0
VERTEX
8
Sketch1_1
10
-127.000000
20
0.000000
30
0.000000
70
32
0
VERTEX
8
Sketch1_1
10
-126.894255
20
-5.181515
30
0.000000
70
32
0
VERTEX
8
Sketch1_1
10
-126.559792
20
-10.564991
30
0.000000
70
32
0
VERTEX
8
Sketch1_1
10
-125.969342
20
-16.146979
30
0.000000
70
32
0
VERTEX
8
Sketch1_1
10
-125.093809
20
-21.921201
30
0.000000
70
32
0
VERTEX
8
Sketch1_1
10
-123.902439
20
-27.878049
30
0.000000
70
32
0
VERTEX
8
Sketch1_1
10
-122.363083
20
-34.004057
30
0.000000
70
32
0
VERTEX
8
Sketch1_1
10
-120.442571
20
-40.281349
30
0.000000
70
32
0
VERTEX
8
Sketch1_1
10
-118.318500
20
-46.149025
30
0.000000
70
32
0
VERTEX
8
Sketch1_1
10
-115.819988
20
-52.103074
30
0.000000
70
32
0
VERTEX
8
Sketch1_1
10
-112.921799
20
-58.117703
30
0.000000
70
32
0
VERTEX
8
Sketch1_1
10
-109.599946
20
-64.162697
30
0.000000
70
32
0
VERTEX
8
Sketch1_1
10
-105.832420
20
-70.203268
30
0.000000
70
32
0
VERTEX
8
Sketch1_1
10
-101.600000
20
-76.200000
30
0.000000
70
32
0
VERTEX
8
Sketch1_1
10
-97.599435
20
-81.261001
30
0.000000
70
32
0
VERTEX
8
Sketch1_1
10
-93.240290
20
-86.227886
30
0.000000
70
32
0
VERTEX
8
Sketch1_1
10
-88.518409
20
-91.068607
30
0.000000
70
32
0
VERTEX
8
Sketch1_1
10
-83.432992
20
-95.749338
30
0.000000
70
32
0
VERTEX
8
Sketch1_1
10
-77.987004
20
-100.234860
30
0.000000
70
32
0
VERTEX
8
Sketch1_1
10
-72.294143
20
-104.415310
30
0.000000
70
32
0
VERTEX
8
Sketch1_1
10
-66.271190
20
-108.338033
30
0.000000
70
32
0
VERTEX
8
Sketch1_1
10
-59.933354
20
-111.968715
30
0.000000
70
32
0
VERTEX
8
Sketch1_1
10
-53.300267
20
-115.273941
30
0.000000
70
32
0
VERTEX
8
Sketch1_1
10
-46.252444
20
-118.278111
30
0.000000
70
32
0
VERTEX
8
Sketch1_1
10
-38.952400
20
-120.878909
30
0.000000
70
32
0
VERTEX
8
Sketch1_1
10
-31.434633
20
-123.048218
30
0.000000
70
32
0
VERTEX
8
Sketch1_1
10
-23.737549
20
-124.761888
30
0.000000
70
32
0
VERTEX
8
Sketch1_1
10
-15.902882
20
-126.000390
30
0.000000
70
32
0
VERTEX
8
Sketch1_1
10
-7.974980
20
-126.749358
30
0.000000
70
32
0
VERTEX
8
Sketch1_1
10
0.000000
20
-127.000000
30
0.000000
70
32
0
VERTEX
8
Sketch1_1
10
7.957614
20
-126.750449
30
0.000000
70
32
0
VERTEX
8
Sketch1_1
10
15.868457
20
-126.004730
30
0.000000
70
32
0
VERTEX
8
Sketch1_1
10
23.686668
20
-124.771558
30
0.000000
70
32
0
VERTEX
8
Sketch1_1
10
31.368176
20
-123.065176
30
0.000000
70
32
0
VERTEX
8
Sketch1_1
10
38.871496
20
-120.904949
30
0.000000
70
32
0
VERTEX
8
Sketch1_1
10
46.030417
20
-118.364694
30
0.000000
70
32
0
VERTEX
8
Sketch1_1
10
52.948054
20
-115.436145
30
0.000000
70
32
0
VERTEX
8
Sketch1_1
10
59.595859
20
-112.148712
30
0.000000
70
32
0
VERTEX
8
Sketch1_1
10
65.949555
20
-108.534125
30
0.000000
70
32
0
VERTEX
8
Sketch1_1
10
72.109152
20
-104.543150
30
0.000000
70
32
0
VERTEX
8
Sketch1_1
10
77.925493
20
-100.282688
30
0.000000
70
32
0
VERTEX
8
Sketch1_1
10
83.386915
20
-95.789469
30
0.000000
70
32
0
VERTEX
8
Sketch1_1
10
88.486233
20
-91.099871
30
0.000000
70
32
0
VERTEX
8
Sketch1_1
10
93.220432
20
-86.249354
30
0.000000
70
32
0
VERTEX
8
Sketch1_1
10
97.590297
20
-81.271975
30
0.000000
70
32
0
VERTEX
8
Sketch1_1
10
101.600000
20
-76.200000
30
0.000000
70
32
0
VERTEX
8
Sketch1_1
10
105.650256
20
-70.477113
30
0.000000
70
32
0
VERTEX
8
Sketch1_1
10
109.276172
20
-64.712582
30
0.000000
70
32
0
VERTEX
8
Sketch1_1
10
112.494281
20
-58.940960
30
0.000000
70
32
0
VERTEX
8
Sketch1_1
10
115.323496
20
-53.192963
30
0.000000
70
32
0
VERTEX
8
Sketch1_1
10
117.784457
20
-47.495492
30
0.000000
70
32
0
VERTEX
8
Sketch1_1
10
119.898943
20
-41.871751
30
0.000000
70
32
0
VERTEX
8
Sketch1_1
10
121.689362
20
-36.341425
30
0.000000
70
32
0
VERTEX
8
Sketch1_1
10
123.178314
20
-30.920915
30
0.000000
70
32
0
VERTEX
8
Sketch1_1
10
124.656934
20
-24.282687
30
0.000000
70
32
0
VERTEX
8
Sketch1_1
10
125.737985
20
-17.859429
30
0.000000
70
32
0
VERTEX
8
Sketch1_1
10
126.463087
20
-11.665665
30
0.000000
70
32
0
VERTEX
8
Sketch1_1
10
126.871536
20
-5.710812
30
0.000000
70
32
0
VERTEX
8
Sketch1_1
10
127.000000
20
0.000000
30
0.000000
70
32
0
SEQEND
0
POLYLINE
8
Sketch1_2
66
1
70
8
71
117
0
VERTEX
8
Sketch1_2
10
45.462985
20
-64.262000
30
0.000000
70
32
0
VERTEX
8
Sketch1_2
10
45.461949
20
-64.211221
30
0.000000
70
32
0
VERTEX
8
Sketch1_2
10
45.458671
20
-64.158463
30
0.000000
70
32
0
VERTEX
8
Sketch1_2
10
45.452885
20
-64.103760
30
0.000000
70
32
0
VERTEX
8
Sketch1_2
10
45.444304
20
-64.047172
30
0.000000
70
32
0
VERTEX
8
Sketch1_2
10
45.432629
20
-63.988795
30
0.000000
70
32
0
VERTEX
8
Sketch1_2
10
45.417543
20
-63.928760
30
0.000000
70
32
0
VERTEX
8
Sketch1_2
10
45.398722
20
-63.867243
30
0.000000
70
32
0
VERTEX
8
Sketch1_2
10
45.377906
20
-63.809740
30
0.000000
70
32
0
VERTEX
8
Sketch1_2
10
45.353421
20
-63.751390
30
0.000000
70
32
0
VERTEX
8
Sketch1_2
10
45.325019
20
-63.692447
30
0.000000
70
32
0
VERTEX
8
Sketch1_2
10
45.292465
20
-63.633206
30
0.000000
70
32
0
VERTEX
8
Sketch1_2
10
45.255543
20
-63.574008
30
0.000000
70
32
0
VERTEX
8
Sketch1_2
10
45.214065
20
-63.515240
30
0.000000
70
32
0
VERTEX
8
Sketch1_2
10
45.174860
20
-63.465642
30
0.000000
70
32
0
VERTEX
8
Sketch1_2
10
45.132140
20
-63.416967
30
0.000000
70
32
0
VERTEX
8
Sketch1_2
10
45.085866
20
-63.369528
30
0.000000
70
32
0
VERTEX
8
Sketch1_2
10
45.036028
20
-63.323656
30
0.000000
70
32
0
VERTEX
8
Sketch1_2
10
44.982658
20
-63.279698
30
0.000000
70
32
0
VERTEX
8
Sketch1_2
10
44.926868
20
-63.238730
30
0.000000
70
32
0
VERTEX
8
Sketch1_2
10
44.867843
20
-63.200287
30
0.000000
70
32
0
VERTEX
8
Sketch1_2
10
44.805732
20
-63.164707
30
0.000000
70
32
0
VERTEX
8
Sketch1_2
10
44.740728
20
-63.132315
30
0.000000
70
32
0
VERTEX
8
Sketch1_2
10
44.671659
20
-63.102875
30
0.000000
70
32
0
VERTEX
8
Sketch1_2
10
44.600119
20
-63.077387
30
0.000000
70
32
0
VERTEX
8
Sketch1_2
10
44.526445
20
-63.056127
30
0.000000
70
32
0
VERTEX
8
Sketch1_2
10
44.451013
20
-63.039333
30
0.000000
70
32
0
VERTEX
8
Sketch1_2
10
44.374233
20
-63.027196
30
0.000000
70
32
0
VERTEX
8
Sketch1_2
10
44.296540
20
-63.019856
30
0.000000
70
32
0
VERTEX
8
Sketch1_2
10
44.218385
20
-63.017400
30
0.000000
70
32
0
VERTEX
8
Sketch1_2
10
44.140400
20
-63.019846
30
0.000000
70
32
0
VERTEX
8
Sketch1_2
10
44.062874
20
-63.027154
30
0.000000
70
32
0
VERTEX
8
Sketch1_2
10
43.986256
20
-63.039239
30
0.000000
70
32
0
VERTEX
8
Sketch1_2
10
43.910977
20
-63.055961
30
0.000000
70
32
0
VERTEX
8
Sketch1_2
10
43.837444
20
-63.077131
30
0.000000
70
32
0
VERTEX
8
Sketch1_2
10
43.767287
20
-63.102026
30
0.000000
70
32
0
VERTEX
8
Sketch1_2
10
43.699494
20
-63.130726
30
0.000000
70
32
0
VERTEX
8
Sketch1_2
10
43.634346
20
-63.162943
30
0.000000
70
32
0
VERTEX
8
Sketch1_2
10
43.572079
20
-63.198366
30
0.000000
70
32
0
VERTEX
8
Sketch1_2
10
43.511715
20
-63.237477
30
0.000000
70
32
0
VERTEX
8
Sketch1_2
10
43.454715
20
-63.279230
30
0.000000
70
32
0
VERTEX
8
Sketch1_2
10
43.401193
20
-63.323263
30
0.000000
70
32
0
VERTEX
8
Sketch1_2
10
43.351220
20
-63.369221
30
0.000000
70
32
0
VERTEX
8
Sketch1_2
10
43.304825
20
-63.416756
30
0.000000
70
32
0
VERTEX
8
Sketch1_2
10
43.262000
20
-63.465535
30
0.000000
70
32
0
VERTEX
8
Sketch1_2
10
43.222705
20
-63.515240
30
0.000000
70
32
0
VERTEX
8
Sketch1_2
10
43.183013
20
-63.571324
30
0.000000
70
32
0
VERTEX
8
Sketch1_2
10
43.147479
20
-63.627817
30
0.000000
70
32
0
VERTEX
8
Sketch1_2
10
43.115941
20
-63.684379
30
0.000000
70
32
0
VERTEX
8
Sketch1_2
10
43.088215
20
-63.740709
30
0.000000
70
32
0
VERTEX
8
Sketch1_2
10
43.064097
20
-63.796544
30
0.000000
70
32
0
VERTEX
8
Sketch1_2
10
43.043375
20
-63.851657
30
0.000000
70
32
0
VERTEX
8
Sketch1_2
10
43.025829
20
-63.905854
30
0.000000
70
32
0
VERTEX
8
Sketch1_2
10
43.011238
20
-63.958975
30
0.000000
70
32
0
VERTEX
8
Sketch1_2
10
42.996747
20
-64.024030
30
0.000000
70
32
0
VERTEX
8
Sketch1_2
10
42.986153
20
-64.086978
30
0.000000
70
32
0
VERTEX
8
Sketch1_2
10
42.979047
20
-64.147676
30
0.000000
70
32
0
VERTEX
8
Sketch1_2
10
42.975044
20
-64.206034
30
0.000000
70
32
0
VERTEX
8
Sketch1_2
10
42.973785
20
-64.262000
30
0.000000
70
32
0
VERTEX
8
Sketch1_2
10
42.974821
20
-64.312779
30
0.000000
70
32
0
VERTEX
8
Sketch1_2
10
42.978099
20
-64.365537
30
0.000000
70
32
0
VERTEX
8
Sketch1_2
10
42.983886
20
-64.420240
30
0.000000
70
32
0
VERTEX
8
Sketch1_2
10
42.992466
20
-64.476828
30
0.000000
70
32
0
VERTEX
8
Sketch1_2
10
43.004141
20
-64.535205
30
0.000000
70
32
0
VERTEX
8
Sketch1_2
10
43.019227
20
-64.595240
30
0.000000
70
32
0
VERTEX
8
Sketch1_2
10
43.038048
20
-64.656757
30
0.000000
70
32
0
VERTEX
8
Sketch1_2
10
43.058864
20
-64.714260
30
0.000000
70
32
0
VERTEX
8
Sketch1_2
10
43.083349
20
-64.772610
30
0.000000
70
32
0
VERTEX
8
Sketch1_2
10
43.111751
20
-64.831553
30
0.000000
70
32
0
VERTEX
8
Sketch1_2
10
43.144306
20
-64.890794
30
0.000000
70
32
0
VERTEX
8
Sketch1_2
10
43.181227
20
-64.949992
30
0.000000
70
32
0
VERTEX
8
Sketch1_2
10
43.222705
20
-65.008760
30
0.000000
70
32
0
VERTEX
8
Sketch1_2
10
43.261911
20
-65.058358
30
0.000000
70
32
0
VERTEX
8
Sketch1_2
10
43.304630
20
-65.107033
30
0.000000
70
32
0
VERTEX
8
Sketch1_2
10
43.350905
20
-65.154472
30
0.000000
70
32
0
VERTEX
8
Sketch1_2
10
43.400742
20
-65.200344
30
0.000000
70
32
0
VERTEX
8
Sketch1_2
10
43.454112
20
-65.244302
30
0.000000
70
32
0
VERTEX
8
Sketch1_2
10
43.509903
20
-65.285270
30
0.000000
70
32
0
VERTEX
8
Sketch1_2
10
43.568927
20
-65.323713
30
0.000000
70
32
0
VERTEX
8
Sketch1_2
10
43.631038
20
-65.359293
30
0.000000
70
32
0
VERTEX
8
Sketch1_2
10
43.696042
20
-65.391685
30
0.000000
70
32
0
VERTEX
8
Sketch1_2
10
43.765111
20
-65.421125
30
0.000000
70
32
0
VERTEX
8
Sketch1_2
10
43.836652
20
-65.446613
30
0.000000
70
32
0
VERTEX
8
Sketch1_2
10
43.910326
20
-65.467873
30
0.000000
70
32
0
VERTEX
8
Sketch1_2
10
43.985757
20
-65.484667
30
0.000000
70
32
0
VERTEX
8
Sketch1_2
10
44.062537
20
-65.496804
30
0.000000
70
32
0
VERTEX
8
Sketch1_2
10
44.140230
20
-65.504144
30
0.000000
70
32
0
VERTEX
8
Sketch1_2
10
44.218385
20
-65.506600
30
0.000000
70
32
0
VERTEX
8
Sketch1_2
10
44.296370
20
-65.504154
30
0.000000
70
32
0
VERTEX
8
Sketch1_2
10
44.373896
20
-65.496846
30
0.000000
70
32
0
VERTEX
8
Sketch1_2
10
44.450514
20
-65.484761
30
0.000000
70
32
0
VERTEX
8
Sketch1_2
10
44.525793
20
-65.468039
30
0.000000
70
32
0
VERTEX
8
Sketch1_2
10
44.599326
20
-65.446869
30
0.000000
70
32
0
VERTEX
8
Sketch1_2
10
44.669483
20
-65.421974
30
0.000000
70
32
0
VERTEX
8
Sketch1_2
10
44.737276
20
-65.393274
30
0.000000
70
32
0
VERTEX
8
Sketch1_2
10
44.802425
20
-65.361057
30
0.000000
70
32
0
VERTEX
8
Sketch1_2
10
44.864691
20
-65.325634
30
0.000000
70
32
0
VERTEX
8
Sketch1_2
10
44.925055
20
-65.286523
30
0.000000
70
32
0
VERTEX
8
Sketch1_2
10
44.982055
20
-65.244770
30
0.000000
70
32
0
VERTEX
8
Sketch1_2
10
45.035577
20
-65.200737
30
0.000000
70
32
0
VERTEX
8
Sketch1_2
10
45.085550
20
-65.154779
30
0.000000
70
32
0
VERTEX
8
Sketch1_2
10
45.131945
20
-65.107244
30
0.000000
70
32
0
VERTEX
8
Sketch1_2
10
45.174770
20
-65.058465
30
0.000000
70
32
0
VERTEX
8
Sketch1_2
10
45.214065
20
-65.008760
30
0.000000
70
32
0
VERTEX
8
Sketch1_2
10
45.253758
20
-64.952676
30
0.000000
70
32
0
VERTEX
8
Sketch1_2
10
45.289292
20
-64.896183
30
0.000000
70
32
0
VERTEX
8
Sketch1_2
10
45.320829
20
-64.839621
30
0.000000
70
32
0
VERTEX
8
Sketch1_2
10
45.348555
20
-64.783291
30
0.000000
70
32
0
VERTEX
8
Sketch1_2
10
45.372673
20
-64.727456
30
0.000000
70
32
0
VERTEX
8
Sketch1_2
10
45.393395
20
-64.672343
30
0.000000
70
32
0
VERTEX
8
Sketch1_2
10
45.410941
20
-64.618146
30
0.000000
70
32
0
VERTEX
8
Sketch1_2
10
45.425533
20
-64.565025
30
0.000000
70
32
0
VERTEX
8
Sketch1_2
10
45.440023
20
-64.499970
30
0.000000
70
32
0
VERTEX
8
Sketch1_2
10
45.450617
20
-64.437022
30
0.000000
70
32
0
VERTEX
8
Sketch1_2
10
45.457723
20
-64.376324
30
0.000000
70
32
0
VERTEX
8
Sketch1_2
10
45.461726
20
-64.317966
30
0.000000
70
32
0
VERTEX
8
Sketch1_2
10
45.462985
20
-64.262000
30
0.000000
70
32
0
SEQEND
0
POLYLINE
8
Sketch1_3
66
1
70
8
71
117
0
VERTEX
8
Sketch1_3
10
-63.017400
20
0.001270
30
0.000000
70
32
0
VERTEX
8
Sketch1_3
10
-63.018436
20
0.052049
30
0.000000
70
32
0
VERTEX
8
Sketch1_3
10
-63.021714
20
0.104807
30
0.000000
70
32
0
VERTEX
8
Sketch1_3
10
-63.027500
20
0.159510
30
0.000000
70
32
0
VERTEX
8
Sketch1_3
10
-63.036081
20
0.216098
30
0.000000
70
32
0
VERTEX
8
Sketch1_3
10
-63.047756
20
0.274475
30
0.000000
70
32
0
VERTEX
8
Sketch1_3
10
-63.062842
20
0.334510
30
0.000000
70
32
0
VERTEX
8
Sketch1_3
10
-63.081663
20
0.396027
30
0.000000
70
32
0
VERTEX
8
Sketch1_3
10
-63.102479
20
0.453530
30
0.000000
70
32
0
VERTEX
8
Sketch1_3
10
-63.126964
20
0.511880
30
0.000000
70
32
0
VERTEX
8
Sketch1_3
10
-63.155366
20
0.570823
30
0.000000
70
32
0
VERTEX
8
Sketch1_3
10
-63.187921
20
0.630064
30
0.000000
70
32
0
VERTEX
8
Sketch1_3
10
-63.224842
20
0.689262
30
0.000000
70
32
0
VERTEX
8
Sketch1_3
10
-63.266320
20
0.748030
30
0.000000
70
32
0
VERTEX
8
Sketch1_3
10
-63.305526
20
0.797628
30
0.000000
70
32
0
VERTEX
8
Sketch1_3
10
-63.348245
20
0.846303
30
0.000000
70
32
0
VERTEX
8
Sketch1_3
10
-63.394520
20
0.893742
30
0.000000
70
32
0
VERTEX
8
Sketch1_3
10
-63.444357
20
0.939614
30
0.000000
70
32
0
VERTEX
8
Sketch1_3
10
-63.497727
20
0.983572
30
0.000000
70
32
0
VERTEX
8
Sketch1_3
10
-63.553517
20
1.024540
30
0.000000
70
32
0
VERTEX
8
Sketch1_3
10
-63.612542
20
1.062983
30
0.000000
70
32
0
VERTEX
8
Sketch1_3
10
-63.674653
20
1.098563
30
0.000000
70
32
0
VERTEX
8
Sketch1_3
10
-63.739657
20
1.130955
30
0.000000
70
32
0
VERTEX
8
Sketch1_3
10
-63.808726
20
1.160395
30
0.000000
70
32
0
VERTEX
8
Sketch1_3
10
-63.880266
20
1.185883
30
0.000000
70
32
0
VERTEX
8
Sketch1_3
10
-63.953941
20
1.207143
30
0.000000
70
32
0
VERTEX
8
Sketch1_3
10
-64.029372
20
1.223937
30
0.000000
70
32
0
VERTEX
8
Sketch1_3
10
-64.106152
20
1.236074
30
0.000000
70
32
0
VERTEX
8
Sketch1_3
10
-64.183845
20
1.243414
30
0.000000
70
32
0
VERTEX
8
Sketch1_3
10
-64.262000
20
1.245870
30
0.000000
70
32
0
VERTEX
8
Sketch1_3
10
-64.339985
20
1.243424
30
0.000000
70
32
0
VERTEX
8
Sketch1_3
10
-64.417511
20
1.236116
30
0.000000
70
32
0
VERTEX
8
Sketch1_3
10
-64.494129
20
1.224031
30
0.000000
70
32
0
VERTEX
8
Sketch1_3
10
-64.569408
20
1.207309
30
0.000000
70
32
0
VERTEX
8
Sketch1_3
10
-64.642941
20
1.186139
30
0.000000
70
32
0
VERTEX
8
Sketch1_3
10
-64.713098
20
1.161244
30
0.000000
70
32
0
VERTEX
8
Sketch1_3
10
-64.780891
20
1.132544
30
0.000000
70
32
0
VERTEX
8
Sketch1_3
10
-64.846039
20
1.100327
30
0.000000
70
32
0
VERTEX
8
Sketch1_3
10
-64.908306
20
1.064904
30
0.000000
70
32
0
VERTEX
8
Sketch1_3
10
-64.968670
20
1.025793
30
0.000000
70
32
0
VERTEX
8
Sketch1_3
10
-65.025670
20
0.984040
30
0.000000
70
32
0
VERTEX
8
Sketch1_3
10
-65.079192
20
0.940007
30
0.000000
70
32
0
VERTEX
8
Sketch1_3
10
-65.129165
20
0.894049
30
0.000000
70
32
0
VERTEX
8
Sketch1_3
10
-65.175560
20
0.846514
30
0.000000
70
32
0
VERTEX
8
Sketch1_3
10
-65.218385
20
0.797735
30
0.000000
70
32
0
VERTEX
8
Sketch1_3
10
-65.257680
20
0.748030
30
0.000000
70
32
0
VERTEX
8
Sketch1_3
10
-65.297373
20
0.691946
30
0.000000
70
32
0
VERTEX
8
Sketch1_3
10
-65.332906
20
0.635453
30
0.000000
70
32
0
VERTEX
8
Sketch1_3
10
-65.364444
20
0.578891
30
0.000000
70
32
0
VERTEX
8
Sketch1_3
10
-65.392170
20
0.522561
30
0.000000
70
32
0
VERTEX
8
Sketch1_3
10
-65.416288
20
0.466726
30
0.000000
70
32
0
VERTEX
8
Sketch1_3
10
-65.437010
20
0.411613
30
0.000000
70
32
0
VERTEX
8
Sketch1_3
10
-65.454556
20
0.357416
30
0.000000
70
32
0
VERTEX
8
Sketch1_3
10
-65.469147
20
0.304295
30
0.000000
70
32
0
VERTEX
8
Sketch1_3
10
-65.483638
20
0.239240
30
0.000000
70
32
0
VERTEX
8
Sketch1_3
10
-65.494232
20
0.176292
30
0.000000
70
32
0
VERTEX
8
Sketch1_3
10
-65.501338
20
0.115594
30
0.000000
70
32
0
VERTEX
8
Sketch1_3
10
-65.505341
20
0.057236
30
0.000000
70
32
0
VERTEX
8
Sketch1_3
10
-65.506600
20
0.001270
30
0.000000
70
32
0
VERTEX
8
Sketch1_3
10
-65.505564
20
-0.049509
30
0.000000
70
32
0
VERTEX
8
Sketch1_3
10
-65.502286
20
-0.102267
30
0.000000
70
32
0
VERTEX
8
Sketch1_3
10
-65.496500
20
-0.156970
30
0.000000
70
32
0
VERTEX
8
Sketch1_3
10
-65.487919
20
-0.213558
30
0.000000
70
32
0
VERTEX
8
Sketch1_3
10
-65.476244
20
-0.271935
30
0.000000
70
32
0
VERTEX
8
Sketch1_3
10
-65.461158
20
-0.331970
30
0.000000
70
32
0
VERTEX
8
Sketch1_3
10
-65.442337
20
-0.393487
30
0.000000
70
32
0
VERTEX
8
Sketch1_3
10
-65.421521
20
-0.450990
30
0.000000
70
32
0
VERTEX
8
Sketch1_3
10
-65.397036
20
-0.509340
30
0.000000
70
32
0
VERTEX
8
Sketch1_3
10
-65.368634
20
-0.568283
30
0.000000
70
32
0
VERTEX
8
Sketch1_3
10
-65.336079
20
-0.627524
30
0.000000
70
32
0
VERTEX
8
Sketch1_3
10
-65.299158
20
-0.686722
30
0.000000
70
32
0
VERTEX
8
Sketch1_3
10
-65.257680
20
-0.745490
30
0.000000
70
32
0
VERTEX
8
Sketch1_3
10
-65.218474
20
-0.795088
30
0.000000
70
32
0
VERTEX
8
Sketch1_3
10
-65.175755
20
-0.843763
30
0.000000
70
32
0
VERTEX
8
Sketch1_3
10
-65.129480
20
-0.891202
30
0.000000
70
32
0
VERTEX
8
Sketch1_3
10
-65.079643
20
-0.937074
30
0.000000
70
32
0
VERTEX
8
Sketch1_3
10
-65.026273
20
-0.981032
30
0.000000
70
32
0
VERTEX
8
Sketch1_3
10
-64.970483
20
-1.022000
30
0.000000
70
32
0
VERTEX
8
Sketch1_3
10
-64.911458
20
-1.060443
30
0.000000
70
32
0
VERTEX
8
Sketch1_3
10
-64.849347
20
-1.096023
30
0.000000
70
32
0
VERTEX
8
Sketch1_3
10
-64.784343
20
-1.128415
30
0.000000
70
32
0
VERTEX
8
Sketch1_3
10
-64.715274
20
-1.157855
30
0.000000
70
32
0
VERTEX
8
Sketch1_3
10
-64.643734
20
-1.183343
30
0.000000
70
32
0
VERTEX
8
Sketch1_3
10
-64.570059
20
-1.204603
30
0.000000
70
32
0
VERTEX
8
Sketch1_3
10
-64.494628
20
-1.221397
30
0.000000
70
32
0
VERTEX
8
Sketch1_3
10
-64.417848
20
-1.233534
30
0.000000
70
32
0
VERTEX
8
Sketch1_3
10
-64.340155
20
-1.240874
30
0.000000
70
32
0
VERTEX
8
Sketch1_3
10
-64.262000
20
-1.243330
30
0.000000
70
32
0
VERTEX
8
Sketch1_3
10
-64.184015
20
-1.240884
30
0.000000
70
32
0
VERTEX
8
Sketch1_3
10
-64.106489
20
-1.233576
30
0.000000
70
32
0
VERTEX
8
Sketch1_3
10
-64.029871
20
-1.221491
30
0.000000
70
32
0
VERTEX
8
Sketch1_3
10
-63.954592
20
-1.204769
30
0.000000
70
32
0
VERTEX
8
Sketch1_3
10
-63.881059
20
-1.183599
30
0.000000
70
32
0
VERTEX
8
Sketch1_3
10
-63.810902
20
-1.158704
30
0.000000
70
32
0
VERTEX
8
Sketch1_3
10
-63.743109
20
-1.130004
30
0.000000
70
32
0
VERTEX
8
Sketch1_3
10
-63.677961
20
-1.097787
30
0.000000
70
32
0
VERTEX
8
Sketch1_3
10
-63.615694
20
-1.062364
30
0.000000
70
32
0
VERTEX
8
Sketch1_3
10
-63.555330
20
-1.023253
30
0.000000
70
32
0
VERTEX
8
Sketch1_3
10
-63.498330
20
-0.981500
30
0.000000
70
32
0
VERTEX
8
Sketch1_3
10
-63.444808
20
-0.937467
30
0.000000
70
32
0
VERTEX
8
Sketch1_3
10
-63.394835
20
-0.891509
30
0.000000
70
32
0
VERTEX
8
Sketch1_3
10
-63.348440
20
-0.843974
30
0.000000
70
32
0
VERTEX
8
Sketch1_3
10
-63.305615
20
-0.795195
30
0.000000
70
32
0
VERTEX
8
Sketch1_3
10
-63.266320
20
-0.745490
30
0.000000
70
32
0
VERTEX
8
Sketch1_3
10
-63.226627
20
-0.689406
30
0.000000
70
32
0
VERTEX
8
Sketch1_3
10
-63.191094
20
-0.632913
30
0.000000
70
32
0
VERTEX
8
Sketch1_3
10
-63.159556
20
-0.576351
30
0.000000
70
32
0
VERTEX
8
Sketch1_3
10
-63.131830
20
-0.520021
30
0.000000
70
32
0
VERTEX
8
Sketch1_3
10
-63.107712
20
-0.464186
30
0.000000
70
32
0
VERTEX
8
Sketch1_3
10
-63.086990
20
-0.409073
30
0.000000
70
32
0
VERTEX
8
Sketch1_3
10
-63.069444
20
-0.354876
30
0.000000
70
32
0
VERTEX
8
Sketch1_3
10
-63.054853
20
-0.301755
30
0.000000
70
32
0
VERTEX
8
Sketch1_3
10
-63.040362
20
-0.236700
30
0.000000
70
32
0
VERTEX
8
Sketch1_3
10
-63.029768
20
-0.173752
30
0.000000
70
32
0
VERTEX
8
Sketch1_3
10
-63.022662
20
-0.113054
30
0.000000
70
32
0
VERTEX
8
Sketch1_3
10
-63.018659
20
-0.054696
30
0.000000
70
32
0
VERTEX
8
Sketch1_3
10
-63.017400
20
0.001270
30
0.000000
70
32
0
SEQEND
0
POLYLINE
8
Sketch1_4
66
1
70
8
71
117
0
VERTEX
8
Sketch1_4
10
-42.974260
20
-64.262000
30
0.000000
70
32
0
VERTEX
8
Sketch1_4
10
-42.975296
20
-64.211221
30
0.000000
70
32
0
VERTEX
8
Sketch1_4
10
-42.978574
20
-64.158463
30
0.000000
70
32
0
VERTEX
8
Sketch1_4
10
-42.984360
20
-64.103760
30
0.000000
70
32
0
VERTEX
8
Sketch1_4
10
-42.992941
20
-64.047172
30
0.000000
70
32
0
VERTEX
8
Sketch1_4
10
-43.004616
20
-63.988795
30
0.000000
70
32
0
VERTEX
8
Sketch1_4
10
-43.019702
20
-63.928760
30
0.000000
70
32
0
VERTEX
8
Sketch1_4
10
-43.038523
20
-63.867243
30
0.000000
70
32
0
VERTEX
8
Sketch1_4
10
-43.059339
20
-63.809740
30
0.000000
70
32
0
VERTEX
8
Sketch1_4
10
-43.083824
20
-63.751390
30
0.000000
70
32
0
VERTEX
8
Sketch1_4
10
-43.112226
20
-63.692447
30
0.000000
70
32
0
VERTEX
8
Sketch1_4
10
-43.144781
20
-63.633206
30
0.000000
70
32
0
VERTEX
8
Sketch1_4
10
-43.181702
20
-63.574008
30
0.000000
70
32
0
VERTEX
8
Sketch1_4
10
-43.223180
20
-63.515240
30
0.000000
70
32
0
VERTEX
8
Sketch1_4
10
-43.262386
20
-63.465642
30
0.000000
70
32
0
VERTEX
8
Sketch1_4
10
-43.305105
20
-63.416967
30
0.000000
70
32
0
VERTEX
8
Sketch1_4
10
-43.351380
20
-63.369528
30
0.000000
70
32
0
VERTEX
8
Sketch1_4
10
-43.401217
20
-63.323656
30
0.000000
70
32
0
VERTEX
8
Sketch1_4
10
-43.454587
20
-63.279698
30
0.000000
70
32
0
VERTEX
8
Sketch1_4
10
-43.510377
20
-63.238730
30
0.000000
70
32
0
VERTEX
8
Sketch1_4
10
-43.569402
20
-63.200287
30
0.000000
70
32
0
VERTEX
8
Sketch1_4
10
-43.631513
20
-63.164707
30
0.000000
70
32
0
VERTEX
8
Sketch1_4
10
-43.696517
20
-63.132315
30
0.000000
70
32
0
VERTEX
8
Sketch1_4
10
-43.765586
20
-63.102875
30
0.000000
70
32
0
VERTEX
8
Sketch1_4
10
-43.837126
20
-63.077387
30
0.000000
70
32
0
VERTEX
8
Sketch1_4
10
-43.910801
20
-63.056127
30
0.000000
70
32
0
VERTEX
8
Sketch1_4
10
-43.986232
20
-63.039333
30
0.000000
70
32
0
VERTEX
8
Sketch1_4
10
-44.063012
20
-63.027196
30
0.000000
70
32
0
VERTEX
8
Sketch1_4
10
-44.140705
20
-63.019856
30
0.000000
70
32
0
VERTEX
8
Sketch1_4
10
-44.218860
20
-63.017400
30
0.000000
70
32
0
VERTEX
8
Sketch1_4
10
-44.296845
20
-63.019846
30
0.000000
70
32
0
VERTEX
8
Sketch1_4
10
-44.374371
20
-63.027154
30
0.000000
70
32
0
VERTEX
8
Sketch1_4
10
-44.450989
20
-63.039239
30
0.000000
70
32
0
VERTEX
8
Sketch1_4
10
-44.526268
20
-63.055961
30
0.000000
70
32
0
VERTEX
8
Sketch1_4
10
-44.599801
20
-63.077131
30
0.000000
70
32
0
VERTEX
8
Sketch1_4
10
-44.669958
20
-63.102026
30
0.000000
70
32
0
VERTEX
8
Sketch1_4
10
-44.737751
20
-63.130726
30
0.000000
70
32
0
VERTEX
8
Sketch1_4
10
-44.802899
20
-63.162943
30
0.000000
70
32
0
VERTEX
8
Sketch1_4
10
-44.865166
20
-63.198366
30
0.000000
70
32
0
VERTEX
8
Sketch1_4
10
-44.925530
20
-63.237477
30
0.000000
70
32
0
VERTEX
8
Sketch1_4
10
-44.982530
20
-63.279230
30
0.000000
70
32
0
VERTEX
8
Sketch1_4
10
-45.036052
20
-63.323263
30
0.000000
70
32
0
VERTEX
8
Sketch1_4
10
-45.086025
20
-63.369221
30
0.000000
70
32
0
VERTEX
8
Sketch1_4
10
-45.132420
20
-63.416756
30
0.000000
70
32
0
VERTEX
8
Sketch1_4
10
-45.175245
20
-63.465535
30
0.000000
70
32
0
VERTEX
8
Sketch1_4
10
-45.214540
20
-63.515240
30
0.000000
70
32
0
VERTEX
8
Sketch1_4
10
-45.254233
20
-63.571324
30
0.000000
70
32
0
VERTEX
8
Sketch1_4
10
-45.289766
20
-63.627817
30
0.000000
70
32
0
VERTEX
8
Sketch1_4
10
-45.321304
20
-63.684379
30
0.000000
70
32
0
VERTEX
8
Sketch1_4
10
-45.349030
20
-63.740709
30
0.000000
70
32
0
VERTEX
8
Sketch1_4
10
-45.373148
20
-63.796544
30
0.000000
70
32
0
VERTEX
8
Sketch1_4
10
-45.393870
20
-63.851657
30
0.000000
70
32
0
VERTEX
8
Sketch1_4
10
-45.411416
20
-63.905854
30
0.000000
70
32
0
VERTEX
8
Sketch1_4
10
-45.426007
20
-63.958975
30
0.000000
70
32
0
VERTEX
8
Sketch1_4
10
-45.440498
20
-64.024030
30
0.000000
70
32
0
VERTEX
8
Sketch1_4
10
-45.451092
20
-64.086978
30
0.000000
70
32
0
VERTEX
8
Sketch1_4
10
-45.458198
20
-64.147676
30
0.000000
70
32
0
VERTEX
8
Sketch1_4
10
-45.462201
20
-64.206034
30
0.000000
70
32
0
VERTEX
8
Sketch1_4
10
-45.463460
20
-64.262000
30
0.000000
70
32
0
VERTEX
8
Sketch1_4
10
-45.462424
20
-64.312779
30
0.000000
70
32
0
VERTEX
8
Sketch1_4
10
-45.459146
20
-64.365537
30
0.000000
70
32
0
VERTEX
8
Sketch1_4
10
-45.453360
20
-64.420240
30
0.000000
70
32
0
VERTEX
8
Sketch1_4
10
-45.444779
20
-64.476828
30
0.000000
70
32
0
VERTEX
8
Sketch1_4
10
-45.433104
20
-64.535205
30
0.000000
70
32
0
VERTEX
8
Sketch1_4
10
-45.418018
20
-64.595240
30
0.000000
70
32
0
VERTEX
8
Sketch1_4
10
-45.399197
20
-64.656757
30
0.000000
70
32
0
VERTEX
8
Sketch1_4
10
-45.378381
20
-64.714260
30
0.000000
70
32
0
VERTEX
8
Sketch1_4
10
-45.353896
20
-64.772610
30
0.000000
70
32
0
VERTEX
8
Sketch1_4
10
-45.325494
20
-64.831553
30
0.000000
70
32
0
VERTEX
8
Sketch1_4
10
-45.292939
20
-64.890794
30
0.000000
70
32
0
VERTEX
8
Sketch1_4
10
-45.256018
20
-64.949992
30
0.000000
70
32
0
VERTEX
8
Sketch1_4
10
-45.214540
20
-65.008760
30
0.000000
70
32
0
VERTEX
8
Sketch1_4
10
-45.175334
20
-65.058358
30
0.000000
70
32
0
VERTEX
8
Sketch1_4
10
-45.132615
20
-65.107033
30
0.000000
70
32
0
VERTEX
8
Sketch1_4
10
-45.086340
20
-65.154472
30
0.000000
70
32
0
VERTEX
8
Sketch1_4
10
-45.036503
20
-65.200344
30
0.000000
70
32
0
VERTEX
8
Sketch1_4
10
-44.983133
20
-65.244302
30
0.000000
70
32
0
VERTEX
8
Sketch1_4
10
-44.927343
20
-65.285270
30
0.000000
70
32
0
VERTEX
8
Sketch1_4
10
-44.868318
20
-65.323713
30
0.000000
70
32
0
VERTEX
8
Sketch1_4
10
-44.806207
20
-65.359293
30
0.000000
70
32
0
VERTEX
8
Sketch1_4
10
-44.741203
20
-65.391685
30
0.000000
70
32
0
VERTEX
8
Sketch1_4
10
-44.672134
20
-65.421125
30
0.000000
70
32
0
VERTEX
8
Sketch1_4
10
-44.600594
20
-65.446613
30
0.000000
70
32
0
VERTEX
8
Sketch1_4
10
-44.526919
20
-65.467873
30
0.000000
70
32
0
VERTEX
8
Sketch1_4
10
-44.451488
20
-65.484667
30
0.000000
70
32
0
VERTEX
8
Sketch1_4
10
-44.374708
20
-65.496804
30
0.000000
70
32
0
VERTEX
8
Sketch1_4
10
-44.297015
20
-65.504144
30
0.000000
70
32
0
VERTEX
8
Sketch1_4
10
-44.218860
20
-65.506600
30
0.000000
70
32
0
VERTEX
8
Sketch1_4
10
-44.140875
20
-65.504154
30
0.000000
70
32
0
VERTEX
8
Sketch1_4
10
-44.063349
20
-65.496846
30
0.000000
70
32
0
VERTEX
8
Sketch1_4
10
-43.986731
20
-65.484761
30
0.000000
70
32
0
VERTEX
8
Sketch1_4
10
-43.911452
20
-65.468039
30
0.000000
70
32
0
VERTEX
8
Sketch1_4
10
-43.837919
20
-65.446869
30
0.000000
70
32
0
VERTEX
8
Sketch1_4
10
-43.767762
20
-65.421974
30
0.000000
70
32
0
VERTEX
8
Sketch1_4
10
-43.699969
20
-65.393274
30
0.000000
70
32
0
VERTEX
8
Sketch1_4
10
-43.634821
20
-65.361057
30
0.000000
70
32
0
VERTEX
8
Sketch1_4
10
-43.572554
20
-65.325634
30
0.000000
70
32
0
VERTEX
8
Sketch1_4
10
-43.512190
20
-65.286523
30
0.000000
70
32
0
VERTEX
8
Sketch1_4
10
-43.455190
20
-65.244770
30
0.000000
70
32
0
VERTEX
8
Sketch1_4
10
-43.401668
20
-65.200737
30
0.000000
70
32
0
VERTEX
8
Sketch1_4
10
-43.351695
20
-65.154779
30
0.000000
70
32
0
VERTEX
8
Sketch1_4
10
-43.305300
20
-65.107244
30
0.000000
70
32
0
VERTEX
8
Sketch1_4
10
-43.262475
20
-65.058465
30
0.000000
70
32
0
VERTEX
8
Sketch1_4
10
-43.223180
20
-65.008760
30
0.000000
70
32
0
VERTEX
8
Sketch1_4
10
-43.183487
20
-64.952676
30
0.000000
70
32
0
VERTEX
8
Sketch1_4
10
-43.147954
20
-64.896183
30
0.000000
70
32
0
VERTEX
8
Sketch1_4
10
-43.116416
20
-64.839621
30
0.000000
70
32
0
VERTEX
8
Sketch1_4
10
-43.088690
20
-64.783291
30
0.000000
70
32
0
VERTEX
8
Sketch1_4
10
-43.064572
20
-64.727456
30
0.000000
70
32
0
VERTEX
8
Sketch1_4
10
-43.043850
20
-64.672343
30
0.000000
70
32
0
VERTEX
8
Sketch1_4
10
-43.026304
20
-64.618146
30
0.000000
70
32
0
VERTEX
8
Sketch1_4
10
-43.011713
20
-64.565025
30
0.000000
70
32
0
VERTEX
8
Sketch1_4
10
-42.997222
20
-64.499970
30
0.000000
70
32
0
VERTEX
8
Sketch1_4
10
-42.986628
20
-64.437022
30
0.000000
70
32
0
VERTEX
8
Sketch1_4
10
-42.979522
20
-64.376324
30
0.000000
70
32
0
VERTEX
8
Sketch1_4
10
-42.975519
20
-64.317966
30
0.000000
70
32
0
VERTEX
8
Sketch1_4
10
-42.974260
20
-64.262000
30
0.000000
70
32
0
SEQEND
0
POLYLINE
8
Sketch1_5
66
1
70
8
71
117
0
VERTEX
8
Sketch1_5
10
45.463223
20
64.262102
30
0.000000
70
32
0
VERTEX
8
Sketch1_5
10
45.462186
20
64.312881
30
0.000000
70
32
0
VERTEX
8
Sketch1_5
10
45.458909
20
64.365639
30
0.000000
70
32
0
VERTEX
8
Sketch1_5
10
45.453122
20
64.420343
30
0.000000
70
32
0
VERTEX
8
Sketch1_5
10
45.444542
20
64.476930
30
0.000000
70
32
0
VERTEX
8
Sketch1_5
10
45.432866
20
64.535307
30
0.000000
70
32
0
VERTEX
8
Sketch1_5
10
45.417781
20
64.595342
30
0.000000
70
32
0
VERTEX
8
Sketch1_5
10
45.398960
20
64.656860
30
0.000000
70
32
0
VERTEX
8
Sketch1_5
10
45.378144
20
64.714363
30
0.000000
70
32
0
VERTEX
8
Sketch1_5
10
45.353658
20
64.772712
30
0.000000
70
32
0
VERTEX
8
Sketch1_5
10
45.325256
20
64.831656
30
0.000000
70
32
0
VERTEX
8
Sketch1_5
10
45.292702
20
64.890897
30
0.000000
70
32
0
VERTEX
8
Sketch1_5
10
45.255780
20
64.950094
30
0.000000
70
32
0
VERTEX
8
Sketch1_5
10
45.214303
20
65.008862
30
0.000000
70
32
0
VERTEX
8
Sketch1_5
10
45.175097
20
65.058460
30
0.000000
70
32
0
VERTEX
8
Sketch1_5
10
45.132377
20
65.107136
30
0.000000
70
32
0
VERTEX
8
Sketch1_5
10
45.086103
20
65.154575
30
0.000000
70
32
0
VERTEX
8
Sketch1_5
10
45.036266
20
65.200446
30
0.000000
70
32
0
VERTEX
8
Sketch1_5
10
44.982895
20
65.244404
30
0.000000
70
32
0
VERTEX
8
Sketch1_5
10
44.927105
20
65.285372
30
0.000000
70
32
0
VERTEX
8
Sketch1_5
10
44.868080
20
65.323815
30
0.000000
70
32
0
VERTEX
8
Sketch1_5
10
44.805969
20
65.359396
30
0.000000
70
32
0
VERTEX
8
Sketch1_5
10
44.740965
20
65.391787
30
0.000000
70
32
0
VERTEX
8
Sketch1_5
10
44.671897
20
65.421228
30
0.000000
70
32
0
VERTEX
8
Sketch1_5
10
44.600356
20
65.446716
30
0.000000
70
32
0
VERTEX
8
Sketch1_5
10
44.526682
20
65.467975
30
0.000000
70
32
0
VERTEX
8
Sketch1_5
10
44.451251
20
65.484769
30
0.000000
70
32
0
VERTEX
8
Sketch1_5
10
44.374471
20
65.496906
30
0.000000
70
32
0
VERTEX
8
Sketch1_5
10
44.296777
20
65.504246
30
0.000000
70
32
0
VERTEX
8
Sketch1_5
10
44.218623
20
65.506702
30
0.000000
70
32
0
VERTEX
8
Sketch1_5
10
44.140638
20
65.504257
30
0.000000
70
32
0
VERTEX
8
Sketch1_5
10
44.063112
20
65.496949
30
0.000000
70
32
0
VERTEX
8
Sketch1_5
10
43.986493
20
65.484864
30
0.000000
70
32
0
VERTEX
8
Sketch1_5
10
43.911214
20
65.468141
30
0.000000
70
32
0
VERTEX
8
Sketch1_5
10
43.837682
20
65.446971
30
0.000000
70
32
0
VERTEX
8
Sketch1_5
10
43.767524
20
65.422076
30
0.000000
70
32
0
VERTEX
8
Sketch1_5
10
43.699732
20
65.393377
30
0.000000
70
32
0
VERTEX
8
Sketch1_5
10
43.634583
20
65.361160
30
0.000000
70
32
0
VERTEX
8
Sketch1_5
10
43.572317
20
65.325737
30
0.000000
70
32
0
VERTEX
8
Sketch1_5
10
43.511953
20
65.286625
30
0.000000
70
32
0
VERTEX
8
Sketch1_5
10
43.454953
20
65.244873
30
0.000000
70
32
0
VERTEX
8
Sketch1_5
10
43.401431
20
65.200839
30
0.000000
70
32
0
VERTEX
8
Sketch1_5
10
43.351457
20
65.154881
30
0.000000
70
32
0
VERTEX
8
Sketch1_5
10
43.305062
20
65.107346
30
0.000000
70
32
0
VERTEX
8
Sketch1_5
10
43.262238
20
65.058568
30
0.000000
70
32
0
VERTEX
8
Sketch1_5
10
43.222943
20
65.008862
30
0.000000
70
32
0
VERTEX
8
Sketch1_5
10
43.183250
20
64.952778
30
0.000000
70
32
0
VERTEX
8
Sketch1_5
10
43.147716
20
64.896286
30
0.000000
70
32
0
VERTEX
8
Sketch1_5
10
43.116179
20
64.839724
30
0.000000
70
32
0
VERTEX
8
Sketch1_5
10
43.088452
20
64.783393
30
0.000000
70
32
0
VERTEX
8
Sketch1_5
10
43.064335
20
64.727558
30
0.000000
70
32
0
VERTEX
8
Sketch1_5
10
43.043613
20
64.672445
30
0.000000
70
32
0
VERTEX
8
Sketch1_5
10
43.026067
20
64.618248
30
0.000000
70
32
0
VERTEX
8
Sketch1_5
10
43.011475
20
64.565127
30
0.000000
70
32
0
VERTEX
8
Sketch1_5
10
42.996985
20
64.500073
30
0.000000
70
32
0
VERTEX
8
Sketch1_5
10
42.986390
20
64.437125
30
0.000000
70
32
0
VERTEX
8
Sketch1_5
10
42.979284
20
64.376426
30
0.000000
70
32
0
VERTEX
8
Sketch1_5
10
42.975282
20
64.318068
30
0.000000
70
32
0
VERTEX
8
Sketch1_5
10
42.974023
20
64.262102
30
0.000000
70
32
0
VERTEX
8
Sketch1_5
10
42.975059
20
64.211323
30
0.000000
70
32
0
VERTEX
8
Sketch1_5
10
42.978337
20
64.158565
30
0.000000
70
32
0
VERTEX
8
Sketch1_5
10
42.984123
20
64.103862
30
0.000000
70
32
0
VERTEX
8
Sketch1_5
10
42.992703
20
64.047275
30
0.000000
70
32
0
VERTEX
8
Sketch1_5
10
43.004379
20
63.988897
30
0.000000
70
32
0
VERTEX
8
Sketch1_5
10
43.019464
20
63.928863
30
0.000000
70
32
0
VERTEX
8
Sketch1_5
10
43.038285
20
63.867345
30
0.000000
70
32
0
VERTEX
8
Sketch1_5
10
43.059101
20
63.809842
30
0.000000
70
32
0
VERTEX
8
Sketch1_5
10
43.083587
20
63.751492
30
0.000000
70
32
0
VERTEX
8
Sketch1_5
10
43.111989
20
63.692549
30
0.000000
70
32
0
VERTEX
8
Sketch1_5
10
43.144543
20
63.633308
30
0.000000
70
32
0
VERTEX
8
Sketch1_5
10
43.181465
20
63.574110
30
0.000000
70
32
0
VERTEX
8
Sketch1_5
10
43.222943
20
63.515342
30
0.000000
70
32
0
VERTEX
8
Sketch1_5
10
43.262148
20
63.465745
30
0.000000
70
32
0
VERTEX
8
Sketch1_5
10
43.304868
20
63.417069
30
0.000000
70
32
0
VERTEX
8
Sketch1_5
10
43.351142
20
63.369630
30
0.000000
70
32
0
VERTEX
8
Sketch1_5
10
43.400979
20
63.323759
30
0.000000
70
32
0
VERTEX
8
Sketch1_5
10
43.454350
20
63.279801
30
0.000000
70
32
0
VERTEX
8
Sketch1_5
10
43.510140
20
63.238832
30
0.000000
70
32
0
VERTEX
8
Sketch1_5
10
43.569165
20
63.200390
30
0.000000
70
32
0
VERTEX
8
Sketch1_5
10
43.631276
20
63.164809
30
0.000000
70
32
0
VERTEX
8
Sketch1_5
10
43.696280
20
63.132418
30
0.000000
70
32
0
VERTEX
8
Sketch1_5
10
43.765349
20
63.102977
30
0.000000
70
32
0
VERTEX
8
Sketch1_5
10
43.836889
20
63.077489
30
0.000000
70
32
0
VERTEX
8
Sketch1_5
10
43.910563
20
63.056230
30
0.000000
70
32
0
VERTEX
8
Sketch1_5
10
43.985995
20
63.039436
30
0.000000
70
32
0
VERTEX
8
Sketch1_5
10
44.062774
20
63.027298
30
0.000000
70
32
0
VERTEX
8
Sketch1_5
10
44.140468
20
63.019959
30
0.000000
70
32
0
VERTEX
8
Sketch1_5
10
44.218623
20
63.017502
30
0.000000
70
32
0
VERTEX
8
Sketch1_5
10
44.296607
20
63.019948
30
0.000000
70
32
0
VERTEX
8
Sketch1_5
10
44.374133
20
63.027256
30
0.000000
70
32
0
VERTEX
8
Sketch1_5
10
44.450752
20
63.039341
30
0.000000
70
32
0
VERTEX
8
Sketch1_5
10
44.526031
20
63.056064
30
0.000000
70
32
0
VERTEX
8
Sketch1_5
10
44.599563
20
63.077234
30
0.000000
70
32
0
VERTEX
8
Sketch1_5
10
44.669721
20
63.102128
30
0.000000
70
32
0
VERTEX
8
Sketch1_5
10
44.737513
20
63.130828
30
0.000000
70
32
0
VERTEX
8
Sketch1_5
10
44.802662
20
63.163045
30
0.000000
70
32
0
VERTEX
8
Sketch1_5
10
44.864928
20
63.198468
30
0.000000
70
32
0
VERTEX
8
Sketch1_5
10
44.925292
20
63.237579
30
0.000000
70
32
0
VERTEX
8
Sketch1_5
10
44.982292
20
63.279332
30
0.000000
70
32
0
VERTEX
8
Sketch1_5
10
45.035814
20
63.323366
30
0.000000
70
32
0
VERTEX
8
Sketch1_5
10
45.085788
20
63.369324
30
0.000000
70
32
0
VERTEX
8
Sketch1_5
10
45.132183
20
63.416859
30
0.000000
70
32
0
VERTEX
8
Sketch1_5
10
45.175007
20
63.465637
30
0.000000
70
32
0
VERTEX
8
Sketch1_5
10
45.214303
20
63.515342
30
0.000000
70
32
0
VERTEX
8
Sketch1_5
10
45.253995
20
63.571427
30
0.000000
70
32
0
VERTEX
8
Sketch1_5
10
45.289529
20
63.627919
30
0.000000
70
32
0
VERTEX
8
Sketch1_5
10
45.321067
20
63.684481
30
0.000000
70
32
0
VERTEX
8
Sketch1_5
10
45.348793
20
63.740811
30
0.000000
70
32
0
VERTEX
8
Sketch1_5
10
45.372910
20
63.796646
30
0.000000
70
32
0
VERTEX
8
Sketch1_5
10
45.393632
20
63.851759
30
0.000000
70
32
0
VERTEX
8
Sketch1_5
10
45.411178
20
63.905956
30
0.000000
70
32
0
VERTEX
8
Sketch1_5
10
45.425770
20
63.959077
30
0.000000
70
32
0
VERTEX
8
Sketch1_5
10
45.440261
20
64.024132
30
0.000000
70
32
0
VERTEX
8
Sketch1_5
10
45.450855
20
64.087080
30
0.000000
70
32
0
VERTEX
8
Sketch1_5
10
45.457961
20
64.147779
30
0.000000
70
32
0
VERTEX
8
Sketch1_5
10
45.461964
20
64.206136
30
0.000000
70
32
0
VERTEX
8
Sketch1_5
10
45.463223
20
64.262102
30
0.000000
70
32
0
SEQEND
0
POLYLINE
8
Sketch1_6
66
1
70
8
71
3
0
VERTEX
8
Sketch1_6
10
-66.328290
20
-76.962000
30
0.000000
70
32
0
VERTEX
8
Sketch1_6
10
7.959395
20
-76.962000
30
0.000000
70
32
0
VERTEX
8
Sketch1_6
10
66.328290
20
-76.962000
30
0.000000
70
32
0
SEQEND
0
POLYLINE
8
Sketch1_7
66
1
70
8
71
3
0
VERTEX
8
Sketch1_7
10
76.962000
20
51.562000
30
0.000000
70
32
0
VERTEX
8
Sketch1_7
10
76.962000
20
-6.187440
30
0.000000
70
32
0
VERTEX
8
Sketch1_7
10
76.962000
20
-51.562000
30
0.000000
70
32
0
SEQEND
0
POLYLINE
8
Sketch1_8
66
1
70
8
71
3
0
VERTEX
8
Sketch1_8
10
51.562000
20
51.562000
30
0.000000
70
32
0
VERTEX
8
Sketch1_8
10
65.786000
20
51.562000
30
0.000000
70
32
0
VERTEX
8
Sketch1_8
10
76.962000
20
51.562000
30
0.000000
70
32
0
SEQEND
0
POLYLINE
8
Sketch1_9
66
1
70
8
71
3
0
VERTEX
8
Sketch1_9
10
-66.328290
20
-76.962000
30
0.000000
70
32
0
VERTEX
8
Sketch1_9
10
-66.328290
20
-62.738000
30
0.000000
70
32
0
VERTEX
8
Sketch1_9
10
-66.328290
20
-51.562000
30
0.000000
70
32
0
SEQEND
0
POLYLINE
8
Sketch1_10
66
1
70
8
71
3
0
VERTEX
8
Sketch1_10
10
-66.328053
20
76.962205
30
0.000000
70
32
0
VERTEX
8
Sketch1_10
10
-66.328053
20
62.738090
30
0.000000
70
32
0
VERTEX
8
Sketch1_10
10
-66.328053
20
51.562000
30
0.000000
70
32
0
SEQEND
0
POLYLINE
8
Sketch1_11
66
1
70
8
71
3
0
VERTEX
8
Sketch1_11
10
66.328290
20
-76.962000
30
0.000000
70
32
0
VERTEX
8
Sketch1_11
10
66.328290
20
-62.738000
30
0.000000
70
32
0
VERTEX
8
Sketch1_11
10
66.328290
20
-51.562000
30
0.000000
70
32
0
SEQEND
0
POLYLINE
8
Sketch1_12
66
1
70
8
71
117
0
VERTEX
8
Sketch1_12
10
1.244600
20
-64.262000
30
0.000000
70
32
0
VERTEX
8
Sketch1_12
10
1.243564
20
-64.211221
30
0.000000
70
32
0
VERTEX
8
Sketch1_12
10
1.240286
20
-64.158463
30
0.000000
70
32
0
VERTEX
8
Sketch1_12
10
1.234500
20
-64.103760
30
0.000000
70
32
0
VERTEX
8
Sketch1_12
10
1.225919
20
-64.047172
30
0.000000
70
32
0
VERTEX
8
Sketch1_12
10
1.214244
20
-63.988795
30
0.000000
70
32
0
VERTEX
8
Sketch1_12
10
1.199158
20
-63.928760
30
0.000000
70
32
0
VERTEX
8
Sketch1_12
10
1.180337
20
-63.867243
30
0.000000
70
32
0
VERTEX
8
Sketch1_12
10
1.159521
20
-63.809740
30
0.000000
70
32
0
VERTEX
8
Sketch1_12
10
1.135036
20
-63.751390
30
0.000000
70
32
0
VERTEX
8
Sketch1_12
10
1.106634
20
-63.692447
30
0.000000
70
32
0
VERTEX
8
Sketch1_12
10
1.074079
20
-63.633206
30
0.000000
70
32
0
VERTEX
8
Sketch1_12
10
1.037158
20
-63.574008
30
0.000000
70
32
0
VERTEX
8
Sketch1_12
10
0.995680
20
-63.515240
30
0.000000
70
32
0
VERTEX
8
Sketch1_12
10
0.956474
20
-63.465642
30
0.000000
70
32
0
VERTEX
8
Sketch1_12
10
0.913755
20
-63.416967
30
0.000000
70
32
0
VERTEX
8
Sketch1_12
10
0.867480
20
-63.369528
30
0.000000
70
32
0
VERTEX
8
Sketch1_12
10
0.817643
20
-63.323656
30
0.000000
70
32
0
VERTEX
8
Sketch1_12
10
0.764273
20
-63.279698
30
0.000000
70
32
0
VERTEX
8
Sketch1_12
10
0.708483
20
-63.238730
30
0.000000
70
32
0
VERTEX
8
Sketch1_12
10
0.649458
20
-63.200287
30
0.000000
70
32
0
VERTEX
8
Sketch1_12
10
0.587347
20
-63.164707
30
0.000000
70
32
0
VERTEX
8
Sketch1_12
10
0.522343
20
-63.132315
30
0.000000
70
32
0
VERTEX
8
Sketch1_12
10
0.453274
20
-63.102875
30
0.000000
70
32
0
VERTEX
8
Sketch1_12
10
0.381734
20
-63.077387
30
0.000000
70
32
0
VERTEX
8
Sketch1_12
10
0.308059
20
-63.056127
30
0.000000
70
32
0
VERTEX
8
Sketch1_12
10
0.232628
20
-63.039333
30
0.000000
70
32
0
VERTEX
8
Sketch1_12
10
0.155848
20
-63.027196
30
0.000000
70
32
0
VERTEX
8
Sketch1_12
10
0.078155
20
-63.019856
30
0.000000
70
32
0
VERTEX
8
Sketch1_12
10
0.000000
20
-63.017400
30
0.000000
70
32
0
VERTEX
8
Sketch1_12
10
-0.077985
20
-63.019846
30
0.000000
70
32
0
VERTEX
8
Sketch1_12
10
-0.155511
20
-63.027154
30
0.000000
70
32
0
VERTEX
8
Sketch1_12
10
-0.232129
20
-63.039239
30
0.000000
70
32
0
VERTEX
8
Sketch1_12
10
-0.307408
20
-63.055961
30
0.000000
70
32
0
VERTEX
8
Sketch1_12
10
-0.380941
20
-63.077131
30
0.000000
70
32
0
VERTEX
8
Sketch1_12
10
-0.451098
20
-63.102026
30
0.000000
70
32
0
VERTEX
8
Sketch1_12
10
-0.518891
20
-63.130726
30
0.000000
70
32
0
VERTEX
8
Sketch1_12
10
-0.584039
20
-63.162943
30
0.000000
70
32
0
VERTEX
8
Sketch1_12
10
-0.646306
20
-63.198366
30
0.000000
70
32
0
VERTEX
8
Sketch1_12
10
-0.706670
20
-63.237477
30
0.000000
70
32
0
VERTEX
8
Sketch1_12
10
-0.763670
20
-63.279230
30
0.000000
70
32
0
VERTEX
8
Sketch1_12
10
-0.817192
20
-63.323263
30
0.000000
70
32
0
VERTEX
8
Sketch1_12
10
-0.867165
20
-63.369221
30
0.000000
70
32
0
VERTEX
8
Sketch1_12
10
-0.913560
20
-63.416756
30
0.000000
70
32
0
VERTEX
8
Sketch1_12
10
-0.956385
20
-63.465535
30
0.000000
70
32
0
VERTEX
8
Sketch1_12
10
-0.995680
20
-63.515240
30
0.000000
70
32
0
VERTEX
8
Sketch1_12
10
-1.035373
20
-63.571324
30
0.000000
70
32
0
VERTEX
8
Sketch1_12
10
-1.070906
20
-63.627817
30
0.000000
70
32
0
VERTEX
8
Sketch1_12
10
-1.102444
20
-63.684379
30
0.000000
70
32
0
VERTEX
8
Sketch1_12
10
-1.130170
20
-63.740709
30
0.000000
70
32
0
VERTEX
8
Sketch1_12
10
-1.154288
20
-63.796544
30
0.000000
70
32
0
VERTEX
8
Sketch1_12
10
-1.175010
20
-63.851657
30
0.000000
70
32
0
VERTEX
8
Sketch1_12
10
-1.192556
20
-63.905854
30
0.000000
70
32
0
VERTEX
8
Sketch1_12
10
-1.207147
20
-63.958975
30
0.000000
70
32
0
VERTEX
8
Sketch1_12
10
-1.221638
20
-64.024030
30
0.000000
70
32
0
VERTEX
8
Sketch1_12
10
-1.232232
20
-64.086978
30
0.000000
70
32
0
VERTEX
8
Sketch1_12
10
-1.239338
20
-64.147676
30
0.000000
70
32
0
VERTEX
8
Sketch1_12
10
-1.243341
20
-64.206034
30
0.000000
70
32
0
VERTEX
8
Sketch1_12
10
-1.244600
20
-64.262000
30
0.000000
70
32
0
VERTEX
8
Sketch1_12
10
-1.243564
20
-64.312779
30
0.000000
70
32
0
VERTEX
8
Sketch1_12
10
-1.240286
20
-64.365537
30
0.000000
70
32
0
VERTEX
8
Sketch1_12
10
-1.234500
20
-64.420240
30
0.000000
70
32
0
VERTEX
8
Sketch1_12
10
-1.225919
20
-64.476828
30
0.000000
70
32
0
VERTEX
8
Sketch1_12
10
-1.214244
20
-64.535205
30
0.000000
70
32
0
VERTEX
8
Sketch1_12
10
-1.199158
20
-64.595240
30
0.000000
70
32
0
VERTEX
8
Sketch1_12
10
-1.180337
20
-64.656757
30
0.000000
70
32
0
VERTEX
8
Sketch1_12
10
-1.159521
20
-64.714260
30
0.000000
70
32
0
VERTEX
8
Sketch1_12
10
-1.135036
20
-64.772610
30
0.000000
70
32
0
VERTEX
8
Sketch1_12
10
-1.106634
20
-64.831553
30
0.000000
70
32
0
VERTEX
8
Sketch1_12
10
-1.074079
20
-64.890794
30
0.000000
70
32
0
VERTEX
8
Sketch1_12
10
-1.037158
20
-64.949992
30
0.000000
70
32
0
VERTEX
8
Sketch1_12
10
-0.995680
20
-65.008760
30
0.000000
70
32
0
VERTEX
8
Sketch1_12
10
-0.956474
20
-65.058358
30
0.000000
70
32
0
VERTEX
8
Sketch1_12
10
-0.913755
20
-65.107033
30
0.000000
70
32
0
VERTEX
8
Sketch1_12
10
-0.867480
20
-65.154472
30
0.000000
70
32
0
VERTEX
8
Sketch1_12
10
-0.817643
20
-65.200344
30
0.000000
70
32
0
VERTEX
8
Sketch1_12
10
-0.764273
20
-65.244302
30
0.000000
70
32
0
VERTEX
8
Sketch1_12
10
-0.708483
20
-65.285270
30
0.000000
70
32
0
VERTEX
8
Sketch1_12
10
-0.649458
20
-65.323713
30
0.000000
70
32
0
VERTEX
8
Sketch1_12
10
-0.587347
20
-65.359293
30
0.000000
70
32
0
VERTEX
8
Sketch1_12
10
-0.522343
20
-65.391685
30
0.000000
70
32
0
VERTEX
8
Sketch1_12
10
-0.453274
20
-65.421125
30
0.000000
70
32
0
VERTEX
8
Sketch1_12
10
-0.381734
20
-65.446613
30
0.000000
70
32
0
VERTEX
8
Sketch1_12
10
-0.308059
20
-65.467873
30
0.000000
70
32
0
VERTEX
8
Sketch1_12
10
-0.232628
20
-65.484667
30
0.000000
70
32
0
VERTEX
8
Sketch1_12
10
-0.155848
20
-65.496804
30
0.000000
70
32
0
VERTEX
8
Sketch1_12
10
-0.078155
20
-65.504144
30
0.000000
70
32
0
VERTEX
8
Sketch1_12
10
0.000000
20
-65.506600
30
0.000000
70
32
0
VERTEX
8
Sketch1_12
10
0.077985
20
-65.504154
30
0.000000
70
32
0
VERTEX
8
Sketch1_12
10
0.155511
20
-65.496846
30
0.000000
70
32
0
VERTEX
8
Sketch1_12
10
0.232129
20
-65.484761
30
0.000000
70
32
0
VERTEX
8
Sketch1_12
10
0.307408
20
-65.468039
30
0.000000
70
32
0
VERTEX
8
Sketch1_12
10
0.380941
20
-65.446869
30
0.000000
70
32
0
VERTEX
8
Sketch1_12
10
0.451098
20
-65.421974
30
0.000000
70
32
0
VERTEX
8
Sketch1_12
10
0.518891
20
-65.393274
30
0.000000
70
32
0
VERTEX
8
Sketch1_12
10
0.584039
20
-65.361057
30
0.000000
70
32
0
VERTEX
8
Sketch1_12
10
0.646306
20
-65.325634
30
0.000000
70
32
0
VERTEX
8
Sketch1_12
10
0.706670
20
-65.286523
30
0.000000
70
32
0
VERTEX
8
Sketch1_12
10
0.763670
20
-65.244770
30
0.000000
70
32
0
VERTEX
8
Sketch1_12
10
0.817192
20
-65.200737
30
0.000000
70
32
0
VERTEX
8
Sketch1_12
10
0.867165
20
-65.154779
30
0.000000
70
32
0
VERTEX
8
Sketch1_12
10
0.913560
20
-65.107244
30
0.000000
70
32
0
VERTEX
8
Sketch1_12
10
0.956385
20
-65.058465
30
0.000000
70
32
0
VERTEX
8
Sketch1_12
10
0.995680
20
-65.008760
30
0.000000
70
32
0
VERTEX
8
Sketch1_12
10
1.035373
20
-64.952676
30
0.000000
70
32
0
VERTEX
8
Sketch1_12
10
1.070906
20
-64.896183
30
0.000000
70
32
0
VERTEX
8
Sketch1_12
10
1.102444
20
-64.839621
30
0.000000
70
32
0
VERTEX
8
Sketch1_12
10
1.130170
20
-64.783291
30
0.000000
70
32
0
VERTEX
8
Sketch1_12
10
1.154288
20
-64.727456
30
0.000000
70
32
0
VERTEX
8
Sketch1_12
10
1.175010
20
-64.672343
30
0.000000
70
32
0
VERTEX
8
Sketch1_12
10
1.192556
20
-64.618146
30
0.000000
70
32
0
VERTEX
8
Sketch1_12
10
1.207147
20
-64.565025
30
0.000000
70
32
0
VERTEX
8
Sketch1_12
10
1.221638
20
-64.499970
30
0.000000
70
32
0
VERTEX
8
Sketch1_12
10
1.232232
20
-64.437022
30
0.000000
70
32
0
VERTEX
8
Sketch1_12
10
1.239338
20
-64.376324
30
0.000000
70
32
0
VERTEX
8
Sketch1_12
10
1.243341
20
-64.317966
30
0.000000
70
32
0
VERTEX
8
Sketch1_12
10
1.244600
20
-64.262000
30
0.000000
70
32
0
SEQEND
0
POLYLINE
8
Sketch1_13
66
1
70
8
71
117
0
VERTEX
8
Sketch1_13
10
3.175000
20
114.300000
30
0.000000
70
32
0
VERTEX
8
Sketch1_13
10
3.172356
20
114.429538
30
0.000000
70
32
0
VERTEX
8
Sketch1_13
10
3.163995
20
114.564125
30
0.000000
70
32
0
VERTEX
8
Sketch1_13
10
3.149234
20
114.703674
30
0.000000
70
32
0
VERTEX
8
Sketch1_13
10
3.127345
20
114.848030
30
0.000000
70
32
0
VERTEX
8
Sketch1_13
10
3.097561
20
114.996951
30
0.000000
70
32
0
VERTEX
8
Sketch1_13
10
3.059077
20
115.150101
30
0.000000
70
32
0
VERTEX
8
Sketch1_13
10
3.011064
20
115.307034
30
0.000000
70
32
0
VERTEX
8
Sketch1_13
10
2.957963
20
115.453726
30
0.000000
70
32
0
VERTEX
8
Sketch1_13
10
2.895500
20
115.602577
30
0.000000
70
32
0
VERTEX
8
Sketch1_13
10
2.823045
20
115.752943
30
0.000000
70
32
0
VERTEX
8
Sketch1_13
10
2.739999
20
115.904067
30
0.000000
70
32
0
VERTEX
8
Sketch1_13
10
2.645811
20
116.055082
30
0.000000
70
32
0
VERTEX
8
Sketch1_13
10
2.540000
20
116.205000
30
0.000000
70
32
0
VERTEX
8
Sketch1_13
10
2.439986
20
116.331525
30
0.000000
70
32
0
VERTEX
8
Sketch1_13
10
2.331007
20
116.455697
30
0.000000
70
32
0
VERTEX
8
Sketch1_13
10
2.212960
20
116.576715
30
0.000000
70
32
0
VERTEX
8
Sketch1_13
10
2.085825
20
116.693733
30
0.000000
70
32
0
VERTEX
8
Sketch1_13
10
1.949675
20
116.805872
30
0.000000
70
32
0
VERTEX
8
Sketch1_13
10
1.807354
20
116.910383
30
0.000000
70
32
0
VERTEX
8
Sketch1_13
10
1.656780
20
117.008451
30
0.000000
70
32
0
VERTEX
8
Sketch1_13
10
1.498334
20
117.099218
30
0.000000
70
32
0
VERTEX
8
Sketch1_13
10
1.332507
20
117.181849
30
0.000000
70
32
0
VERTEX
8
Sketch1_13
10
1.156311
20
117.256953
30
0.000000
70
32
0
VERTEX
8
Sketch1_13
10
0.973810
20
117.321973
30
0.000000
70
32
0
VERTEX
8
Sketch1_13
10
0.785866
20
117.376205
30
0.000000
70
32
0
VERTEX
8
Sketch1_13
10
0.593439
20
117.419047
30
0.000000
70
32
0
VERTEX
8
Sketch1_13
10
0.397572
20
117.450010
30
0.000000
70
32
0
VERTEX
8
Sketch1_13
10
0.199374
20
117.468734
30
0.000000
70
32
0
VERTEX
8
Sketch1_13
10
0.000000
20
117.475000
30
0.000000
70
32
0
VERTEX
8
Sketch1_13
10
-0.198940
20
117.468761
30
0.000000
70
32
0
VERTEX
8
Sketch1_13
10
-0.396711
20
117.450118
30
0.000000
70
32
0
VERTEX
8
Sketch1_13
10
-0.592167
20
117.419289
30
0.000000
70
32
0
VERTEX
8
Sketch1_13
10
-0.784204
20
117.376629
30
0.000000
70
32
0
VERTEX
8
Sketch1_13
10
-0.971787
20
117.322624
30
0.000000
70
32
0
VERTEX
8
Sketch1_13
10
-1.150760
20
117.259117
30
0.000000
70
32
0
VERTEX
8
Sketch1_13
10
-1.323701
20
117.185904
30
0.000000
70
32
0
VERTEX
8
Sketch1_13
10
-1.489896
20
117.103718
30
0.000000
70
32
0
VERTEX
8
Sketch1_13
10
-1.648739
20
117.013353
30
0.000000
70
32
0
VERTEX
8
Sketch1_13
10
-1.802729
20
116.913579
30
0.000000
70
32
0
VERTEX
8
Sketch1_13
10
-1.948137
20
116.807067
30
0.000000
70
32
0
VERTEX
8
Sketch1_13
10
-2.084673
20
116.694737
30
0.000000
70
32
0
VERTEX
8
Sketch1_13
10
-2.212156
20
116.577497
30
0.000000
70
32
0
VERTEX
8
Sketch1_13
10
-2.330511
20
116.456234
30
0.000000
70
32
0
VERTEX
8
Sketch1_13
10
-2.439757
20
116.331799
30
0.000000
70
32
0
VERTEX
8
Sketch1_13
10
-2.540000
20
116.205000
30
0.000000
70
32
0
VERTEX
8
Sketch1_13
10
-2.641256
20
116.061928
30
0.000000
70
32
0
VERTEX
8
Sketch1_13
10
-2.731904
20
115.917815
30
0.000000
70
32
0
VERTEX
8
Sketch1_13
10
-2.812357
20
115.773524
30
0.000000
70
32
0
VERTEX
8
Sketch1_13
10
-2.883087
20
115.629824
30
0.000000
70
32
0
VERTEX
8
Sketch1_13
10
-2.944611
20
115.487387
30
0.000000
70
32
0
VERTEX
8
Sketch1_13
10
-2.997474
20
115.346794
30
0.000000
70
32
0
VERTEX
8
Sketch1_13
10
-3.042234
20
115.208536
30
0.000000
70
32
0
VERTEX
8
Sketch1_13
10
-3.079458
20
115.073023
30
0.000000
70
32
0
VERTEX
8
Sketch1_13
10
-3.116423
20
114.907067
30
0.000000
70
32
0
VERTEX
8
Sketch1_13
10
-3.143450
20
114.746486
30
0.000000
70
32
0
VERTEX
8
Sketch1_13
10
-3.161577
20
114.591642
30
0.000000
70
32
0
VERTEX
8
Sketch1_13
10
-3.171788
20
114.442770
30
0.000000
70
32
0
VERTEX
8
Sketch1_13
10
-3.175000
20
114.300000
30
0.000000
70
32
0
VERTEX
8
Sketch1_13
10
-3.172356
20
114.170462
30
0.000000
70
32
0
VERTEX
8
Sketch1_13
10
-3.163995
20
114.035875
30
0.000000
70
32
0
VERTEX
8
Sketch1_13
10
-3.149234
20
113.896326
30
0.000000
70
32
0
VERTEX
8
Sketch1_13
10
-3.127345
20
113.751970
30
0.000000
70
32
0
VERTEX
8
Sketch1_13
10
-3.097561
20
113.603049
30
0.000000
70
32
0
VERTEX
8
Sketch1_13
10
-3.059077
20
113.449899
30
0.000000
70
32
0
VERTEX
8
Sketch1_13
10
-3.011064
20
113.292966
30
0.000000
70
32
0
VERTEX
8
Sketch1_13
10
-2.957963
20
113.146274
30
0.000000
70
32
0
VERTEX
8
Sketch1_13
10
-2.895500
20
112.997423
30
0.000000
70
32
0
VERTEX
8
Sketch1_13
10
-2.823045
20
112.847057
30
0.000000
70
32
0
VERTEX
8
Sketch1_13
10
-2.739999
20
112.695933
30
0.000000
70
32
0
VERTEX
8
Sketch1_13
10
-2.645811
20
112.544918
30
0.000000
70
32
0
VERTEX
8
Sketch1_13
10
-2.540000
20
112.395000
30
0.000000
70
32
0
VERTEX
8
Sketch1_13
10
-2.439986
20
112.268475
30
0.000000
70
32
0
VERTEX
8
Sketch1_13
10
-2.331007
20
112.144303
30
0.000000
70
32
0
VERTEX
8
Sketch1_13
10
-2.212960
20
112.023285
30
0.000000
70
32
0
VERTEX
8
Sketch1_13
10
-2.085825
20
111.906267
30
0.000000
70
32
0
VERTEX
8
Sketch1_13
10
-1.949675
20
111.794128
30
0.000000
70
32
0
VERTEX
8
Sketch1_13
10
-1.807354
20
111.689617
30
0.000000
70
32
0
VERTEX
8
Sketch1_13
10
-1.656780
20
111.591549
30
0.000000
70
32
0
VERTEX
8
Sketch1_13
10
-1.498334
20
111.500782
30
0.000000
70
32
0
VERTEX
8
Sketch1_13
10
-1.332507
20
111.418151
30
0.000000
70
32
0
VERTEX
8
Sketch1_13
10
-1.156311
20
111.343047
30
0.000000
70
32
0
VERTEX
8
Sketch1_13
10
-0.973810
20
111.278027
30
0.000000
70
32
0
VERTEX
8
Sketch1_13
10
-0.785866
20
111.223795
30
0.000000
70
32
0
VERTEX
8
Sketch1_13
10
-0.593439
20
111.180953
30
0.000000
70
32
0
VERTEX
8
Sketch1_13
10
-0.397572
20
111.149990
30
0.000000
70
32
0
VERTEX
8
Sketch1_13
10
-0.199374
20
111.131266
30
0.000000
70
32
0
VERTEX
8
Sketch1_13
10
0.000000
20
111.125000
30
0.000000
70
32
0
VERTEX
8
Sketch1_13
10
0.198940
20
111.131239
30
0.000000
70
32
0
VERTEX
8
Sketch1_13
10
0.396711
20
111.149882
30
0.000000
70
32
0
VERTEX
8
Sketch1_13
10
0.592167
20
111.180711
30
0.000000
70
32
0
VERTEX
8
Sketch1_13
10
0.784204
20
111.223371
30
0.000000
70
32
0
VERTEX
8
Sketch1_13
10
0.971787
20
111.277376
30
0.000000
70
32
0
VERTEX
8
Sketch1_13
10
1.150760
20
111.340883
30
0.000000
70
32
0
VERTEX
8
Sketch1_13
10
1.323701
20
111.414096
30
0.000000
70
32
0
VERTEX
8
Sketch1_13
10
1.489896
20
111.496282
30
0.000000
70
32
0
VERTEX
8
Sketch1_13
10
1.648739
20
111.586647
30
0.000000
70
32
0
VERTEX
8
Sketch1_13
10
1.802729
20
111.686421
30
0.000000
70
32
0
VERTEX
8
Sketch1_13
10
1.948137
20
111.792933
30
0.000000
70
32
0
VERTEX
8
Sketch1_13
10
2.084673
20
111.905263
30
0.000000
70
32
0
VERTEX
8
Sketch1_13
10
2.212156
20
112.022503
30
0.000000
70
32
0
VERTEX
8
Sketch1_13
10
2.330511
20
112.143766
30
0.000000
70
32
0
VERTEX
8
Sketch1_13
10
2.439757
20
112.268201
30
0.000000
70
32
0
VERTEX
8
Sketch1_13
10
2.540000
20
112.395000
30
0.000000
70
32
0
VERTEX
8
Sketch1_13
10
2.641256
20
112.538072
30
0.000000
70
32
0
VERTEX
8
Sketch1_13
10
2.731904
20
112.682185
30
0.000000
70
32
0
VERTEX
8
Sketch1_13
10
2.812357
20
112.826476
30
0.000000
70
32
0
VERTEX
8
Sketch1_13
10
2.883087
20
112.970176
30
0.000000
70
32
0
VERTEX
8
Sketch1_13
10
2.944611
20
113.112613
30
0.000000
70
32
0
VERTEX
8
Sketch1_13
10
2.997474
20
113.253206
30
0.000000
70
32
0
VERTEX
8
Sketch1_13
10
3.042234
20
113.391464
30
0.000000
70
32
0
VERTEX
8
Sketch1_13
10
3.079458
20
113.526977
30
0.000000
70
32
0
VERTEX
8
Sketch1_13
10
3.116423
20
113.692933
30
0.000000
70
32
0
VERTEX
8
Sketch1_13
10
3.143450
20
113.853514
30
0.000000
70
32
0
VERTEX
8
Sketch1_13
10
3.161577
20
114.008358
30
0.000000
70
32
0
VERTEX
8
Sketch1_13
10
3.171788
20
114.157230
30
0.000000
70
32
0
VERTEX
8
Sketch1_13
10
3.175000
20
114.300000
30
0.000000
70
32
0
SEQEND
0
POLYLINE
8
Sketch1_14
66
1
70
8
71
117
0
VERTEX
8
Sketch1_14
10
65.506600
20
34.375090
30
0.000000
70
32
0
VERTEX
8
Sketch1_14
10
65.505564
20
34.425869
30
0.000000
70
32
0
VERTEX
8
Sketch1_14
10
65.502286
20
34.478627
30
0.000000
70
32
0
VERTEX
8
Sketch1_14
10
65.496500
20
34.533330
30
0.000000
70
32
0
VERTEX
8
Sketch1_14
10
65.487919
20
34.589918
30
0.000000
70
32
0
VERTEX
8
Sketch1_14
10
65.476244
20
34.648295
30
0.000000
70
32
0
VERTEX
8
Sketch1_14
10
65.461158
20
34.708330
30
0.000000
70
32
0
VERTEX
8
Sketch1_14
10
65.442337
20
34.769847
30
0.000000
70
32
0
VERTEX
8
Sketch1_14
10
65.421521
20
34.827350
30
0.000000
70
32
0
VERTEX
8
Sketch1_14
10
65.397036
20
34.885700
30
0.000000
70
32
0
VERTEX
8
Sketch1_14
10
65.368634
20
34.944643
30
0.000000
70
32
0
VERTEX
8
Sketch1_14
10
65.336079
20
35.003884
30
0.000000
70
32
0
VERTEX
8
Sketch1_14
10
65.299158
20
35.063082
30
0.000000
70
32
0
VERTEX
8
Sketch1_14
10
65.257680
20
35.121850
30
0.000000
70
32
0
VERTEX
8
Sketch1_14
10
65.218474
20
35.171448
30
0.000000
70
32
0
VERTEX
8
Sketch1_14
10
65.175755
20
35.220123
30
0.000000
70
32
0
VERTEX
8
Sketch1_14
10
65.129480
20
35.267562
30
0.000000
70
32
0
VERTEX
8
Sketch1_14
10
65.079643
20
35.313434
30
0.000000
70
32
0
VERTEX
8
Sketch1_14
10
65.026273
20
35.357392
30
0.000000
70
32
0
VERTEX
8
Sketch1_14
10
64.970483
20
35.398360
30
0.000000
70
32
0
VERTEX
8
Sketch1_14
10
64.911458
20
35.436803
30
0.000000
70
32
0
VERTEX
8
Sketch1_14
10
64.849347
20
35.472383
30
0.000000
70
32
0
VERTEX
8
Sketch1_14
10
64.784343
20
35.504775
30
0.000000
70
32
0
VERTEX
8
Sketch1_14
10
64.715274
20
35.534215
30
0.000000
70
32
0
VERTEX
8
Sketch1_14
10
64.643734
20
35.559703
30
0.000000
70
32
0
VERTEX
8
Sketch1_14
10
64.570059
20
35.580963
30
0.000000
70
32
0
VERTEX
8
Sketch1_14
10
64.494628
20
35.597757
30
0.000000
70
32
0
VERTEX
8
Sketch1_14
10
64.417848
20
35.609894
30
0.000000
70
32
0
VERTEX
8
Sketch1_14
10
64.340155
20
35.617234
30
0.000000
70
32
0
VERTEX
8
Sketch1_14
10
64.262000
20
35.619690
30
0.000000
70
32
0
VERTEX
8
Sketch1_14
10
64.184015
20
35.617244
30
0.000000
70
32
0
VERTEX
8
Sketch1_14
10
64.106489
20
35.609936
30
0.000000
70
32
0
VERTEX
8
Sketch1_14
10
64.029871
20
35.597851
30
0.000000
70
32
0
VERTEX
8
Sketch1_14
10
63.954592
20
35.581129
30
0.000000
70
32
0
VERTEX
8
Sketch1_14
10
63.881059
20
35.559959
30
0.000000
70
32
0
VERTEX
8
Sketch1_14
10
63.810902
20
35.535064
30
0.000000
70
32
0
VERTEX
8
Sketch1_14
10
63.743109
20
35.506364
30
0.000000
70
32
0
VERTEX
8
Sketch1_14
10
63.677961
20
35.474147
30
0.000000
70
32
0
VERTEX
8
Sketch1_14
10
63.615694
20
35.438724
30
0.000000
70
32
0
VERTEX
8
Sketch1_14
10
63.555330
20
35.399613
30
0.000000
70
32
0
VERTEX
8
Sketch1_14
10
63.498330
20
35.357860
30
0.000000
70
32
0
VERTEX
8
Sketch1_14
10
63.444808
20
35.313827
30
0.000000
70
32
0
VERTEX
8
Sketch1_14
10
63.394835
20
35.267869
30
0.000000
70
32
0
VERTEX
8
Sketch1_14
10
63.348440
20
35.220334
30
0.000000
70
32
0
VERTEX
8
Sketch1_14
10
63.305615
20
35.171555
30
0.000000
70
32
0
VERTEX
8
Sketch1_14
10
63.266320
20
35.121850
30
0.000000
70
32
0
VERTEX
8
Sketch1_14
10
63.226627
20
35.065766
30
0.000000
70
32
0
VERTEX
8
Sketch1_14
10
63.191094
20
35.009273
30
0.000000
70
32
0
VERTEX
8
Sketch1_14
10
63.159556
20
34.952711
30
0.000000
70
32
0
VERTEX
8
Sketch1_14
10
63.131830
20
34.896381
30
0.000000
70
32
0
VERTEX
8
Sketch1_14
10
63.107712
20
34.840546
30
0.000000
70
32
0
VERTEX
8
Sketch1_14
10
63.086990
20
34.785433
30
0.000000
70
32
0
VERTEX
8
Sketch1_14
10
63.069444
20
34.731236
30
0.000000
70
32
0
VERTEX
8
Sketch1_14
10
63.054853
20
34.678115
30
0.000000
70
32
0
VERTEX
8
Sketch1_14
10
63.040362
20
34.613060
30
0.000000
70
32
0
VERTEX
8
Sketch1_14
10
63.029768
20
34.550112
30
0.000000
70
32
0
VERTEX
8
Sketch1_14
10
63.022662
20
34.489414
30
0.000000
70
32
0
VERTEX
8
Sketch1_14
10
63.018659
20
34.431056
30
0.000000
70
32
0
VERTEX
8
Sketch1_14
10
63.017400
20
34.375090
30
0.000000
70
32
0
VERTEX
8
Sketch1_14
10
63.018436
20
34.324311
30
0.000000
70
32
0
VERTEX
8
Sketch1_14
10
63.021714
20
34.271553
30
0.000000
70
32
0
VERTEX
8
Sketch1_14
10
63.027500
20
34.216850
30
0.000000
70
32
0
VERTEX
8
Sketch1_14
10
63.036081
20
34.160262
30
0.000000
70
32
0
VERTEX
8
Sketch1_14
10
63.047756
20
34.101885
30
0.000000
70
32
0
VERTEX
8
Sketch1_14
10
63.062842
20
34.041850
30
0.000000
70
32
0
VERTEX
8
Sketch1_14
10
63.081663
20
33.980333
30
0.000000
70
32
0
VERTEX
8
Sketch1_14
10
63.102479
20
33.922830
30
0.000000
70
32
0
VERTEX
8
Sketch1_14
10
63.126964
20
33.864480
30
0.000000
70
32
0
VERTEX
8
Sketch1_14
10
63.155366
20
33.805537
30
0.000000
70
32
0
VERTEX
8
Sketch1_14
10
63.187921
20
33.746296
30
0.000000
70
32
0
VERTEX
8
Sketch1_14
10
63.224842
20
33.687098
30
0.000000
70
32
0
VERTEX
8
Sketch1_14
10
63.266320
20
33.628330
30
0.000000
70
32
0
VERTEX
8
Sketch1_14
10
63.305526
20
33.578732
30
0.000000
70
32
0
VERTEX
8
Sketch1_14
10
63.348245
20
33.530057
30
0.000000
70
32
0
VERTEX
8
Sketch1_14
10
63.394520
20
33.482618
30
0.000000
70
32
0
VERTEX
8
Sketch1_14
10
63.444357
20
33.436746
30
0.000000
70
32
0
VERTEX
8
Sketch1_14
10
63.497727
20
33.392788
30
0.000000
70
32
0
VERTEX
8
Sketch1_14
10
63.553517
20
33.351820
30
0.000000
70
32
0
VERTEX
8
Sketch1_14
10
63.612542
20
33.313377
30
0.000000
70
32
0
VERTEX
8
Sketch1_14
10
63.674653
20
33.277797
30
0.000000
70
32
0
VERTEX
8
Sketch1_14
10
63.739657
20
33.245405
30
0.000000
70
32
0
VERTEX
8
Sketch1_14
10
63.808726
20
33.215965
30
0.000000
70
32
0
VERTEX
8
Sketch1_14
10
63.880266
20
33.190477
30
0.000000
70
32
0
VERTEX
8
Sketch1_14
10
63.953941
20
33.169217
30
0.000000
70
32
0
VERTEX
8
Sketch1_14
10
64.029372
20
33.152423
30
0.000000
70
32
0
VERTEX
8
Sketch1_14
10
64.106152
20
33.140286
30
0.000000
70
32
0
VERTEX
8
Sketch1_14
10
64.183845
20
33.132946
30
0.000000
70
32
0
VERTEX
8
Sketch1_14
10
64.262000
20
33.130490
30
0.000000
70
32
0
VERTEX
8
Sketch1_14
10
64.339985
20
33.132936
30
0.000000
70
32
0
VERTEX
8
Sketch1_14
10
64.417511
20
33.140244
30
0.000000
70
32
0
VERTEX
8
Sketch1_14
10
64.494129
20
33.152329
30
0.000000
70
32
0
VERTEX
8
Sketch1_14
10
64.569408
20
33.169051
30
0.000000
70
32
0
VERTEX
8
Sketch1_14
10
64.642941
20
33.190221
30
0.000000
70
32
0
VERTEX
8
Sketch1_14
10
64.713098
20
33.215116
30
0.000000
70
32
0
VERTEX
8
Sketch1_14
10
64.780891
20
33.243816
30
0.000000
70
32
0
VERTEX
8
Sketch1_14
10
64.846039
20
33.276033
30
0.000000
70
32
0
VERTEX
8
Sketch1_14
10
64.908306
20
33.311456
30
0.000000
70
32
0
VERTEX
8
Sketch1_14
10
64.968670
20
33.350567
30
0.000000
70
32
0
VERTEX
8
Sketch1_14
10
65.025670
20
33.392320
30
0.000000
70
32
0
VERTEX
8
Sketch1_14
10
65.079192
20
33.436353
30
0.000000
70
32
0
VERTEX
8
Sketch1_14
10
65.129165
20
33.482311
30
0.000000
70
32
0
VERTEX
8
Sketch1_14
10
65.175560
20
33.529846
30
0.000000
70
32
0
VERTEX
8
Sketch1_14
10
65.218385
20
33.578625
30
0.000000
70
32
0
VERTEX
8
Sketch1_14
10
65.257680
20
33.628330
30
0.000000
70
32
0
VERTEX
8
Sketch1_14
10
65.297373
20
33.684414
30
0.000000
70
32
0
VERTEX
8
Sketch1_14
10
65.332906
20
33.740907
30
0.000000
70
32
0
VERTEX
8
Sketch1_14
10
65.364444
20
33.797469
30
0.000000
70
32
0
VERTEX
8
Sketch1_14
10
65.392170
20
33.853799
30
0.000000
70
32
0
VERTEX
8
Sketch1_14
10
65.416288
20
33.909634
30
0.000000
70
32
0
VERTEX
8
Sketch1_14
10
65.437010
20
33.964747
30
0.000000
70
32
0
VERTEX
8
Sketch1_14
10
65.454556
20
34.018944
30
0.000000
70
32
0
VERTEX
8
Sketch1_14
10
65.469147
20
34.072065
30
0.000000
70
32
0
VERTEX
8
Sketch1_14
10
65.483638
20
34.137120
30
0.000000
70
32
0
VERTEX
8
Sketch1_14
10
65.494232
20
34.200068
30
0.000000
70
32
0
VERTEX
8
Sketch1_14
10
65.501338
20
34.260766
30
0.000000
70
32
0
VERTEX
8
Sketch1_14
10
65.505341
20
34.319124
30
0.000000
70
32
0
VERTEX
8
Sketch1_14
10
65.506600
20
34.375090
30
0.000000
70
32
0
SEQEND
0
POLYLINE
8
Sketch1_15
66
1
70
8
71
3
0
VERTEX
8
Sketch1_15
10
-51.562000
20
-51.562000
30
0.000000
70
32
0
VERTEX
8
Sketch1_15
10
-65.786000
20
-51.562000
30
0.000000
70
32
0
VERTEX
8
Sketch1_15
10
-76.962000
20
-51.562000
30
0.000000
70
32
0
SEQEND
0
POLYLINE
8
Sketch1_16
66
1
70
8
71
117
0
VERTEX
8
Sketch1_16
10
-105.530760
20
35.320642
30
0.000000
70
32
0
VERTEX
8
Sketch1_16
10
-105.533403
20
35.450180
30
0.000000
70
32
0
VERTEX
8
Sketch1_16
10
-105.541765
20
35.584767
30
0.000000
70
32
0
VERTEX
8
Sketch1_16
10
-105.556526
20
35.724317
30
0.000000
70
32
0
VERTEX
8
Sketch1_16
10
-105.578415
20
35.868672
30
0.000000
70
32
0
VERTEX
8
Sketch1_16
10
-105.608199
20
36.017594
30
0.000000
70
32
0
VERTEX
8
Sketch1_16
10
-105.646683
20
36.170744
30
0.000000
70
32
0
VERTEX
8
Sketch1_16
10
-105.694696
20
36.327676
30
0.000000
70
32
0
VERTEX
8
Sketch1_16
10
-105.747797
20
36.474368
30
0.000000
70
32
0
VERTEX
8
Sketch1_16
10
-105.810260
20
36.623219
30
0.000000
70
32
0
VERTEX
8
Sketch1_16
10
-105.882715
20
36.773585
30
0.000000
70
32
0
VERTEX
8
Sketch1_16
10
-105.965761
20
36.924710
30
0.000000
70
32
0
VERTEX
8
Sketch1_16
10
-106.059949
20
37.075724
30
0.000000
70
32
0
VERTEX
8
Sketch1_16
10
-106.165760
20
37.225642
30
0.000000
70
32
0
VERTEX
8
Sketch1_16
10
-106.265774
20
37.352167
30
0.000000
70
32
0
VERTEX
8
Sketch1_16
10
-106.374753
20
37.476340
30
0.000000
70
32
0
VERTEX
8
Sketch1_16
10
-106.492800
20
37.597358
30
0.000000
70
32
0
VERTEX
8
Sketch1_16
10
-106.619935
20
37.714376
30
0.000000
70
32
0
VERTEX
8
Sketch1_16
10
-106.756085
20
37.826514
30
0.000000
70
32
0
VERTEX
8
Sketch1_16
10
-106.898406
20
37.931025
30
0.000000
70
32
0
VERTEX
8
Sketch1_16
10
-107.048980
20
38.029093
30
0.000000
70
32
0
VERTEX
8
Sketch1_16
10
-107.207426
20
38.119860
30
0.000000
70
32
0
VERTEX
8
Sketch1_16
10
-107.373253
20
38.202491
30
0.000000
70
32
0
VERTEX
8
Sketch1_16
10
-107.549449
20
38.277595
30
0.000000
70
32
0
VERTEX
8
Sketch1_16
10
-107.731950
20
38.342615
30
0.000000
70
32
0
VERTEX
8
Sketch1_16
10
-107.919894
20
38.396848
30
0.000000
70
32
0
VERTEX
8
Sketch1_16
10
-108.112321
20
38.439690
30
0.000000
70
32
0
VERTEX
8
Sketch1_16
10
-108.308188
20
38.470652
30
0.000000
70
32
0
VERTEX
8
Sketch1_16
10
-108.506385
20
38.489376
30
0.000000
70
32
0
VERTEX
8
Sketch1_16
10
-108.705760
20
38.495642
30
0.000000
70
32
0
VERTEX
8
Sketch1_16
10
-108.904700
20
38.489404
30
0.000000
70
32
0
VERTEX
8
Sketch1_16
10
-109.102471
20
38.470761
30
0.000000
70
32
0
VERTEX
8
Sketch1_16
10
-109.297927
20
38.439931
30
0.000000
70
32
0
VERTEX
8
Sketch1_16
10
-109.489964
20
38.397272
30
0.000000
70
32
0
VERTEX
8
Sketch1_16
10
-109.677547
20
38.343266
30
0.000000
70
32
0
VERTEX
8
Sketch1_16
10
-109.856520
20
38.279760
30
0.000000
70
32
0
VERTEX
8
Sketch1_16
10
-110.029461
20
38.206546
30
0.000000
70
32
0
VERTEX
8
Sketch1_16
10
-110.195656
20
38.124360
30
0.000000
70
32
0
VERTEX
8
Sketch1_16
10
-110.354499
20
38.033996
30
0.000000
70
32
0
VERTEX
8
Sketch1_16
10
-110.508489
20
37.934221
30
0.000000
70
32
0
VERTEX
8
Sketch1_16
10
-110.653897
20
37.827710
30
0.000000
70
32
0
VERTEX
8
Sketch1_16
10
-110.790433
20
37.715379
30
0.000000
70
32
0
VERTEX
8
Sketch1_16
10
-110.917916
20
37.598139
30
0.000000
70
32
0
VERTEX
8
Sketch1_16
10
-111.036271
20
37.476876
30
0.000000
70
32
0
VERTEX
8
Sketch1_16
10
-111.145517
20
37.352442
30
0.000000
70
32
0
VERTEX
8
Sketch1_16
10
-111.245760
20
37.225642
30
0.000000
70
32
0
VERTEX
8
Sketch1_16
10
-111.347016
20
37.082570
30
0.000000
70
32
0
VERTEX
8
Sketch1_16
10
-111.437664
20
36.938457
30
0.000000
70
32
0
VERTEX
8
Sketch1_16
10
-111.518117
20
36.794166
30
0.000000
70
32
0
VERTEX
8
Sketch1_16
10
-111.588847
20
36.650467
30
0.000000
70
32
0
VERTEX
8
Sketch1_16
10
-111.650371
20
36.508030
30
0.000000
70
32
0
VERTEX
8
Sketch1_16
10
-111.703233
20
36.367436
30
0.000000
70
32
0
VERTEX
8
Sketch1_16
10
-111.747994
20
36.229178
30
0.000000
70
32
0
VERTEX
8
Sketch1_16
10
-111.785218
20
36.093665
30
0.000000
70
32
0
VERTEX
8
Sketch1_16
10
-111.822183
20
35.927710
30
0.000000
70
32
0
VERTEX
8
Sketch1_16
10
-111.849209
20
35.767128
30
0.000000
70
32
0
VERTEX
8
Sketch1_16
10
-111.867337
20
35.612284
30
0.000000
70
32
0
VERTEX
8
Sketch1_16
10
-111.877548
20
35.463413
30
0.000000
70
32
0
VERTEX
8
Sketch1_16
10
-111.880760
20
35.320642
30
0.000000
70
32
0
VERTEX
8
Sketch1_16
10
-111.878116
20
35.191105
30
0.000000
70
32
0
VERTEX
8
Sketch1_16
10
-111.869755
20
35.056518
30
0.000000
70
32
0
VERTEX
8
Sketch1_16
10
-111.854993
20
34.916968
30
0.000000
70
32
0
VERTEX
8
Sketch1_16
10
-111.833105
20
34.772612
30
0.000000
70
32
0
VERTEX
8
Sketch1_16
10
-111.803321
20
34.623691
30
0.000000
70
32
0
VERTEX
8
Sketch1_16
10
-111.764837
20
34.470541
30
0.000000
70
32
0
VERTEX
8
Sketch1_16
10
-111.716824
20
34.313609
30
0.000000
70
32
0
VERTEX
8
Sketch1_16
10
-111.663722
20
34.166917
30
0.000000
70
32
0
VERTEX
8
Sketch1_16
10
-111.601260
20
34.018066
30
0.000000
70
32
0
VERTEX
8
Sketch1_16
10
-111.528805
20
33.867700
30
0.000000
70
32
0
VERTEX
8
Sketch1_16
10
-111.445758
20
33.716575
30
0.000000
70
32
0
VERTEX
8
Sketch1_16
10
-111.351570
20
33.565561
30
0.000000
70
32
0
VERTEX
8
Sketch1_16
10
-111.245760
20
33.415642
30
0.000000
70
32
0
VERTEX
8
Sketch1_16
10
-111.145746
20
33.289117
30
0.000000
70
32
0
VERTEX
8
Sketch1_16
10
-111.036767
20
33.164945
30
0.000000
70
32
0
VERTEX
8
Sketch1_16
10
-110.918720
20
33.043927
30
0.000000
70
32
0
VERTEX
8
Sketch1_16
10
-110.791585
20
32.926909
30
0.000000
70
32
0
VERTEX
8
Sketch1_16
10
-110.655435
20
32.814771
30
0.000000
70
32
0
VERTEX
8
Sketch1_16
10
-110.513113
20
32.710260
30
0.000000
70
32
0
VERTEX
8
Sketch1_16
10
-110.362540
20
32.612192
30
0.000000
70
32
0
VERTEX
8
Sketch1_16
10
-110.204094
20
32.521425
30
0.000000
70
32
0
VERTEX
8
Sketch1_16
10
-110.038266
20
32.438794
30
0.000000
70
32
0
VERTEX
8
Sketch1_16
10
-109.862071
20
32.363690
30
0.000000
70
32
0
VERTEX
8
Sketch1_16
10
-109.679570
20
32.298670
30
0.000000
70
32
0
VERTEX
8
Sketch1_16
10
-109.491626
20
32.244437
30
0.000000
70
32
0
VERTEX
8
Sketch1_16
10
-109.299199
20
32.201595
30
0.000000
70
32
0
VERTEX
8
Sketch1_16
10
-109.103332
20
32.170633
30
0.000000
70
32
0
VERTEX
8
Sketch1_16
10
-108.905134
20
32.151909
30
0.000000
70
32
0
VERTEX
8
Sketch1_16
10
-108.705760
20
32.145642
30
0.000000
70
32
0
VERTEX
8
Sketch1_16
10
-108.506819
20
32.151881
30
0.000000
70
32
0
VERTEX
8
Sketch1_16
10
-108.309048
20
32.170524
30
0.000000
70
32
0
VERTEX
8
Sketch1_16
10
-108.113593
20
32.201354
30
0.000000
70
32
0
VERTEX
8
Sketch1_16
10
-107.921555
20
32.244013
30
0.000000
70
32
0
VERTEX
8
Sketch1_16
10
-107.733972
20
32.298019
30
0.000000
70
32
0
VERTEX
8
Sketch1_16
10
-107.554999
20
32.361525
30
0.000000
70
32
0
VERTEX
8
Sketch1_16
10
-107.382058
20
32.434739
30
0.000000
70
32
0
VERTEX
8
Sketch1_16
10
-107.215863
20
32.516925
30
0.000000
70
32
0
VERTEX
8
Sketch1_16
10
-107.057021
20
32.607289
30
0.000000
70
32
0
VERTEX
8
Sketch1_16
10
-106.903031
20
32.707064
30
0.000000
70
32
0
VERTEX
8
Sketch1_16
10
-106.757622
20
32.813575
30
0.000000
70
32
0
VERTEX
8
Sketch1_16
10
-106.621087
20
32.925906
30
0.000000
70
32
0
VERTEX
8
Sketch1_16
10
-106.493604
20
33.043146
30
0.000000
70
32
0
VERTEX
8
Sketch1_16
10
-106.375249
20
33.164409
30
0.000000
70
32
0
VERTEX
8
Sketch1_16
10
-106.266002
20
33.288843
30
0.000000
70
32
0
VERTEX
8
Sketch1_16
10
-106.165760
20
33.415642
30
0.000000
70
32
0
VERTEX
8
Sketch1_16
10
-106.064503
20
33.558715
30
0.000000
70
32
0
VERTEX
8
Sketch1_16
10
-105.973856
20
33.702828
30
0.000000
70
32
0
VERTEX
8
Sketch1_16
10
-105.893403
20
33.847118
30
0.000000
70
32
0
VERTEX
8
Sketch1_16
10
-105.822672
20
33.990818
30
0.000000
70
32
0
VERTEX
8
Sketch1_16
10
-105.761148
20
34.133255
30
0.000000
70
32
0
VERTEX
8
Sketch1_16
10
-105.708286
20
34.273849
30
0.000000
70
32
0
VERTEX
8
Sketch1_16
10
-105.663526
20
34.412107
30
0.000000
70
32
0
VERTEX
8
Sketch1_16
10
-105.626302
20
34.547620
30
0.000000
70
32
0
VERTEX
8
Sketch1_16
10
-105.589336
20
34.713575
30
0.000000
70
32
0
VERTEX
8
Sketch1_16
10
-105.562310
20
34.874157
30
0.000000
70
32
0
VERTEX
8
Sketch1_16
10
-105.544183
20
35.029001
30
0.000000
70
32
0
VERTEX
8
Sketch1_16
10
-105.533971
20
35.177872
30
0.000000
70
32
0
VERTEX
8
Sketch1_16
10
-105.530760
20
35.320642
30
0.000000
70
32
0
SEQEND
0
POLYLINE
8
Sketch1_17
66
1
70
8
71
3
0
VERTEX
8
Sketch1_17
10
-66.328290
20
-51.562000
30
0.000000
70
32
0
VERTEX
8
Sketch1_17
10
7.959395
20
-51.562000
30
0.000000
70
32
0
VERTEX
8
Sketch1_17
10
66.328290
20
-51.562000
30
0.000000
70
32
0
SEQEND
0
POLYLINE
8
Sketch1_18
66
1
70
8
71
117
0
VERTEX
8
Sketch1_18
10
-64.008854
20
-92.470642
30
0.000000
70
32
0
VERTEX
8
Sketch1_18
10
-64.011498
20
-92.341105
30
0.000000
70
32
0
VERTEX
8
Sketch1_18
10
-64.019860
20
-92.206518
30
0.000000
70
32
0
VERTEX
8
Sketch1_18
10
-64.034621
20
-92.066968
30
0.000000
70
32
0
VERTEX
8
Sketch1_18
10
-64.056509
20
-91.922612
30
0.000000
70
32
0
VERTEX
8
Sketch1_18
10
-64.086293
20
-91.773691
30
0.000000
70
32
0
VERTEX
8
Sketch1_18
10
-64.124777
20
-91.620541
30
0.000000
70
32
0
VERTEX
8
Sketch1_18
10
-64.172790
20
-91.463609
30
0.000000
70
32
0
VERTEX
8
Sketch1_18
10
-64.225892
20
-91.316917
30
0.000000
70
32
0
VERTEX
8
Sketch1_18
10
-64.288355
20
-91.168066
30
0.000000
70
32
0
VERTEX
8
Sketch1_18
10
-64.360809
20
-91.017700
30
0.000000
70
32
0
VERTEX
8
Sketch1_18
10
-64.443856
20
-90.866575
30
0.000000
70
32
0
VERTEX
8
Sketch1_18
10
-64.538044
20
-90.715561
30
0.000000
70
32
0
VERTEX
8
Sketch1_18
10
-64.643854
20
-90.565642
30
0.000000
70
32
0
VERTEX
8
Sketch1_18
10
-64.743868
20
-90.439117
30
0.000000
70
32
0
VERTEX
8
Sketch1_18
10
-64.852847
20
-90.314945
30
0.000000
70
32
0
VERTEX
8
Sketch1_18
10
-64.970894
20
-90.193927
30
0.000000
70
32
0
VERTEX
8
Sketch1_18
10
-65.098030
20
-90.076909
30
0.000000
70
32
0
VERTEX
8
Sketch1_18
10
-65.234179
20
-89.964771
30
0.000000
70
32
0
VERTEX
8
Sketch1_18
10
-65.376501
20
-89.860260
30
0.000000
70
32
0
VERTEX
8
Sketch1_18
10
-65.527075
20
-89.762192
30
0.000000
70
32
0
VERTEX
8
Sketch1_18
10
-65.685520
20
-89.671425
30
0.000000
70
32
0
VERTEX
8
Sketch1_18
10
-65.851348
20
-89.588794
30
0.000000
70
32
0
VERTEX
8
Sketch1_18
10
-66.027543
20
-89.513690
30
0.000000
70
32
0
VERTEX
8
Sketch1_18
10
-66.210044
20
-89.448670
30
0.000000
70
32
0
VERTEX
8
Sketch1_18
10
-66.397989
20
-89.394437
30
0.000000
70
32
0
VERTEX
8
Sketch1_18
10
-66.590416
20
-89.351595
30
0.000000
70
32
0
VERTEX
8
Sketch1_18
10
-66.786282
20
-89.320633
30
0.000000
70
32
0
VERTEX
8
Sketch1_18
10
-66.984480
20
-89.301909
30
0.000000
70
32
0
VERTEX
8
Sketch1_18
10
-67.183854
20
-89.295642
30
0.000000
70
32
0
VERTEX
8
Sketch1_18
10
-67.382795
20
-89.301881
30
0.000000
70
32
0
VERTEX
8
Sketch1_18
10
-67.580566
20
-89.320524
30
0.000000
70
32
0
VERTEX
8
Sketch1_18
10
-67.776021
20
-89.351354
30
0.000000
70
32
0
VERTEX
8
Sketch1_18
10
-67.968059
20
-89.394013
30
0.000000
70
32
0
VERTEX
8
Sketch1_18
10
-68.155642
20
-89.448019
30
0.000000
70
32
0
VERTEX
8
Sketch1_18
10
-68.334615
20
-89.511525
30
0.000000
70
32
0
VERTEX
8
Sketch1_18
10
-68.507556
20
-89.584739
30
0.000000
70
32
0
VERTEX
8
Sketch1_18
10
-68.673751
20
-89.666925
30
0.000000
70
32
0
VERTEX
8
Sketch1_18
10
-68.832593
20
-89.757289
30
0.000000
70
32
0
VERTEX
8
Sketch1_18
10
-68.986583
20
-89.857064
30
0.000000
70
32
0
VERTEX
8
Sketch1_18
10
-69.131992
20
-89.963575
30
0.000000
70
32
0
VERTEX
8
Sketch1_18
10
-69.268527
20
-90.075906
30
0.000000
70
32
0
VERTEX
8
Sketch1_18
10
-69.396010
20
-90.193146
30
0.000000
70
32
0
VERTEX
8
Sketch1_18
10
-69.514365
20
-90.314409
30
0.000000
70
32
0
VERTEX
8
Sketch1_18
10
-69.623612
20
-90.438843
30
0.000000
70
32
0
VERTEX
8
Sketch1_18
10
-69.723854
20
-90.565642
30
0.000000
70
32
0
VERTEX
8
Sketch1_18
10
-69.825111
20
-90.708715
30
0.000000
70
32
0
VERTEX
8
Sketch1_18
10
-69.915759
20
-90.852828
30
0.000000
70
32
0
VERTEX
8
Sketch1_18
10
-69.996211
20
-90.997118
30
0.000000
70
32
0
VERTEX
8
Sketch1_18
10
-70.066942
20
-91.140818
30
0.000000
70
32
0
VERTEX
8
Sketch1_18
10
-70.128466
20
-91.283255
30
0.000000
70
32
0
VERTEX
8
Sketch1_18
10
-70.181328
20
-91.423849
30
0.000000
70
32
0
VERTEX
8
Sketch1_18
10
-70.226088
20
-91.562107
30
0.000000
70
32
0
VERTEX
8
Sketch1_18
10
-70.263312
20
-91.697620
30
0.000000
70
32
0
VERTEX
8
Sketch1_18
10
-70.300278
20
-91.863575
30
0.000000
70
32
0
VERTEX
8
Sketch1_18
10
-70.327304
20
-92.024157
30
0.000000
70
32
0
VERTEX
8
Sketch1_18
10
-70.345432
20
-92.179001
30
0.000000
70
32
0
VERTEX
8
Sketch1_18
10
-70.355643
20
-92.327872
30
0.000000
70
32
0
VERTEX
8
Sketch1_18
10
-70.358854
20
-92.470642
30
0.000000
70
32
0
VERTEX
8
Sketch1_18
10
-70.356211
20
-92.600180
30
0.000000
70
32
0
VERTEX
8
Sketch1_18
10
-70.347849
20
-92.734767
30
0.000000
70
32
0
VERTEX
8
Sketch1_18
10
-70.333088
20
-92.874317
30
0.000000
70
32
0
VERTEX
8
Sketch1_18
10
-70.311200
20
-93.018672
30
0.000000
70
32
0
VERTEX
8
Sketch1_18
10
-70.281415
20
-93.167594
30
0.000000
70
32
0
VERTEX
8
Sketch1_18
10
-70.242931
20
-93.320744
30
0.000000
70
32
0
VERTEX
8
Sketch1_18
10
-70.194919
20
-93.477676
30
0.000000
70
32
0
VERTEX
8
Sketch1_18
10
-70.141817
20
-93.624368
30
0.000000
70
32
0
VERTEX
8
Sketch1_18
10
-70.079354
20
-93.773219
30
0.000000
70
32
0
VERTEX
8
Sketch1_18
10
-70.006899
20
-93.923585
30
0.000000
70
32
0
VERTEX
8
Sketch1_18
10
-69.923853
20
-94.074710
30
0.000000
70
32
0
VERTEX
8
Sketch1_18
10
-69.829665
20
-94.225724
30
0.000000
70
32
0
VERTEX
8
Sketch1_18
10
-69.723854
20
-94.375642
30
0.000000
70
32
0
VERTEX
8
Sketch1_18
10
-69.623840
20
-94.502167
30
0.000000
70
32
0
VERTEX
8
Sketch1_18
10
-69.514862
20
-94.626340
30
0.000000
70
32
0
VERTEX
8
Sketch1_18
10
-69.396815
20
-94.747358
30
0.000000
70
32
0
VERTEX
8
Sketch1_18
10
-69.269679
20
-94.864376
30
0.000000
70
32
0
VERTEX
8
Sketch1_18
10
-69.133529
20
-94.976514
30
0.000000
70
32
0
VERTEX
8
Sketch1_18
10
-68.991208
20
-95.081025
30
0.000000
70
32
0
VERTEX
8
Sketch1_18
10
-68.840634
20
-95.179093
30
0.000000
70
32
0
VERTEX
8
Sketch1_18
10
-68.682188
20
-95.269860
30
0.000000
70
32
0
VERTEX
8
Sketch1_18
10
-68.516361
20
-95.352491
30
0.000000
70
32
0
VERTEX
8
Sketch1_18
10
-68.340165
20
-95.427595
30
0.000000
70
32
0
VERTEX
8
Sketch1_18
10
-68.157664
20
-95.492615
30
0.000000
70
32
0
VERTEX
8
Sketch1_18
10
-67.969720
20
-95.546848
30
0.000000
70
32
0
VERTEX
8
Sketch1_18
10
-67.777293
20
-95.589690
30
0.000000
70
32
0
VERTEX
8
Sketch1_18
10
-67.581426
20
-95.620652
30
0.000000
70
32
0
VERTEX
8
Sketch1_18
10
-67.383229
20
-95.639376
30
0.000000
70
32
0
VERTEX
8
Sketch1_18
10
-67.183854
20
-95.645642
30
0.000000
70
32
0
VERTEX
8
Sketch1_18
10
-66.984914
20
-95.639404
30
0.000000
70
32
0
VERTEX
8
Sketch1_18
10
-66.787143
20
-95.620761
30
0.000000
70
32
0
VERTEX
8
Sketch1_18
10
-66.591688
20
-95.589931
30
0.000000
70
32
0
VERTEX
8
Sketch1_18
10
-66.399650
20
-95.547272
30
0.000000
70
32
0
VERTEX
8
Sketch1_18
10
-66.212067
20
-95.493266
30
0.000000
70
32
0
VERTEX
8
Sketch1_18
10
-66.033094
20
-95.429760
30
0.000000
70
32
0
VERTEX
8
Sketch1_18
10
-65.860153
20
-95.356546
30
0.000000
70
32
0
VERTEX
8
Sketch1_18
10
-65.693958
20
-95.274360
30
0.000000
70
32
0
VERTEX
8
Sketch1_18
10
-65.535115
20
-95.183996
30
0.000000
70
32
0
VERTEX
8
Sketch1_18
10
-65.381126
20
-95.084221
30
0.000000
70
32
0
VERTEX
8
Sketch1_18
10
-65.235717
20
-94.977710
30
0.000000
70
32
0
VERTEX
8
Sketch1_18
10
-65.099181
20
-94.865379
30
0.000000
70
32
0
VERTEX
8
Sketch1_18
10
-64.971699
20
-94.748139
30
0.000000
70
32
0
VERTEX
8
Sketch1_18
10
-64.853344
20
-94.626876
30
0.000000
70
32
0
VERTEX
8
Sketch1_18
10
-64.744097
20
-94.502442
30
0.000000
70
32
0
VERTEX
8
Sketch1_18
10
-64.643854
20
-94.375642
30
0.000000
70
32
0
VERTEX
8
Sketch1_18
10
-64.542598
20
-94.232570
30
0.000000
70
32
0
VERTEX
8
Sketch1_18
10
-64.451950
20
-94.088457
30
0.000000
70
32
0
VERTEX
8
Sketch1_18
10
-64.371497
20
-93.944166
30
0.000000
70
32
0
VERTEX
8
Sketch1_18
10
-64.300767
20
-93.800467
30
0.000000
70
32
0
VERTEX
8
Sketch1_18
10
-64.239243
20
-93.658030
30
0.000000
70
32
0
VERTEX
8
Sketch1_18
10
-64.186381
20
-93.517436
30
0.000000
70
32
0
VERTEX
8
Sketch1_18
10
-64.141620
20
-93.379178
30
0.000000
70
32
0
VERTEX
8
Sketch1_18
10
-64.104396
20
-93.243665
30
0.000000
70
32
0
VERTEX
8
Sketch1_18
10
-64.067431
20
-93.077710
30
0.000000
70
32
0
VERTEX
8
Sketch1_18
10
-64.040405
20
-92.917128
30
0.000000
70
32
0
VERTEX
8
Sketch1_18
10
-64.022277
20
-92.762284
30
0.000000
70
32
0
VERTEX
8
Sketch1_18
10
-64.012066
20
-92.613413
30
0.000000
70
32
0
VERTEX
8
Sketch1_18
10
-64.008854
20
-92.470642
30
0.000000
70
32
0
SEQEND
0
POLYLINE
8
Sketch1_19
66
1
70
8
71
3
0
VERTEX
8
Sketch1_19
10
51.562000
20
51.562000
30
0.000000
70
32
0
VERTEX
8
Sketch1_19
10
51.562000
20
-6.187440
30
0.000000
70
32
0
VERTEX
8
Sketch1_19
10
51.562000
20
-51.562000
30
0.000000
70
32
0
SEQEND
0
POLYLINE
8
Sketch1_20
66
1
70
8
71
117
0
VERTEX
8
Sketch1_20
10
70.358854
20
-92.470642
30
0.000000
70
32
0
VERTEX
8
Sketch1_20
10
70.356211
20
-92.341105
30
0.000000
70
32
0
VERTEX
8
Sketch1_20
10
70.347849
20
-92.206518
30
0.000000
70
32
0
VERTEX
8
Sketch1_20
10
70.333088
20
-92.066968
30
0.000000
70
32
0
VERTEX
8
Sketch1_20
10
70.311200
20
-91.922612
30
0.000000
70
32
0
VERTEX
8
Sketch1_20
10
70.281415
20
-91.773691
30
0.000000
70
32
0
VERTEX
8
Sketch1_20
10
70.242931
20
-91.620541
30
0.000000
70
32
0
VERTEX
8
Sketch1_20
10
70.194919
20
-91.463609
30
0.000000
70
32
0
VERTEX
8
Sketch1_20
10
70.141817
20
-91.316917
30
0.000000
70
32
0
VERTEX
8
Sketch1_20
10
70.079354
20
-91.168066
30
0.000000
70
32
0
VERTEX
8
Sketch1_20
10
70.006899
20
-91.017700
30
0.000000
70
32
0
VERTEX
8
Sketch1_20
10
69.923853
20
-90.866575
30
0.000000
70
32
0
VERTEX
8
Sketch1_20
10
69.829665
20
-90.715561
30
0.000000
70
32
0
VERTEX
8
Sketch1_20
10
69.723854
20
-90.565642
30
0.000000
70
32
0
VERTEX
8
Sketch1_20
10
69.623840
20
-90.439117
30
0.000000
70
32
0
VERTEX
8
Sketch1_20
10
69.514862
20
-90.314945
30
0.000000
70
32
0
VERTEX
8
Sketch1_20
10
69.396815
20
-90.193927
30
0.000000
70
32
0
VERTEX
8
Sketch1_20
10
69.269679
20
-90.076909
30
0.000000
70
32
0
VERTEX
8
Sketch1_20
10
69.133529
20
-89.964771
30
0.000000
70
32
0
VERTEX
8
Sketch1_20
10
68.991208
20
-89.860260
30
0.000000
70
32
0
VERTEX
8
Sketch1_20
10
68.840634
20
-89.762192
30
0.000000
70
32
0
VERTEX
8
Sketch1_20
10
68.682188
20
-89.671425
30
0.000000
70
32
0
VERTEX
8
Sketch1_20
10
68.516361
20
-89.588794
30
0.000000
70
32
0
VERTEX
8
Sketch1_20
10
68.340165
20
-89.513690
30
0.000000
70
32
0
VERTEX
8
Sketch1_20
10
68.157664
20
-89.448670
30
0.000000
70
32
0
VERTEX
8
Sketch1_20
10
67.969720
20
-89.394437
30
0.000000
70
32
0
VERTEX
8
Sketch1_20
10
67.777293
20
-89.351595
30
0.000000
70
32
0
VERTEX
8
Sketch1_20
10
67.581426
20
-89.320633
30
0.000000
70
32
0
VERTEX
8
Sketch1_20
10
67.383229
20
-89.301909
30
0.000000
70
32
0
VERTEX
8
Sketch1_20
10
67.183854
20
-89.295642
30
0.000000
70
32
0
VERTEX
8
Sketch1_20
10
66.984914
20
-89.301881
30
0.000000
70
32
0
VERTEX
8
Sketch1_20
10
66.787143
20
-89.320524
30
0.000000
70
32
0
VERTEX
8
Sketch1_20
10
66.591688
20
-89.351354
30
0.000000
70
32
0
VERTEX
8
Sketch1_20
10
66.399650
20
-89.394013
30
0.000000
70
32
0
VERTEX
8
Sketch1_20
10
66.212067
20
-89.448019
30
0.000000
70
32
0
VERTEX
8
Sketch1_20
10
66.033094
20
-89.511525
30
0.000000
70
32
0
VERTEX
8
Sketch1_20
10
65.860153
20
-89.584739
30
0.000000
70
32
0
VERTEX
8
Sketch1_20
10
65.693958
20
-89.666925
30
0.000000
70
32
0
VERTEX
8
Sketch1_20
10
65.535115
20
-89.757289
30
0.000000
70
32
0
VERTEX
8
Sketch1_20
10
65.381126
20
-89.857064
30
0.000000
70
32
0
VERTEX
8
Sketch1_20
10
65.235717
20
-89.963575
30
0.000000
70
32
0
VERTEX
8
Sketch1_20
10
65.099181
20
-90.075906
30
0.000000
70
32
0
VERTEX
8
Sketch1_20
10
64.971699
20
-90.193146
30
0.000000
70
32
0
VERTEX
8
Sketch1_20
10
64.853344
20
-90.314409
30
0.000000
70
32
0
VERTEX
8
Sketch1_20
10
64.744097
20
-90.438843
30
0.000000
70
32
0
VERTEX
8
Sketch1_20
10
64.643854
20
-90.565642
30
0.000000
70
32
0
VERTEX
8
Sketch1_20
10
64.542598
20
-90.708715
30
0.000000
70
32
0
VERTEX
8
Sketch1_20
10
64.451950
20
-90.852828
30
0.000000
70
32
0
VERTEX
8
Sketch1_20
10
64.371497
20
-90.997118
30
0.000000
70
32
0
VERTEX
8
Sketch1_20
10
64.300767
20
-91.140818
30
0.000000
70
32
0
VERTEX
8
Sketch1_20
10
64.239243
20
-91.283255
30
0.000000
70
32
0
VERTEX
8
Sketch1_20
10
64.186381
20
-91.423849
30
0.000000
70
32
0
VERTEX
8
Sketch1_20
10
64.141620
20
-91.562107
30
0.000000
70
32
0
VERTEX
8
Sketch1_20
10
64.104396
20
-91.697620
30
0.000000
70
32
0
VERTEX
8
Sketch1_20
10
64.067431
20
-91.863575
30
0.000000
70
32
0
VERTEX
8
Sketch1_20
10
64.040405
20
-92.024157
30
0.000000
70
32
0
VERTEX
8
Sketch1_20
10
64.022277
20
-92.179001
30
0.000000
70
32
0
VERTEX
8
Sketch1_20
10
64.012066
20
-92.327872
30
0.000000
70
32
0
VERTEX
8
Sketch1_20
10
64.008854
20
-92.470642
30
0.000000
70
32
0
VERTEX
8
Sketch1_20
10
64.011498
20
-92.600180
30
0.000000
70
32
0
VERTEX
8
Sketch1_20
10
64.019860
20
-92.734767
30
0.000000
70
32
0
VERTEX
8
Sketch1_20
10
64.034621
20
-92.874317
30
0.000000
70
32
0
VERTEX
8
Sketch1_20
10
64.056509
20
-93.018672
30
0.000000
70
32
0
VERTEX
8
Sketch1_20
10
64.086293
20
-93.167594
30
0.000000
70
32
0
VERTEX
8
Sketch1_20
10
64.124777
20
-93.320744
30
0.000000
70
32
0
VERTEX
8
Sketch1_20
10
64.172790
20
-93.477676
30
0.000000
70
32
0
VERTEX
8
Sketch1_20
10
64.225892
20
-93.624368
30
0.000000
70
32
0
VERTEX
8
Sketch1_20
10
64.288355
20
-93.773219
30
0.000000
70
32
0
VERTEX
8
Sketch1_20
10
64.360809
20
-93.923585
30
0.000000
70
32
0
VERTEX
8
Sketch1_20
10
64.443856
20
-94.074710
30
0.000000
70
32
0
VERTEX
8
Sketch1_20
10
64.538044
20
-94.225724
30
0.000000
70
32
0
VERTEX
8
Sketch1_20
10
64.643854
20
-94.375642
30
0.000000
70
32
0
VERTEX
8
Sketch1_20
10
64.743868
20
-94.502167
30
0.000000
70
32
0
VERTEX
8
Sketch1_20
10
64.852847
20
-94.626340
30
0.000000
70
32
0
VERTEX
8
Sketch1_20
10
64.970894
20
-94.747358
30
0.000000
70
32
0
VERTEX
8
Sketch1_20
10
65.098030
20
-94.864376
30
0.000000
70
32
0
VERTEX
8
Sketch1_20
10
65.234179
20
-94.976514
30
0.000000
70
32
0
VERTEX
8
Sketch1_20
10
65.376501
20
-95.081025
30
0.000000
70
32
0
VERTEX
8
Sketch1_20
10
65.527075
20
-95.179093
30
0.000000
70
32
0
VERTEX
8
Sketch1_20
10
65.685520
20
-95.269860
30
0.000000
70
32
0
VERTEX
8
Sketch1_20
10
65.851348
20
-95.352491
30
0.000000
70
32
0
VERTEX
8
Sketch1_20
10
66.027543
20
-95.427595
30
0.000000
70
32
0
VERTEX
8
Sketch1_20
10
66.210044
20
-95.492615
30
0.000000
70
32
0
VERTEX
8
Sketch1_20
10
66.397989
20
-95.546848
30
0.000000
70
32
0
VERTEX
8
Sketch1_20
10
66.590416
20
-95.589690
30
0.000000
70
32
0
VERTEX
8
Sketch1_20
10
66.786282
20
-95.620652
30
0.000000
70
32
0
VERTEX
8
Sketch1_20
10
66.984480
20
-95.639376
30
0.000000
70
32
0
VERTEX
8
Sketch1_20
10
67.183854
20
-95.645642
30
0.000000
70
32
0
VERTEX
8
Sketch1_20
10
67.382795
20
-95.639404
30
0.000000
70
32
0
VERTEX
8
Sketch1_20
10
67.580566
20
-95.620761
30
0.000000
70
32
0
VERTEX
8
Sketch1_20
10
67.776021
20
-95.589931
30
0.000000
70
32
0
VERTEX
8
Sketch1_20
10
67.968059
20
-95.547272
30
0.000000
70
32
0
VERTEX
8
Sketch1_20
10
68.155642
20
-95.493266
30
0.000000
70
32
0
VERTEX
8
Sketch1_20
10
68.334615
20
-95.429760
30
0.000000
70
32
0
VERTEX
8
Sketch1_20
10
68.507556
20
-95.356546
30
0.000000
70
32
0
VERTEX
8
Sketch1_20
10
68.673751
20
-95.274360
30
0.000000
70
32
0
VERTEX
8
Sketch1_20
10
68.832593
20
-95.183996
30
0.000000
70
32
0
VERTEX
8
Sketch1_20
10
68.986583
20
-95.084221
30
0.000000
70
32
0
VERTEX
8
Sketch1_20
10
69.131992
20
-94.977710
30
0.000000
70
32
0
VERTEX
8
Sketch1_20
10
69.268527
20
-94.865379
30
0.000000
70
32
0
VERTEX
8
Sketch1_20
10
69.396010
20
-94.748139
30
0.000000
70
32
0
VERTEX
8
Sketch1_20
10
69.514365
20
-94.626876
30
0.000000
70
32
0
VERTEX
8
Sketch1_20
10
69.623612
20
-94.502442
30
0.000000
70
32
0
VERTEX
8
Sketch1_20
10
69.723854
20
-94.375642
30
0.000000
70
32
0
VERTEX
8
Sketch1_20
10
69.825111
20
-94.232570
30
0.000000
70
32
0
VERTEX
8
Sketch1_20
10
69.915759
20
-94.088457
30
0.000000
70
32
0
VERTEX
8
Sketch1_20
10
69.996211
20
-93.944166
30
0.000000
70
32
0
VERTEX
8
Sketch1_20
10
70.066942
20
-93.800467
30
0.000000
70
32
0
VERTEX
8
Sketch1_20
10
70.128466
20
-93.658030
30
0.000000
70
32
0
VERTEX
8
Sketch1_20
10
70.181328
20
-93.517436
30
0.000000
70
32
0
VERTEX
8
Sketch1_20
10
70.226088
20
-93.379178
30
0.000000
70
32
0
VERTEX
8
Sketch1_20
10
70.263312
20
-93.243665
30
0.000000
70
32
0
VERTEX
8
Sketch1_20
10
70.300278
20
-93.077710
30
0.000000
70
32
0
VERTEX
8
Sketch1_20
10
70.327304
20
-92.917128
30
0.000000
70
32
0
VERTEX
8
Sketch1_20
10
70.345432
20
-92.762284
30
0.000000
70
32
0
VERTEX
8
Sketch1_20
10
70.355643
20
-92.613413
30
0.000000
70
32
0
VERTEX
8
Sketch1_20
10
70.358854
20
-92.470642
30
0.000000
70
32
0
SEQEND
0
POLYLINE
8
Sketch1_21
66
1
70
8
71
117
0
VERTEX
8
Sketch1_21
10
65.506600
20
0.001270
30
0.000000
70
32
0
VERTEX
8
Sketch1_21
10
65.505564
20
0.052049
30
0.000000
70
32
0
VERTEX
8
Sketch1_21
10
65.502286
20
0.104807
30
0.000000
70
32
0
VERTEX
8
Sketch1_21
10
65.496500
20
0.159510
30
0.000000
70
32
0
VERTEX
8
Sketch1_21
10
65.487919
20
0.216098
30
0.000000
70
32
0
VERTEX
8
Sketch1_21
10
65.476244
20
0.274475
30
0.000000
70
32
0
VERTEX
8
Sketch1_21
10
65.461158
20
0.334510
30
0.000000
70
32
0
VERTEX
8
Sketch1_21
10
65.442337
20
0.396027
30
0.000000
70
32
0
VERTEX
8
Sketch1_21
10
65.421521
20
0.453530
30
0.000000
70
32
0
VERTEX
8
Sketch1_21
10
65.397036
20
0.511880
30
0.000000
70
32
0
VERTEX
8
Sketch1_21
10
65.368634
20
0.570823
30
0.000000
70
32
0
VERTEX
8
Sketch1_21
10
65.336079
20
0.630064
30
0.000000
70
32
0
VERTEX
8
Sketch1_21
10
65.299158
20
0.689262
30
0.000000
70
32
0
VERTEX
8
Sketch1_21
10
65.257680
20
0.748030
30
0.000000
70
32
0
VERTEX
8
Sketch1_21
10
65.218474
20
0.797628
30
0.000000
70
32
0
VERTEX
8
Sketch1_21
10
65.175755
20
0.846303
30
0.000000
70
32
0
VERTEX
8
Sketch1_21
10
65.129480
20
0.893742
30
0.000000
70
32
0
VERTEX
8
Sketch1_21
10
65.079643
20
0.939614
30
0.000000
70
32
0
VERTEX
8
Sketch1_21
10
65.026273
20
0.983572
30
0.000000
70
32
0
VERTEX
8
Sketch1_21
10
64.970483
20
1.024540
30
0.000000
70
32
0
VERTEX
8
Sketch1_21
10
64.911458
20
1.062983
30
0.000000
70
32
0
VERTEX
8
Sketch1_21
10
64.849347
20
1.098563
30
0.000000
70
32
0
VERTEX
8
Sketch1_21
10
64.784343
20
1.130955
30
0.000000
70
32
0
VERTEX
8
Sketch1_21
10
64.715274
20
1.160395
30
0.000000
70
32
0
VERTEX
8
Sketch1_21
10
64.643734
20
1.185883
30
0.000000
70
32
0
VERTEX
8
Sketch1_21
10
64.570059
20
1.207143
30
0.000000
70
32
0
VERTEX
8
Sketch1_21
10
64.494628
20
1.223937
30
0.000000
70
32
0
VERTEX
8
Sketch1_21
10
64.417848
20
1.236074
30
0.000000
70
32
0
VERTEX
8
Sketch1_21
10
64.340155
20
1.243414
30
0.000000
70
32
0
VERTEX
8
Sketch1_21
10
64.262000
20
1.245870
30
0.000000
70
32
0
VERTEX
8
Sketch1_21
10
64.184015
20
1.243424
30
0.000000
70
32
0
VERTEX
8
Sketch1_21
10
64.106489
20
1.236116
30
0.000000
70
32
0
VERTEX
8
Sketch1_21
10
64.029871
20
1.224031
30
0.000000
70
32
0
VERTEX
8
Sketch1_21
10
63.954592
20
1.207309
30
0.000000
70
32
0
VERTEX
8
Sketch1_21
10
63.881059
20
1.186139
30
0.000000
70
32
0
VERTEX
8
Sketch1_21
10
63.810902
20
1.161244
30
0.000000
70
32
0
VERTEX
8
Sketch1_21
10
63.743109
20
1.132544
30
0.000000
70
32
0
VERTEX
8
Sketch1_21
10
63.677961
20
1.100327
30
0.000000
70
32
0
VERTEX
8
Sketch1_21
10
63.615694
20
1.064904
30
0.000000
70
32
0
VERTEX
8
Sketch1_21
10
63.555330
20
1.025793
30
0.000000
70
32
0
VERTEX
8
Sketch1_21
10
63.498330
20
0.984040
30
0.000000
70
32
0
VERTEX
8
Sketch1_21
10
63.444808
20
0.940007
30
0.000000
70
32
0
VERTEX
8
Sketch1_21
10
63.394835
20
0.894049
30
0.000000
70
32
0
VERTEX
8
Sketch1_21
10
63.348440
20
0.846514
30
0.000000
70
32
0
VERTEX
8
Sketch1_21
10
63.305615
20
0.797735
30
0.000000
70
32
0
VERTEX
8
Sketch1_21
10
63.266320
20
0.748030
30
0.000000
70
32
0
VERTEX
8
Sketch1_21
10
63.226627
20
0.691946
30
0.000000
70
32
0
VERTEX
8
Sketch1_21
10
63.191094
20
0.635453
30
0.000000
70
32
0
VERTEX
8
Sketch1_21
10
63.159556
20
0.578891
30
0.000000
70
32
0
VERTEX
8
Sketch1_21
10
63.131830
20
0.522561
30
0.000000
70
32
0
VERTEX
8
Sketch1_21
10
63.107712
20
0.466726
30
0.000000
70
32
0
VERTEX
8
Sketch1_21
10
63.086990
20
0.411613
30
0.000000
70
32
0
VERTEX
8
Sketch1_21
10
63.069444
20
0.357416
30
0.000000
70
32
0
VERTEX
8
Sketch1_21
10
63.054853
20
0.304295
30
0.000000
70
32
0
VERTEX
8
Sketch1_21
10
63.040362
20
0.239240
30
0.000000
70
32
0
VERTEX
8
Sketch1_21
10
63.029768
20
0.176292
30
0.000000
70
32
0
VERTEX
8
Sketch1_21
10
63.022662
20
0.115594
30
0.000000
70
32
0
VERTEX
8
Sketch1_21
10
63.018659
20
0.057236
30
0.000000
70
32
0
VERTEX
8
Sketch1_21
10
63.017400
20
0.001270
30
0.000000
70
32
0
VERTEX
8
Sketch1_21
10
63.018436
20
-0.049509
30
0.000000
70
32
0
VERTEX
8
Sketch1_21
10
63.021714
20
-0.102267
30
0.000000
70
32
0
VERTEX
8
Sketch1_21
10
63.027500
20
-0.156970
30
0.000000
70
32
0
VERTEX
8
Sketch1_21
10
63.036081
20
-0.213558
30
0.000000
70
32
0
VERTEX
8
Sketch1_21
10
63.047756
20
-0.271935
30
0.000000
70
32
0
VERTEX
8
Sketch1_21
10
63.062842
20
-0.331970
30
0.000000
70
32
0
VERTEX
8
Sketch1_21
10
63.081663
20
-0.393487
30
0.000000
70
32
0
VERTEX
8
Sketch1_21
10
63.102479
20
-0.450990
30
0.000000
70
32
0
VERTEX
8
Sketch1_21
10
63.126964
20
-0.509340
30
0.000000
70
32
0
VERTEX
8
Sketch1_21
10
63.155366
20
-0.568283
30
0.000000
70
32
0
VERTEX
8
Sketch1_21
10
63.187921
20
-0.627524
30
0.000000
70
32
0
VERTEX
8
Sketch1_21
10
63.224842
20
-0.686722
30
0.000000
70
32
0
VERTEX
8
Sketch1_21
10
63.266320
20
-0.745490
30
0.000000
70
32
0
VERTEX
8
Sketch1_21
10
63.305526
20
-0.795088
30
0.000000
70
32
0
VERTEX
8
Sketch1_21
10
63.348245
20
-0.843763
30
0.000000
70
32
0
VERTEX
8
Sketch1_21
10
63.394520
20
-0.891202
30
0.000000
70
32
0
VERTEX
8
Sketch1_21
10
63.444357
20
-0.937074
30
0.000000
70
32
0
VERTEX
8
Sketch1_21
10
63.497727
20
-0.981032
30
0.000000
70
32
0
VERTEX
8
Sketch1_21
10
63.553517
20
-1.022000
30
0.000000
70
32
0
VERTEX
8
Sketch1_21
10
63.612542
20
-1.060443
30
0.000000
70
32
0
VERTEX
8
Sketch1_21
10
63.674653
20
-1.096023
30
0.000000
70
32
0
VERTEX
8
Sketch1_21
10
63.739657
20
-1.128415
30
0.000000
70
32
0
VERTEX
8
Sketch1_21
10
63.808726
20
-1.157855
30
0.000000
70
32
0
VERTEX
8
Sketch1_21
10
63.880266
20
-1.183343
30
0.000000
70
32
0
VERTEX
8
Sketch1_21
10
63.953941
20
-1.204603
30
0.000000
70
32
0
VERTEX
8
Sketch1_21
10
64.029372
20
-1.221397
30
0.000000
70
32
0
VERTEX
8
Sketch1_21
10
64.106152
20
-1.233534
30
0.000000
70
32
0
VERTEX
8
Sketch1_21
10
64.183845
20
-1.240874
30
0.000000
70
32
0
VERTEX
8
Sketch1_21
10
64.262000
20
-1.243330
30
0.000000
70
32
0
VERTEX
8
Sketch1_21
10
64.339985
20
-1.240884
30
0.000000
70
32
0
VERTEX
8
Sketch1_21
10
64.417511
20
-1.233576
30
0.000000
70
32
0
VERTEX
8
Sketch1_21
10
64.494129
20
-1.221491
30
0.000000
70
32
0
VERTEX
8
Sketch1_21
10
64.569408
20
-1.204769
30
0.000000
70
32
0
VERTEX
8
Sketch1_21
10
64.642941
20
-1.183599
30
0.000000
70
32
0
VERTEX
8
Sketch1_21
10
64.713098
20
-1.158704
30
0.000000
70
32
0
VERTEX
8
Sketch1_21
10
64.780891
20
-1.130004
30
0.000000
70
32
0
VERTEX
8
Sketch1_21
10
64.846039
20
-1.097787
30
0.000000
70
32
0
VERTEX
8
Sketch1_21
10
64.908306
20
-1.062364
30
0.000000
70
32
0
VERTEX
8
Sketch1_21
10
64.968670
20
-1.023253
30
0.000000
70
32
0
VERTEX
8
Sketch1_21
10
65.025670
20
-0.981500
30
0.000000
70
32
0
VERTEX
8
Sketch1_21
10
65.079192
20
-0.937467
30
0.000000
70
32
0
VERTEX
8
Sketch1_21
10
65.129165
20
-0.891509
30
0.000000
70
32
0
VERTEX
8
Sketch1_21
10
65.175560
20
-0.843974
30
0.000000
70
32
0
VERTEX
8
Sketch1_21
10
65.218385
20
-0.795195
30
0.000000
70
32
0
VERTEX
8
Sketch1_21
10
65.257680
20
-0.745490
30
0.000000
70
32
0
VERTEX
8
Sketch1_21
10
65.297373
20
-0.689406
30
0.000000
70
32
0
VERTEX
8
Sketch1_21
10
65.332906
20
-0.632913
30
0.000000
70
32
0
VERTEX
8
Sketch1_21
10
65.364444
20
-0.576351
30
0.000000
70
32
0
VERTEX
8
Sketch1_21
10
65.392170
20
-0.520021
30
0.000000
70
32
0
VERTEX
8
Sketch1_21
10
65.416288
20
-0.464186
30
0.000000
70
32
0
VERTEX
8
Sketch1_21
10
65.437010
20
-0.409073
30
0.000000
70
32
0
VERTEX
8
Sketch1_21
10
65.454556
20
-0.354876
30
0.000000
70
32
0
VERTEX
8
Sketch1_21
10
65.469147
20
-0.301755
30
0.000000
70
32
0
VERTEX
8
Sketch1_21
10
65.483638
20
-0.236700
30
0.000000
70
32
0
VERTEX
8
Sketch1_21
10
65.494232
20
-0.173752
30
0.000000
70
32
0
VERTEX
8
Sketch1_21
10
65.501338
20
-0.113054
30
0.000000
70
32
0
VERTEX
8
Sketch1_21
10
65.505341
20
-0.054696
30
0.000000
70
32
0
VERTEX
8
Sketch1_21
10
65.506600
20
0.001270
30
0.000000
70
32
0
SEQEND
0
POLYLINE
8
Sketch1_22
66
1
70
8
71
3
0
VERTEX
8
Sketch1_22
10
-51.562000
20
51.562000
30
0.000000
70
32
0
VERTEX
8
Sketch1_22
10
-65.786000
20
51.562000
30
0.000000
70
32
0
VERTEX
8
Sketch1_22
10
-76.962000
20
51.562000
30
0.000000
70
32
0
SEQEND
0
POLYLINE
8
Sketch1_23
66
1
70
8
71
117
0
VERTEX
8
Sketch1_23
10
111.880760
20
35.320642
30
0.000000
70
32
0
VERTEX
8
Sketch1_23
10
111.878116
20
35.450180
30
0.000000
70
32
0
VERTEX
8
Sketch1_23
10
111.869755
20
35.584767
30
0.000000
70
32
0
VERTEX
8
Sketch1_23
10
111.854993
20
35.724317
30
0.000000
70
32
0
VERTEX
8
Sketch1_23
10
111.833105
20
35.868672
30
0.000000
70
32
0
VERTEX
8
Sketch1_23
10
111.803321
20
36.017594
30
0.000000
70
32
0
VERTEX
8
Sketch1_23
10
111.764837
20
36.170744
30
0.000000
70
32
0
VERTEX
8
Sketch1_23
10
111.716824
20
36.327676
30
0.000000
70
32
0
VERTEX
8
Sketch1_23
10
111.663722
20
36.474368
30
0.000000
70
32
0
VERTEX
8
Sketch1_23
10
111.601260
20
36.623219
30
0.000000
70
32
0
VERTEX
8
Sketch1_23
10
111.528805
20
36.773585
30
0.000000
70
32
0
VERTEX
8
Sketch1_23
10
111.445758
20
36.924710
30
0.000000
70
32
0
VERTEX
8
Sketch1_23
10
111.351570
20
37.075724
30
0.000000
70
32
0
VERTEX
8
Sketch1_23
10
111.245760
20
37.225642
30
0.000000
70
32
0
VERTEX
8
Sketch1_23
10
111.145746
20
37.352167
30
0.000000
70
32
0
VERTEX
8
Sketch1_23
10
111.036767
20
37.476340
30
0.000000
70
32
0
VERTEX
8
Sketch1_23
10
110.918720
20
37.597358
30
0.000000
70
32
0
VERTEX
8
Sketch1_23
10
110.791585
20
37.714376
30
0.000000
70
32
0
VERTEX
8
Sketch1_23
10
110.655435
20
37.826514
30
0.000000
70
32
0
VERTEX
8
Sketch1_23
10
110.513113
20
37.931025
30
0.000000
70
32
0
VERTEX
8
Sketch1_23
10
110.362540
20
38.029093
30
0.000000
70
32
0
VERTEX
8
Sketch1_23
10
110.204094
20
38.119860
30
0.000000
70
32
0
VERTEX
8
Sketch1_23
10
110.038266
20
38.202491
30
0.000000
70
32
0
VERTEX
8
Sketch1_23
10
109.862071
20
38.277595
30
0.000000
70
32
0
VERTEX
8
Sketch1_23
10
109.679570
20
38.342615
30
0.000000
70
32
0
VERTEX
8
Sketch1_23
10
109.491626
20
38.396848
30
0.000000
70
32
0
VERTEX
8
Sketch1_23
10
109.299199
20
38.439690
30
0.000000
70
32
0
VERTEX
8
Sketch1_23
10
109.103332
20
38.470652
30
0.000000
70
32
0
VERTEX
8
Sketch1_23
10
108.905134
20
38.489376
30
0.000000
70
32
0
VERTEX
8
Sketch1_23
10
108.705760
20
38.495642
30
0.000000
70
32
0
VERTEX
8
Sketch1_23
10
108.506819
20
38.489404
30
0.000000
70
32
0
VERTEX
8
Sketch1_23
10
108.309048
20
38.470761
30
0.000000
70
32
0
VERTEX
8
Sketch1_23
10
108.113593
20
38.439931
30
0.000000
70
32
0
VERTEX
8
Sketch1_23
10
107.921555
20
38.397272
30
0.000000
70
32
0
VERTEX
8
Sketch1_23
10
107.733972
20
38.343266
30
0.000000
70
32
0
VERTEX
8
Sketch1_23
10
107.554999
20
38.279760
30
0.000000
70
32
0
VERTEX
8
Sketch1_23
10
107.382058
20
38.206546
30
0.000000
70
32
0
VERTEX
8
Sketch1_23
10
107.215863
20
38.124360
30
0.000000
70
32
0
VERTEX
8
Sketch1_23
10
107.057021
20
38.033996
30
0.000000
70
32
0
VERTEX
8
Sketch1_23
10
106.903031
20
37.934221
30
0.000000
70
32
0
VERTEX
8
Sketch1_23
10
106.757622
20
37.827710
30
0.000000
70
32
0
VERTEX
8
Sketch1_23
10
106.621087
20
37.715379
30
0.000000
70
32
0
VERTEX
8
Sketch1_23
10
106.493604
20
37.598139
30
0.000000
70
32
0
VERTEX
8
Sketch1_23
10
106.375249
20
37.476876
30
0.000000
70
32
0
VERTEX
8
Sketch1_23
10
106.266002
20
37.352442
30
0.000000
70
32
0
VERTEX
8
Sketch1_23
10
106.165760
20
37.225642
30
0.000000
70
32
0
VERTEX
8
Sketch1_23
10
106.064503
20
37.082570
30
0.000000
70
32
0
VERTEX
8
Sketch1_23
10
105.973856
20
36.938457
30
0.000000
70
32
0
VERTEX
8
Sketch1_23
10
105.893403
20
36.794166
30
0.000000
70
32
0
VERTEX
8
Sketch1_23
10
105.822672
20
36.650467
30
0.000000
70
32
0
VERTEX
8
Sketch1_23
10
105.761148
20
36.508030
30
0.000000
70
32
0
VERTEX
8
Sketch1_23
10
105.708286
20
36.367436
30
0.000000
70
32
0
VERTEX
8
Sketch1_23
10
105.663526
20
36.229178
30
0.000000
70
32
0
VERTEX
8
Sketch1_23
10
105.626302
20
36.093665
30
0.000000
70
32
0
VERTEX
8
Sketch1_23
10
105.589336
20
35.927710
30
0.000000
70
32
0
VERTEX
8
Sketch1_23
10
105.562310
20
35.767128
30
0.000000
70
32
0
VERTEX
8
Sketch1_23
10
105.544183
20
35.612284
30
0.000000
70
32
0
VERTEX
8
Sketch1_23
10
105.533971
20
35.463413
30
0.000000
70
32
0
VERTEX
8
Sketch1_23
10
105.530760
20
35.320642
30
0.000000
70
32
0
VERTEX
8
Sketch1_23
10
105.533403
20
35.191105
30
0.000000
70
32
0
VERTEX
8
Sketch1_23
10
105.541765
20
35.056518
30
0.000000
70
32
0
VERTEX
8
Sketch1_23
10
105.556526
20
34.916968
30
0.000000
70
32
0
VERTEX
8
Sketch1_23
10
105.578415
20
34.772612
30
0.000000
70
32
0
VERTEX
8
Sketch1_23
10
105.608199
20
34.623691
30
0.000000
70
32
0
VERTEX
8
Sketch1_23
10
105.646683
20
34.470541
30
0.000000
70
32
0
VERTEX
8
Sketch1_23
10
105.694696
20
34.313609
30
0.000000
70
32
0
VERTEX
8
Sketch1_23
10
105.747797
20
34.166917
30
0.000000
70
32
0
VERTEX
8
Sketch1_23
10
105.810260
20
34.018066
30
0.000000
70
32
0
VERTEX
8
Sketch1_23
10
105.882715
20
33.867700
30
0.000000
70
32
0
VERTEX
8
Sketch1_23
10
105.965761
20
33.716575
30
0.000000
70
32
0
VERTEX
8
Sketch1_23
10
106.059949
20
33.565561
30
0.000000
70
32
0
VERTEX
8
Sketch1_23
10
106.165760
20
33.415642
30
0.000000
70
32
0
VERTEX
8
Sketch1_23
10
106.265774
20
33.289117
30
0.000000
70
32
0
VERTEX
8
Sketch1_23
10
106.374753
20
33.164945
30
0.000000
70
32
0
VERTEX
8
Sketch1_23
10
106.492800
20
33.043927
30
0.000000
70
32
0
VERTEX
8
Sketch1_23
10
106.619935
20
32.926909
30
0.000000
70
32
0
VERTEX
8
Sketch1_23
10
106.756085
20
32.814771
30
0.000000
70
32
0
VERTEX
8
Sketch1_23
10
106.898406
20
32.710260
30
0.000000
70
32
0
VERTEX
8
Sketch1_23
10
107.048980
20
32.612192
30
0.000000
70
32
0
VERTEX
8
Sketch1_23
10
107.207426
20
32.521425
30
0.000000
70
32
0
VERTEX
8
Sketch1_23
10
107.373253
20
32.438794
30
0.000000
70
32
0
VERTEX
8
Sketch1_23
10
107.549449
20
32.363690
30
0.000000
70
32
0
VERTEX
8
Sketch1_23
10
107.731950
20
32.298670
30
0.000000
70
32
0
VERTEX
8
Sketch1_23
10
107.919894
20
32.244437
30
0.000000
70
32
0
VERTEX
8
Sketch1_23
10
108.112321
20
32.201595
30
0.000000
70
32
0
VERTEX
8
Sketch1_23
10
108.308188
20
32.170633
30
0.000000
70
32
0
VERTEX
8
Sketch1_23
10
108.506385
20
32.151909
30
0.000000
70
32
0
VERTEX
8
Sketch1_23
10
108.705760
20
32.145642
30
0.000000
70
32
0
VERTEX
8
Sketch1_23
10
108.904700
20
32.151881
30
0.000000
70
32
0
VERTEX
8
Sketch1_23
10
109.102471
20
32.170524
30
0.000000
70
32
0
VERTEX
8
Sketch1_23
10
109.297927
20
32.201354
30
0.000000
70
32
0
VERTEX
8
Sketch1_23
10
109.489964
20
32.244013
30
0.000000
70
32
0
VERTEX
8
Sketch1_23
10
109.677547
20
32.298019
30
0.000000
70
32
0
VERTEX
8
Sketch1_23
10
109.856520
20
32.361525
30
0.000000
70
32
0
VERTEX
8
Sketch1_23
10
110.029461
20
32.434739
30
0.000000
70
32
0
VERTEX
8
Sketch1_23
10
110.195656
20
32.516925
30
0.000000
70
32
0
VERTEX
8
Sketch1_23
10
110.354499
20
32.607289
30
0.000000
70
32
0
VERTEX
8
Sketch1_23
10
110.508489
20
32.707064
30
0.000000
70
32
0
VERTEX
8
Sketch1_23
10
110.653897
20
32.813575
30
0.000000
70
32
0
VERTEX
8
Sketch1_23
10
110.790433
20
32.925906
30
0.000000
70
32
0
VERTEX
8
Sketch1_23
10
110.917916
20
33.043146
30
0.000000
70
32
0
VERTEX
8
Sketch1_23
10
111.036271
20
33.164409
30
0.000000
70
32
0
VERTEX
8
Sketch1_23
10
111.145517
20
33.288843
30
0.000000
70
32
0
VERTEX
8
Sketch1_23
10
111.245760
20
33.415642
30
0.000000
70
32
0
VERTEX
8
Sketch1_23
10
111.347016
20
33.558715
30
0.000000
70
32
0
VERTEX
8
Sketch1_23
10
111.437664
20
33.702828
30
0.000000
70
32
0
VERTEX
8
Sketch1_23
10
111.518117
20
33.847118
30
0.000000
70
32
0
VERTEX
8
Sketch1_23
10
111.588847
20
33.990818
30
0.000000
70
32
0
VERTEX
8
Sketch1_23
10
111.650371
20
34.133255
30
0.000000
70
32
0
VERTEX
8
Sketch1_23
10
111.703233
20
34.273849
30
0.000000
70
32
0
VERTEX
8
Sketch1_23
10
111.747994
20
34.412107
30
0.000000
70
32
0
VERTEX
8
Sketch1_23
10
111.785218
20
34.547620
30
0.000000
70
32
0
VERTEX
8
Sketch1_23
10
111.822183
20
34.713575
30
0.000000
70
32
0
VERTEX
8
Sketch1_23
10
111.849209
20
34.874157
30
0.000000
70
32
0
VERTEX
8
Sketch1_23
10
111.867337
20
35.029001
30
0.000000
70
32
0
VERTEX
8
Sketch1_23
10
111.877548
20
35.177872
30
0.000000
70
32
0
VERTEX
8
Sketch1_23
10
111.880760
20
35.320642
30
0.000000
70
32
0
SEQEND
0
POLYLINE
8
Sketch1_24
66
1
70
8
71
117
0
VERTEX
8
Sketch1_24
10
65.506600
20
-34.375090
30
0.000000
70
32
0
VERTEX
8
Sketch1_24
10
65.505564
20
-34.324311
30
0.000000
70
32
0
VERTEX
8
Sketch1_24
10
65.502286
20
-34.271553
30
0.000000
70
32
0
VERTEX
8
Sketch1_24
10
65.496500
20
-34.216850
30
0.000000
70
32
0
VERTEX
8
Sketch1_24
10
65.487919
20
-34.160262
30
0.000000
70
32
0
VERTEX
8
Sketch1_24
10
65.476244
20
-34.101885
30
0.000000
70
32
0
VERTEX
8
Sketch1_24
10
65.461158
20
-34.041850
30
0.000000
70
32
0
VERTEX
8
Sketch1_24
10
65.442337
20
-33.980333
30
0.000000
70
32
0
VERTEX
8
Sketch1_24
10
65.421521
20
-33.922830
30
0.000000
70
32
0
VERTEX
8
Sketch1_24
10
65.397036
20
-33.864480
30
0.000000
70
32
0
VERTEX
8
Sketch1_24
10
65.368634
20
-33.805537
30
0.000000
70
32
0
VERTEX
8
Sketch1_24
10
65.336079
20
-33.746296
30
0.000000
70
32
0
VERTEX
8
Sketch1_24
10
65.299158
20
-33.687098
30
0.000000
70
32
0
VERTEX
8
Sketch1_24
10
65.257680
20
-33.628330
30
0.000000
70
32
0
VERTEX
8
Sketch1_24
10
65.218474
20
-33.578732
30
0.000000
70
32
0
VERTEX
8
Sketch1_24
10
65.175755
20
-33.530057
30
0.000000
70
32
0
VERTEX
8
Sketch1_24
10
65.129480
20
-33.482618
30
0.000000
70
32
0
VERTEX
8
Sketch1_24
10
65.079643
20
-33.436746
30
0.000000
70
32
0
VERTEX
8
Sketch1_24
10
65.026273
20
-33.392788
30
0.000000
70
32
0
VERTEX
8
Sketch1_24
10
64.970483
20
-33.351820
30
0.000000
70
32
0
VERTEX
8
Sketch1_24
10
64.911458
20
-33.313377
30
0.000000
70
32
0
VERTEX
8
Sketch1_24
10
64.849347
20
-33.277797
30
0.000000
70
32
0
VERTEX
8
Sketch1_24
10
64.784343
20
-33.245405
30
0.000000
70
32
0
VERTEX
8
Sketch1_24
10
64.715274
20
-33.215965
30
0.000000
70
32
0
VERTEX
8
Sketch1_24
10
64.643734
20
-33.190477
30
0.000000
70
32
0
VERTEX
8
Sketch1_24
10
64.570059
20
-33.169217
30
0.000000
70
32
0
VERTEX
8
Sketch1_24
10
64.494628
20
-33.152423
30
0.000000
70
32
0
VERTEX
8
Sketch1_24
10
64.417848
20
-33.140286
30
0.000000
70
32
0
VERTEX
8
Sketch1_24
10
64.340155
20
-33.132946
30
0.000000
70
32
0
VERTEX
8
Sketch1_24
10
64.262000
20
-33.130490
30
0.000000
70
32
0
VERTEX
8
Sketch1_24
10
64.184015
20
-33.132936
30
0.000000
70
32
0
VERTEX
8
Sketch1_24
10
64.106489
20
-33.140244
30
0.000000
70
32
0
VERTEX
8
Sketch1_24
10
64.029871
20
-33.152329
30
0.000000
70
32
0
VERTEX
8
Sketch1_24
10
63.954592
20
-33.169051
30
0.000000
70
32
0
VERTEX
8
Sketch1_24
10
63.881059
20
-33.190221
30
0.000000
70
32
0
VERTEX
8
Sketch1_24
10
63.810902
20
-33.215116
30
0.000000
70
32
0
VERTEX
8
Sketch1_24
10
63.743109
20
-33.243816
30
0.000000
70
32
0
VERTEX
8
Sketch1_24
10
63.677961
20
-33.276033
30
0.000000
70
32
0
VERTEX
8
Sketch1_24
10
63.615694
20
-33.311456
30
0.000000
70
32
0
VERTEX
8
Sketch1_24
10
63.555330
20
-33.350567
30
0.000000
70
32
0
VERTEX
8
Sketch1_24
10
63.498330
20
-33.392320
30
0.000000
70
32
0
VERTEX
8
Sketch1_24
10
63.444808
20
-33.436353
30
0.000000
70
32
0
VERTEX
8
Sketch1_24
10
63.394835
20
-33.482311
30
0.000000
70
32
0
VERTEX
8
Sketch1_24
10
63.348440
20
-33.529846
30
0.000000
70
32
0
VERTEX
8
Sketch1_24
10
63.305615
20
-33.578625
30
0.000000
70
32
0
VERTEX
8
Sketch1_24
10
63.266320
20
-33.628330
30
0.000000
70
32
0
VERTEX
8
Sketch1_24
10
63.226627
20
-33.684414
30
0.000000
70
32
0
VERTEX
8
Sketch1_24
10
63.191094
20
-33.740907
30
0.000000
70
32
0
VERTEX
8
Sketch1_24
10
63.159556
20
-33.797469
30
0.000000
70
32
0
VERTEX
8
Sketch1_24
10
63.131830
20
-33.853799
30
0.000000
70
32
0
VERTEX
8
Sketch1_24
10
63.107712
20
-33.909634
30
0.000000
70
32
0
VERTEX
8
Sketch1_24
10
63.086990
20
-33.964747
30
0.000000
70
32
0
VERTEX
8
Sketch1_24
10
63.069444
20
-34.018944
30
0.000000
70
32
0
VERTEX
8
Sketch1_24
10
63.054853
20
-34.072065
30
0.000000
70
32
0
VERTEX
8
Sketch1_24
10
63.040362
20
-34.137120
30
0.000000
70
32
0
VERTEX
8
Sketch1_24
10
63.029768
20
-34.200068
30
0.000000
70
32
0
VERTEX
8
Sketch1_24
10
63.022662
20
-34.260766
30
0.000000
70
32
0
VERTEX
8
Sketch1_24
10
63.018659
20
-34.319124
30
0.000000
70
32
0
VERTEX
8
Sketch1_24
10
63.017400
20
-34.375090
30
0.000000
70
32
0
VERTEX
8
Sketch1_24
10
63.018436
20
-34.425869
30
0.000000
70
32
0
VERTEX
8
Sketch1_24
10
63.021714
20
-34.478627
30
0.000000
70
32
0
VERTEX
8
Sketch1_24
10
63.027500
20
-34.533330
30
0.000000
70
32
0
VERTEX
8
Sketch1_24
10
63.036081
20
-34.589918
30
0.000000
70
32
0
VERTEX
8
Sketch1_24
10
63.047756
20
-34.648295
30
0.000000
70
32
0
VERTEX
8
Sketch1_24
10
63.062842
20
-34.708330
30
0.000000
70
32
0
VERTEX
8
Sketch1_24
10
63.081663
20
-34.769847
30
0.000000
70
32
0
VERTEX
8
Sketch1_24
10
63.102479
20
-34.827350
30
0.000000
70
32
0
VERTEX
8
Sketch1_24
10
63.126964
20
-34.885700
30
0.000000
70
32
0
VERTEX
8
Sketch1_24
10
63.155366
20
-34.944643
30
0.000000
70
32
0
VERTEX
8
Sketch1_24
10
63.187921
20
-35.003884
30
0.000000
70
32
0
VERTEX
8
Sketch1_24
10
63.224842
20
-35.063082
30
0.000000
70
32
0
VERTEX
8
Sketch1_24
10
63.266320
20
-35.121850
30
0.000000
70
32
0
VERTEX
8
Sketch1_24
10
63.305526
20
-35.171448
30
0.000000
70
32
0
VERTEX
8
Sketch1_24
10
63.348245
20
-35.220123
30
0.000000
70
32
0
VERTEX
8
Sketch1_24
10
63.394520
20
-35.267562
30
0.000000
70
32
0
VERTEX
8
Sketch1_24
10
63.444357
20
-35.313434
30
0.000000
70
32
0
VERTEX
8
Sketch1_24
10
63.497727
20
-35.357392
30
0.000000
70
32
0
VERTEX
8
Sketch1_24
10
63.553517
20
-35.398360
30
0.000000
70
32
0
VERTEX
8
Sketch1_24
10
63.612542
20
-35.436803
30
0.000000
70
32
0
VERTEX
8
Sketch1_24
10
63.674653
20
-35.472383
30
0.000000
70
32
0
VERTEX
8
Sketch1_24
10
63.739657
20
-35.504775
30
0.000000
70
32
0
VERTEX
8
Sketch1_24
10
63.808726
20
-35.534215
30
0.000000
70
32
0
VERTEX
8
Sketch1_24
10
63.880266
20
-35.559703
30
0.000000
70
32
0
VERTEX
8
Sketch1_24
10
63.953941
20
-35.580963
30
0.000000
70
32
0
VERTEX
8
Sketch1_24
10
64.029372
20
-35.597757
30
0.000000
70
32
0
VERTEX
8
Sketch1_24
10
64.106152
20
-35.609894
30
0.000000
70
32
0
VERTEX
8
Sketch1_24
10
64.183845
20
-35.617234
30
0.000000
70
32
0
VERTEX
8
Sketch1_24
10
64.262000
20
-35.619690
30
0.000000
70
32
0
VERTEX
8
Sketch1_24
10
64.339985
20
-35.617244
30
0.000000
70
32
0
VERTEX
8
Sketch1_24
10
64.417511
20
-35.609936
30
0.000000
70
32
0
VERTEX
8
Sketch1_24
10
64.494129
20
-35.597851
30
0.000000
70
32
0
VERTEX
8
Sketch1_24
10
64.569408
20
-35.581129
30
0.000000
70
32
0
VERTEX
8
Sketch1_24
10
64.642941
20
-35.559959
30
0.000000
70
32
0
VERTEX
8
Sketch1_24
10
64.713098
20
-35.535064
30
0.000000
70
32
0
VERTEX
8
Sketch1_24
10
64.780891
20
-35.506364
30
0.000000
70
32
0
VERTEX
8
Sketch1_24
10
64.846039
20
-35.474147
30
0.000000
70
32
0
VERTEX
8
Sketch1_24
10
64.908306
20
-35.438724
30
0.000000
70
32
0
VERTEX
8
Sketch1_24
10
64.968670
20
-35.399613
30
0.000000
70
32
0
VERTEX
8
Sketch1_24
10
65.025670
20
-35.357860
30
0.000000
70
32
0
VERTEX
8
Sketch1_24
10
65.079192
20
-35.313827
30
0.000000
70
32
0
VERTEX
8
Sketch1_24
10
65.129165
20
-35.267869
30
0.000000
70
32
0
VERTEX
8
Sketch1_24
10
65.175560
20
-35.220334
30
0.000000
70
32
0
VERTEX
8
Sketch1_24
10
65.218385
20
-35.171555
30
0.000000
70
32
0
VERTEX
8
Sketch1_24
10
65.257680
20
-35.121850
30
0.000000
70
32
0
VERTEX
8
Sketch1_24
10
65.297373
20
-35.065766
30
0.000000
70
32
0
VERTEX
8
Sketch1_24
10
65.332906
20
-35.009273
30
0.000000
70
32
0
VERTEX
8
Sketch1_24
10
65.364444
20
-34.952711
30
0.000000
70
32
0
VERTEX
8
Sketch1_24
10
65.392170
20
-34.896381
30
0.000000
70
32
0
VERTEX
8
Sketch1_24
10
65.416288
20
-34.840546
30
0.000000
70
32
0
VERTEX
8
Sketch1_24
10
65.437010
20
-34.785433
30
0.000000
70
32
0
VERTEX
8
Sketch1_24
10
65.454556
20
-34.731236
30
0.000000
70
32
0
VERTEX
8
Sketch1_24
10
65.469147
20
-34.678115
30
0.000000
70
32
0
VERTEX
8
Sketch1_24
10
65.483638
20
-34.613060
30
0.000000
70
32
0
VERTEX
8
Sketch1_24
10
65.494232
20
-34.550112
30
0.000000
70
32
0
VERTEX
8
Sketch1_24
10
65.501338
20
-34.489414
30
0.000000
70
32
0
VERTEX
8
Sketch1_24
10
65.505341
20
-34.431056
30
0.000000
70
32
0
VERTEX
8
Sketch1_24
10
65.506600
20
-34.375090
30
0.000000
70
32
0
SEQEND
0
POLYLINE
8
Sketch1_25
66
1
70
8
71
117
0
VERTEX
8
Sketch1_25
10
3.175000
20
0.000000
30
0.000000
70
32
0
VERTEX
8
Sketch1_25
10
3.172356
20
0.129538
30
0.000000
70
32
0
VERTEX
8
Sketch1_25
10
3.163995
20
0.264125
30
0.000000
70
32
0
VERTEX
8
Sketch1_25
10
3.149234
20
0.403674
30
0.000000
70
32
0
VERTEX
8
Sketch1_25
10
3.127345
20
0.548030
30
0.000000
70
32
0
VERTEX
8
Sketch1_25
10
3.097561
20
0.696951
30
0.000000
70
32
0
VERTEX
8
Sketch1_25
10
3.059077
20
0.850101
30
0.000000
70
32
0
VERTEX
8
Sketch1_25
10
3.011064
20
1.007034
30
0.000000
70
32
0
VERTEX
8
Sketch1_25
10
2.957963
20
1.153726
30
0.000000
70
32
0
VERTEX
8
Sketch1_25
10
2.895500
20
1.302577
30
0.000000
70
32
0
VERTEX
8
Sketch1_25
10
2.823045
20
1.452943
30
0.000000
70
32
0
VERTEX
8
Sketch1_25
10
2.739999
20
1.604067
30
0.000000
70
32
0
VERTEX
8
Sketch1_25
10
2.645811
20
1.755082
30
0.000000
70
32
0
VERTEX
8
Sketch1_25
10
2.540000
20
1.905000
30
0.000000
70
32
0
VERTEX
8
Sketch1_25
10
2.439986
20
2.031525
30
0.000000
70
32
0
VERTEX
8
Sketch1_25
10
2.331007
20
2.155697
30
0.000000
70
32
0
VERTEX
8
Sketch1_25
10
2.212960
20
2.276715
30
0.000000
70
32
0
VERTEX
8
Sketch1_25
10
2.085825
20
2.393733
30
0.000000
70
32
0
VERTEX
8
Sketch1_25
10
1.949675
20
2.505872
30
0.000000
70
32
0
VERTEX
8
Sketch1_25
10
1.807354
20
2.610383
30
0.000000
70
32
0
VERTEX
8
Sketch1_25
10
1.656780
20
2.708451
30
0.000000
70
32
0
VERTEX
8
Sketch1_25
10
1.498334
20
2.799218
30
0.000000
70
32
0
VERTEX
8
Sketch1_25
10
1.332507
20
2.881849
30
0.000000
70
32
0
VERTEX
8
Sketch1_25
10
1.156311
20
2.956953
30
0.000000
70
32
0
VERTEX
8
Sketch1_25
10
0.973810
20
3.021973
30
0.000000
70
32
0
VERTEX
8
Sketch1_25
10
0.785866
20
3.076205
30
0.000000
70
32
0
VERTEX
8
Sketch1_25
10
0.593439
20
3.119047
30
0.000000
70
32
0
VERTEX
8
Sketch1_25
10
0.397572
20
3.150010
30
0.000000
70
32
0
VERTEX
8
Sketch1_25
10
0.199374
20
3.168734
30
0.000000
70
32
0
VERTEX
8
Sketch1_25
10
0.000000
20
3.175000
30
0.000000
70
32
0
VERTEX
8
Sketch1_25
10
-0.198940
20
3.168761
30
0.000000
70
32
0
VERTEX
8
Sketch1_25
10
-0.396711
20
3.150118
30
0.000000
70
32
0
VERTEX
8
Sketch1_25
10
-0.592167
20
3.119289
30
0.000000
70
32
0
VERTEX
8
Sketch1_25
10
-0.784204
20
3.076629
30
0.000000
70
32
0
VERTEX
8
Sketch1_25
10
-0.971787
20
3.022624
30
0.000000
70
32
0
VERTEX
8
Sketch1_25
10
-1.150760
20
2.959117
30
0.000000
70
32
0
VERTEX
8
Sketch1_25
10
-1.323701
20
2.885904
30
0.000000
70
32
0
VERTEX
8
Sketch1_25
10
-1.489896
20
2.803718
30
0.000000
70
32
0
VERTEX
8
Sketch1_25
10
-1.648739
20
2.713353
30
0.000000
70
32
0
VERTEX
8
Sketch1_25
10
-1.802729
20
2.613579
30
0.000000
70
32
0
VERTEX
8
Sketch1_25
10
-1.948137
20
2.507067
30
0.000000
70
32
0
VERTEX
8
Sketch1_25
10
-2.084673
20
2.394737
30
0.000000
70
32
0
VERTEX
8
Sketch1_25
10
-2.212156
20
2.277497
30
0.000000
70
32
0
VERTEX
8
Sketch1_25
10
-2.330511
20
2.156234
30
0.000000
70
32
0
VERTEX
8
Sketch1_25
10
-2.439757
20
2.031799
30
0.000000
70
32
0
VERTEX
8
Sketch1_25
10
-2.540000
20
1.905000
30
0.000000
70
32
0
VERTEX
8
Sketch1_25
10
-2.641256
20
1.761928
30
0.000000
70
32
0
VERTEX
8
Sketch1_25
10
-2.731904
20
1.617815
30
0.000000
70
32
0
VERTEX
8
Sketch1_25
10
-2.812357
20
1.473524
30
0.000000
70
32
0
VERTEX
8
Sketch1_25
10
-2.883087
20
1.329824
30
0.000000
70
32
0
VERTEX
8
Sketch1_25
10
-2.944611
20
1.187387
30
0.000000
70
32
0
VERTEX
8
Sketch1_25
10
-2.997474
20
1.046794
30
0.000000
70
32
0
VERTEX
8
Sketch1_25
10
-3.042234
20
0.908536
30
0.000000
70
32
0
VERTEX
8
Sketch1_25
10
-3.079458
20
0.773023
30
0.000000
70
32
0
VERTEX
8
Sketch1_25
10
-3.116423
20
0.607067
30
0.000000
70
32
0
VERTEX
8
Sketch1_25
10
-3.143450
20
0.446486
30
0.000000
70
32
0
VERTEX
8
Sketch1_25
10
-3.161577
20
0.291642
30
0.000000
70
32
0
VERTEX
8
Sketch1_25
10
-3.171788
20
0.142770
30
0.000000
70
32
0
VERTEX
8
Sketch1_25
10
-3.175000
20
0.000000
30
0.000000
70
32
0
VERTEX
8
Sketch1_25
10
-3.172356
20
-0.129538
30
0.000000
70
32
0
VERTEX
8
Sketch1_25
10
-3.163995
20
-0.264125
30
0.000000
70
32
0
VERTEX
8
Sketch1_25
10
-3.149234
20
-0.403674
30
0.000000
70
32
0
VERTEX
8
Sketch1_25
10
-3.127345
20
-0.548030
30
0.000000
70
32
0
VERTEX
8
Sketch1_25
10
-3.097561
20
-0.696951
30
0.000000
70
32
0
VERTEX
8
Sketch1_25
10
-3.059077
20
-0.850101
30
0.000000
70
32
0
VERTEX
8
Sketch1_25
10
-3.011064
20
-1.007034
30
0.000000
70
32
0
VERTEX
8
Sketch1_25
10
-2.957963
20
-1.153726
30
0.000000
70
32
0
VERTEX
8
Sketch1_25
10
-2.895500
20
-1.302577
30
0.000000
70
32
0
VERTEX
8
Sketch1_25
10
-2.823045
20
-1.452943
30
0.000000
70
32
0
VERTEX
8
Sketch1_25
10
-2.739999
20
-1.604067
30
0.000000
70
32
0
VERTEX
8
Sketch1_25
10
-2.645811
20
-1.755082
30
0.000000
70
32
0
VERTEX
8
Sketch1_25
10
-2.540000
20
-1.905000
30
0.000000
70
32
0
VERTEX
8
Sketch1_25
10
-2.439986
20
-2.031525
30
0.000000
70
32
0
VERTEX
8
Sketch1_25
10
-2.331007
20
-2.155697
30
0.000000
70
32
0
VERTEX
8
Sketch1_25
10
-2.212960
20
-2.276715
30
0.000000
70
32
0
VERTEX
8
Sketch1_25
10
-2.085825
20
-2.393733
30
0.000000
70
32
0
VERTEX
8
Sketch1_25
10
-1.949675
20
-2.505872
30
0.000000
70
32
0
VERTEX
8
Sketch1_25
10
-1.807354
20
-2.610383
30
0.000000
70
32
0
VERTEX
8
Sketch1_25
10
-1.656780
20
-2.708451
30
0.000000
70
32
0
VERTEX
8
Sketch1_25
10
-1.498334
20
-2.799218
30
0.000000
70
32
0
VERTEX
8
Sketch1_25
10
-1.332507
20
-2.881849
30
0.000000
70
32
0
VERTEX
8
Sketch1_25
10
-1.156311
20
-2.956953
30
0.000000
70
32
0
VERTEX
8
Sketch1_25
10
-0.973810
20
-3.021973
30
0.000000
70
32
0
VERTEX
8
Sketch1_25
10
-0.785866
20
-3.076205
30
0.000000
70
32
0
VERTEX
8
Sketch1_25
10
-0.593439
20
-3.119047
30
0.000000
70
32
0
VERTEX
8
Sketch1_25
10
-0.397572
20
-3.150010
30
0.000000
70
32
0
VERTEX
8
Sketch1_25
10
-0.199374
20
-3.168734
30
0.000000
70
32
0
VERTEX
8
Sketch1_25
10
0.000000
20
-3.175000
30
0.000000
70
32
0
VERTEX
8
Sketch1_25
10
0.198940
20
-3.168761
30
0.000000
70
32
0
VERTEX
8
Sketch1_25
10
0.396711
20
-3.150118
30
0.000000
70
32
0
VERTEX
8
Sketch1_25
10
0.592167
20
-3.119289
30
0.000000
70
32
0
VERTEX
8
Sketch1_25
10
0.784204
20
-3.076629
30
0.000000
70
32
0
VERTEX
8
Sketch1_25
10
0.971787
20
-3.022624
30
0.000000
70
32
0
VERTEX
8
Sketch1_25
10
1.150760
20
-2.959117
30
0.000000
70
32
0
VERTEX
8
Sketch1_25
10
1.323701
20
-2.885904
30
0.000000
70
32
0
VERTEX
8
Sketch1_25
10
1.489896
20
-2.803718
30
0.000000
70
32
0
VERTEX
8
Sketch1_25
10
1.648739
20
-2.713353
30
0.000000
70
32
0
VERTEX
8
Sketch1_25
10
1.802729
20
-2.613579
30
0.000000
70
32
0
VERTEX
8
Sketch1_25
10
1.948137
20
-2.507067
30
0.000000
70
32
0
VERTEX
8
Sketch1_25
10
2.084673
20
-2.394737
30
0.000000
70
32
0
VERTEX
8
Sketch1_25
10
2.212156
20
-2.277497
30
0.000000
70
32
0
VERTEX
8
Sketch1_25
10
2.330511
20
-2.156234
30
0.000000
70
32
0
VERTEX
8
Sketch1_25
10
2.439757
20
-2.031799
30
0.000000
70
32
0
VERTEX
8
Sketch1_25
10
2.540000
20
-1.905000
30
0.000000
70
32
0
VERTEX
8
Sketch1_25
10
2.641256
20
-1.761928
30
0.000000
70
32
0
VERTEX
8
Sketch1_25
10
2.731904
20
-1.617815
30
0.000000
70
32
0
VERTEX
8
Sketch1_25
10
2.812357
20
-1.473524
30
0.000000
70
32
0
VERTEX
8
Sketch1_25
10
2.883087
20
-1.329824
30
0.000000
70
32
0
VERTEX
8
Sketch1_25
10
2.944611
20
-1.187387
30
0.000000
70
32
0
VERTEX
8
Sketch1_25
10
2.997474
20
-1.046794
30
0.000000
70
32
0
VERTEX
8
Sketch1_25
10
3.042234
20
-0.908536
30
0.000000
70
32
0
VERTEX
8
Sketch1_25
10
3.079458
20
-0.773023
30
0.000000
70
32
0
VERTEX
8
Sketch1_25
10
3.116423
20
-0.607067
30
0.000000
70
32
0
VERTEX
8
Sketch1_25
10
3.143450
20
-0.446486
30
0.000000
70
32
0
VERTEX
8
Sketch1_25
10
3.161577
20
-0.291642
30
0.000000
70
32
0
VERTEX
8
Sketch1_25
10
3.171788
20
-0.142770
30
0.000000
70
32
0
VERTEX
8
Sketch1_25
10
3.175000
20
0.000000
30
0.000000
70
32
0
SEQEND
0
POLYLINE
8
Sketch1_26
66
1
70
8
71
3
0
VERTEX
8
Sketch1_26
10
66.328053
20
76.962205
30
0.000000
70
32
0
VERTEX
8
Sketch1_26
10
66.328053
20
62.738090
30
0.000000
70
32
0
VERTEX
8
Sketch1_26
10
66.328053
20
51.562000
30
0.000000
70
32
0
SEQEND
0
POLYLINE
8
Sketch1_27
66
1
70
8
71
117
0
VERTEX
8
Sketch1_27
10
1.244600
20
64.262102
30
0.000000
70
32
0
VERTEX
8
Sketch1_27
10
1.243564
20
64.312881
30
0.000000
70
32
0
VERTEX
8
Sketch1_27
10
1.240286
20
64.365639
30
0.000000
70
32
0
VERTEX
8
Sketch1_27
10
1.234500
20
64.420343
30
0.000000
70
32
0
VERTEX
8
Sketch1_27
10
1.225919
20
64.476930
30
0.000000
70
32
0
VERTEX
8
Sketch1_27
10
1.214244
20
64.535307
30
0.000000
70
32
0
VERTEX
8
Sketch1_27
10
1.199158
20
64.595342
30
0.000000
70
32
0
VERTEX
8
Sketch1_27
10
1.180337
20
64.656860
30
0.000000
70
32
0
VERTEX
8
Sketch1_27
10
1.159521
20
64.714363
30
0.000000
70
32
0
VERTEX
8
Sketch1_27
10
1.135036
20
64.772712
30
0.000000
70
32
0
VERTEX
8
Sketch1_27
10
1.106634
20
64.831656
30
0.000000
70
32
0
VERTEX
8
Sketch1_27
10
1.074079
20
64.890897
30
0.000000
70
32
0
VERTEX
8
Sketch1_27
10
1.037158
20
64.950094
30
0.000000
70
32
0
VERTEX
8
Sketch1_27
10
0.995680
20
65.008862
30
0.000000
70
32
0
VERTEX
8
Sketch1_27
10
0.956474
20
65.058460
30
0.000000
70
32
0
VERTEX
8
Sketch1_27
10
0.913755
20
65.107136
30
0.000000
70
32
0
VERTEX
8
Sketch1_27
10
0.867480
20
65.154575
30
0.000000
70
32
0
VERTEX
8
Sketch1_27
10
0.817643
20
65.200446
30
0.000000
70
32
0
VERTEX
8
Sketch1_27
10
0.764273
20
65.244404
30
0.000000
70
32
0
VERTEX
8
Sketch1_27
10
0.708483
20
65.285372
30
0.000000
70
32
0
VERTEX
8
Sketch1_27
10
0.649458
20
65.323815
30
0.000000
70
32
0
VERTEX
8
Sketch1_27
10
0.587347
20
65.359396
30
0.000000
70
32
0
VERTEX
8
Sketch1_27
10
0.522343
20
65.391787
30
0.000000
70
32
0
VERTEX
8
Sketch1_27
10
0.453274
20
65.421228
30
0.000000
70
32
0
VERTEX
8
Sketch1_27
10
0.381734
20
65.446716
30
0.000000
70
32
0
VERTEX
8
Sketch1_27
10
0.308059
20
65.467975
30
0.000000
70
32
0
VERTEX
8
Sketch1_27
10
0.232628
20
65.484769
30
0.000000
70
32
0
VERTEX
8
Sketch1_27
10
0.155848
20
65.496906
30
0.000000
70
32
0
VERTEX
8
Sketch1_27
10
0.078155
20
65.504246
30
0.000000
70
32
0
VERTEX
8
Sketch1_27
10
0.000000
20
65.506702
30
0.000000
70
32
0
VERTEX
8
Sketch1_27
10
-0.077985
20
65.504257
30
0.000000
70
32
0
VERTEX
8
Sketch1_27
10
-0.155511
20
65.496949
30
0.000000
70
32
0
VERTEX
8
Sketch1_27
10
-0.232129
20
65.484864
30
0.000000
70
32
0
VERTEX
8
Sketch1_27
10
-0.307408
20
65.468141
30
0.000000
70
32
0
VERTEX
8
Sketch1_27
10
-0.380941
20
65.446971
30
0.000000
70
32
0
VERTEX
8
Sketch1_27
10
-0.451098
20
65.422076
30
0.000000
70
32
0
VERTEX
8
Sketch1_27
10
-0.518891
20
65.393377
30
0.000000
70
32
0
VERTEX
8
Sketch1_27
10
-0.584039
20
65.361160
30
0.000000
70
32
0
VERTEX
8
Sketch1_27
10
-0.646306
20
65.325737
30
0.000000
70
32
0
VERTEX
8
Sketch1_27
10
-0.706670
20
65.286625
30
0.000000
70
32
0
VERTEX
8
Sketch1_27
10
-0.763670
20
65.244873
30
0.000000
70
32
0
VERTEX
8
Sketch1_27
10
-0.817192
20
65.200839
30
0.000000
70
32
0
VERTEX
8
Sketch1_27
10
-0.867165
20
65.154881
30
0.000000
70
32
0
VERTEX
8
Sketch1_27
10
-0.913560
20
65.107346
30
0.000000
70
32
0
VERTEX
8
Sketch1_27
10
-0.956385
20
65.058568
30
0.000000
70
32
0
VERTEX
8
Sketch1_27
10
-0.995680
20
65.008862
30
0.000000
70
32
0
VERTEX
8
Sketch1_27
10
-1.035373
20
64.952778
30
0.000000
70
32
0
VERTEX
8
Sketch1_27
10
-1.070906
20
64.896286
30
0.000000
70
32
0
VERTEX
8
Sketch1_27
10
-1.102444
20
64.839724
30
0.000000
70
32
0
VERTEX
8
Sketch1_27
10
-1.130170
20
64.783393
30
0.000000
70
32
0
VERTEX
8
Sketch1_27
10
-1.154288
20
64.727558
30
0.000000
70
32
0
VERTEX
8
Sketch1_27
10
-1.175010
20
64.672445
30
0.000000
70
32
0
VERTEX
8
Sketch1_27
10
-1.192556
20
64.618248
30
0.000000
70
32
0
VERTEX
8
Sketch1_27
10
-1.207147
20
64.565127
30
0.000000
70
32
0
VERTEX
8
Sketch1_27
10
-1.221638
20
64.500073
30
0.000000
70
32
0
VERTEX
8
Sketch1_27
10
-1.232232
20
64.437125
30
0.000000
70
32
0
VERTEX
8
Sketch1_27
10
-1.239338
20
64.376426
30
0.000000
70
32
0
VERTEX
8
Sketch1_27
10
-1.243341
20
64.318068
30
0.000000
70
32
0
VERTEX
8
Sketch1_27
10
-1.244600
20
64.262102
30
0.000000
70
32
0
VERTEX
8
Sketch1_27
10
-1.243564
20
64.211323
30
0.000000
70
32
0
VERTEX
8
Sketch1_27
10
-1.240286
20
64.158565
30
0.000000
70
32
0
VERTEX
8
Sketch1_27
10
-1.234500
20
64.103862
30
0.000000
70
32
0
VERTEX
8
Sketch1_27
10
-1.225919
20
64.047275
30
0.000000
70
32
0
VERTEX
8
Sketch1_27
10
-1.214244
20
63.988897
30
0.000000
70
32
0
VERTEX
8
Sketch1_27
10
-1.199158
20
63.928863
30
0.000000
70
32
0
VERTEX
8
Sketch1_27
10
-1.180337
20
63.867345
30
0.000000
70
32
0
VERTEX
8
Sketch1_27
10
-1.159521
20
63.809842
30
0.000000
70
32
0
VERTEX
8
Sketch1_27
10
-1.135036
20
63.751492
30
0.000000
70
32
0
VERTEX
8
Sketch1_27
10
-1.106634
20
63.692549
30
0.000000
70
32
0
VERTEX
8
Sketch1_27
10
-1.074079
20
63.633308
30
0.000000
70
32
0
VERTEX
8
Sketch1_27
10
-1.037158
20
63.574110
30
0.000000
70
32
0
VERTEX
8
Sketch1_27
10
-0.995680
20
63.515342
30
0.000000
70
32
0
VERTEX
8
Sketch1_27
10
-0.956474
20
63.465745
30
0.000000
70
32
0
VERTEX
8
Sketch1_27
10
-0.913755
20
63.417069
30
0.000000
70
32
0
VERTEX
8
Sketch1_27
10
-0.867480
20
63.369630
30
0.000000
70
32
0
VERTEX
8
Sketch1_27
10
-0.817643
20
63.323759
30
0.000000
70
32
0
VERTEX
8
Sketch1_27
10
-0.764273
20
63.279801
30
0.000000
70
32
0
VERTEX
8
Sketch1_27
10
-0.708483
20
63.238832
30
0.000000
70
32
0
VERTEX
8
Sketch1_27
10
-0.649458
20
63.200390
30
0.000000
70
32
0
VERTEX
8
Sketch1_27
10
-0.587347
20
63.164809
30
0.000000
70
32
0
VERTEX
8
Sketch1_27
10
-0.522343
20
63.132418
30
0.000000
70
32
0
VERTEX
8
Sketch1_27
10
-0.453274
20
63.102977
30
0.000000
70
32
0
VERTEX
8
Sketch1_27
10
-0.381734
20
63.077489
30
0.000000
70
32
0
VERTEX
8
Sketch1_27
10
-0.308059
20
63.056230
30
0.000000
70
32
0
VERTEX
8
Sketch1_27
10
-0.232628
20
63.039436
30
0.000000
70
32
0
VERTEX
8
Sketch1_27
10
-0.155848
20
63.027298
30
0.000000
70
32
0
VERTEX
8
Sketch1_27
10
-0.078155
20
63.019959
30
0.000000
70
32
0
VERTEX
8
Sketch1_27
10
0.000000
20
63.017502
30
0.000000
70
32
0
VERTEX
8
Sketch1_27
10
0.077985
20
63.019948
30
0.000000
70
32
0
VERTEX
8
Sketch1_27
10
0.155511
20
63.027256
30
0.000000
70
32
0
VERTEX
8
Sketch1_27
10
0.232129
20
63.039341
30
0.000000
70
32
0
VERTEX
8
Sketch1_27
10
0.307408
20
63.056064
30
0.000000
70
32
0
VERTEX
8
Sketch1_27
10
0.380941
20
63.077234
30
0.000000
70
32
0
VERTEX
8
Sketch1_27
10
0.451098
20
63.102128
30
0.000000
70
32
0
VERTEX
8
Sketch1_27
10
0.518891
20
63.130828
30
0.000000
70
32
0
VERTEX
8
Sketch1_27
10
0.584039
20
63.163045
30
0.000000
70
32
0
VERTEX
8
Sketch1_27
10
0.646306
20
63.198468
30
0.000000
70
32
0
VERTEX
8
Sketch1_27
10
0.706670
20
63.237579
30
0.000000
70
32
0
VERTEX
8
Sketch1_27
10
0.763670
20
63.279332
30
0.000000
70
32
0
VERTEX
8
Sketch1_27
10
0.817192
20
63.323366
30
0.000000
70
32
0
VERTEX
8
Sketch1_27
10
0.867165
20
63.369324
30
0.000000
70
32
0
VERTEX
8
Sketch1_27
10
0.913560
20
63.416859
30
0.000000
70
32
0
VERTEX
8
Sketch1_27
10
0.956385
20
63.465637
30
0.000000
70
32
0
VERTEX
8
Sketch1_27
10
0.995680
20
63.515342
30
0.000000
70
32
0
VERTEX
8
Sketch1_27
10
1.035373
20
63.571427
30
0.000000
70
32
0
VERTEX
8
Sketch1_27
10
1.070906
20
63.627919
30
0.000000
70
32
0
VERTEX
8
Sketch1_27
10
1.102444
20
63.684481
30
0.000000
70
32
0
VERTEX
8
Sketch1_27
10
1.130170
20
63.740811
30
0.000000
70
32
0
VERTEX
8
Sketch1_27
10
1.154288
20
63.796646
30
0.000000
70
32
0
VERTEX
8
Sketch1_27
10
1.175010
20
63.851759
30
0.000000
70
32
0
VERTEX
8
Sketch1_27
10
1.192556
20
63.905956
30
0.000000
70
32
0
VERTEX
8
Sketch1_27
10
1.207147
20
63.959077
30
0.000000
70
32
0
VERTEX
8
Sketch1_27
10
1.221638
20
64.024132
30
0.000000
70
32
0
VERTEX
8
Sketch1_27
10
1.232232
20
64.087080
30
0.000000
70
32
0
VERTEX
8
Sketch1_27
10
1.239338
20
64.147779
30
0.000000
70
32
0
VERTEX
8
Sketch1_27
10
1.243341
20
64.206136
30
0.000000
70
32
0
VERTEX
8
Sketch1_27
10
1.244600
20
64.262102
30
0.000000
70
32
0
SEQEND
0
POLYLINE
8
Sketch1_28
66
1
70
8
71
3
0
VERTEX
8
Sketch1_28
10
66.328053
20
76.962205
30
0.000000
70
32
0
VERTEX
8
Sketch1_28
10
-7.959366
20
76.962205
30
0.000000
70
32
0
VERTEX
8
Sketch1_28
10
-66.328053
20
76.962205
30
0.000000
70
32
0
SEQEND
0
POLYLINE
8
Sketch1_29
66
1
70
8
71
117
0
VERTEX
8
Sketch1_29
10
-42.974023
20
64.262102
30
0.000000
70
32
0
VERTEX
8
Sketch1_29
10
-42.975059
20
64.312881
30
0.000000
70
32
0
VERTEX
8
Sketch1_29
10
-42.978337
20
64.365639
30
0.000000
70
32
0
VERTEX
8
Sketch1_29
10
-42.984123
20
64.420343
30
0.000000
70
32
0
VERTEX
8
Sketch1_29
10
-42.992703
20
64.476930
30
0.000000
70
32
0
VERTEX
8
Sketch1_29
10
-43.004379
20
64.535307
30
0.000000
70
32
0
VERTEX
8
Sketch1_29
10
-43.019464
20
64.595342
30
0.000000
70
32
0
VERTEX
8
Sketch1_29
10
-43.038285
20
64.656860
30
0.000000
70
32
0
VERTEX
8
Sketch1_29
10
-43.059101
20
64.714363
30
0.000000
70
32
0
VERTEX
8
Sketch1_29
10
-43.083587
20
64.772712
30
0.000000
70
32
0
VERTEX
8
Sketch1_29
10
-43.111989
20
64.831656
30
0.000000
70
32
0
VERTEX
8
Sketch1_29
10
-43.144543
20
64.890897
30
0.000000
70
32
0
VERTEX
8
Sketch1_29
10
-43.181465
20
64.950094
30
0.000000
70
32
0
VERTEX
8
Sketch1_29
10
-43.222943
20
65.008862
30
0.000000
70
32
0
VERTEX
8
Sketch1_29
10
-43.262148
20
65.058460
30
0.000000
70
32
0
VERTEX
8
Sketch1_29
10
-43.304868
20
65.107136
30
0.000000
70
32
0
VERTEX
8
Sketch1_29
10
-43.351142
20
65.154575
30
0.000000
70
32
0
VERTEX
8
Sketch1_29
10
-43.400979
20
65.200446
30
0.000000
70
32
0
VERTEX
8
Sketch1_29
10
-43.454350
20
65.244404
30
0.000000
70
32
0
VERTEX
8
Sketch1_29
10
-43.510140
20
65.285372
30
0.000000
70
32
0
VERTEX
8
Sketch1_29
10
-43.569165
20
65.323815
30
0.000000
70
32
0
VERTEX
8
Sketch1_29
10
-43.631276
20
65.359396
30
0.000000
70
32
0
VERTEX
8
Sketch1_29
10
-43.696280
20
65.391787
30
0.000000
70
32
0
VERTEX
8
Sketch1_29
10
-43.765349
20
65.421228
30
0.000000
70
32
0
VERTEX
8
Sketch1_29
10
-43.836889
20
65.446716
30
0.000000
70
32
0
VERTEX
8
Sketch1_29
10
-43.910563
20
65.467975
30
0.000000
70
32
0
VERTEX
8
Sketch1_29
10
-43.985995
20
65.484769
30
0.000000
70
32
0
VERTEX
8
Sketch1_29
10
-44.062774
20
65.496906
30
0.000000
70
32
0
VERTEX
8
Sketch1_29
10
-44.140468
20
65.504246
30
0.000000
70
32
0
VERTEX
8
Sketch1_29
10
-44.218623
20
65.506702
30
0.000000
70
32
0
VERTEX
8
Sketch1_29
10
-44.296607
20
65.504257
30
0.000000
70
32
0
VERTEX
8
Sketch1_29
10
-44.374133
20
65.496949
30
0.000000
70
32
0
VERTEX
8
Sketch1_29
10
-44.450752
20
65.484864
30
0.000000
70
32
0
VERTEX
8
Sketch1_29
10
-44.526031
20
65.468141
30
0.000000
70
32
0
VERTEX
8
Sketch1_29
10
-44.599563
20
65.446971
30
0.000000
70
32
0
VERTEX
8
Sketch1_29
10
-44.669721
20
65.422076
30
0.000000
70
32
0
VERTEX
8
Sketch1_29
10
-44.737513
20
65.393377
30
0.000000
70
32
0
VERTEX
8
Sketch1_29
10
-44.802662
20
65.361160
30
0.000000
70
32
0
VERTEX
8
Sketch1_29
10
-44.864928
20
65.325737
30
0.000000
70
32
0
VERTEX
8
Sketch1_29
10
-44.925292
20
65.286625
30
0.000000
70
32
0
VERTEX
8
Sketch1_29
10
-44.982292
20
65.244873
30
0.000000
70
32
0
VERTEX
8
Sketch1_29
10
-45.035814
20
65.200839
30
0.000000
70
32
0
VERTEX
8
Sketch1_29
10
-45.085788
20
65.154881
30
0.000000
70
32
0
VERTEX
8
Sketch1_29
10
-45.132183
20
65.107346
30
0.000000
70
32
0
VERTEX
8
Sketch1_29
10
-45.175007
20
65.058568
30
0.000000
70
32
0
VERTEX
8
Sketch1_29
10
-45.214303
20
65.008862
30
0.000000
70
32
0
VERTEX
8
Sketch1_29
10
-45.253995
20
64.952778
30
0.000000
70
32
0
VERTEX
8
Sketch1_29
10
-45.289529
20
64.896286
30
0.000000
70
32
0
VERTEX
8
Sketch1_29
10
-45.321067
20
64.839724
30
0.000000
70
32
0
VERTEX
8
Sketch1_29
10
-45.348793
20
64.783393
30
0.000000
70
32
0
VERTEX
8
Sketch1_29
10
-45.372910
20
64.727558
30
0.000000
70
32
0
VERTEX
8
Sketch1_29
10
-45.393632
20
64.672445
30
0.000000
70
32
0
VERTEX
8
Sketch1_29
10
-45.411178
20
64.618248
30
0.000000
70
32
0
VERTEX
8
Sketch1_29
10
-45.425770
20
64.565127
30
0.000000
70
32
0
VERTEX
8
Sketch1_29
10
-45.440261
20
64.500073
30
0.000000
70
32
0
VERTEX
8
Sketch1_29
10
-45.450855
20
64.437125
30
0.000000
70
32
0
VERTEX
8
Sketch1_29
10
-45.457961
20
64.376426
30
0.000000
70
32
0
VERTEX
8
Sketch1_29
10
-45.461964
20
64.318068
30
0.000000
70
32
0
VERTEX
8
Sketch1_29
10
-45.463223
20
64.262102
30
0.000000
70
32
0
VERTEX
8
Sketch1_29
10
-45.462186
20
64.211323
30
0.000000
70
32
0
VERTEX
8
Sketch1_29
10
-45.458909
20
64.158565
30
0.000000
70
32
0
VERTEX
8
Sketch1_29
10
-45.453122
20
64.103862
30
0.000000
70
32
0
VERTEX
8
Sketch1_29
10
-45.444542
20
64.047275
30
0.000000
70
32
0
VERTEX
8
Sketch1_29
10
-45.432866
20
63.988897
30
0.000000
70
32
0
VERTEX
8
Sketch1_29
10
-45.417781
20
63.928863
30
0.000000
70
32
0
VERTEX
8
Sketch1_29
10
-45.398960
20
63.867345
30
0.000000
70
32
0
VERTEX
8
Sketch1_29
10
-45.378144
20
63.809842
30
0.000000
70
32
0
VERTEX
8
Sketch1_29
10
-45.353658
20
63.751492
30
0.000000
70
32
0
VERTEX
8
Sketch1_29
10
-45.325256
20
63.692549
30
0.000000
70
32
0
VERTEX
8
Sketch1_29
10
-45.292702
20
63.633308
30
0.000000
70
32
0
VERTEX
8
Sketch1_29
10
-45.255780
20
63.574110
30
0.000000
70
32
0
VERTEX
8
Sketch1_29
10
-45.214303
20
63.515342
30
0.000000
70
32
0
VERTEX
8
Sketch1_29
10
-45.175097
20
63.465745
30
0.000000
70
32
0
VERTEX
8
Sketch1_29
10
-45.132377
20
63.417069
30
0.000000
70
32
0
VERTEX
8
Sketch1_29
10
-45.086103
20
63.369630
30
0.000000
70
32
0
VERTEX
8
Sketch1_29
10
-45.036266
20
63.323759
30
0.000000
70
32
0
VERTEX
8
Sketch1_29
10
-44.982895
20
63.279801
30
0.000000
70
32
0
VERTEX
8
Sketch1_29
10
-44.927105
20
63.238832
30
0.000000
70
32
0
VERTEX
8
Sketch1_29
10
-44.868080
20
63.200390
30
0.000000
70
32
0
VERTEX
8
Sketch1_29
10
-44.805969
20
63.164809
30
0.000000
70
32
0
VERTEX
8
Sketch1_29
10
-44.740965
20
63.132418
30
0.000000
70
32
0
VERTEX
8
Sketch1_29
10
-44.671897
20
63.102977
30
0.000000
70
32
0
VERTEX
8
Sketch1_29
10
-44.600356
20
63.077489
30
0.000000
70
32
0
VERTEX
8
Sketch1_29
10
-44.526682
20
63.056230
30
0.000000
70
32
0
VERTEX
8
Sketch1_29
10
-44.451251
20
63.039436
30
0.000000
70
32
0
VERTEX
8
Sketch1_29
10
-44.374471
20
63.027298
30
0.000000
70
32
0
VERTEX
8
Sketch1_29
10
-44.296777
20
63.019959
30
0.000000
70
32
0
VERTEX
8
Sketch1_29
10
-44.218623
20
63.017502
30
0.000000
70
32
0
VERTEX
8
Sketch1_29
10
-44.140638
20
63.019948
30
0.000000
70
32
0
VERTEX
8
Sketch1_29
10
-44.063112
20
63.027256
30
0.000000
70
32
0
VERTEX
8
Sketch1_29
10
-43.986493
20
63.039341
30
0.000000
70
32
0
VERTEX
8
Sketch1_29
10
-43.911214
20
63.056064
30
0.000000
70
32
0
VERTEX
8
Sketch1_29
10
-43.837682
20
63.077234
30
0.000000
70
32
0
VERTEX
8
Sketch1_29
10
-43.767524
20
63.102128
30
0.000000
70
32
0
VERTEX
8
Sketch1_29
10
-43.699732
20
63.130828
30
0.000000
70
32
0
VERTEX
8
Sketch1_29
10
-43.634583
20
63.163045
30
0.000000
70
32
0
VERTEX
8
Sketch1_29
10
-43.572317
20
63.198468
30
0.000000
70
32
0
VERTEX
8
Sketch1_29
10
-43.511953
20
63.237579
30
0.000000
70
32
0
VERTEX
8
Sketch1_29
10
-43.454953
20
63.279332
30
0.000000
70
32
0
VERTEX
8
Sketch1_29
10
-43.401431
20
63.323366
30
0.000000
70
32
0
VERTEX
8
Sketch1_29
10
-43.351457
20
63.369324
30
0.000000
70
32
0
VERTEX
8
Sketch1_29
10
-43.305062
20
63.416859
30
0.000000
70
32
0
VERTEX
8
Sketch1_29
10
-43.262238
20
63.465637
30
0.000000
70
32
0
VERTEX
8
Sketch1_29
10
-43.222943
20
63.515342
30
0.000000
70
32
0
VERTEX
8
Sketch1_29
10
-43.183250
20
63.571427
30
0.000000
70
32
0
VERTEX
8
Sketch1_29
10
-43.147716
20
63.627919
30
0.000000
70
32
0
VERTEX
8
Sketch1_29
10
-43.116179
20
63.684481
30
0.000000
70
32
0
VERTEX
8
Sketch1_29
10
-43.088452
20
63.740811
30
0.000000
70
32
0
VERTEX
8
Sketch1_29
10
-43.064335
20
63.796646
30
0.000000
70
32
0
VERTEX
8
Sketch1_29
10
-43.043613
20
63.851759
30
0.000000
70
32
0
VERTEX
8
Sketch1_29
10
-43.026067
20
63.905956
30
0.000000
70
32
0
VERTEX
8
Sketch1_29
10
-43.011475
20
63.959077
30
0.000000
70
32
0
VERTEX
8
Sketch1_29
10
-42.996985
20
64.024132
30
0.000000
70
32
0
VERTEX
8
Sketch1_29
10
-42.986390
20
64.087080
30
0.000000
70
32
0
VERTEX
8
Sketch1_29
10
-42.979284
20
64.147779
30
0.000000
70
32
0
VERTEX
8
Sketch1_29
10
-42.975282
20
64.206136
30
0.000000
70
32
0
VERTEX
8
Sketch1_29
10
-42.974023
20
64.262102
30
0.000000
70
32
0
SEQEND
0
POLYLINE
8
Sketch1_30
66
1
70
8
71
3
0
VERTEX
8
Sketch1_30
10
-51.562000
20
51.562000
30
0.000000
70
32
0
VERTEX
8
Sketch1_30
10
-51.562000
20
-6.187440
30
0.000000
70
32
0
VERTEX
8
Sketch1_30
10
-51.562000
20
-51.562000
30
0.000000
70
32
0
SEQEND
0
POLYLINE
8
Sketch1_31
66
1
70
8
71
117
0
VERTEX
8
Sketch1_31
10
-63.017400
20
34.375090
30
0.000000
70
32
0
VERTEX
8
Sketch1_31
10
-63.018436
20
34.425869
30
0.000000
70
32
0
VERTEX
8
Sketch1_31
10
-63.021714
20
34.478627
30
0.000000
70
32
0
VERTEX
8
Sketch1_31
10
-63.027500
20
34.533330
30
0.000000
70
32
0
VERTEX
8
Sketch1_31
10
-63.036081
20
34.589918
30
0.000000
70
32
0
VERTEX
8
Sketch1_31
10
-63.047756
20
34.648295
30
0.000000
70
32
0
VERTEX
8
Sketch1_31
10
-63.062842
20
34.708330
30
0.000000
70
32
0
VERTEX
8
Sketch1_31
10
-63.081663
20
34.769847
30
0.000000
70
32
0
VERTEX
8
Sketch1_31
10
-63.102479
20
34.827350
30
0.000000
70
32
0
VERTEX
8
Sketch1_31
10
-63.126964
20
34.885700
30
0.000000
70
32
0
VERTEX
8
Sketch1_31
10
-63.155366
20
34.944643
30
0.000000
70
32
0
VERTEX
8
Sketch1_31
10
-63.187921
20
35.003884
30
0.000000
70
32
0
VERTEX
8
Sketch1_31
10
-63.224842
20
35.063082
30
0.000000
70
32
0
VERTEX
8
Sketch1_31
10
-63.266320
20
35.121850
30
0.000000
70
32
0
VERTEX
8
Sketch1_31
10
-63.305526
20
35.171448
30
0.000000
70
32
0
VERTEX
8
Sketch1_31
10
-63.348245
20
35.220123
30
0.000000
70
32
0
VERTEX
8
Sketch1_31
10
-63.394520
20
35.267562
30
0.000000
70
32
0
VERTEX
8
Sketch1_31
10
-63.444357
20
35.313434
30
0.000000
70
32
0
VERTEX
8
Sketch1_31
10
-63.497727
20
35.357392
30
0.000000
70
32
0
VERTEX
8
Sketch1_31
10
-63.553517
20
35.398360
30
0.000000
70
32
0
VERTEX
8
Sketch1_31
10
-63.612542
20
35.436803
30
0.000000
70
32
0
VERTEX
8
Sketch1_31
10
-63.674653
20
35.472383
30
0.000000
70
32
0
VERTEX
8
Sketch1_31
10
-63.739657
20
35.504775
30
0.000000
70
32
0
VERTEX
8
Sketch1_31
10
-63.808726
20
35.534215
30
0.000000
70
32
0
VERTEX
8
Sketch1_31
10
-63.880266
20
35.559703
30
0.000000
70
32
0
VERTEX
8
Sketch1_31
10
-63.953941
20
35.580963
30
0.000000
70
32
0
VERTEX
8
Sketch1_31
10
-64.029372
20
35.597757
30
0.000000
70
32
0
VERTEX
8
Sketch1_31
10
-64.106152
20
35.609894
30
0.000000
70
32
0
VERTEX
8
Sketch1_31
10
-64.183845
20
35.617234
30
0.000000
70
32
0
VERTEX
8
Sketch1_31
10
-64.262000
20
35.619690
30
0.000000
70
32
0
VERTEX
8
Sketch1_31
10
-64.339985
20
35.617244
30
0.000000
70
32
0
VERTEX
8
Sketch1_31
10
-64.417511
20
35.609936
30
0.000000
70
32
0
VERTEX
8
Sketch1_31
10
-64.494129
20
35.597851
30
0.000000
70
32
0
VERTEX
8
Sketch1_31
10
-64.569408
20
35.581129
30
0.000000
70
32
0
VERTEX
8
Sketch1_31
10
-64.642941
20
35.559959
30
0.000000
70
32
0
VERTEX
8
Sketch1_31
10
-64.713098
20
35.535064
30
0.000000
70
32
0
VERTEX
8
Sketch1_31
10
-64.780891
20
35.506364
30
0.000000
70
32
0
VERTEX
8
Sketch1_31
10
-64.846039
20
35.474147
30
0.000000
70
32
0
VERTEX
8
Sketch1_31
10
-64.908306
20
35.438724
30
0.000000
70
32
0
VERTEX
8
Sketch1_31
10
-64.968670
20
35.399613
30
0.000000
70
32
0
VERTEX
8
Sketch1_31
10
-65.025670
20
35.357860
30
0.000000
70
32
0
VERTEX
8
Sketch1_31
10
-65.079192
20
35.313827
30
0.000000
70
32
0
VERTEX
8
Sketch1_31
10
-65.129165
20
35.267869
30
0.000000
70
32
0
VERTEX
8
Sketch1_31
10
-65.175560
20
35.220334
30
0.000000
70
32
0
VERTEX
8
Sketch1_31
10
-65.218385
20
35.171555
30
0.000000
70
32
0
VERTEX
8
Sketch1_31
10
-65.257680
20
35.121850
30
0.000000
70
32
0
VERTEX
8
Sketch1_31
10
-65.297373
20
35.065766
30
0.000000
70
32
0
VERTEX
8
Sketch1_31
10
-65.332906
20
35.009273
30
0.000000
70
32
0
VERTEX
8
Sketch1_31
10
-65.364444
20
34.952711
30
0.000000
70
32
0
VERTEX
8
Sketch1_31
10
-65.392170
20
34.896381
30
0.000000
70
32
0
VERTEX
8
Sketch1_31
10
-65.416288
20
34.840546
30
0.000000
70
32
0
VERTEX
8
Sketch1_31
10
-65.437010
20
34.785433
30
0.000000
70
32
0
VERTEX
8
Sketch1_31
10
-65.454556
20
34.731236
30
0.000000
70
32
0
VERTEX
8
Sketch1_31
10
-65.469147
20
34.678115
30
0.000000
70
32
0
VERTEX
8
Sketch1_31
10
-65.483638
20
34.613060
30
0.000000
70
32
0
VERTEX
8
Sketch1_31
10
-65.494232
20
34.550112
30
0.000000
70
32
0
VERTEX
8
Sketch1_31
10
-65.501338
20
34.489414
30
0.000000
70
32
0
VERTEX
8
Sketch1_31
10
-65.505341
20
34.431056
30
0.000000
70
32
0
VERTEX
8
Sketch1_31
10
-65.506600
20
34.375090
30
0.000000
70
32
0
VERTEX
8
Sketch1_31
10
-65.505564
20
34.324311
30
0.000000
70
32
0
VERTEX
8
Sketch1_31
10
-65.502286
20
34.271553
30
0.000000
70
32
0
VERTEX
8
Sketch1_31
10
-65.496500
20
34.216850
30
0.000000
70
32
0
VERTEX
8
Sketch1_31
10
-65.487919
20
34.160262
30
0.000000
70
32
0
VERTEX
8
Sketch1_31
10
-65.476244
20
34.101885
30
0.000000
70
32
0
VERTEX
8
Sketch1_31
10
-65.461158
20
34.041850
30
0.000000
70
32
0
VERTEX
8
Sketch1_31
10
-65.442337
20
33.980333
30
0.000000
70
32
0
VERTEX
8
Sketch1_31
10
-65.421521
20
33.922830
30
0.000000
70
32
0
VERTEX
8
Sketch1_31
10
-65.397036
20
33.864480
30
0.000000
70
32
0
VERTEX
8
Sketch1_31
10
-65.368634
20
33.805537
30
0.000000
70
32
0
VERTEX
8
Sketch1_31
10
-65.336079
20
33.746296
30
0.000000
70
32
0
VERTEX
8
Sketch1_31
10
-65.299158
20
33.687098
30
0.000000
70
32
0
VERTEX
8
Sketch1_31
10
-65.257680
20
33.628330
30
0.000000
70
32
0
VERTEX
8
Sketch1_31
10
-65.218474
20
33.578732
30
0.000000
70
32
0
VERTEX
8
Sketch1_31
10
-65.175755
20
33.530057
30
0.000000
70
32
0
VERTEX
8
Sketch1_31
10
-65.129480
20
33.482618
30
0.000000
70
32
0
VERTEX
8
Sketch1_31
10
-65.079643
20
33.436746
30
0.000000
70
32
0
VERTEX
8
Sketch1_31
10
-65.026273
20
33.392788
30
0.000000
70
32
0
VERTEX
8
Sketch1_31
10
-64.970483
20
33.351820
30
0.000000
70
32
0
VERTEX
8
Sketch1_31
10
-64.911458
20
33.313377
30
0.000000
70
32
0
VERTEX
8
Sketch1_31
10
-64.849347
20
33.277797
30
0.000000
70
32
0
VERTEX
8
Sketch1_31
10
-64.784343
20
33.245405
30
0.000000
70
32
0
VERTEX
8
Sketch1_31
10
-64.715274
20
33.215965
30
0.000000
70
32
0
VERTEX
8
Sketch1_31
10
-64.643734
20
33.190477
30
0.000000
70
32
0
VERTEX
8
Sketch1_31
10
-64.570059
20
33.169217
30
0.000000
70
32
0
VERTEX
8
Sketch1_31
10
-64.494628
20
33.152423
30
0.000000
70
32
0
VERTEX
8
Sketch1_31
10
-64.417848
20
33.140286
30
0.000000
70
32
0
VERTEX
8
Sketch1_31
10
-64.340155
20
33.132946
30
0.000000
70
32
0
VERTEX
8
Sketch1_31
10
-64.262000
20
33.130490
30
0.000000
70
32
0
VERTEX
8
Sketch1_31
10
-64.184015
20
33.132936
30
0.000000
70
32
0
VERTEX
8
Sketch1_31
10
-64.106489
20
33.140244
30
0.000000
70
32
0
VERTEX
8
Sketch1_31
10
-64.029871
20
33.152329
30
0.000000
70
32
0
VERTEX
8
Sketch1_31
10
-63.954592
20
33.169051
30
0.000000
70
32
0
VERTEX
8
Sketch1_31
10
-63.881059
20
33.190221
30
0.000000
70
32
0
VERTEX
8
Sketch1_31
10
-63.810902
20
33.215116
30
0.000000
70
32
0
VERTEX
8
Sketch1_31
10
-63.743109
20
33.243816
30
0.000000
70
32
0
VERTEX
8
Sketch1_31
10
-63.677961
20
33.276033
30
0.000000
70
32
0
VERTEX
8
Sketch1_31
10
-63.615694
20
33.311456
30
0.000000
70
32
0
VERTEX
8
Sketch1_31
10
-63.555330
20
33.350567
30
0.000000
70
32
0
VERTEX
8
Sketch1_31
10
-63.498330
20
33.392320
30
0.000000
70
32
0
VERTEX
8
Sketch1_31
10
-63.444808
20
33.436353
30
0.000000
70
32
0
VERTEX
8
Sketch1_31
10
-63.394835
20
33.482311
30
0.000000
70
32
0
VERTEX
8
Sketch1_31
10
-63.348440
20
33.529846
30
0.000000
70
32
0
VERTEX
8
Sketch1_31
10
-63.305615
20
33.578625
30
0.000000
70
32
0
VERTEX
8
Sketch1_31
10
-63.266320
20
33.628330
30
0.000000
70
32
0
VERTEX
8
Sketch1_31
10
-63.226627
20
33.684414
30
0.000000
70
32
0
VERTEX
8
Sketch1_31
10
-63.191094
20
33.740907
30
0.000000
70
32
0
VERTEX
8
Sketch1_31
10
-63.159556
20
33.797469
30
0.000000
70
32
0
VERTEX
8
Sketch1_31
10
-63.131830
20
33.853799
30
0.000000
70
32
0
VERTEX
8
Sketch1_31
10
-63.107712
20
33.909634
30
0.000000
70
32
0
VERTEX
8
Sketch1_31
10
-63.086990
20
33.964747
30
0.000000
70
32
0
VERTEX
8
Sketch1_31
10
-63.069444
20
34.018944
30
0.000000
70
32
0
VERTEX
8
Sketch1_31
10
-63.054853
20
34.072065
30
0.000000
70
32
0
VERTEX
8
Sketch1_31
10
-63.040362
20
34.137120
30
0.000000
70
32
0
VERTEX
8
Sketch1_31
10
-63.029768
20
34.200068
30
0.000000
70
32
0
VERTEX
8
Sketch1_31
10
-63.022662
20
34.260766
30
0.000000
70
32
0
VERTEX
8
Sketch1_31
10
-63.018659
20
34.319124
30
0.000000
70
32
0
VERTEX
8
Sketch1_31
10
-63.017400
20
34.375090
30
0.000000
70
32
0
SEQEND
0
POLYLINE
8
Sketch1_32
66
1
70
8
71
3
0
VERTEX
8
Sketch1_32
10
-76.962000
20
51.562000
30
0.000000
70
32
0
VERTEX
8
Sketch1_32
10
-76.962000
20
-6.187440
30
0.000000
70
32
0
VERTEX
8
Sketch1_32
10
-76.962000
20
-51.562000
30
0.000000
70
32
0
SEQEND
0
POLYLINE
8
Sketch1_33
66
1
70
8
71
117
0
VERTEX
8
Sketch1_33
10
-63.017400
20
-34.375090
30
0.000000
70
32
0
VERTEX
8
Sketch1_33
10
-63.018436
20
-34.324311
30
0.000000
70
32
0
VERTEX
8
Sketch1_33
10
-63.021714
20
-34.271553
30
0.000000
70
32
0
VERTEX
8
Sketch1_33
10
-63.027500
20
-34.216850
30
0.000000
70
32
0
VERTEX
8
Sketch1_33
10
-63.036081
20
-34.160262
30
0.000000
70
32
0
VERTEX
8
Sketch1_33
10
-63.047756
20
-34.101885
30
0.000000
70
32
0
VERTEX
8
Sketch1_33
10
-63.062842
20
-34.041850
30
0.000000
70
32
0
VERTEX
8
Sketch1_33
10
-63.081663
20
-33.980333
30
0.000000
70
32
0
VERTEX
8
Sketch1_33
10
-63.102479
20
-33.922830
30
0.000000
70
32
0
VERTEX
8
Sketch1_33
10
-63.126964
20
-33.864480
30
0.000000
70
32
0
VERTEX
8
Sketch1_33
10
-63.155366
20
-33.805537
30
0.000000
70
32
0
VERTEX
8
Sketch1_33
10
-63.187921
20
-33.746296
30
0.000000
70
32
0
VERTEX
8
Sketch1_33
10
-63.224842
20
-33.687098
30
0.000000
70
32
0
VERTEX
8
Sketch1_33
10
-63.266320
20
-33.628330
30
0.000000
70
32
0
VERTEX
8
Sketch1_33
10
-63.305526
20
-33.578732
30
0.000000
70
32
0
VERTEX
8
Sketch1_33
10
-63.348245
20
-33.530057
30
0.000000
70
32
0
VERTEX
8
Sketch1_33
10
-63.394520
20
-33.482618
30
0.000000
70
32
0
VERTEX
8
Sketch1_33
10
-63.444357
20
-33.436746
30
0.000000
70
32
0
VERTEX
8
Sketch1_33
10
-63.497727
20
-33.392788
30
0.000000
70
32
0
VERTEX
8
Sketch1_33
10
-63.553517
20
-33.351820
30
0.000000
70
32
0
VERTEX
8
Sketch1_33
10
-63.612542
20
-33.313377
30
0.000000
70
32
0
VERTEX
8
Sketch1_33
10
-63.674653
20
-33.277797
30
0.000000
70
32
0
VERTEX
8
Sketch1_33
10
-63.739657
20
-33.245405
30
0.000000
70
32
0
VERTEX
8
Sketch1_33
10
-63.808726
20
-33.215965
30
0.000000
70
32
0
VERTEX
8
Sketch1_33
10
-63.880266
20
-33.190477
30
0.000000
70
32
0
VERTEX
8
Sketch1_33
10
-63.953941
20
-33.169217
30
0.000000
70
32
0
VERTEX
8
Sketch1_33
10
-64.029372
20
-33.152423
30
0.000000
70
32
0
VERTEX
8
Sketch1_33
10
-64.106152
20
-33.140286
30
0.000000
70
32
0
VERTEX
8
Sketch1_33
10
-64.183845
20
-33.132946
30
0.000000
70
32
0
VERTEX
8
Sketch1_33
10
-64.262000
20
-33.130490
30
0.000000
70
32
0
VERTEX
8
Sketch1_33
10
-64.339985
20
-33.132936
30
0.000000
70
32
0
VERTEX
8
Sketch1_33
10
-64.417511
20
-33.140244
30
0.000000
70
32
0
VERTEX
8
Sketch1_33
10
-64.494129
20
-33.152329
30
0.000000
70
32
0
VERTEX
8
Sketch1_33
10
-64.569408
20
-33.169051
30
0.000000
70
32
0
VERTEX
8
Sketch1_33
10
-64.642941
20
-33.190221
30
0.000000
70
32
0
VERTEX
8
Sketch1_33
10
-64.713098
20
-33.215116
30
0.000000
70
32
0
VERTEX
8
Sketch1_33
10
-64.780891
20
-33.243816
30
0.000000
70
32
0
VERTEX
8
Sketch1_33
10
-64.846039
20
-33.276033
30
0.000000
70
32
0
VERTEX
8
Sketch1_33
10
-64.908306
20
-33.311456
30
0.000000
70
32
0
VERTEX
8
Sketch1_33
10
-64.968670
20
-33.350567
30
0.000000
70
32
0
VERTEX
8
Sketch1_33
10
-65.025670
20
-33.392320
30
0.000000
70
32
0
VERTEX
8
Sketch1_33
10
-65.079192
20
-33.436353
30
0.000000
70
32
0
VERTEX
8
Sketch1_33
10
-65.129165
20
-33.482311
30
0.000000
70
32
0
VERTEX
8
Sketch1_33
10
-65.175560
20
-33.529846
30
0.000000
70
32
0
VERTEX
8
Sketch1_33
10
-65.218385
20
-33.578625
30
0.000000
70
32
0
VERTEX
8
Sketch1_33
10
-65.257680
20
-33.628330
30
0.000000
70
32
0
VERTEX
8
Sketch1_33
10
-65.297373
20
-33.684414
30
0.000000
70
32
0
VERTEX
8
Sketch1_33
10
-65.332906
20
-33.740907
30
0.000000
70
32
0
VERTEX
8
Sketch1_33
10
-65.364444
20
-33.797469
30
0.000000
70
32
0
VERTEX
8
Sketch1_33
10
-65.392170
20
-33.853799
30
0.000000
70
32
0
VERTEX
8
Sketch1_33
10
-65.416288
20
-33.909634
30
0.000000
70
32
0
VERTEX
8
Sketch1_33
10
-65.437010
20
-33.964747
30
0.000000
70
32
0
VERTEX
8
Sketch1_33
10
-65.454556
20
-34.018944
30
0.000000
70
32
0
VERTEX
8
Sketch1_33
10
-65.469147
20
-34.072065
30
0.000000
70
32
0
VERTEX
8
Sketch1_33
10
-65.483638
20
-34.137120
30
0.000000
70
32
0
VERTEX
8
Sketch1_33
10
-65.494232
20
-34.200068
30
0.000000
70
32
0
VERTEX
8
Sketch1_33
10
-65.501338
20
-34.260766
30
0.000000
70
32
0
VERTEX
8
Sketch1_33
10
-65.505341
20
-34.319124
30
0.000000
70
32
0
VERTEX
8
Sketch1_33
10
-65.506600
20
-34.375090
30
0.000000
70
32
0
VERTEX
8
Sketch1_33
10
-65.505564
20
-34.425869
30
0.000000
70
32
0
VERTEX
8
Sketch1_33
10
-65.502286
20
-34.478627
30
0.000000
70
32
0
VERTEX
8
Sketch1_33
10
-65.496500
20
-34.533330
30
0.000000
70
32
0
VERTEX
8
Sketch1_33
10
-65.487919
20
-34.589918
30
0.000000
70
32
0
VERTEX
8
Sketch1_33
10
-65.476244
20
-34.648295
30
0.000000
70
32
0
VERTEX
8
Sketch1_33
10
-65.461158
20
-34.708330
30
0.000000
70
32
0
VERTEX
8
Sketch1_33
10
-65.442337
20
-34.769847
30
0.000000
70
32
0
VERTEX
8
Sketch1_33
10
-65.421521
20
-34.827350
30
0.000000
70
32
0
VERTEX
8
Sketch1_33
10
-65.397036
20
-34.885700
30
0.000000
70
32
0
VERTEX
8
Sketch1_33
10
-65.368634
20
-34.944643
30
0.000000
70
32
0
VERTEX
8
Sketch1_33
10
-65.336079
20
-35.003884
30
0.000000
70
32
0
VERTEX
8
Sketch1_33
10
-65.299158
20
-35.063082
30
0.000000
70
32
0
VERTEX
8
Sketch1_33
10
-65.257680
20
-35.121850
30
0.000000
70
32
0
VERTEX
8
Sketch1_33
10
-65.218474
20
-35.171448
30
0.000000
70
32
0
VERTEX
8
Sketch1_33
10
-65.175755
20
-35.220123
30
0.000000
70
32
0
VERTEX
8
Sketch1_33
10
-65.129480
20
-35.267562
30
0.000000
70
32
0
VERTEX
8
Sketch1_33
10
-65.079643
20
-35.313434
30
0.000000
70
32
0
VERTEX
8
Sketch1_33
10
-65.026273
20
-35.357392
30
0.000000
70
32
0
VERTEX
8
Sketch1_33
10
-64.970483
20
-35.398360
30
0.000000
70
32
0
VERTEX
8
Sketch1_33
10
-64.911458
20
-35.436803
30
0.000000
70
32
0
VERTEX
8
Sketch1_33
10
-64.849347
20
-35.472383
30
0.000000
70
32
0
VERTEX
8
Sketch1_33
10
-64.784343
20
-35.504775
30
0.000000
70
32
0
VERTEX
8
Sketch1_33
10
-64.715274
20
-35.534215
30
0.000000
70
32
0
VERTEX
8
Sketch1_33
10
-64.643734
20
-35.559703
30
0.000000
70
32
0
VERTEX
8
Sketch1_33
10
-64.570059
20
-35.580963
30
0.000000
70
32
0
VERTEX
8
Sketch1_33
10
-64.494628
20
-35.597757
30
0.000000
70
32
0
VERTEX
8
Sketch1_33
10
-64.417848
20
-35.609894
30
0.000000
70
32
0
VERTEX
8
Sketch1_33
10
-64.340155
20
-35.617234
30
0.000000
70
32
0
VERTEX
8
Sketch1_33
10
-64.262000
20
-35.619690
30
0.000000
70
32
0
VERTEX
8
Sketch1_33
10
-64.184015
20
-35.617244
30
0.000000
70
32
0
VERTEX
8
Sketch1_33
10
-64.106489
20
-35.609936
30
0.000000
70
32
0
VERTEX
8
Sketch1_33
10
-64.029871
20
-35.597851
30
0.000000
70
32
0
VERTEX
8
Sketch1_33
10
-63.954592
20
-35.581129
30
0.000000
70
32
0
VERTEX
8
Sketch1_33
10
-63.881059
20
-35.559959
30
0.000000
70
32
0
VERTEX
8
Sketch1_33
10
-63.810902
20
-35.535064
30
0.000000
70
32
0
VERTEX
8
Sketch1_33
10
-63.743109
20
-35.506364
30
0.000000
70
32
0
VERTEX
8
Sketch1_33
10
-63.677961
20
-35.474147
30
0.000000
70
32
0
VERTEX
8
Sketch1_33
10
-63.615694
20
-35.438724
30
0.000000
70
32
0
VERTEX
8
Sketch1_33
10
-63.555330
20
-35.399613
30
0.000000
70
32
0
VERTEX
8
Sketch1_33
10
-63.498330
20
-35.357860
30
0.000000
70
32
0
VERTEX
8
Sketch1_33
10
-63.444808
20
-35.313827
30
0.000000
70
32
0
VERTEX
8
Sketch1_33
10
-63.394835
20
-35.267869
30
0.000000
70
32
0
VERTEX
8
Sketch1_33
10
-63.348440
20
-35.220334
30
0.000000
70
32
0
VERTEX
8
Sketch1_33
10
-63.305615
20
-35.171555
30
0.000000
70
32
0
VERTEX
8
Sketch1_33
10
-63.266320
20
-35.121850
30
0.000000
70
32
0
VERTEX
8
Sketch1_33
10
-63.226627
20
-35.065766
30
0.000000
70
32
0
VERTEX
8
Sketch1_33
10
-63.191094
20
-35.009273
30
0.000000
70
32
0
VERTEX
8
Sketch1_33
10
-63.159556
20
-34.952711
30
0.000000
70
32
0
VERTEX
8
Sketch1_33
10
-63.131830
20
-34.896381
30
0.000000
70
32
0
VERTEX
8
Sketch1_33
10
-63.107712
20
-34.840546
30
0.000000
70
32
0
VERTEX
8
Sketch1_33
10
-63.086990
20
-34.785433
30
0.000000
70
32
0
VERTEX
8
Sketch1_33
10
-63.069444
20
-34.731236
30
0.000000
70
32
0
VERTEX
8
Sketch1_33
10
-63.054853
20
-34.678115
30
0.000000
70
32
0
VERTEX
8
Sketch1_33
10
-63.040362
20
-34.613060
30
0.000000
70
32
0
VERTEX
8
Sketch1_33
10
-63.029768
20
-34.550112
30
0.000000
70
32
0
VERTEX
8
Sketch1_33
10
-63.022662
20
-34.489414
30
0.000000
70
32
0
VERTEX
8
Sketch1_33
10
-63.018659
20
-34.431056
30
0.000000
70
32
0
VERTEX
8
Sketch1_33
10
-63.017400
20
-34.375090
30
0.000000
70
32
0
SEQEND
0
POLYLINE
8
Sketch1_34
66
1
70
8
71
3
0
VERTEX
8
Sketch1_34
10
-66.328053
20
51.562000
30
0.000000
70
32
0
VERTEX
8
Sketch1_34
10
7.959366
20
51.562000
30
0.000000
70
32
0
VERTEX
8
Sketch1_34
10
66.328053
20
51.562000
30
0.000000
70
32
0
SEQEND
0
POLYLINE
8
Sketch1_35
66
1
70
8
71
3
0
VERTEX
8
Sketch1_35
10
51.562000
20
-51.562000
30
0.000000
70
32
0
VERTEX
8
Sketch1_35
10
65.786000
20
-51.562000
30
0.000000
70
32
0
VERTEX
8
Sketch1_35
10
76.962000
20
-51.562000
30
0.000000
70
32
0
SEQEND
0
POLYLINE
8
Sketch5_1
66
1
70
8
71
3
0
VERTEX
8
Sketch5_1
10
-279.400000
20
127.000000
30
0.000000
70
32
0
VERTEX
8
Sketch5_1
10
-279.400000
20
116.332000
30
0.000000
70
32
0
VERTEX
8
Sketch5_1
10
-279.400000
20
107.950000
30
0.000000
70
32
0
SEQEND
0
POLYLINE
8
Sketch5_2
66
1
70
8
71
3
0
VERTEX
8
Sketch5_2
10
-381.000000
20
-63.500000
30
0.000000
70
32
0
VERTEX
8
Sketch5_2
10
-146.304000
20
-63.500000
30
0.000000
70
32
0
VERTEX
8
Sketch5_2
10
38.100000
20
-63.500000
30
0.000000
70
32
0
SEQEND
0
POLYLINE
8
Sketch5_3
66
1
70
8
71
3
0
VERTEX
8
Sketch5_3
10
-381.000000
20
107.950000
30
0.000000
70
32
0
VERTEX
8
Sketch5_3
10
-324.104000
20
107.950000
30
0.000000
70
32
0
VERTEX
8
Sketch5_3
10
-279.400000
20
107.950000
30
0.000000
70
32
0
SEQEND
0
POLYLINE
8
Sketch5_4
66
1
70
8
71
3
0
VERTEX
8
Sketch5_4
10
-381.000000
20
127.000000
30
0.000000
70
32
0
VERTEX
8
Sketch5_4
10
-146.304000
20
127.000000
30
0.000000
70
32
0
VERTEX
8
Sketch5_4
10
38.100000
20
127.000000
30
0.000000
70
32
0
SEQEND
0
POLYLINE
8
Sketch5_5
66
1
70
8
71
3
0
VERTEX
8
Sketch5_5
10
0.000000
20
-0.000000
30
0.000000
70
32
0
VERTEX
8
Sketch5_5
10
0.000000
20
1.778000
30
0.000000
70
32
0
VERTEX
8
Sketch5_5
10
0.000000
20
3.175000
30
0.000000
70
32
0
SEQEND
0
POLYLINE
8
Sketch5_6
66
1
70
8
71
117
0
VERTEX
8
Sketch5_6
10
3.175000
20
-0.000000
30
0.000000
70
32
0
VERTEX
8
Sketch5_6
10
3.172356
20
0.129538
30
0.000000
70
32
0
VERTEX
8
Sketch5_6
10
3.163995
20
0.264125
30
0.000000
70
32
0
VERTEX
8
Sketch5_6
10
3.149234
20
0.403674
30
0.000000
70
32
0
VERTEX
8
Sketch5_6
10
3.127345
20
0.548030
30
0.000000
70
32
0
VERTEX
8
Sketch5_6
10
3.097561
20
0.696951
30
0.000000
70
32
0
VERTEX
8
Sketch5_6
10
3.059077
20
0.850101
30
0.000000
70
32
0
VERTEX
8
Sketch5_6
10
3.011064
20
1.007034
30
0.000000
70
32
0
VERTEX
8
Sketch5_6
10
2.957963
20
1.153726
30
0.000000
70
32
0
VERTEX
8
Sketch5_6
10
2.895500
20
1.302577
30
0.000000
70
32
0
VERTEX
8
Sketch5_6
10
2.823045
20
1.452943
30
0.000000
70
32
0
VERTEX
8
Sketch5_6
10
2.739999
20
1.604067
30
0.000000
70
32
0
VERTEX
8
Sketch5_6
10
2.645811
20
1.755082
30
0.000000
70
32
0
VERTEX
8
Sketch5_6
10
2.540000
20
1.905000
30
0.000000
70
32
0
VERTEX
8
Sketch5_6
10
2.439986
20
2.031525
30
0.000000
70
32
0
VERTEX
8
Sketch5_6
10
2.331007
20
2.155697
30
0.000000
70
32
0
VERTEX
8
Sketch5_6
10
2.212960
20
2.276715
30
0.000000
70
32
0
VERTEX
8
Sketch5_6
10
2.085825
20
2.393733
30
0.000000
70
32
0
VERTEX
8
Sketch5_6
10
1.949675
20
2.505872
30
0.000000
70
32
0
VERTEX
8
Sketch5_6
10
1.807354
20
2.610383
30
0.000000
70
32
0
VERTEX
8
Sketch5_6
10
1.656780
20
2.708451
30
0.000000
70
32
0
VERTEX
8
Sketch5_6
10
1.498334
20
2.799218
30
0.000000
70
32
0
VERTEX
8
Sketch5_6
10
1.332507
20
2.881849
30
0.000000
70
32
0
VERTEX
8
Sketch5_6
10
1.156311
20
2.956953
30
0.000000
70
32
0
VERTEX
8
Sketch5_6
10
0.973810
20
3.021973
30
0.000000
70
32
0
VERTEX
8
Sketch5_6
10
0.785866
20
3.076205
30
0.000000
70
32
0
VERTEX
8
Sketch5_6
10
0.593439
20
3.119047
30
0.000000
70
32
0
VERTEX
8
Sketch5_6
10
0.397572
20
3.150010
30
0.000000
70
32
0
VERTEX
8
Sketch5_6
10
0.199374
20
3.168734
30
0.000000
70
32
0
VERTEX
8
Sketch5_6
10
0.000000
20
3.175000
30
0.000000
70
32
0
VERTEX
8
Sketch5_6
10
-0.198940
20
3.168761
30
0.000000
70
32
0
VERTEX
8
Sketch5_6
10
-0.396711
20
3.150118
30
0.000000
70
32
0
VERTEX
8
Sketch5_6
10
-0.592167
20
3.119289
30
0.000000
70
32
0
VERTEX
8
Sketch5_6
10
-0.784204
20
3.076629
30
0.000000
70
32
0
VERTEX
8
Sketch5_6
10
-0.971787
20
3.022624
30
0.000000
70
32
0
VERTEX
8
Sketch5_6
10
-1.150760
20
2.959117
30
0.000000
70
32
0
VERTEX
8
Sketch5_6
10
-1.323701
20
2.885904
30
0.000000
70
32
0
VERTEX
8
Sketch5_6
10
-1.489896
20
2.803718
30
0.000000
70
32
0
VERTEX
8
Sketch5_6
10
-1.648739
20
2.713353
30
0.000000
70
32
0
VERTEX
8
Sketch5_6
10
-1.802729
20
2.613579
30
0.000000
70
32
0
VERTEX
8
Sketch5_6
10
-1.948137
20
2.507067
30
0.000000
70
32
0
VERTEX
8
Sketch5_6
10
-2.084673
20
2.394737
30
0.000000
70
32
0
VERTEX
8
Sketch5_6
10
-2.212156
20
2.277497
30
0.000000
70
32
0
VERTEX
8
Sketch5_6
10
-2.330511
20
2.156234
30
0.000000
70
32
0
VERTEX
8
Sketch5_6
10
-2.439757
20
2.031799
30
0.000000
70
32
0
VERTEX
8
Sketch5_6
10
-2.540000
20
1.905000
30
0.000000
70
32
0
VERTEX
8
Sketch5_6
10
-2.641256
20
1.761928
30
0.000000
70
32
0
VERTEX
8
Sketch5_6
10
-2.731904
20
1.617815
30
0.000000
70
32
0
VERTEX
8
Sketch5_6
10
-2.812357
20
1.473524
30
0.000000
70
32
0
VERTEX
8
Sketch5_6
10
-2.883087
20
1.329824
30
0.000000
70
32
0
VERTEX
8
Sketch5_6
10
-2.944611
20
1.187387
30
0.000000
70
32
0
VERTEX
8
Sketch5_6
10
-2.997474
20
1.046794
30
0.000000
70
32
0
VERTEX
8
Sketch5_6
10
-3.042234
20
0.908536
30
0.000000
70
32
0
VERTEX
8
Sketch5_6
10
-3.079458
20
0.773023
30
0.000000
70
32
0
VERTEX
8
Sketch5_6
10
-3.116423
20
0.607067
30
0.000000
70
32
0
VERTEX
8
Sketch5_6
10
-3.143450
20
0.446486
30
0.000000
70
32
0
VERTEX
8
Sketch5_6
10
-3.161577
20
0.291642
30
0.000000
70
32
0
VERTEX
8
Sketch5_6
10
-3.171788
20
0.142770
30
0.000000
70
32
0
VERTEX
8
Sketch5_6
10
-3.175000
20
0.000000
30
0.000000
70
32
0
VERTEX
8
Sketch5_6
10
-3.172356
20
-0.129538
30
0.000000
70
32
0
VERTEX
8
Sketch5_6
10
-3.163995
20
-0.264125
30
0.000000
70
32
0
VERTEX
8
Sketch5_6
10
-3.149234
20
-0.403674
30
0.000000
70
32
0
VERTEX
8
Sketch5_6
10
-3.127345
20
-0.548030
30
0.000000
70
32
0
VERTEX
8
Sketch5_6
10
-3.097561
20
-0.696951
30
0.000000
70
32
0
VERTEX
8
Sketch5_6
10
-3.059077
20
-0.850101
30
0.000000
70
32
0
VERTEX
8
Sketch5_6
10
-3.011064
20
-1.007034
30
0.000000
70
32
0
VERTEX
8
Sketch5_6
10
-2.957963
20
-1.153726
30
0.000000
70
32
0
VERTEX
8
Sketch5_6
10
-2.895500
20
-1.302577
30
0.000000
70
32
0
VERTEX
8
Sketch5_6
10
-2.823045
20
-1.452943
30
0.000000
70
32
0
VERTEX
8
Sketch5_6
10
-2.739999
20
-1.604067
30
0.000000
70
32
0
VERTEX
8
Sketch5_6
10
-2.645811
20
-1.755082
30
0.000000
70
32
0
VERTEX
8
Sketch5_6
10
-2.540000
20
-1.905000
30
0.000000
70
32
0
VERTEX
8
Sketch5_6
10
-2.439986
20
-2.031525
30
0.000000
70
32
0
VERTEX
8
Sketch5_6
10
-2.331007
20
-2.155697
30
0.000000
70
32
0
VERTEX
8
Sketch5_6
10
-2.212960
20
-2.276715
30
0.000000
70
32
0
VERTEX
8
Sketch5_6
10
-2.085825
20
-2.393733
30
0.000000
70
32
0
VERTEX
8
Sketch5_6
10
-1.949675
20
-2.505872
30
0.000000
70
32
0
VERTEX
8
Sketch5_6
10
-1.807354
20
-2.610383
30
0.000000
70
32
0
VERTEX
8
Sketch5_6
10
-1.656780
20
-2.708451
30
0.000000
70
32
0
VERTEX
8
Sketch5_6
10
-1.498334
20
-2.799218
30
0.000000
70
32
0
VERTEX
8
Sketch5_6
10
-1.332507
20
-2.881849
30
0.000000
70
32
0
VERTEX
8
Sketch5_6
10
-1.156311
20
-2.956953
30
0.000000
70
32
0
VERTEX
8
Sketch5_6
10
-0.973810
20
-3.021973
30
0.000000
70
32
0
VERTEX
8
Sketch5_6
10
-0.785866
20
-3.076205
30
0.000000
70
32
0
VERTEX
8
Sketch5_6
10
-0.593439
20
-3.119047
30
0.000000
70
32
0
VERTEX
8
Sketch5_6
10
-0.397572
20
-3.150010
30
0.000000
70
32
0
VERTEX
8
Sketch5_6
10
-0.199374
20
-3.168734
30
0.000000
70
32
0
VERTEX
8
Sketch5_6
10
0.000000
20
-3.175000
30
0.000000
70
32
0
VERTEX
8
Sketch5_6
10
0.198940
20
-3.168761
30
0.000000
70
32
0
VERTEX
8
Sketch5_6
10
0.396711
20
-3.150118
30
0.000000
70
32
0
VERTEX
8
Sketch5_6
10
0.592167
20
-3.119289
30
0.000000
70
32
0
VERTEX
8
Sketch5_6
10
0.784204
20
-3.076629
30
0.000000
70
32
0
VERTEX
8
Sketch5_6
10
0.971787
20
-3.022624
30
0.000000
70
32
0
VERTEX
8
Sketch5_6
10
1.150760
20
-2.959117
30
0.000000
70
32
0
VERTEX
8
Sketch5_6
10
1.323701
20
-2.885904
30
0.000000
70
32
0
VERTEX
8
Sketch5_6
10
1.489896
20
-2.803718
30
0.000000
70
32
0
VERTEX
8
Sketch5_6
10
1.648739
20
-2.713353
30
0.000000
70
32
0
VERTEX
8
Sketch5_6
10
1.802729
20
-2.613579
30
0.000000
70
32
0
VERTEX
8
Sketch5_6
10
1.948137
20
-2.507067
30
0.000000
70
32
0
VERTEX
8
Sketch5_6
10
2.084673
20
-2.394737
30
0.000000
70
32
0
VERTEX
8
Sketch5_6
10
2.212156
20
-2.277497
30
0.000000
70
32
0
VERTEX
8
Sketch5_6
10
2.330511
20
-2.156234
30
0.000000
70
32
0
VERTEX
8
Sketch5_6
10
2.439757
20
-2.031799
30
0.000000
70
32
0
VERTEX
8
Sketch5_6
10
2.540000
20
-1.905000
30
0.000000
70
32
0
VERTEX
8
Sketch5_6
10
2.641256
20
-1.761928
30
0.000000
70
32
0
VERTEX
8
Sketch5_6
10
2.731904
20
-1.617815
30
0.000000
70
32
0
VERTEX
8
Sketch5_6
10
2.812357
20
-1.473524
30
0.000000
70
32
0
VERTEX
8
Sketch5_6
10
2.883087
20
-1.329824
30
0.000000
70
32
0
VERTEX
8
Sketch5_6
10
2.944611
20
-1.187387
30
0.000000
70
32
0
VERTEX
8
Sketch5_6
10
2.997474
20
-1.046794
30
0.000000
70
32
0
VERTEX
8
Sketch5_6
10
3.042234
20
-0.908536
30
0.000000
70
32
0
VERTEX
8
Sketch5_6
10
3.079458
20
-0.773023
30
0.000000
70
32
0
VERTEX
8
Sketch5_6
10
3.116423
20
-0.607067
30
0.000000
70
32
0
VERTEX
8
Sketch5_6
10
3.143450
20
-0.446486
30
0.000000
70
32
0
VERTEX
8
Sketch5_6
10
3.161577
20
-0.291642
30
0.000000
70
32
0
VERTEX
8
Sketch5_6
10
3.171788
20
-0.142770
30
0.000000
70
32
0
VERTEX
8
Sketch5_6
10
3.175000
20
-0.000000
30
0.000000
70
32
0
SEQEND
0
POLYLINE
8
Sketch5_7
66
1
70
8
71
3
0
VERTEX
8
Sketch5_7
10
38.100000
20
127.000000
30
0.000000
70
32
0
VERTEX
8
Sketch5_7
10
38.100000
20
20.320000
30
0.000000
70
32
0
VERTEX
8
Sketch5_7
10
38.100000
20
-63.500000
30
0.000000
70
32
0
SEQEND
0
POLYLINE
8
Sketch5_8
66
1
70
8
71
117
0
VERTEX
8
Sketch5_8
10
-105.530760
20
35.320642
30
0.000000
70
32
0
VERTEX
8
Sketch5_8
10
-105.533403
20
35.450180
30
0.000000
70
32
0
VERTEX
8
Sketch5_8
10
-105.541765
20
35.584767
30
0.000000
70
32
0
VERTEX
8
Sketch5_8
10
-105.556526
20
35.724317
30
0.000000
70
32
0
VERTEX
8
Sketch5_8
10
-105.578415
20
35.868672
30
0.000000
70
32
0
VERTEX
8
Sketch5_8
10
-105.608199
20
36.017594
30
0.000000
70
32
0
VERTEX
8
Sketch5_8
10
-105.646683
20
36.170744
30
0.000000
70
32
0
VERTEX
8
Sketch5_8
10
-105.694696
20
36.327676
30
0.000000
70
32
0
VERTEX
8
Sketch5_8
10
-105.747797
20
36.474368
30
0.000000
70
32
0
VERTEX
8
Sketch5_8
10
-105.810260
20
36.623219
30
0.000000
70
32
0
VERTEX
8
Sketch5_8
10
-105.882715
20
36.773585
30
0.000000
70
32
0
VERTEX
8
Sketch5_8
10
-105.965761
20
36.924710
30
0.000000
70
32
0
VERTEX
8
Sketch5_8
10
-106.059949
20
37.075724
30
0.000000
70
32
0
VERTEX
8
Sketch5_8
10
-106.165760
20
37.225642
30
0.000000
70
32
0
VERTEX
8
Sketch5_8
10
-106.265774
20
37.352167
30
0.000000
70
32
0
VERTEX
8
Sketch5_8
10
-106.374753
20
37.476340
30
0.000000
70
32
0
VERTEX
8
Sketch5_8
10
-106.492800
20
37.597358
30
0.000000
70
32
0
VERTEX
8
Sketch5_8
10
-106.619935
20
37.714376
30
0.000000
70
32
0
VERTEX
8
Sketch5_8
10
-106.756085
20
37.826514
30
0.000000
70
32
0
VERTEX
8
Sketch5_8
10
-106.898406
20
37.931025
30
0.000000
70
32
0
VERTEX
8
Sketch5_8
10
-107.048980
20
38.029093
30
0.000000
70
32
0
VERTEX
8
Sketch5_8
10
-107.207426
20
38.119860
30
0.000000
70
32
0
VERTEX
8
Sketch5_8
10
-107.373253
20
38.202491
30
0.000000
70
32
0
VERTEX
8
Sketch5_8
10
-107.549449
20
38.277595
30
0.000000
70
32
0
VERTEX
8
Sketch5_8
10
-107.731950
20
38.342615
30
0.000000
70
32
0
VERTEX
8
Sketch5_8
10
-107.919894
20
38.396848
30
0.000000
70
32
0
VERTEX
8
Sketch5_8
10
-108.112321
20
38.439690
30
0.000000
70
32
0
VERTEX
8
Sketch5_8
10
-108.308188
20
38.470652
30
0.000000
70
32
0
VERTEX
8
Sketch5_8
10
-108.506385
20
38.489376
30
0.000000
70
32
0
VERTEX
8
Sketch5_8
10
-108.705760
20
38.495642
30
0.000000
70
32
0
VERTEX
8
Sketch5_8
10
-108.904700
20
38.489404
30
0.000000
70
32
0
VERTEX
8
Sketch5_8
10
-109.102471
20
38.470761
30
0.000000
70
32
0
VERTEX
8
Sketch5_8
10
-109.297927
20
38.439931
30
0.000000
70
32
0
VERTEX
8
Sketch5_8
10
-109.489964
20
38.397272
30
0.000000
70
32
0
VERTEX
8
Sketch5_8
10
-109.677547
20
38.343266
30
0.000000
70
32
0
VERTEX
8
Sketch5_8
10
-109.856520
20
38.279760
30
0.000000
70
32
0
VERTEX
8
Sketch5_8
10
-110.029461
20
38.206546
30
0.000000
70
32
0
VERTEX
8
Sketch5_8
10
-110.195656
20
38.124360
30
0.000000
70
32
0
VERTEX
8
Sketch5_8
10
-110.354499
20
38.033996
30
0.000000
70
32
0
VERTEX
8
Sketch5_8
10
-110.508489
20
37.934221
30
0.000000
70
32
0
VERTEX
8
Sketch5_8
10
-110.653897
20
37.827710
30
0.000000
70
32
0
VERTEX
8
Sketch5_8
10
-110.790433
20
37.715379
30
0.000000
70
32
0
VERTEX
8
Sketch5_8
10
-110.917916
20
37.598139
30
0.000000
70
32
0
VERTEX
8
Sketch5_8
10
-111.036271
20
37.476876
30
0.000000
70
32
0
VERTEX
8
Sketch5_8
10
-111.145517
20
37.352442
30
0.000000
70
32
0
VERTEX
8
Sketch5_8
10
-111.245760
20
37.225642
30
0.000000
70
32
0
VERTEX
8
Sketch5_8
10
-111.347016
20
37.082570
30
0.000000
70
32
0
VERTEX
8
Sketch5_8
10
-111.437664
20
36.938457
30
0.000000
70
32
0
VERTEX
8
Sketch5_8
10
-111.518117
20
36.794166
30
0.000000
70
32
0
VERTEX
8
Sketch5_8
10
-111.588847
20
36.650467
30
0.000000
70
32
0
VERTEX
8
Sketch5_8
10
-111.650371
20
36.508030
30
0.000000
70
32
0
VERTEX
8
Sketch5_8
10
-111.703233
20
36.367436
30
0.000000
70
32
0
VERTEX
8
Sketch5_8
10
-111.747994
20
36.229178
30
0.000000
70
32
0
VERTEX
8
Sketch5_8
10
-111.785218
20
36.093665
30
0.000000
70
32
0
VERTEX
8
Sketch5_8
10
-111.822183
20
35.927710
30
0.000000
70
32
0
VERTEX
8
Sketch5_8
10
-111.849209
20
35.767128
30
0.000000
70
32
0
VERTEX
8
Sketch5_8
10
-111.867337
20
35.612284
30
0.000000
70
32
0
VERTEX
8
Sketch5_8
10
-111.877548
20
35.463413
30
0.000000
70
32
0
VERTEX
8
Sketch5_8
10
-111.880760
20
35.320642
30
0.000000
70
32
0
VERTEX
8
Sketch5_8
10
-111.878116
20
35.191105
30
0.000000
70
32
0
VERTEX
8
Sketch5_8
10
-111.869755
20
35.056518
30
0.000000
70
32
0
VERTEX
8
Sketch5_8
10
-111.854993
20
34.916968
30
0.000000
70
32
0
VERTEX
8
Sketch5_8
10
-111.833105
20
34.772612
30
0.000000
70
32
0
VERTEX
8
Sketch5_8
10
-111.803321
20
34.623691
30
0.000000
70
32
0
VERTEX
8
Sketch5_8
10
-111.764837
20
34.470541
30
0.000000
70
32
0
VERTEX
8
Sketch5_8
10
-111.716824
20
34.313609
30
0.000000
70
32
0
VERTEX
8
Sketch5_8
10
-111.663722
20
34.166917
30
0.000000
70
32
0
VERTEX
8
Sketch5_8
10
-111.601260
20
34.018066
30
0.000000
70
32
0
VERTEX
8
Sketch5_8
10
-111.528805
20
33.867700
30
0.000000
70
32
0
VERTEX
8
Sketch5_8
10
-111.445758
20
33.716575
30
0.000000
70
32
0
VERTEX
8
Sketch5_8
10
-111.351570
20
33.565561
30
0.000000
70
32
0
VERTEX
8
Sketch5_8
10
-111.245760
20
33.415642
30
0.000000
70
32
0
VERTEX
8
Sketch5_8
10
-111.145746
20
33.289117
30
0.000000
70
32
0
VERTEX
8
Sketch5_8
10
-111.036767
20
33.164945
30
0.000000
70
32
0
VERTEX
8
Sketch5_8
10
-110.918720
20
33.043927
30
0.000000
70
32
0
VERTEX
8
Sketch5_8
10
-110.791585
20
32.926909
30
0.000000
70
32
0
VERTEX
8
Sketch5_8
10
-110.655435
20
32.814771
30
0.000000
70
32
0
VERTEX
8
Sketch5_8
10
-110.513113
20
32.710260
30
0.000000
70
32
0
VERTEX
8
Sketch5_8
10
-110.362540
20
32.612192
30
0.000000
70
32
0
VERTEX
8
Sketch5_8
10
-110.204094
20
32.521425
30
0.000000
70
32
0
VERTEX
8
Sketch5_8
10
-110.038266
20
32.438794
30
0.000000
70
32
0
VERTEX
8
Sketch5_8
10
-109.862071
20
32.363690
30
0.000000
70
32
0
VERTEX
8
Sketch5_8
10
-109.679570
20
32.298670
30
0.000000
70
32
0
VERTEX
8
Sketch5_8
10
-109.491626
20
32.244437
30
0.000000
70
32
0
VERTEX
8
Sketch5_8
10
-109.299199
20
32.201595
30
0.000000
70
32
0
VERTEX
8
Sketch5_8
10
-109.103332
20
32.170633
30
0.000000
70
32
0
VERTEX
8
Sketch5_8
10
-108.905134
20
32.151909
30
0.000000
70
32
0
VERTEX
8
Sketch5_8
10
-108.705760
20
32.145642
30
0.000000
70
32
0
VERTEX
8
Sketch5_8
10
-108.506819
20
32.151881
30
0.000000
70
32
0
VERTEX
8
Sketch5_8
10
-108.309048
20
32.170524
30
0.000000
70
32
0
VERTEX
8
Sketch5_8
10
-108.113593
20
32.201354
30
0.000000
70
32
0
VERTEX
8
Sketch5_8
10
-107.921555
20
32.244013
30
0.000000
70
32
0
VERTEX
8
Sketch5_8
10
-107.733972
20
32.298019
30
0.000000
70
32
0
VERTEX
8
Sketch5_8
10
-107.554999
20
32.361525
30
0.000000
70
32
0
VERTEX
8
Sketch5_8
10
-107.382058
20
32.434739
30
0.000000
70
32
0
VERTEX
8
Sketch5_8
10
-107.215863
20
32.516925
30
0.000000
70
32
0
VERTEX
8
Sketch5_8
10
-107.057021
20
32.607289
30
0.000000
70
32
0
VERTEX
8
Sketch5_8
10
-106.903031
20
32.707064
30
0.000000
70
32
0
VERTEX
8
Sketch5_8
10
-106.757622
20
32.813575
30
0.000000
70
32
0
VERTEX
8
Sketch5_8
10
-106.621087
20
32.925906
30
0.000000
70
32
0
VERTEX
8
Sketch5_8
10
-106.493604
20
33.043146
30
0.000000
70
32
0
VERTEX
8
Sketch5_8
10
-106.375249
20
33.164409
30
0.000000
70
32
0
VERTEX
8
Sketch5_8
10
-106.266002
20
33.288843
30
0.000000
70
32
0
VERTEX
8
Sketch5_8
10
-106.165760
20
33.415642
30
0.000000
70
32
0
VERTEX
8
Sketch5_8
10
-106.064503
20
33.558715
30
0.000000
70
32
0
VERTEX
8
Sketch5_8
10
-105.973856
20
33.702828
30
0.000000
70
32
0
VERTEX
8
Sketch5_8
10
-105.893403
20
33.847118
30
0.000000
70
32
0
VERTEX
8
Sketch5_8
10
-105.822672
20
33.990818
30
0.000000
70
32
0
VERTEX
8
Sketch5_8
10
-105.761148
20
34.133255
30
0.000000
70
32
0
VERTEX
8
Sketch5_8
10
-105.708286
20
34.273849
30
0.000000
70
32
0
VERTEX
8
Sketch5_8
10
-105.663526
20
34.412107
30
0.000000
70
32
0
VERTEX
8
Sketch5_8
10
-105.626302
20
34.547620
30
0.000000
70
32
0
VERTEX
8
Sketch5_8
10
-105.589336
20
34.713575
30
0.000000
70
32
0
VERTEX
8
Sketch5_8
10
-105.562310
20
34.874157
30
0.000000
70
32
0
VERTEX
8
Sketch5_8
10
-105.544183
20
35.029001
30
0.000000
70
32
0
VERTEX
8
Sketch5_8
10
-105.533971
20
35.177872
30
0.000000
70
32
0
VERTEX
8
Sketch5_8
10
-105.530760
20
35.320642
30
0.000000
70
32
0
SEQEND
0
POLYLINE
8
Sketch5_9
66
1
70
8
71
3
0
VERTEX
8
Sketch5_9
10
-381.000000
20
127.000000
30
0.000000
70
32
0
VERTEX
8
Sketch5_9
10
-381.000000
20
20.320000
30
0.000000
70
32
0
VERTEX
8
Sketch5_9
10
-381.000000
20
-63.500000
30
0.000000
70
32
0
SEQEND
0
POLYLINE
8
Sketch5_10
66
1
70
8
71
117
0
VERTEX
8
Sketch5_10
10
3.175000
20
114.300000
30
0.000000
70
32
0
VERTEX
8
Sketch5_10
10
3.172356
20
114.429538
30
0.000000
70
32
0
VERTEX
8
Sketch5_10
10
3.163995
20
114.564125
30
0.000000
70
32
0
VERTEX
8
Sketch5_10
10
3.149234
20
114.703674
30
0.000000
70
32
0
VERTEX
8
Sketch5_10
10
3.127345
20
114.848030
30
0.000000
70
32
0
VERTEX
8
Sketch5_10
10
3.097561
20
114.996951
30
0.000000
70
32
0
VERTEX
8
Sketch5_10
10
3.059077
20
115.150101
30
0.000000
70
32
0
VERTEX
8
Sketch5_10
10
3.011064
20
115.307034
30
0.000000
70
32
0
VERTEX
8
Sketch5_10
10
2.957963
20
115.453726
30
0.000000
70
32
0
VERTEX
8
Sketch5_10
10
2.895500
20
115.602577
30
0.000000
70
32
0
VERTEX
8
Sketch5_10
10
2.823045
20
115.752943
30
0.000000
70
32
0
VERTEX
8
Sketch5_10
10
2.739999
20
115.904067
30
0.000000
70
32
0
VERTEX
8
Sketch5_10
10
2.645811
20
116.055082
30
0.000000
70
32
0
VERTEX
8
Sketch5_10
10
2.540000
20
116.205000
30
0.000000
70
32
0
VERTEX
8
Sketch5_10
10
2.439986
20
116.331525
30
0.000000
70
32
0
VERTEX
8
Sketch5_10
10
2.331007
20
116.455697
30
0.000000
70
32
0
VERTEX
8
Sketch5_10
10
2.212960
20
116.576715
30
0.000000
70
32
0
VERTEX
8
Sketch5_10
10
2.085825
20
116.693733
30
0.000000
70
32
0
VERTEX
8
Sketch5_10
10
1.949675
20
116.805872
30
0.000000
70
32
0
VERTEX
8
Sketch5_10
10
1.807354
20
116.910383
30
0.000000
70
32
0
VERTEX
8
Sketch5_10
10
1.656780
20
117.008451
30
0.000000
70
32
0
VERTEX
8
Sketch5_10
10
1.498334
20
117.099218
30
0.000000
70
32
0
VERTEX
8
Sketch5_10
10
1.332507
20
117.181849
30
0.000000
70
32
0
VERTEX
8
Sketch5_10
10
1.156311
20
117.256953
30
0.000000
70
32
0
VERTEX
8
Sketch5_10
10
0.973810
20
117.321973
30
0.000000
70
32
0
VERTEX
8
Sketch5_10
10
0.785866
20
117.376205
30
0.000000
70
32
0
VERTEX
8
Sketch5_10
10
0.593439
20
117.419047
30
0.000000
70
32
0
VERTEX
8
Sketch5_10
10
0.397572
20
117.450010
30
0.000000
70
32
0
VERTEX
8
Sketch5_10
10
0.199374
20
117.468734
30
0.000000
70
32
0
VERTEX
8
Sketch5_10
10
0.000000
20
117.475000
30
0.000000
70
32
0
VERTEX
8
Sketch5_10
10
-0.198940
20
117.468761
30
0.000000
70
32
0
VERTEX
8
Sketch5_10
10
-0.396711
20
117.450118
30
0.000000
70
32
0
VERTEX
8
Sketch5_10
10
-0.592167
20
117.419289
30
0.000000
70
32
0
VERTEX
8
Sketch5_10
10
-0.784204
20
117.376629
30
0.000000
70
32
0
VERTEX
8
Sketch5_10
10
-0.971787
20
117.322624
30
0.000000
70
32
0
VERTEX
8
Sketch5_10
10
-1.150760
20
117.259117
30
0.000000
70
32
0
VERTEX
8
Sketch5_10
10
-1.323701
20
117.185904
30
0.000000
70
32
0
VERTEX
8
Sketch5_10
10
-1.489896
20
117.103718
30
0.000000
70
32
0
VERTEX
8
Sketch5_10
10
-1.648739
20
117.013353
30
0.000000
70
32
0
VERTEX
8
Sketch5_10
10
-1.802729
20
116.913579
30
0.000000
70
32
0
VERTEX
8
Sketch5_10
10
-1.948137
20
116.807067
30
0.000000
70
32
0
VERTEX
8
Sketch5_10
10
-2.084673
20
116.694737
30
0.000000
70
32
0
VERTEX
8
Sketch5_10
10
-2.212156
20
116.577497
30
0.000000
70
32
0
VERTEX
8
Sketch5_10
10
-2.330511
20
116.456234
30
0.000000
70
32
0
VERTEX
8
Sketch5_10
10
-2.439757
20
116.331799
30
0.000000
70
32
0
VERTEX
8
Sketch5_10
10
-2.540000
20
116.205000
30
0.000000
70
32
0
VERTEX
8
Sketch5_10
10
-2.641256
20
116.061928
30
0.000000
70
32
0
VERTEX
8
Sketch5_10
10
-2.731904
20
115.917815
30
0.000000
70
32
0
VERTEX
8
Sketch5_10
10
-2.812357
20
115.773524
30
0.000000
70
32
0
VERTEX
8
Sketch5_10
10
-2.883087
20
115.629824
30
0.000000
70
32
0
VERTEX
8
Sketch5_10
10
-2.944611
20
115.487387
30
0.000000
70
32
0
VERTEX
8
Sketch5_10
10
-2.997474
20
115.346794
30
0.000000
70
32
0
VERTEX
8
Sketch5_10
10
-3.042234
20
115.208536
30
0.000000
70
32
0
VERTEX
8
Sketch5_10
10
-3.079458
20
115.073023
30
0.000000
70
32
0
VERTEX
8
Sketch5_10
10
-3.116423
20
114.907067
30
0.000000
70
32
0
VERTEX
8
Sketch5_10
10
-3.143450
20
114.746486
30
0.000000
70
32
0
VERTEX
8
Sketch5_10
10
-3.161577
20
114.591642
30
0.000000
70
32
0
VERTEX
8
Sketch5_10
10
-3.171788
20
114.442770
30
0.000000
70
32
0
VERTEX
8
Sketch5_10
10
-3.175000
20
114.300000
30
0.000000
70
32
0
VERTEX
8
Sketch5_10
10
-3.172356
20
114.170462
30
0.000000
70
32
0
VERTEX
8
Sketch5_10
10
-3.163995
20
114.035875
30
0.000000
70
32
0
VERTEX
8
Sketch5_10
10
-3.149234
20
113.896326
30
0.000000
70
32
0
VERTEX
8
Sketch5_10
10
-3.127345
20
113.751970
30
0.000000
70
32
0
VERTEX
8
Sketch5_10
10
-3.097561
20
113.603049
30
0.000000
70
32
0
VERTEX
8
Sketch5_10
10
-3.059077
20
113.449899
30
0.000000
70
32
0
VERTEX
8
Sketch5_10
10
-3.011064
20
113.292966
30
0.000000
70
32
0
VERTEX
8
Sketch5_10
10
-2.957963
20
113.146274
30
0.000000
70
32
0
VERTEX
8
Sketch5_10
10
-2.895500
20
112.997423
30
0.000000
70
32
0
VERTEX
8
Sketch5_10
10
-2.823045
20
112.847057
30
0.000000
70
32
0
VERTEX
8
Sketch5_10
10
-2.739999
20
112.695933
30
0.000000
70
32
0
VERTEX
8
Sketch5_10
10
-2.645811
20
112.544918
30
0.000000
70
32
0
VERTEX
8
Sketch5_10
10
-2.540000
20
112.395000
30
0.000000
70
32
0
VERTEX
8
Sketch5_10
10
-2.439986
20
112.268475
30
0.000000
70
32
0
VERTEX
8
Sketch5_10
10
-2.331007
20
112.144303
30
0.000000
70
32
0
VERTEX
8
Sketch5_10
10
-2.212960
20
112.023285
30
0.000000
70
32
0
VERTEX
8
Sketch5_10
10
-2.085825
20
111.906267
30
0.000000
70
32
0
VERTEX
8
Sketch5_10
10
-1.949675
20
111.794128
30
0.000000
70
32
0
VERTEX
8
Sketch5_10
10
-1.807354
20
111.689617
30
0.000000
70
32
0
VERTEX
8
Sketch5_10
10
-1.656780
20
111.591549
30
0.000000
70
32
0
VERTEX
8
Sketch5_10
10
-1.498334
20
111.500782
30
0.000000
70
32
0
VERTEX
8
Sketch5_10
10
-1.332507
20
111.418151
30
0.000000
70
32
0
VERTEX
8
Sketch5_10
10
-1.156311
20
111.343047
30
0.000000
70
32
0
VERTEX
8
Sketch5_10
10
-0.973810
20
111.278027
30
0.000000
70
32
0
VERTEX
8
Sketch5_10
10
-0.785866
20
111.223795
30
0.000000
70
32
0
VERTEX
8
Sketch5_10
10
-0.593439
20
111.180953
30
0.000000
70
32
0
VERTEX
8
Sketch5_10
10
-0.397572
20
111.149990
30
0.000000
70
32
0
VERTEX
8
Sketch5_10
10
-0.199374
20
111.131266
30
0.000000
70
32
0
VERTEX
8
Sketch5_10
10
0.000000
20
111.125000
30
0.000000
70
32
0
VERTEX
8
Sketch5_10
10
0.198940
20
111.131239
30
0.000000
70
32
0
VERTEX
8
Sketch5_10
10
0.396711
20
111.149882
30
0.000000
70
32
0
VERTEX
8
Sketch5_10
10
0.592167
20
111.180711
30
0.000000
70
32
0
VERTEX
8
Sketch5_10
10
0.784204
20
111.223371
30
0.000000
70
32
0
VERTEX
8
Sketch5_10
10
0.971787
20
111.277376
30
0.000000
70
32
0
VERTEX
8
Sketch5_10
10
1.150760
20
111.340883
30
0.000000
70
32
0
VERTEX
8
Sketch5_10
10
1.323701
20
111.414096
30
0.000000
70
32
0
VERTEX
8
Sketch5_10
10
1.489896
20
111.496282
30
0.000000
70
32
0
VERTEX
8
Sketch5_10
10
1.648739
20
111.586647
30
0.000000
70
32
0
VERTEX
8
Sketch5_10
10
1.802729
20
111.686421
30
0.000000
70
32
0
VERTEX
8
Sketch5_10
10
1.948137
20
111.792933
30
0.000000
70
32
0
VERTEX
8
Sketch5_10
10
2.084673
20
111.905263
30
0.000000
70
32
0
VERTEX
8
Sketch5_10
10
2.212156
20
112.022503
30
0.000000
70
32
0
VERTEX
8
Sketch5_10
10
2.330511
20
112.143766
30
0.000000
70
32
0
VERTEX
8
Sketch5_10
10
2.439757
20
112.268201
30
0.000000
70
32
0
VERTEX
8
Sketch5_10
10
2.540000
20
112.395000
30
0.000000
70
32
0
VERTEX
8
Sketch5_10
10
2.641256
20
112.538072
30
0.000000
70
32
0
VERTEX
8
Sketch5_10
10
2.731904
20
112.682185
30
0.000000
70
32
0
VERTEX
8
Sketch5_10
10
2.812357
20
112.826476
30
0.000000
70
32
0
VERTEX
8
Sketch5_10
10
2.883087
20
112.970176
30
0.000000
70
32
0
VERTEX
8
Sketch5_10
10
2.944611
20
113.112613
30
0.000000
70
32
0
VERTEX
8
Sketch5_10
10
2.997474
20
113.253206
30
0.000000
70
32
0
VERTEX
8
Sketch5_10
10
3.042234
20
113.391464
30
0.000000
70
32
0
VERTEX
8
Sketch5_10
10
3.079458
20
113.526977
30
0.000000
70
32
0
VERTEX
8
Sketch5_10
10
3.116423
20
113.692933
30
0.000000
70
32
0
VERTEX
8
Sketch5_10
10
3.143450
20
113.853514
30
0.000000
70
32
0
VERTEX
8
Sketch5_10
10
3.161577
20
114.008358
30
0.000000
70
32
0
VERTEX
8
Sketch5_10
10
3.171788
20
114.157230
30
0.000000
70
32
0
VERTEX
8
Sketch5_10
10
3.175000
20
114.300000
30
0.000000
70
32
0
SEQEND
0
ENDSEC
0
EOF
