  0
SECTION
  2
HEADER
  9
$ACADVER
  1
AC1009
  9
$INSBASE
 10
0.0
 20
0.0
 30
0.0
  9
$EXTMIN
 10
30.3715547153519516
 20
13.5902476057948505
 30
0.0
  9
$EXTMAX
 10
76.4487780010566951
 20
59.7059053811901705
 30
0.0
  9
$LIMMIN
 10
0.0
 20
0.0
  9
$LIMMAX
 10
12.0
 20
9.0
  9
$ORTHOMODE
 70
     0
  9
$REGENMODE
 70
     1
  9
$FILLMODE
 70
     1
  9
$QTEXTMODE
 70
     0
  9
$MIRRTEXT
 70
     0
  9
$DRAGMODE
 70
     2
  9
$LTSCALE
 40
1.0
  9
$OSMODE
 70
  1983
  9
$ATTMODE
 70
     1
  9
$TEXTSIZE
 40
0.2
  9
$TRACEWID
 40
0.05
  9
$TEXTSTYLE
  7
STANDARD
  9
$CLAYER
  8
0
  9
$CELTYPE
  6
BYLAYER
  9
$CECOLOR
 62
   256
  9
$DIMSCALE
 40
1.0
  9
$DIMASZ
 40
0.18
  9
$DIMEXO
 40
0.0625
  9
$DIMDLI
 40
0.38
  9
$DIMRND
 40
0.0
  9
$DIMDLE
 40
0.0
  9
$DIMEXE
 40
0.18
  9
$DIMTP
 40
0.0
  9
$DIMTM
 40
0.0
  9
$DIMTXT
 40
0.18
  9
$DIMCEN
 40
0.09
  9
$DIMTSZ
 40
0.0
  9
$DIMTOL
 70
     0
  9
$DIMLIM
 70
     0
  9
$DIMTIH
 70
     1
  9
$DIMTOH
 70
     1
  9
$DIMSE1
 70
     0
  9
$DIMSE2
 70
     0
  9
$DIMTAD
 70
     0
  9
$DIMZIN
 70
     0
  9
$DIMBLK
  1

  9
$DIMASO
 70
     1
  9
$DIMSHO
 70
     1
  9
$DIMPOST
  1

  9
$DIMAPOST
  1

  9
$DIMALT
 70
     0
  9
$DIMALTD
 70
     2
  9
$DIMALTF
 40
25.3999999999999986
  9
$DIMLFAC
 40
1.0
  9
$DIMTOFL
 70
     0
  9
$DIMTVP
 40
0.0
  9
$DIMTIX
 70
     0
  9
$DIMSOXD
 70
     0
  9
$DIMSAH
 70
     0
  9
$DIMBLK1
  1

  9
$DIMBLK2
  1

  9
$DIMSTYLE
  2
STANDARD
  9
$DIMCLRD
 70
     0
  9
$DIMCLRE
 70
     0
  9
$DIMCLRT
 70
     0
  9
$DIMTFAC
 40
1.0
  9
$DIMGAP
 40
0.09
  9
$LUNITS
 70
     2
  9
$LUPREC
 70
     4
  9
$SKETCHINC
 40
0.1
  9
$FILLETRAD
 40
0.0
  9
$AUNITS
 70
     0
  9
$AUPREC
 70
     0
  9
$MENU
  1
.
  9
$ELEVATION
 40
0.0
  9
$PELEVATION
 40
0.0
  9
$THICKNESS
 40
0.0
  9
$LIMCHECK
 70
     0
  9
$BLIPMODE
 70
     0
  9
$CHAMFERA
 40
0.0
  9
$CHAMFERB
 40
0.0
  9
$SKPOLY
 70
     0
  9
$TDCREATE
 40
2458452.711365741211921
  9
$TDUPDATE
 40
2458452.711631943937391
  9
$TDINDWG
 40
0.0002777778
  9
$TDUSRTIMER
 40
0.0002777778
  9
$USRTIMER
 70
     1
  9
$ANGBASE
 50
0.0
  9
$ANGDIR
 70
     0
  9
$PDMODE
 70
     0
  9
$PDSIZE
 40
0.0
  9
$PLINEWID
 40
0.0
  9
$COORDS
 70
     1
  9
$SPLFRAME
 70
     0
  9
$SPLINETYPE
 70
     6
  9
$SPLINESEGS
 70
     8
  9
$ATTDIA
 70
     1
  9
$ATTREQ
 70
     1
  9
$HANDLING
 70
     1
  9
$HANDSEED
  5
2BF
  9
$SURFTAB1
 70
     6
  9
$SURFTAB2
 70
     6
  9
$SURFTYPE
 70
     6
  9
$SURFU
 70
     6
  9
$SURFV
 70
     6
  9
$UCSNAME
  2

  9
$UCSORG
 10
0.0
 20
0.0
 30
0.0
  9
$UCSXDIR
 10
1.0
 20
0.0
 30
0.0
  9
$UCSYDIR
 10
0.0
 20
1.0
 30
0.0
  9
$PUCSNAME
  2

  9
$PUCSORG
 10
0.0
 20
0.0
 30
0.0
  9
$PUCSXDIR
 10
1.0
 20
0.0
 30
0.0
  9
$PUCSYDIR
 10
0.0
 20
1.0
 30
0.0
  9
$USERI1
 70
     0
  9
$USERI2
 70
     0
  9
$USERI3
 70
     0
  9
$USERI4
 70
     0
  9
$USERI5
 70
     0
  9
$USERR1
 40
0.0
  9
$USERR2
 40
0.0
  9
$USERR3
 40
0.0
  9
$USERR4
 40
0.0
  9
$USERR5
 40
0.0
  9
$WORLDVIEW
 70
     1
  9
$SHADEDGE
 70
     3
  9
$SHADEDIF
 70
    70
  9
$TILEMODE
 70
     1
  9
$MAXACTVP
 70
    64
  9
$PLIMCHECK
 70
     0
  9
$PEXTMIN
 10
0.0
 20
0.0
 30
0.0
  9
$PEXTMAX
 10
0.0
 20
0.0
 30
0.0
  9
$PLIMMIN
 10
0.0
 20
0.0
  9
$PLIMMAX
 10
12.0
 20
9.0
  9
$UNITMODE
 70
     0
  9
$VISRETAIN
 70
     1
  9
$PLINEGEN
 70
     0
  9
$PSLTSCALE
 70
     1
  0
ENDSEC
  0
SECTION
  2
TABLES
  0
TABLE
  2
VPORT
 70
     1
  0
VPORT
  2
*ACTIVE
 70
     0
 10
0.0
 20
0.0
 11
1.0
 21
1.0
 12
-371.8052643261369781
 22
-108.2049851240603999
 13
0.0
 23
0.0
 14
0.5
 24
0.5
 15
0.5
 25
0.5
 16
0.0
 26
0.0
 36
1.0
 17
0.0
 27
0.0
 37
0.0
 40
706.2704284962053407
 41
2.4885844748858439
 42
50.0
 43
0.0
 44
0.0
 50
0.0
 51
0.0
 71
     0
 72
  1000
 73
     1
 74
     3
 75
     0
 76
     1
 77
     0
 78
     0
  0
ENDTAB
  0
TABLE
  2
LTYPE
 70
     1
  0
LTYPE
  2
CONTINUOUS
 70
     0
  3
Solid line
 72
    65
 73
     0
 40
0.0
  0
ENDTAB
  0
TABLE
  2
LAYER
 70
     2
  0
LAYER
  2
0
 70
     0
 62
     7
  6
CONTINUOUS
  0
LAYER
  2
SCORE
 70
     0
 62
     1
  6
CONTINUOUS
  0
ENDTAB
  0
TABLE
  2
STYLE
 70
     2
  0
STYLE
  2
STANDARD
 70
     0
 40
0.0
 41
1.0
 50
0.0
 71
     0
 42
0.2
  3
txt
  4

  0
STYLE
  2
ANNOTATIVE
 70
     0
 40
0.0
 41
1.0
 50
0.0
 71
     0
 42
0.2
  3
txt
  4

  0
ENDTAB
  0
TABLE
  2
VIEW
 70
     0
  0
ENDTAB
  0
TABLE
  2
UCS
 70
     0
  0
ENDTAB
  0
TABLE
  2
APPID
 70
     9
  0
APPID
  2
ACAD
 70
     0
  0
APPID
  2
ACADANNOPO
 70
     0
  0
APPID
  2
ACADANNOTATIVE
 70
     0
  0
APPID
  2
ACAD_DSTYLE_DIMJAG
 70
     0
  0
APPID
  2
ACAD_DSTYLE_DIMTALN
 70
     0
  0
APPID
  2
ACAD_MLEADERVER
 70
     0
  0
APPID
  2
ACAD_NAV_VCDISPLAY
 70
     0
  0
APPID
  2
ACAECLAYERSTANDARD
 70
     0
  0
APPID
  2
ACCMTRANSPARENCY
 70
     0
  0
ENDTAB
  0
TABLE
  2
DIMSTYLE
 70
     2
  0
DIMSTYLE
  2
STANDARD
 70
     0
  3

  4

  5

  6

  7

 40
1.0
 41
0.18
 42
0.0625
 43
0.38
 44
0.18
 45
0.0
 46
0.0
 47
0.0
 48
0.0
140
0.18
141
0.09
142
0.0
143
25.3999999999999986
144
1.0
145
0.0
146
1.0
147
0.09
 71
     0
 72
     0
 73
     1
 74
     1
 75
     0
 76
     0
 77
     0
 78
     0
170
     0
171
     2
172
     0
173
     0
174
     0
175
     0
176
     0
177
     0
178
     0
  0
DIMSTYLE
  2
ANNOTATIVE
 70
     0
  3

  4

  5

  6

  7

 40
0.0
 41
0.18
 42
0.0625
 43
0.38
 44
0.18
 45
0.0
 46
0.0
 47
0.0
 48
0.0
140
0.18
141
0.09
142
0.0
143
25.3999999999999986
144
1.0
145
0.0
146
1.0
147
0.09
 71
     0
 72
     0
 73
     1
 74
     1
 75
     0
 76
     0
 77
     0
 78
     0
170
     0
171
     2
172
     0
173
     0
174
     0
175
     0
176
     0
177
     0
178
     0
  0
ENDTAB
  0
ENDSEC
  0
SECTION
  2
BLOCKS
  0
BLOCK
  8
0
  2
$MODEL_SPACE
 70
     0
 10
0.0
 20
0.0
 30
0.0
  3
$MODEL_SPACE
  1

  0
ENDBLK
  5
21
  8
0
  0
BLOCK
 67
     1
  8
0
  2
$PAPER_SPACE
 70
     0
 10
0.0
 20
0.0
 30
0.0
  3
$PAPER_SPACE
  1

  0
ENDBLK
  5
5B
 67
     1
  8
0
  0
ENDSEC
  0
SECTION
  2
ENTITIES
  0
LINE
  5
23C
  8
SCORE
 10
54.3729021623945812
 20
44.4058666161291029
 30
0.0
 11
54.3729021623945812
 21
27.5902476057948398
 31
0.0
  0
LINE
  5
23D
  8
0
 10
54.8729021623945812
 20
44.4058666161291029
 30
0.0
 11
43.9972599963467985
 21
44.4058666161291029
 31
0.0
  0
LINE
  5
23E
  8
0
 10
40.8499405943476503
 20
23.9667809743595406
 30
0.0
 11
54.3729021623945812
 21
27.5902476057948185
 31
0.0
  0
LINE
  5
23F
  8
0
 10
40.8499405943476503
 20
23.9667809743595406
 30
0.0
 11
39.2970263237324886
 21
29.7623359320939507
 31
0.0
  0
LINE
  5
240
  8
SCORE
 10
39.2970263237324886
 20
29.7623359320939507
 30
0.0
 11
42.6599793771449427
 21
40.2395823110434989
 31
0.0
  0
LINE
  5
241
  8
0
 10
42.6599793771449427
 20
40.2395823110434989
 30
0.0
 11
43.9972599963467985
 21
44.4058666161291029
 31
0.0
  0
LINE
  5
242
  8
SCORE
 10
61.3729021623945812
 20
44.4058666161291029
 30
0.0
 11
61.3729021623945812
 21
27.5902476057948505
 31
0.0
  0
LINE
  5
243
  8
SCORE
 10
54.3729021623946878
 20
24.9475632047304217
 30
0.0
 11
54.3729021623946878
 21
13.5902476057948505
 31
0.0
  0
LINE
  5
244
  8
0
 10
54.3729021623946878
 20
13.5902476057948505
 30
0.0
 11
61.3729021623945528
 21
13.5902476057948505
 31
0.0
  0
LINE
  5
245
  8
SCORE
 10
61.3729021623945528
 20
13.5902476057948505
 30
0.0
 11
61.3729021623945528
 21
24.9475632047304217
 31
0.0
  0
LINE
  5
246
  8
0
 10
54.3729021623945812
 20
44.9058666161290674
 30
0.0
 11
54.3729021623945812
 21
54.7818666161291219
 31
0.0
  0
LINE
  5
247
  8
0
 10
61.3729021623945528
 20
54.7818666161291219
 30
0.0
 11
61.3729021623945812
 21
44.90586661612911
 31
0.0
  0
LINE
  5
248
  8
0
 10
43.9972599963467985
 20
44.4058666161291029
 30
0.0
 11
37.3321834135555619
 21
46.5452015935292494
 31
0.0
  0
LINE
  5
249
  8
0
 10
39.2970263237324886
 20
29.7623359320939507
 30
0.0
 11
32.6319497409412307
 21
31.9016709094940794
 31
0.0
  0
LINE
  5
24A
  8
SCORE
 10
32.6319497409412307
 20
31.9016709094940794
 30
0.0
 11
35.9949027943537487
 21
42.3789172884436809
 31
0.0
  0
LINE
  5
24B
  8
0
 10
60.8729021623945528
 20
44.4058666161291029
 30
0.0
 11
71.7485443284423638
 21
44.4058666161291029
 31
0.0
  0
LINE
  5
24C
  8
0
 10
74.8958637304415049
 20
23.9667809743595406
 30
0.0
 11
61.3729021623945812
 21
27.5902476057948185
 31
0.0
  0
LINE
  5
24D
  8
0
 10
74.8958637304415049
 20
23.9667809743595406
 30
0.0
 11
76.4487780010566951
 21
29.7623359320939507
 31
0.0
  0
LINE
  5
24E
  8
0
 10
76.4487780010566951
 20
29.7623359320939507
 30
0.0
 11
71.7485443284423638
 21
44.4058666161291029
 31
0.0
  0
LINE
  5
24F
  8
0
 10
54.3729021623945812
 20
54.7818666161291219
 30
0.0
 11
55.3729021623945812
 21
54.7818666161291219
 31
0.0
  0
LINE
  5
250
  8
0
 10
55.3729021623945812
 20
54.7818666161291219
 30
0.0
 11
54.4652984278466192
 21
55.3058718765878865
 31
0.0
  0
LINE
  5
251
  8
0
 10
54.4652984278466192
 20
55.3058718765878865
 30
0.0
 11
55.0954349288942922
 21
58.8795535588570971
 31
0.0
  0
LINE
  5
252
  8
0
 10
56.0802426819064976
 20
59.7059053811901705
 30
0.0
 11
59.6655616428826718
 21
59.7059053811901421
 31
0.0
  0
ARC
  5
253
  8
0
 10
56.0802426819064976
 20
58.7059053811901705
 30
0.0
 40
1.0
 50
90.0
 51
169.999999999999801
  0
ARC
  5
254
  8
0
 10
59.6655616428826718
 20
58.7059053811901421
 30
0.0
 40
1.0
 50
10.0000000000001705
 51
90.0
  0
LINE
  5
255
  8
0
 10
61.2805058969425716
 20
55.3058718765878865
 30
0.0
 11
60.6503693958948702
 21
58.8795535588570829
 31
0.0
  0
LINE
  5
256
  8
0
 10
60.3729021623945812
 20
54.7818666161291219
 30
0.0
 11
61.2805058969425431
 21
55.3058718765878865
 31
0.0
  0
LINE
  5
257
  8
0
 10
54.8729021623945812
 20
44.4058666161291029
 30
0.0
 11
54.3729021623945812
 21
44.90586661612911
 31
0.0
  0
LINE
  5
258
  8
0
 10
60.8729021623945812
 20
44.4058666161291029
 30
0.0
 11
61.3729021623945812
 21
44.90586661612911
 31
0.0
  0
LINE
  5
259
  8
0
 10
54.8729021623945812
 20
27.5902476057948398
 30
0.0
 11
54.3729021623945812
 21
27.0902476057948398
 31
0.0
  0
LINE
  5
25A
  8
0
 10
60.8729021623945812
 20
27.5902476057948398
 30
0.0
 11
61.3729021623945812
 21
27.0902476057948398
 31
0.0
  0
LINE
  5
25B
  8
0
 10
61.3729021623945812
 20
27.5902476057948185
 30
0.0
 11
60.8729021623945528
 21
27.5902476057948682
 31
0.0
  0
LINE
  5
25C
  8
0
 10
54.3729021623945812
 20
27.5902476057948185
 30
0.0
 11
54.8729021623945812
 21
27.5902476057948185
 31
0.0
  0
LINE
  5
25D
  8
0
 10
54.3729021623946878
 20
13.5902476057948505
 30
0.0
 11
52.0785964169905071
 21
16.8668557829508288
 31
0.0
  0
LINE
  5
25E
  8
0
 10
52.0785964169905071
 20
16.8668557829508288
 30
0.0
 11
52.0785964169905071
 21
22.8668557829508288
 31
0.0
  0
LINE
  5
25F
  8
0
 10
52.0785964169905071
 20
22.8668557829508288
 30
0.0
 11
54.3729021623946878
 21
24.9475632047304394
 31
0.0
  0
LINE
  5
260
  8
0
 10
61.3729021623945812
 20
13.5902476057948505
 30
0.0
 11
63.6672079077987689
 21
16.8668557829508288
 31
0.0
  0
LINE
  5
261
  8
0
 10
63.6672079077987689
 20
16.8668557829508288
 30
0.0
 11
63.6672079077987689
 21
22.8668557829508288
 31
0.0
  0
LINE
  5
262
  8
0
 10
63.6672079077987689
 20
22.8668557829508288
 30
0.0
 11
61.3729021623945812
 21
24.9475632047304394
 31
0.0
  0
LINE
  5
263
  8
0
 10
35.9949027943536919
 20
42.3789172884436525
 30
0.0
 11
32.2361323112100706
 21
41.0108367151409681
 31
0.0
  0
LINE
  5
264
  8
0
 10
32.6319497409412804
 20
31.9016709094940403
 30
0.0
 11
30.3715547153519516
 21
35.2017639882254372
 31
0.0
  0
LINE
  5
265
  8
0
 10
32.2361323112101275
 20
41.0108367151409965
 30
0.0
 11
30.3715547153519516
 21
35.2017639882254372
 31
0.0
  0
LINE
  5
266
  8
0
 10
61.3729021623945528
 20
54.7818666161291219
 30
0.0
 11
60.3729021623945812
 21
54.7818666161291219
 31
0.0
  0
LINE
  5
267
  8
SCORE
 10
60.3729021623945812
 20
54.7818666161291219
 30
0.0
 11
55.3729021623945812
 21
54.7818666161291219
 31
0.0
  0
LINE
  5
268
  8
SCORE
 10
60.8729021623945528
 20
44.4058666161291029
 30
0.0
 11
54.8729021623945812
 21
44.4058666161291029
 31
0.0
  0
LINE
  5
269
  8
SCORE
 10
60.8729021623945528
 20
27.5902476057948682
 30
0.0
 11
54.8729021623945812
 21
27.5902476057948398
 31
0.0
  0
LINE
  5
26A
  8
0
 10
35.9949027943537487
 20
42.3789172884436809
 30
0.0
 11
37.3321834135555619
 21
46.5452015935291996
 31
0.0
  0
LINE
  5
26B
  8
0
 10
61.3729021623945528
 20
24.9475632047304217
 30
0.0
 11
61.3729021623945528
 21
27.0902476057948682
 31
0.0
  0
LINE
  5
26C
  8
0
 10
54.3729021623945812
 20
27.0902476057948398
 30
0.0
 11
54.3729021623946878
 21
24.9475632047304394
 31
0.0
  0
ENDSEC
  0
EOF
