ISO-10303-21;
HEADER;
/* Generated by software containing ST-Developer
 * from STEP Tools, Inc. (www.steptools.com) 
 */

FILE_DESCRIPTION(
/* description */ (''),
/* implementation_level */ '2;1');

FILE_NAME(
/* name */ '/Users/adrien/Downloads/charniere v4.step',
/* time_stamp */ '2020-12-02T12:40:00+03:00',
/* author */ (''),
/* organization */ (''),
/* preprocessor_version */ 'ST-DEVELOPER v18.1',
/* originating_system */ 'Autodesk Translation Framework v9.3.0.1241',
/* authorisation */ '');

FILE_SCHEMA (('AUTOMOTIVE_DESIGN { 1 0 10303 214 3 1 1 }'));
ENDSEC;

DATA;
#10=MECHANICAL_DESIGN_GEOMETRIC_PRESENTATION_REPRESENTATION('',(#13),#436);
#11=SHAPE_REPRESENTATION_RELATIONSHIP('SRR','None',#443,#12);
#12=ADVANCED_BREP_SHAPE_REPRESENTATION('',(#14),#435);
#13=STYLED_ITEM('',(#452),#14);
#14=MANIFOLD_SOLID_BREP('Corps1',#256);
#15=FACE_BOUND('',#46,.T.);
#16=FACE_BOUND('',#50,.T.);
#17=FACE_BOUND('',#53,.T.);
#18=FACE_BOUND('',#55,.T.);
#19=FACE_BOUND('',#57,.T.);
#20=FACE_BOUND('',#60,.T.);
#21=PLANE('',#279);
#22=PLANE('',#283);
#23=PLANE('',#284);
#24=PLANE('',#288);
#25=PLANE('',#289);
#26=PLANE('',#290);
#27=PLANE('',#291);
#28=PLANE('',#292);
#29=FACE_OUTER_BOUND('',#42,.T.);
#30=FACE_OUTER_BOUND('',#43,.T.);
#31=FACE_OUTER_BOUND('',#44,.T.);
#32=FACE_OUTER_BOUND('',#45,.T.);
#33=FACE_OUTER_BOUND('',#47,.T.);
#34=FACE_OUTER_BOUND('',#48,.T.);
#35=FACE_OUTER_BOUND('',#49,.T.);
#36=FACE_OUTER_BOUND('',#51,.T.);
#37=FACE_OUTER_BOUND('',#52,.T.);
#38=FACE_OUTER_BOUND('',#54,.T.);
#39=FACE_OUTER_BOUND('',#56,.T.);
#40=FACE_OUTER_BOUND('',#58,.T.);
#41=FACE_OUTER_BOUND('',#59,.T.);
#42=EDGE_LOOP('',(#172,#173,#174,#175));
#43=EDGE_LOOP('',(#176,#177,#178,#179));
#44=EDGE_LOOP('',(#180,#181,#182,#183));
#45=EDGE_LOOP('',(#184,#185,#186,#187));
#46=EDGE_LOOP('',(#188));
#47=EDGE_LOOP('',(#189,#190,#191,#192));
#48=EDGE_LOOP('',(#193,#194,#195,#196,#197,#198,#199,#200));
#49=EDGE_LOOP('',(#201,#202,#203,#204));
#50=EDGE_LOOP('',(#205));
#51=EDGE_LOOP('',(#206,#207,#208,#209));
#52=EDGE_LOOP('',(#210,#211,#212,#213));
#53=EDGE_LOOP('',(#214));
#54=EDGE_LOOP('',(#215,#216,#217,#218));
#55=EDGE_LOOP('',(#219));
#56=EDGE_LOOP('',(#220,#221,#222,#223));
#57=EDGE_LOOP('',(#224));
#58=EDGE_LOOP('',(#225,#226,#227,#228,#229,#230,#231,#232));
#59=EDGE_LOOP('',(#233,#234,#235,#236));
#60=EDGE_LOOP('',(#237));
#61=LINE('',#369,#84);
#62=LINE('',#375,#85);
#63=LINE('',#381,#86);
#64=LINE('',#388,#87);
#65=LINE('',#390,#88);
#66=LINE('',#391,#89);
#67=LINE('',#396,#90);
#68=LINE('',#397,#91);
#69=LINE('',#400,#92);
#70=LINE('',#402,#93);
#71=LINE('',#404,#94);
#72=LINE('',#406,#95);
#73=LINE('',#408,#96);
#74=LINE('',#409,#97);
#75=LINE('',#414,#98);
#76=LINE('',#415,#99);
#77=LINE('',#418,#100);
#78=LINE('',#422,#101);
#79=LINE('',#423,#102);
#80=LINE('',#425,#103);
#81=LINE('',#428,#104);
#82=LINE('',#429,#105);
#83=LINE('',#431,#106);
#84=VECTOR('',#299,2.5);
#85=VECTOR('',#306,2.5);
#86=VECTOR('',#313,2.5);
#87=VECTOR('',#320,10.);
#88=VECTOR('',#321,10.);
#89=VECTOR('',#322,10.);
#90=VECTOR('',#327,10.);
#91=VECTOR('',#328,10.);
#92=VECTOR('',#331,10.);
#93=VECTOR('',#332,10.);
#94=VECTOR('',#333,10.);
#95=VECTOR('',#334,10.);
#96=VECTOR('',#335,10.);
#97=VECTOR('',#336,10.);
#98=VECTOR('',#341,10.);
#99=VECTOR('',#342,10.);
#100=VECTOR('',#345,10.);
#101=VECTOR('',#350,10.);
#102=VECTOR('',#351,10.);
#103=VECTOR('',#354,10.);
#104=VECTOR('',#357,10.);
#105=VECTOR('',#358,10.);
#106=VECTOR('',#361,10.);
#107=CIRCLE('',#271,2.5);
#108=CIRCLE('',#272,2.5);
#109=CIRCLE('',#274,2.5);
#110=CIRCLE('',#275,2.5);
#111=CIRCLE('',#277,2.5);
#112=CIRCLE('',#278,2.5);
#113=CIRCLE('',#280,8.);
#114=CIRCLE('',#282,8.);
#115=CIRCLE('',#285,8.);
#116=CIRCLE('',#287,8.);
#117=VERTEX_POINT('',#366);
#118=VERTEX_POINT('',#368);
#119=VERTEX_POINT('',#372);
#120=VERTEX_POINT('',#374);
#121=VERTEX_POINT('',#378);
#122=VERTEX_POINT('',#380);
#123=VERTEX_POINT('',#384);
#124=VERTEX_POINT('',#385);
#125=VERTEX_POINT('',#387);
#126=VERTEX_POINT('',#389);
#127=VERTEX_POINT('',#393);
#128=VERTEX_POINT('',#394);
#129=VERTEX_POINT('',#399);
#130=VERTEX_POINT('',#401);
#131=VERTEX_POINT('',#403);
#132=VERTEX_POINT('',#405);
#133=VERTEX_POINT('',#407);
#134=VERTEX_POINT('',#411);
#135=VERTEX_POINT('',#413);
#136=VERTEX_POINT('',#417);
#137=VERTEX_POINT('',#421);
#138=VERTEX_POINT('',#427);
#139=EDGE_CURVE('',#117,#117,#107,.T.);
#140=EDGE_CURVE('',#117,#118,#61,.T.);
#141=EDGE_CURVE('',#118,#118,#108,.T.);
#142=EDGE_CURVE('',#119,#119,#109,.T.);
#143=EDGE_CURVE('',#119,#120,#62,.T.);
#144=EDGE_CURVE('',#120,#120,#110,.T.);
#145=EDGE_CURVE('',#121,#121,#111,.T.);
#146=EDGE_CURVE('',#121,#122,#63,.T.);
#147=EDGE_CURVE('',#122,#122,#112,.T.);
#148=EDGE_CURVE('',#123,#124,#113,.T.);
#149=EDGE_CURVE('',#125,#123,#64,.T.);
#150=EDGE_CURVE('',#126,#125,#65,.T.);
#151=EDGE_CURVE('',#126,#124,#66,.T.);
#152=EDGE_CURVE('',#127,#128,#114,.T.);
#153=EDGE_CURVE('',#128,#123,#67,.T.);
#154=EDGE_CURVE('',#124,#127,#68,.T.);
#155=EDGE_CURVE('',#129,#128,#69,.T.);
#156=EDGE_CURVE('',#129,#130,#70,.T.);
#157=EDGE_CURVE('',#130,#131,#71,.T.);
#158=EDGE_CURVE('',#132,#131,#72,.T.);
#159=EDGE_CURVE('',#133,#132,#73,.T.);
#160=EDGE_CURVE('',#125,#133,#74,.T.);
#161=EDGE_CURVE('',#131,#134,#115,.T.);
#162=EDGE_CURVE('',#130,#135,#75,.T.);
#163=EDGE_CURVE('',#135,#134,#76,.T.);
#164=EDGE_CURVE('',#134,#136,#77,.T.);
#165=EDGE_CURVE('',#136,#132,#116,.T.);
#166=EDGE_CURVE('',#137,#136,#78,.T.);
#167=EDGE_CURVE('',#133,#137,#79,.T.);
#168=EDGE_CURVE('',#137,#126,#80,.T.);
#169=EDGE_CURVE('',#138,#127,#81,.T.);
#170=EDGE_CURVE('',#138,#129,#82,.T.);
#171=EDGE_CURVE('',#135,#138,#83,.T.);
#172=ORIENTED_EDGE('',*,*,#139,.F.);
#173=ORIENTED_EDGE('',*,*,#140,.T.);
#174=ORIENTED_EDGE('',*,*,#141,.F.);
#175=ORIENTED_EDGE('',*,*,#140,.F.);
#176=ORIENTED_EDGE('',*,*,#142,.F.);
#177=ORIENTED_EDGE('',*,*,#143,.T.);
#178=ORIENTED_EDGE('',*,*,#144,.F.);
#179=ORIENTED_EDGE('',*,*,#143,.F.);
#180=ORIENTED_EDGE('',*,*,#145,.F.);
#181=ORIENTED_EDGE('',*,*,#146,.T.);
#182=ORIENTED_EDGE('',*,*,#147,.F.);
#183=ORIENTED_EDGE('',*,*,#146,.F.);
#184=ORIENTED_EDGE('',*,*,#148,.F.);
#185=ORIENTED_EDGE('',*,*,#149,.F.);
#186=ORIENTED_EDGE('',*,*,#150,.F.);
#187=ORIENTED_EDGE('',*,*,#151,.T.);
#188=ORIENTED_EDGE('',*,*,#147,.T.);
#189=ORIENTED_EDGE('',*,*,#152,.T.);
#190=ORIENTED_EDGE('',*,*,#153,.T.);
#191=ORIENTED_EDGE('',*,*,#148,.T.);
#192=ORIENTED_EDGE('',*,*,#154,.T.);
#193=ORIENTED_EDGE('',*,*,#153,.F.);
#194=ORIENTED_EDGE('',*,*,#155,.F.);
#195=ORIENTED_EDGE('',*,*,#156,.T.);
#196=ORIENTED_EDGE('',*,*,#157,.T.);
#197=ORIENTED_EDGE('',*,*,#158,.F.);
#198=ORIENTED_EDGE('',*,*,#159,.F.);
#199=ORIENTED_EDGE('',*,*,#160,.F.);
#200=ORIENTED_EDGE('',*,*,#149,.T.);
#201=ORIENTED_EDGE('',*,*,#161,.F.);
#202=ORIENTED_EDGE('',*,*,#157,.F.);
#203=ORIENTED_EDGE('',*,*,#162,.T.);
#204=ORIENTED_EDGE('',*,*,#163,.T.);
#205=ORIENTED_EDGE('',*,*,#144,.T.);
#206=ORIENTED_EDGE('',*,*,#161,.T.);
#207=ORIENTED_EDGE('',*,*,#164,.T.);
#208=ORIENTED_EDGE('',*,*,#165,.T.);
#209=ORIENTED_EDGE('',*,*,#158,.T.);
#210=ORIENTED_EDGE('',*,*,#165,.F.);
#211=ORIENTED_EDGE('',*,*,#166,.F.);
#212=ORIENTED_EDGE('',*,*,#167,.F.);
#213=ORIENTED_EDGE('',*,*,#159,.T.);
#214=ORIENTED_EDGE('',*,*,#142,.T.);
#215=ORIENTED_EDGE('',*,*,#167,.T.);
#216=ORIENTED_EDGE('',*,*,#168,.T.);
#217=ORIENTED_EDGE('',*,*,#150,.T.);
#218=ORIENTED_EDGE('',*,*,#160,.T.);
#219=ORIENTED_EDGE('',*,*,#141,.T.);
#220=ORIENTED_EDGE('',*,*,#152,.F.);
#221=ORIENTED_EDGE('',*,*,#169,.F.);
#222=ORIENTED_EDGE('',*,*,#170,.T.);
#223=ORIENTED_EDGE('',*,*,#155,.T.);
#224=ORIENTED_EDGE('',*,*,#145,.T.);
#225=ORIENTED_EDGE('',*,*,#154,.F.);
#226=ORIENTED_EDGE('',*,*,#151,.F.);
#227=ORIENTED_EDGE('',*,*,#168,.F.);
#228=ORIENTED_EDGE('',*,*,#166,.T.);
#229=ORIENTED_EDGE('',*,*,#164,.F.);
#230=ORIENTED_EDGE('',*,*,#163,.F.);
#231=ORIENTED_EDGE('',*,*,#171,.T.);
#232=ORIENTED_EDGE('',*,*,#169,.T.);
#233=ORIENTED_EDGE('',*,*,#162,.F.);
#234=ORIENTED_EDGE('',*,*,#156,.F.);
#235=ORIENTED_EDGE('',*,*,#170,.F.);
#236=ORIENTED_EDGE('',*,*,#171,.F.);
#237=ORIENTED_EDGE('',*,*,#139,.T.);
#238=CYLINDRICAL_SURFACE('',#270,2.5);
#239=CYLINDRICAL_SURFACE('',#273,2.5);
#240=CYLINDRICAL_SURFACE('',#276,2.5);
#241=CYLINDRICAL_SURFACE('',#281,8.);
#242=CYLINDRICAL_SURFACE('',#286,8.);
#243=ADVANCED_FACE('',(#29),#238,.F.);
#244=ADVANCED_FACE('',(#30),#239,.F.);
#245=ADVANCED_FACE('',(#31),#240,.F.);
#246=ADVANCED_FACE('',(#32,#15),#21,.T.);
#247=ADVANCED_FACE('',(#33),#241,.T.);
#248=ADVANCED_FACE('',(#34),#22,.T.);
#249=ADVANCED_FACE('',(#35,#16),#23,.T.);
#250=ADVANCED_FACE('',(#36),#242,.T.);
#251=ADVANCED_FACE('',(#37,#17),#24,.T.);
#252=ADVANCED_FACE('',(#38,#18),#25,.T.);
#253=ADVANCED_FACE('',(#39,#19),#26,.T.);
#254=ADVANCED_FACE('',(#40),#27,.T.);
#255=ADVANCED_FACE('',(#41,#20),#28,.F.);
#256=CLOSED_SHELL('',(#243,#244,#245,#246,#247,#248,#249,#250,#251,#252,
#253,#254,#255));
#257=DERIVED_UNIT_ELEMENT(#259,1.);
#258=DERIVED_UNIT_ELEMENT(#438,3.);
#259=(
MASS_UNIT()
NAMED_UNIT(*)
SI_UNIT(.KILO.,.GRAM.)
);
#260=DERIVED_UNIT((#257,#258));
#261=MEASURE_REPRESENTATION_ITEM('density measure',
POSITIVE_RATIO_MEASURE(7850.),#260);
#262=PROPERTY_DEFINITION_REPRESENTATION(#267,#264);
#263=PROPERTY_DEFINITION_REPRESENTATION(#268,#265);
#264=REPRESENTATION('material name',(#266),#435);
#265=REPRESENTATION('density',(#261),#435);
#266=DESCRIPTIVE_REPRESENTATION_ITEM('Acier','Acier');
#267=PROPERTY_DEFINITION('material property','material name',#445);
#268=PROPERTY_DEFINITION('material property','density of part',#445);
#269=AXIS2_PLACEMENT_3D('placement',#364,#293,#294);
#270=AXIS2_PLACEMENT_3D('',#365,#295,#296);
#271=AXIS2_PLACEMENT_3D('',#367,#297,#298);
#272=AXIS2_PLACEMENT_3D('',#370,#300,#301);
#273=AXIS2_PLACEMENT_3D('',#371,#302,#303);
#274=AXIS2_PLACEMENT_3D('',#373,#304,#305);
#275=AXIS2_PLACEMENT_3D('',#376,#307,#308);
#276=AXIS2_PLACEMENT_3D('',#377,#309,#310);
#277=AXIS2_PLACEMENT_3D('',#379,#311,#312);
#278=AXIS2_PLACEMENT_3D('',#382,#314,#315);
#279=AXIS2_PLACEMENT_3D('',#383,#316,#317);
#280=AXIS2_PLACEMENT_3D('',#386,#318,#319);
#281=AXIS2_PLACEMENT_3D('',#392,#323,#324);
#282=AXIS2_PLACEMENT_3D('',#395,#325,#326);
#283=AXIS2_PLACEMENT_3D('',#398,#329,#330);
#284=AXIS2_PLACEMENT_3D('',#410,#337,#338);
#285=AXIS2_PLACEMENT_3D('',#412,#339,#340);
#286=AXIS2_PLACEMENT_3D('',#416,#343,#344);
#287=AXIS2_PLACEMENT_3D('',#419,#346,#347);
#288=AXIS2_PLACEMENT_3D('',#420,#348,#349);
#289=AXIS2_PLACEMENT_3D('',#424,#352,#353);
#290=AXIS2_PLACEMENT_3D('',#426,#355,#356);
#291=AXIS2_PLACEMENT_3D('',#430,#359,#360);
#292=AXIS2_PLACEMENT_3D('',#432,#362,#363);
#293=DIRECTION('axis',(0.,0.,1.));
#294=DIRECTION('refdir',(1.,0.,0.));
#295=DIRECTION('center_axis',(0.,1.,0.));
#296=DIRECTION('ref_axis',(1.,0.,0.));
#297=DIRECTION('center_axis',(0.,1.,0.));
#298=DIRECTION('ref_axis',(1.,0.,0.));
#299=DIRECTION('',(0.,1.,0.));
#300=DIRECTION('center_axis',(0.,-1.,0.));
#301=DIRECTION('ref_axis',(1.,0.,0.));
#302=DIRECTION('center_axis',(1.,0.,0.));
#303=DIRECTION('ref_axis',(0.,0.,1.));
#304=DIRECTION('center_axis',(1.,0.,0.));
#305=DIRECTION('ref_axis',(0.,0.,1.));
#306=DIRECTION('',(1.,0.,0.));
#307=DIRECTION('center_axis',(-1.,0.,0.));
#308=DIRECTION('ref_axis',(0.,0.,1.));
#309=DIRECTION('center_axis',(1.,0.,0.));
#310=DIRECTION('ref_axis',(0.,0.,1.));
#311=DIRECTION('center_axis',(1.,0.,0.));
#312=DIRECTION('ref_axis',(0.,0.,1.));
#313=DIRECTION('',(1.,0.,0.));
#314=DIRECTION('center_axis',(-1.,0.,0.));
#315=DIRECTION('ref_axis',(0.,0.,1.));
#316=DIRECTION('center_axis',(1.,0.,0.));
#317=DIRECTION('ref_axis',(0.,0.,-1.));
#318=DIRECTION('center_axis',(-1.,0.,0.));
#319=DIRECTION('ref_axis',(0.,0.707106781186548,-0.707106781186547));
#320=DIRECTION('',(0.,1.,0.));
#321=DIRECTION('',(0.,0.,1.));
#322=DIRECTION('',(0.,1.,0.));
#323=DIRECTION('center_axis',(1.,0.,0.));
#324=DIRECTION('ref_axis',(0.,0.707106781186548,0.707106781186547));
#325=DIRECTION('center_axis',(1.,0.,0.));
#326=DIRECTION('ref_axis',(0.,0.707106781186548,0.707106781186547));
#327=DIRECTION('',(1.,0.,0.));
#328=DIRECTION('',(-1.,0.,0.));
#329=DIRECTION('center_axis',(0.,0.,1.));
#330=DIRECTION('ref_axis',(1.,0.,0.));
#331=DIRECTION('',(0.,1.,0.));
#332=DIRECTION('',(1.,0.,0.));
#333=DIRECTION('',(0.,1.,0.));
#334=DIRECTION('',(1.,0.,0.));
#335=DIRECTION('',(0.,1.,0.));
#336=DIRECTION('',(1.,0.,0.));
#337=DIRECTION('center_axis',(1.,0.,0.));
#338=DIRECTION('ref_axis',(0.,0.,-1.));
#339=DIRECTION('center_axis',(-1.,0.,0.));
#340=DIRECTION('ref_axis',(0.,0.707106781186548,-0.707106781186547));
#341=DIRECTION('',(0.,0.,-1.));
#342=DIRECTION('',(0.,1.,0.));
#343=DIRECTION('center_axis',(1.,0.,0.));
#344=DIRECTION('ref_axis',(0.,0.707106781186548,0.707106781186547));
#345=DIRECTION('',(-1.,0.,0.));
#346=DIRECTION('center_axis',(1.,0.,0.));
#347=DIRECTION('ref_axis',(0.,0.707106781186548,0.707106781186547));
#348=DIRECTION('center_axis',(-1.,0.,0.));
#349=DIRECTION('ref_axis',(0.,0.,1.));
#350=DIRECTION('',(0.,1.,0.));
#351=DIRECTION('',(0.,0.,-1.));
#352=DIRECTION('center_axis',(0.,1.,0.));
#353=DIRECTION('ref_axis',(0.,0.,1.));
#354=DIRECTION('',(-1.,0.,0.));
#355=DIRECTION('center_axis',(-1.,0.,0.));
#356=DIRECTION('ref_axis',(0.,0.,1.));
#357=DIRECTION('',(0.,1.,0.));
#358=DIRECTION('',(0.,0.,1.));
#359=DIRECTION('center_axis',(0.,0.,-1.));
#360=DIRECTION('ref_axis',(-1.,0.,0.));
#361=DIRECTION('',(-1.,0.,0.));
#362=DIRECTION('center_axis',(0.,1.,0.));
#363=DIRECTION('ref_axis',(1.,0.,0.));
#364=CARTESIAN_POINT('',(0.,0.,0.));
#365=CARTESIAN_POINT('Origin',(0.,0.,0.));
#366=CARTESIAN_POINT('',(-2.5,0.,-3.06161699786838E-16));
#367=CARTESIAN_POINT('Origin',(0.,0.,0.));
#368=CARTESIAN_POINT('',(-2.5,5.,-3.06161699786838E-16));
#369=CARTESIAN_POINT('',(-2.5,0.,3.06161699786838E-16));
#370=CARTESIAN_POINT('Origin',(0.,5.,0.));
#371=CARTESIAN_POINT('Origin',(-8.,17.,-1.11022302462516E-15));
#372=CARTESIAN_POINT('',(3.2,17.,-2.5));
#373=CARTESIAN_POINT('Origin',(3.2,17.,-1.11022302462516E-15));
#374=CARTESIAN_POINT('',(8.,17.,-2.5));
#375=CARTESIAN_POINT('',(-8.,17.,-2.5));
#376=CARTESIAN_POINT('Origin',(8.,17.,-1.11022302462516E-15));
#377=CARTESIAN_POINT('Origin',(-8.,17.,-1.11022302462516E-15));
#378=CARTESIAN_POINT('',(-8.,17.,-2.5));
#379=CARTESIAN_POINT('Origin',(-8.,17.,-1.11022302462516E-15));
#380=CARTESIAN_POINT('',(-3.16664061674983,17.,-2.5));
#381=CARTESIAN_POINT('',(-8.,17.,-2.5));
#382=CARTESIAN_POINT('Origin',(-3.16664061674983,17.,-1.11022302462516E-15));
#383=CARTESIAN_POINT('Origin',(-3.16664061674983,5.,8.));
#384=CARTESIAN_POINT('',(-3.16664061674983,17.,8.));
#385=CARTESIAN_POINT('',(-3.16664061674983,17.,-8.));
#386=CARTESIAN_POINT('Origin',(-3.16664061674983,17.,0.));
#387=CARTESIAN_POINT('',(-3.16664061674983,5.,8.));
#388=CARTESIAN_POINT('',(-3.16664061674983,5.,8.));
#389=CARTESIAN_POINT('',(-3.16664061674983,5.,-8.));
#390=CARTESIAN_POINT('',(-3.16664061674983,5.,4.));
#391=CARTESIAN_POINT('',(-3.16664061674983,5.,-8.));
#392=CARTESIAN_POINT('Origin',(-6.79166015418746,17.,0.));
#393=CARTESIAN_POINT('',(-8.,17.,-8.));
#394=CARTESIAN_POINT('',(-8.,17.,8.));
#395=CARTESIAN_POINT('Origin',(-8.,17.,0.));
#396=CARTESIAN_POINT('',(-6.79166015418746,17.,8.));
#397=CARTESIAN_POINT('',(1.20833984581254,17.,-8.));
#398=CARTESIAN_POINT('Origin',(-8.,0.,8.));
#399=CARTESIAN_POINT('',(-8.,0.,8.));
#400=CARTESIAN_POINT('',(-8.,0.,8.));
#401=CARTESIAN_POINT('',(8.,0.,8.));
#402=CARTESIAN_POINT('',(-8.,0.,8.));
#403=CARTESIAN_POINT('',(8.,17.,8.));
#404=CARTESIAN_POINT('',(8.,0.,8.));
#405=CARTESIAN_POINT('',(3.2,17.,8.));
#406=CARTESIAN_POINT('',(-1.2,17.,8.));
#407=CARTESIAN_POINT('',(3.2,5.,8.));
#408=CARTESIAN_POINT('',(3.2,5.,8.));
#409=CARTESIAN_POINT('',(-8.,5.,8.));
#410=CARTESIAN_POINT('Origin',(8.,0.,8.));
#411=CARTESIAN_POINT('',(8.,17.,-8.));
#412=CARTESIAN_POINT('Origin',(8.,17.,0.));
#413=CARTESIAN_POINT('',(8.,0.,-8.));
#414=CARTESIAN_POINT('',(8.,0.,8.));
#415=CARTESIAN_POINT('',(8.,0.,-8.));
#416=CARTESIAN_POINT('Origin',(-1.2,17.,0.));
#417=CARTESIAN_POINT('',(3.2,17.,-8.));
#418=CARTESIAN_POINT('',(6.8,17.,-8.));
#419=CARTESIAN_POINT('Origin',(3.2,17.,0.));
#420=CARTESIAN_POINT('Origin',(3.2,5.,-8.));
#421=CARTESIAN_POINT('',(3.2,5.,-8.));
#422=CARTESIAN_POINT('',(3.2,5.,-8.));
#423=CARTESIAN_POINT('',(3.2,5.,-4.));
#424=CARTESIAN_POINT('Origin',(0.,5.,0.));
#425=CARTESIAN_POINT('',(8.,5.,-8.));
#426=CARTESIAN_POINT('Origin',(-8.,0.,-8.));
#427=CARTESIAN_POINT('',(-8.,0.,-8.));
#428=CARTESIAN_POINT('',(-8.,0.,-8.));
#429=CARTESIAN_POINT('',(-8.,0.,-8.));
#430=CARTESIAN_POINT('Origin',(8.,0.,-8.));
#431=CARTESIAN_POINT('',(8.,0.,-8.));
#432=CARTESIAN_POINT('Origin',(0.,0.,0.));
#433=UNCERTAINTY_MEASURE_WITH_UNIT(LENGTH_MEASURE(0.01),#437,
'DISTANCE_ACCURACY_VALUE',
'Maximum model space distance between geometric entities at asserted c
onnectivities');
#434=UNCERTAINTY_MEASURE_WITH_UNIT(LENGTH_MEASURE(0.01),#437,
'DISTANCE_ACCURACY_VALUE',
'Maximum model space distance between geometric entities at asserted c
onnectivities');
#435=(
GEOMETRIC_REPRESENTATION_CONTEXT(3)
GLOBAL_UNCERTAINTY_ASSIGNED_CONTEXT((#433))
GLOBAL_UNIT_ASSIGNED_CONTEXT((#437,#439,#440))
REPRESENTATION_CONTEXT('','3D')
);
#436=(
GEOMETRIC_REPRESENTATION_CONTEXT(3)
GLOBAL_UNCERTAINTY_ASSIGNED_CONTEXT((#434))
GLOBAL_UNIT_ASSIGNED_CONTEXT((#437,#439,#440))
REPRESENTATION_CONTEXT('','3D')
);
#437=(
LENGTH_UNIT()
NAMED_UNIT(*)
SI_UNIT(.MILLI.,.METRE.)
);
#438=(
LENGTH_UNIT()
NAMED_UNIT(*)
SI_UNIT($,.METRE.)
);
#439=(
NAMED_UNIT(*)
PLANE_ANGLE_UNIT()
SI_UNIT($,.RADIAN.)
);
#440=(
NAMED_UNIT(*)
SI_UNIT($,.STERADIAN.)
SOLID_ANGLE_UNIT()
);
#441=SHAPE_DEFINITION_REPRESENTATION(#442,#443);
#442=PRODUCT_DEFINITION_SHAPE('',$,#445);
#443=SHAPE_REPRESENTATION('',(#269),#435);
#444=PRODUCT_DEFINITION_CONTEXT('part definition',#449,'design');
#445=PRODUCT_DEFINITION('charniere','charniere v4',#446,#444);
#446=PRODUCT_DEFINITION_FORMATION('',$,#451);
#447=PRODUCT_RELATED_PRODUCT_CATEGORY('charniere v4','charniere v4',(#451));
#448=APPLICATION_PROTOCOL_DEFINITION('international standard',
'automotive_design',2009,#449);
#449=APPLICATION_CONTEXT(
'Core Data for Automotive Mechanical Design Process');
#450=PRODUCT_CONTEXT('part definition',#449,'mechanical');
#451=PRODUCT('charniere','charniere v4',$,(#450));
#452=PRESENTATION_STYLE_ASSIGNMENT((#453));
#453=SURFACE_STYLE_USAGE(.BOTH.,#454);
#454=SURFACE_SIDE_STYLE('',(#455));
#455=SURFACE_STYLE_FILL_AREA(#456);
#456=FILL_AREA_STYLE('Acier - Satin\X\E9',(#457));
#457=FILL_AREA_STYLE_COLOUR('Acier - Satin\X\E9',#458);
#458=COLOUR_RGB('Acier - Satin\X\E9',0.627450980392157,0.627450980392157,
0.627450980392157);
ENDSEC;
END-ISO-10303-21;
