  0
SECTION
  2
HEADER
  9
$ACADVER
  1
AC1009
  0
ENDSEC
  0
SECTION
  2
ENTITIES
  0
POLYLINE
  5
90
  8
Layer_0
  62
0
  70
1
  66
1
  10
0
  20
0
  30
0
  0
VERTEX
  5
90
  8
Layer_0
  10
778.90588
  20
520.58594
  0
VERTEX
  5
91
  8
Layer_0
  10
773.50256
  20
525.29602
  0
VERTEX
  5
92
  8
Layer_0
  10
772.85016
  20
526.01245
  0
VERTEX
  5
93
  8
Layer_0
  10
772.07098
  20
527.09607
  0
VERTEX
  5
94
  8
Layer_0
  10
771.97601
  20
527.22302
  0
VERTEX
  5
95
  8
Layer_0
  10
771.73267
  20
527.53589
  0
VERTEX
  5
96
  8
Layer_0
  10
771.41571
  20
527.97144
  0
VERTEX
  5
97
  8
Layer_0
  10
771.12762
  20
528.4259
  0
VERTEX
  5
98
  8
Layer_0
  10
770.86926
  20
528.89795
  0
VERTEX
  5
99
  8
Layer_0
  10
770.64148
  20
529.38611
  0
VERTEX
  5
9a
  8
Layer_0
  10
770.44482
  20
529.88922
  0
VERTEX
  5
9b
  8
Layer_0
  10
770.28156
  20
530.40198
  0
VERTEX
  5
9c
  8
Layer_0
  10
770.15143
  20
530.92413
  0
VERTEX
  5
9d
  8
Layer_0
  10
770.05493
  20
531.4541
  0
VERTEX
  5
9e
  8
Layer_0
  10
770.0061
  20
531.78168
  0
VERTEX
  5
9f
  8
Layer_0
  10
769.95081
  20
532.05542
  0
VERTEX
  5
a0
  8
Layer_0
  10
769.86816
  20
532.32147
  0
VERTEX
  5
a1
  8
Layer_0
  10
769.75873
  20
532.57764
  0
VERTEX
  5
a2
  8
Layer_0
  10
769.62341
  20
532.82196
  0
VERTEX
  5
a3
  8
Layer_0
  10
768.93054
  20
534.20386
  0
VERTEX
  5
a4
  8
Layer_0
  10
768.50244
  20
535.69043
  0
VERTEX
  5
a5
  8
Layer_0
  10
768.39502
  20
536.08838
  0
VERTEX
  5
a6
  8
Layer_0
  10
768.22998
  20
536.46356
  0
VERTEX
  5
a7
  8
Layer_0
  10
768.01062
  20
536.80981
  0
VERTEX
  5
a8
  8
Layer_0
  10
767.74011
  20
537.12085
  0
VERTEX
  5
a9
  8
Layer_0
  10
761.75055
  20
543.04175
  0
VERTEX
  5
aa
  8
Layer_0
  10
761.59955
  20
543.1864
  0
VERTEX
  5
ab
  8
Layer_0
  10
761.09583
  20
543.71283
  0
VERTEX
  5
ac
  8
Layer_0
  10
760.64044
  20
544.27991
  0
VERTEX
  5
ad
  8
Layer_0
  10
760.23584
  20
544.88422
  0
VERTEX
  5
ae
  8
Layer_0
  10
759.88446
  20
545.52246
  0
VERTEX
  5
af
  8
Layer_0
  10
758.388
  20
548.54413
  0
VERTEX
  5
b0
  8
Layer_0
  10
757.82977
  20
549.47852
  0
VERTEX
  5
b1
  8
Layer_0
  10
757.22607
  20
550.32898
  0
VERTEX
  5
b2
  8
Layer_0
  10
756.53137
  20
551.16113
  0
VERTEX
  5
b3
  8
Layer_0
  10
755.83704
  20
551.87134
  0
VERTEX
  5
b4
  8
Layer_0
  10
755.59741
  20
552.0979
  0
VERTEX
  5
b5
  8
Layer_0
  10
754.98242
  20
552.63519
  0
VERTEX
  5
b6
  8
Layer_0
  10
754.82166
  20
552.76874
  0
VERTEX
  5
b7
  8
Layer_0
  10
754.22583
  20
553.23907
  0
VERTEX
  5
b8
  8
Layer_0
  10
754.04797
  20
553.37201
  0
VERTEX
  5
b9
  8
Layer_0
  10
753.09021
  20
554.04901
  0
VERTEX
  5
ba
  8
Layer_0
  10
752.21143
  20
554.88318
  0
VERTEX
  5
bb
  8
Layer_0
  10
751.53394
  20
555.74274
  0
VERTEX
  5
bc
  8
Layer_0
  10
751.44098
  20
555.85651
  0
VERTEX
  5
bd
  8
Layer_0
  10
751.00153
  20
556.37561
  0
VERTEX
  5
be
  8
Layer_0
  10
750.8916
  20
556.50031
  0
VERTEX
  5
bf
  8
Layer_0
  10
750.40741
  20
557.0285
  0
VERTEX
  5
c0
  8
Layer_0
  10
750.26306
  20
557.17828
  0
VERTEX
  5
c1
  8
Layer_0
  10
749.68811
  20
557.74597
  0
VERTEX
  5
c2
  8
Layer_0
  10
749.47253
  20
557.94446
  0
VERTEX
  5
c3
  8
Layer_0
  10
748.89789
  20
558.43768
  0
VERTEX
  5
c4
  8
Layer_0
  10
748.74036
  20
558.56641
  0
VERTEX
  5
c5
  8
Layer_0
  10
746.09552
  20
560.62244
  0
VERTEX
  5
c6
  8
Layer_0
  10
746.01813
  20
560.68109
  0
VERTEX
  5
c7
  8
Layer_0
  10
741.93445
  20
563.70667
  0
VERTEX
  5
c8
  8
Layer_0
  10
741.51825
  20
563.96082
  0
VERTEX
  5
c9
  8
Layer_0
  10
741.0672
  20
564.13574
  0
VERTEX
  5
ca
  8
Layer_0
  10
740.59229
  20
564.22827
  0
VERTEX
  5
cb
  8
Layer_0
  10
740.10474
  20
564.23523
  0
VERTEX
  5
cc
  8
Layer_0
  10
739.39703
  20
564.21185
  0
VERTEX
  5
cd
  8
Layer_0
  10
738.69104
  20
564.24805
  0
VERTEX
  5
ce
  8
Layer_0
  10
737.9906
  20
564.34363
  0
VERTEX
  5
cf
  8
Layer_0
  10
737.2995
  20
564.49805
  0
VERTEX
  5
d0
  8
Layer_0
  10
736.62195
  20
564.71075
  0
VERTEX
  5
d1
  8
Layer_0
  10
735.96777
  20
564.97852
  0
VERTEX
  5
d2
  8
Layer_0
  10
735.33844
  20
565.30042
  0
VERTEX
  5
d3
  8
Layer_0
  10
734.73737
  20
565.67487
  0
VERTEX
  5
d4
  8
Layer_0
  10
734.32635
  20
565.95557
  0
VERTEX
  5
d5
  8
Layer_0
  10
734.0509
  20
566.12085
  0
VERTEX
  5
d6
  8
Layer_0
  10
733.76105
  20
566.25146
  0
VERTEX
  5
d7
  8
Layer_0
  10
733.45996
  20
566.34692
  0
VERTEX
  5
d8
  8
Layer_0
  10
733.15088
  20
566.40686
  0
VERTEX
  5
d9
  8
Layer_0
  10
732.83685
  20
566.43079
  0
VERTEX
  5
da
  8
Layer_0
  10
732.52124
  20
566.41833
  0
VERTEX
  5
db
  8
Layer_0
  10
732.20721
  20
566.36896
  0
VERTEX
  5
dc
  8
Layer_0
  10
731.89789
  20
566.28235
  0
VERTEX
  5
dd
  8
Layer_0
  10
726.05231
  20
564.26807
  0
VERTEX
  5
de
  8
Layer_0
  10
725.85468
  20
564.1944
  0
VERTEX
  5
df
  8
Layer_0
  10
724.95166
  20
563.83142
  0
VERTEX
  5
e0
  8
Layer_0
  10
724.75958
  20
563.74866
  0
VERTEX
  5
e1
  8
Layer_0
  10
723.76752
  20
563.29132
  0
VERTEX
  5
e2
  8
Layer_0
  10
723.65363
  20
563.23676
  0
VERTEX
  5
e3
  8
Layer_0
  10
722.66418
  20
562.74402
  0
VERTEX
  5
e4
  8
Layer_0
  10
722.56042
  20
562.69049
  0
VERTEX
  5
e5
  8
Layer_0
  10
721.56213
  20
562.15814
  0
VERTEX
  5
e6
  8
Layer_0
  10
720.67859
  20
561.80847
  0
VERTEX
  5
e7
  8
Layer_0
  10
719.77765
  20
561.56506
  0
VERTEX
  5
e8
  8
Layer_0
  10
719.68036
  20
561.53754
  0
VERTEX
  5
e9
  8
Layer_0
  10
718.98682
  20
561.33209
  0
VERTEX
  5
ea
  8
Layer_0
  10
718.20325
  20
561.08057
  0
VERTEX
  5
eb
  8
Layer_0
  10
718.10718
  20
561.04834
  0
VERTEX
  5
ec
  8
Layer_0
  10
717.42712
  20
560.81061
  0
VERTEX
  5
ed
  8
Layer_0
  10
717.3316
  20
560.77594
  0
VERTEX
  5
ee
  8
Layer_0
  10
716.65857
  20
560.52228
  0
VERTEX
  5
ef
  8
Layer_0
  10
716.56342
  20
560.48511
  0
VERTEX
  5
f0
  8
Layer_0
  10
715.89771
  20
560.21545
  0
VERTEX
  5
f1
  8
Layer_0
  10
715.80292
  20
560.17578
  0
VERTEX
  5
f2
  8
Layer_0
  10
715.14478
  20
559.89038
  0
VERTEX
  5
f3
  8
Layer_0
  10
715.05023
  20
559.8479
  0
VERTEX
  5
f4
  8
Layer_0
  10
714.39996
  20
559.54651
  0
VERTEX
  5
f5
  8
Layer_0
  10
714.30554
  20
559.5014
  0
VERTEX
  5
f6
  8
Layer_0
  10
713.73975
  20
559.2218
  0
VERTEX
  5
f7
  8
Layer_0
  10
713.30969
  20
559.02423
  0
VERTEX
  5
f8
  8
Layer_0
  10
712.8703
  20
558.85156
  0
VERTEX
  5
f9
  8
Layer_0
  10
712.42255
  20
558.7041
  0
VERTEX
  5
fa
  8
Layer_0
  10
711.96765
  20
558.58209
  0
VERTEX
  5
fb
  8
Layer_0
  10
711.50659
  20
558.48584
  0
VERTEX
  5
fc
  8
Layer_0
  10
711.04053
  20
558.41547
  0
VERTEX
  5
fd
  8
Layer_0
  10
710.57043
  20
558.37134
  0
VERTEX
  5
fe
  8
Layer_0
  10
710.09753
  20
558.35376
  0
VERTEX
  5
ff
  8
Layer_0
  10
709.6217
  20
558.36279
  0
VERTEX
  5
100
  8
Layer_0
  10
709.15094
  20
558.39844
  0
VERTEX
  5
101
  8
Layer_0
  10
708.68365
  20
558.46033
  0
VERTEX
  5
102
  8
Layer_0
  10
708.22095
  20
558.54822
  0
VERTEX
  5
103
  8
Layer_0
  10
707.76385
  20
558.66199
  0
VERTEX
  5
104
  8
Layer_0
  10
707.31354
  20
558.80133
  0
VERTEX
  5
105
  8
Layer_0
  10
706.87109
  20
558.96606
  0
VERTEX
  5
106
  8
Layer_0
  10
706.43756
  20
559.15582
  0
VERTEX
  5
107
  8
Layer_0
  10
702.57513
  20
560.97791
  0
VERTEX
  5
108
  8
Layer_0
  10
702.29712
  20
561.09082
  0
VERTEX
  5
109
  8
Layer_0
  10
702.0094
  20
561.17224
  0
VERTEX
  5
10a
  8
Layer_0
  10
701.71442
  20
561.2218
  0
VERTEX
  5
10b
  8
Layer_0
  10
701.41486
  20
561.23871
  0
VERTEX
  5
10c
  8
Layer_0
  10
700.62262
  20
561.2774
  0
VERTEX
  5
10d
  8
Layer_0
  10
699.83929
  20
561.39032
  0
VERTEX
  5
10e
  8
Layer_0
  10
699.07013
  20
561.57648
  0
VERTEX
  5
10f
  8
Layer_0
  10
698.32031
  20
561.8349
  0
VERTEX
  5
110
  8
Layer_0
  10
697.68774
  20
562.11768
  0
VERTEX
  5
111
  8
Layer_0
  10
697.0835
  20
562.44971
  0
VERTEX
  5
112
  8
Layer_0
  10
696.50854
  20
562.83032
  0
VERTEX
  5
113
  8
Layer_0
  10
695.96588
  20
563.25751
  0
VERTEX
  5
114
  8
Layer_0
  10
693.10339
  20
564.75183
  0
VERTEX
  5
115
  8
Layer_0
  10
692.69666
  20
564.9787
  0
VERTEX
  5
116
  8
Layer_0
  10
692.30408
  20
565.22717
  0
VERTEX
  5
117
  8
Layer_0
  10
691.92639
  20
565.49658
  0
VERTEX
  5
118
  8
Layer_0
  10
691.56445
  20
565.78619
  0
VERTEX
  5
119
  8
Layer_0
  10
691.21899
  20
566.09534
  0
VERTEX
  5
11a
  8
Layer_0
  10
690.89093
  20
566.42334
  0
VERTEX
  5
11b
  8
Layer_0
  10
690.58105
  20
566.76953
  0
VERTEX
  5
11c
  8
Layer_0
  10
690.29016
  20
567.13318
  0
VERTEX
  5
11d
  8
Layer_0
  10
684.29541
  20
575.0683
  0
VERTEX
  5
11e
  8
Layer_0
  10
684.07727
  20
575.32294
  0
VERTEX
  5
11f
  8
Layer_0
  10
683.8324
  20
575.54651
  0
VERTEX
  5
120
  8
Layer_0
  10
683.56421
  20
575.73755
  0
VERTEX
  5
121
  8
Layer_0
  10
683.276
  20
575.89441
  0
VERTEX
  5
122
  8
Layer_0
  10
682.97101
  20
576.01556
  0
VERTEX
  5
123
  8
Layer_0
  10
682.65259
  20
576.09949
  0
VERTEX
  5
124
  8
Layer_0
  10
682.3241
  20
576.14453
  0
VERTEX
  5
125
  8
Layer_0
  10
681.98877
  20
576.14929
  0
VERTEX
  5
126
  8
Layer_0
  10
681.44147
  20
576.14124
  0
VERTEX
  5
127
  8
Layer_0
  10
680.89545
  20
576.16882
  0
VERTEX
  5
128
  8
Layer_0
  10
680.35236
  20
576.23187
  0
VERTEX
  5
129
  8
Layer_0
  10
679.81396
  20
576.33032
  0
VERTEX
  5
12a
  8
Layer_0
  10
679.28137
  20
576.46399
  0
VERTEX
  5
12b
  8
Layer_0
  10
678.76086
  20
576.63141
  0
VERTEX
  5
12c
  8
Layer_0
  10
678.25238
  20
576.83234
  0
VERTEX
  5
12d
  8
Layer_0
  10
677.75751
  20
577.06622
  0
VERTEX
  5
12e
  8
Layer_0
  10
677.36487
  20
577.23041
  0
VERTEX
  5
12f
  8
Layer_0
  10
676.95398
  20
577.33118
  0
VERTEX
  5
130
  8
Layer_0
  10
676.53253
  20
577.36719
  0
VERTEX
  5
131
  8
Layer_0
  10
676.10803
  20
577.33734
  0
VERTEX
  5
132
  8
Layer_0
  10
675.46136
  20
577.26611
  0
VERTEX
  5
133
  8
Layer_0
  10
674.81213
  20
577.24524
  0
VERTEX
  5
134
  8
Layer_0
  10
674.16321
  20
577.2746
  0
VERTEX
  5
135
  8
Layer_0
  10
673.51752
  20
577.35425
  0
VERTEX
  5
136
  8
Layer_0
  10
672.87744
  20
577.48407
  0
VERTEX
  5
137
  8
Layer_0
  10
672.25275
  20
577.66211
  0
VERTEX
  5
138
  8
Layer_0
  10
671.64368
  20
577.888
  0
VERTEX
  5
139
  8
Layer_0
  10
671.05298
  20
578.16077
  0
VERTEX
  5
13a
  8
Layer_0
  10
670.57733
  20
578.34937
  0
VERTEX
  5
13b
  8
Layer_0
  10
670.07928
  20
578.44543
  0
VERTEX
  5
13c
  8
Layer_0
  10
669.57202
  20
578.44763
  0
VERTEX
  5
13d
  8
Layer_0
  10
669.06885
  20
578.35468
  0
VERTEX
  5
13e
  8
Layer_0
  10
664.15558
  20
576.96051
  0
VERTEX
  5
13f
  8
Layer_0
  10
660.07715
  20
575.77112
  0
VERTEX
  5
140
  8
Layer_0
  10
659.96381
  20
575.73633
  0
VERTEX
  5
141
  8
Layer_0
  10
658.58636
  20
575.29199
  0
VERTEX
  5
142
  8
Layer_0
  10
657.96851
  20
575.11847
  0
VERTEX
  5
143
  8
Layer_0
  10
657.34021
  20
574.9928
  0
VERTEX
  5
144
  8
Layer_0
  10
656.7041
  20
574.91547
  0
VERTEX
  5
145
  8
Layer_0
  10
656.06311
  20
574.88684
  0
VERTEX
  5
146
  8
Layer_0
  10
655.41998
  20
574.90729
  0
VERTEX
  5
147
  8
Layer_0
  10
654.78296
  20
574.9765
  0
VERTEX
  5
148
  8
Layer_0
  10
654.15314
  20
575.09412
  0
VERTEX
  5
149
  8
Layer_0
  10
653.5332
  20
575.2597
  0
VERTEX
  5
14a
  8
Layer_0
  10
653.47144
  20
575.27875
  0
VERTEX
  5
14b
  8
Layer_0
  10
653.18988
  20
575.35498
  0
VERTEX
  5
14c
  8
Layer_0
  10
652.49042
  20
575.51849
  0
VERTEX
  5
14d
  8
Layer_0
  10
651.58905
  20
575.71735
  0
VERTEX
  5
14e
  8
Layer_0
  10
650.91187
  20
575.99609
  0
VERTEX
  5
14f
  8
Layer_0
  10
649.61768
  20
576.66547
  0
VERTEX
  5
150
  8
Layer_0
  10
649.39587
  20
576.79175
  0
VERTEX
  5
151
  8
Layer_0
  10
649.1637
  20
576.89648
  0
VERTEX
  5
152
  8
Layer_0
  10
648.92285
  20
576.97919
  0
VERTEX
  5
153
  8
Layer_0
  10
648.6748
  20
577.03918
  0
VERTEX
  5
154
  8
Layer_0
  10
646.00861
  20
577.54565
  0
VERTEX
  5
155
  8
Layer_0
  10
639.16547
  20
579.1153
  0
VERTEX
  5
156
  8
Layer_0
  10
638.88721
  20
579.16382
  0
VERTEX
  5
157
  8
Layer_0
  10
638.60614
  20
579.18335
  0
VERTEX
  5
158
  8
Layer_0
  10
638.32458
  20
579.17371
  0
VERTEX
  5
159
  8
Layer_0
  10
638.0448
  20
579.13507
  0
VERTEX
  5
15a
  8
Layer_0
  10
636.66675
  20
578.87115
  0
VERTEX
  5
15b
  8
Layer_0
  10
636.10138
  20
578.78271
  0
VERTEX
  5
15c
  8
Layer_0
  10
635.53333
  20
578.73315
  0
VERTEX
  5
15d
  8
Layer_0
  10
634.96448
  20
578.72229
  0
VERTEX
  5
15e
  8
Layer_0
  10
634.39685
  20
578.74988
  0
VERTEX
  5
15f
  8
Layer_0
  10
633.8324
  20
578.8158
  0
VERTEX
  5
160
  8
Layer_0
  10
633.27307
  20
578.91992
  0
VERTEX
  5
161
  8
Layer_0
  10
632.72076
  20
579.06207
  0
VERTEX
  5
162
  8
Layer_0
  10
632.17761
  20
579.24207
  0
VERTEX
  5
163
  8
Layer_0
  10
631.64502
  20
579.45972
  0
VERTEX
  5
164
  8
Layer_0
  10
631.13318
  20
579.71094
  0
VERTEX
  5
165
  8
Layer_0
  10
630.64063
  20
579.99561
  0
VERTEX
  5
166
  8
Layer_0
  10
630.16895
  20
580.31268
  0
VERTEX
  5
167
  8
Layer_0
  10
629.71985
  20
580.66089
  0
VERTEX
  5
168
  8
Layer_0
  10
629.29492
  20
581.03918
  0
VERTEX
  5
169
  8
Layer_0
  10
628.89563
  20
581.44635
  0
VERTEX
  5
16a
  8
Layer_0
  10
628.52368
  20
581.88123
  0
VERTEX
  5
16b
  8
Layer_0
  10
625.25537
  20
585.97748
  0
VERTEX
  5
16c
  8
Layer_0
  10
624.89172
  20
586.35303
  0
VERTEX
  5
16d
  8
Layer_0
  10
624.46722
  20
586.64996
  0
VERTEX
  5
16e
  8
Layer_0
  10
623.99426
  20
586.86139
  0
VERTEX
  5
16f
  8
Layer_0
  10
623.48523
  20
586.98022
  0
VERTEX
  5
170
  8
Layer_0
  10
611.87317
  20
588.539
  0
VERTEX
  5
171
  8
Layer_0
  10
611.61011
  20
588.5614
  0
VERTEX
  5
172
  8
Layer_0
  10
611.34784
  20
588.55835
  0
VERTEX
  5
173
  8
Layer_0
  10
611.08826
  20
588.5304
  0
VERTEX
  5
174
  8
Layer_0
  10
610.83313
  20
588.47791
  0
VERTEX
  5
175
  8
Layer_0
  10
610.58423
  20
588.40137
  0
VERTEX
  5
176
  8
Layer_0
  10
610.34314
  20
588.30127
  0
VERTEX
  5
177
  8
Layer_0
  10
610.11169
  20
588.17792
  0
VERTEX
  5
178
  8
Layer_0
  10
609.89172
  20
588.03186
  0
VERTEX
  5
179
  8
Layer_0
  10
604.88324
  20
584.18518
  0
VERTEX
  5
17a
  8
Layer_0
  10
604.49957
  20
583.90735
  0
VERTEX
  5
17b
  8
Layer_0
  10
604.1012
  20
583.65186
  0
VERTEX
  5
17c
  8
Layer_0
  10
603.68903
  20
583.41919
  0
VERTEX
  5
17d
  8
Layer_0
  10
603.26404
  20
583.2099
  0
VERTEX
  5
17e
  8
Layer_0
  10
601.79712
  20
582.53845
  0
VERTEX
  5
17f
  8
Layer_0
  10
601.3208
  20
582.21796
  0
VERTEX
  5
180
  8
Layer_0
  10
600.81262
  20
581.8241
  0
VERTEX
  5
181
  8
Layer_0
  10
600.27661
  20
581.47083
  0
VERTEX
  5
182
  8
Layer_0
  10
599.71515
  20
581.15955
  0
VERTEX
  5
183
  8
Layer_0
  10
599.13074
  20
580.89178
  0
VERTEX
  5
184
  8
Layer_0
  10
598.526
  20
580.66882
  0
VERTEX
  5
185
  8
Layer_0
  10
597.90857
  20
580.49359
  0
VERTEX
  5
186
  8
Layer_0
  10
597.27954
  20
580.36603
  0
VERTEX
  5
187
  8
Layer_0
  10
596.64172
  20
580.2868
  0
VERTEX
  5
188
  8
Layer_0
  10
562.77832
  20
577.39288
  0
VERTEX
  5
189
  8
Layer_0
  10
533.05927
  20
576.00378
  0
VERTEX
  5
18a
  8
Layer_0
  10
527.96179
  20
575.86853
  0
VERTEX
  5
18b
  8
Layer_0
  10
522.81299
  20
575.74011
  0
VERTEX
  5
18c
  8
Layer_0
  10
517.74609
  20
575.62646
  0
VERTEX
  5
18d
  8
Layer_0
  10
512.75812
  20
575.52393
  0
VERTEX
  5
18e
  8
Layer_0
  10
490.224
  20
575.44751
  0
VERTEX
  5
18f
  8
Layer_0
  10
482.61639
  20
575.59955
  0
VERTEX
  5
190
  8
Layer_0
  10
474.67126
  20
575.77545
  0
VERTEX
  5
191
  8
Layer_0
  10
466.29468
  20
575.98395
  0
VERTEX
  5
192
  8
Layer_0
  10
457.74402
  20
576.21106
  0
VERTEX
  5
193
  8
Layer_0
  10
445.84979
  20
576.81427
  0
VERTEX
  5
194
  8
Layer_0
  10
440.17749
  20
577.12671
  0
VERTEX
  5
195
  8
Layer_0
  10
433.5448
  20
577.53174
  0
VERTEX
  5
196
  8
Layer_0
  10
426.78064
  20
577.97668
  0
VERTEX
  5
197
  8
Layer_0
  10
420.7157
  20
578.40894
  0
VERTEX
  5
198
  8
Layer_0
  10
407.55829
  20
579.39563
  0
VERTEX
  5
199
  8
Layer_0
  10
394.79211
  20
580.63293
  0
VERTEX
  5
19a
  8
Layer_0
  10
382.24481
  20
582.03467
  0
VERTEX
  5
19b
  8
Layer_0
  10
376.54639
  20
582.68994
  0
VERTEX
  5
19c
  8
Layer_0
  10
370.30731
  20
583.43848
  0
VERTEX
  5
19d
  8
Layer_0
  10
364.28839
  20
584.18726
  0
VERTEX
  5
19e
  8
Layer_0
  10
359.24774
  20
584.84351
  0
VERTEX
  5
19f
  8
Layer_0
  10
348.82166
  20
586.24707
  0
VERTEX
  5
1a0
  8
Layer_0
  10
341.3457
  20
587.40125
  0
VERTEX
  5
1a1
  8
Layer_0
  10
337.83679
  20
587.9527
  0
VERTEX
  5
1a2
  8
Layer_0
  10
333.83954
  20
588.59705
  0
VERTEX
  5
1a3
  8
Layer_0
  10
329.84912
  20
589.25366
  0
VERTEX
  5
1a4
  8
Layer_0
  10
326.36047
  20
589.84192
  0
VERTEX
  5
1a5
  8
Layer_0
  10
312.15912
  20
592.2782
  0
VERTEX
  5
1a6
  8
Layer_0
  10
311.74304
  20
592.3172
  0
VERTEX
  5
1a7
  8
Layer_0
  10
311.33301
  20
592.29309
  0
VERTEX
  5
1a8
  8
Layer_0
  10
310.9353
  20
592.20886
  0
VERTEX
  5
1a9
  8
Layer_0
  10
310.5564
  20
592.06738
  0
VERTEX
  5
1aa
  8
Layer_0
  10
310.20251
  20
591.87146
  0
VERTEX
  5
1ab
  8
Layer_0
  10
309.87994
  20
591.62415
  0
VERTEX
  5
1ac
  8
Layer_0
  10
309.59503
  20
591.32825
  0
VERTEX
  5
1ad
  8
Layer_0
  10
309.35413
  20
590.98676
  0
VERTEX
  5
1ae
  8
Layer_0
  10
308.59424
  20
589.71326
  0
VERTEX
  5
1af
  8
Layer_0
  10
308.16455
  20
589.06366
  0
VERTEX
  5
1b0
  8
Layer_0
  10
307.67987
  20
588.46045
  0
VERTEX
  5
1b1
  8
Layer_0
  10
307.14398
  20
587.90656
  0
VERTEX
  5
1b2
  8
Layer_0
  10
306.56079
  20
587.40515
  0
VERTEX
  5
1b3
  8
Layer_0
  10
305.9342
  20
586.95923
  0
VERTEX
  5
1b4
  8
Layer_0
  10
305.26794
  20
586.57178
  0
VERTEX
  5
1b5
  8
Layer_0
  10
304.56604
  20
586.24585
  0
VERTEX
  5
1b6
  8
Layer_0
  10
303.83234
  20
585.98456
  0
VERTEX
  5
1b7
  8
Layer_0
  10
303.07373
  20
585.7912
  0
VERTEX
  5
1b8
  8
Layer_0
  10
302.30933
  20
585.67035
  0
VERTEX
  5
1b9
  8
Layer_0
  10
301.54028
  20
585.62048
  0
VERTEX
  5
1ba
  8
Layer_0
  10
300.77142
  20
585.64124
  0
VERTEX
  5
1bb
  8
Layer_0
  10
300.00769
  20
585.7323
  0
VERTEX
  5
1bc
  8
Layer_0
  10
299.25403
  20
585.89319
  0
VERTEX
  5
1bd
  8
Layer_0
  10
298.51526
  20
586.12372
  0
VERTEX
  5
1be
  8
Layer_0
  10
297.79639
  20
586.4234
  0
VERTEX
  5
1bf
  8
Layer_0
  10
297.33093
  20
586.59351
  0
VERTEX
  5
1c0
  8
Layer_0
  10
296.84631
  20
586.67633
  0
VERTEX
  5
1c1
  8
Layer_0
  10
296.35474
  20
586.6709
  0
VERTEX
  5
1c2
  8
Layer_0
  10
295.86823
  20
586.57617
  0
VERTEX
  5
1c3
  8
Layer_0
  10
282.4715
  20
582.67834
  0
VERTEX
  5
1c4
  8
Layer_0
  10
282.03888
  20
582.50867
  0
VERTEX
  5
1c5
  8
Layer_0
  10
281.64978
  20
582.27344
  0
VERTEX
  5
1c6
  8
Layer_0
  10
281.30969
  20
581.98022
  0
VERTEX
  5
1c7
  8
Layer_0
  10
281.02417
  20
581.63708
  0
VERTEX
  5
1c8
  8
Layer_0
  10
280.79871
  20
581.25183
  0
VERTEX
  5
1c9
  8
Layer_0
  10
280.63879
  20
580.83228
  0
VERTEX
  5
1ca
  8
Layer_0
  10
280.54999
  20
580.38635
  0
VERTEX
  5
1cb
  8
Layer_0
  10
280.53772
  20
579.92181
  0
VERTEX
  5
1cc
  8
Layer_0
  10
280.94495
  20
571.83551
  0
VERTEX
  5
1cd
  8
Layer_0
  10
280.97375
  20
571.23853
  0
VERTEX
  5
1ce
  8
Layer_0
  10
280.96429
  20
569.82495
  0
VERTEX
  5
1cf
  8
Layer_0
  10
280.52795
  20
565.16058
  0
VERTEX
  5
1d0
  8
Layer_0
  10
280.51404
  20
564.88513
  0
VERTEX
  5
1d1
  8
Layer_0
  10
280.52789
  20
564.61035
  0
VERTEX
  5
1d2
  8
Layer_0
  10
280.56934
  20
564.33844
  0
VERTEX
  5
1d3
  8
Layer_0
  10
280.63831
  20
564.07141
  0
VERTEX
  5
1d4
  8
Layer_0
  10
282.22827
  20
559.01959
  0
VERTEX
  5
1d5
  8
Layer_0
  10
282.41895
  20
558.00751
  0
VERTEX
  5
1d6
  8
Layer_0
  10
282.97858
  20
548.69769
  0
VERTEX
  5
1d7
  8
Layer_0
  10
282.89154
  20
547.55591
  0
VERTEX
  5
1d8
  8
Layer_0
  10
282.68463
  20
546.59558
  0
VERTEX
  5
1d9
  8
Layer_0
  10
282.16626
  20
543.91968
  0
VERTEX
  5
1da
  8
Layer_0
  10
282.13086
  20
543.6792
  0
VERTEX
  5
1db
  8
Layer_0
  10
282.11694
  20
543.43701
  0
VERTEX
  5
1dc
  8
Layer_0
  10
282.12457
  20
543.19458
  0
VERTEX
  5
1dd
  8
Layer_0
  10
282.15381
  20
542.95337
  0
VERTEX
  5
1de
  8
Layer_0
  10
282.26581
  20
541.77026
  0
VERTEX
  5
1df
  8
Layer_0
  10
282.27985
  20
541.17395
  0
VERTEX
  5
1e0
  8
Layer_0
  10
282.12262
  20
539.84918
  0
VERTEX
  5
1e1
  8
Layer_0
  10
282.10669
  20
539.68866
  0
VERTEX
  5
1e2
  8
Layer_0
  10
282.01721
  20
538.56897
  0
VERTEX
  5
1e3
  8
Layer_0
  10
282.00555
  20
538.35291
  0
VERTEX
  5
1e4
  8
Layer_0
  10
281.98352
  20
537.56915
  0
VERTEX
  5
1e5
  8
Layer_0
  10
281.98499
  20
537.26819
  0
VERTEX
  5
1e6
  8
Layer_0
  10
282.00482
  20
536.65137
  0
VERTEX
  5
1e7
  8
Layer_0
  10
282.03284
  20
536.22021
  0
VERTEX
  5
1e8
  8
Layer_0
  10
282.06866
  20
535.30353
  0
VERTEX
  5
1e9
  8
Layer_0
  10
282.02789
  20
534.79968
  0
VERTEX
  5
1ea
  8
Layer_0
  10
282.02887
  20
534.27734
  0
VERTEX
  5
1eb
  8
Layer_0
  10
281.99738
  20
533.75647
  0
VERTEX
  5
1ec
  8
Layer_0
  10
281.93353
  20
533.23859
  0
VERTEX
  5
1ed
  8
Layer_0
  10
281.83759
  20
532.72522
  0
VERTEX
  5
1ee
  8
Layer_0
  10
281.79688
  20
532.53943
  0
VERTEX
  5
1ef
  8
Layer_0
  10
281.35101
  20
530.35645
  0
VERTEX
  5
1f0
  8
Layer_0
  10
280.9613
  20
528.29163
  0
VERTEX
  5
1f1
  8
Layer_0
  10
280.60565
  20
526.39111
  0
VERTEX
  5
1f2
  8
Layer_0
  10
280.21588
  20
524.44543
  0
VERTEX
  5
1f3
  8
Layer_0
  10
279.83417
  20
522.64771
  0
VERTEX
  5
1f4
  8
Layer_0
  10
279.5163
  20
521.26404
  0
VERTEX
  5
1f5
  8
Layer_0
  10
278.90143
  20
518.66394
  0
VERTEX
  5
1f6
  8
Layer_0
  10
274.40222
  20
505.4057
  0
VERTEX
  5
1f7
  8
Layer_0
  10
274.2171
  20
504.814
  0
VERTEX
  5
1f8
  8
Layer_0
  10
274.05975
  20
504.35498
  0
VERTEX
  5
1f9
  8
Layer_0
  10
273.87634
  20
503.90616
  0
VERTEX
  5
1fa
  8
Layer_0
  10
273.66736
  20
503.46869
  0
VERTEX
  5
1fb
  8
Layer_0
  10
273.43323
  20
503.0437
  0
VERTEX
  5
1fc
  8
Layer_0
  10
273.17419
  20
502.63171
  0
VERTEX
  5
1fd
  8
Layer_0
  10
272.89282
  20
502.23688
  0
VERTEX
  5
1fe
  8
Layer_0
  10
272.58911
  20
501.85895
  0
VERTEX
  5
1ff
  8
Layer_0
  10
272.26379
  20
501.49887
  0
VERTEX
  5
200
  8
Layer_0
  10
272.0675
  20
501.26959
  0
VERTEX
  5
201
  8
Layer_0
  10
271.89807
  20
501.02078
  0
VERTEX
  5
202
  8
Layer_0
  10
271.7572
  20
500.75482
  0
VERTEX
  5
203
  8
Layer_0
  10
271.64612
  20
500.47412
  0
VERTEX
  5
204
  8
Layer_0
  10
270.66589
  20
497.47354
  0
VERTEX
  5
205
  8
Layer_0
  10
269.24872
  20
493.87204
  0
VERTEX
  5
206
  8
Layer_0
  10
269.01923
  20
493.30811
  0
VERTEX
  5
207
  8
Layer_0
  10
268.57434
  20
492.30682
  0
VERTEX
  5
208
  8
Layer_0
  10
268.21313
  20
491.55893
  0
VERTEX
  5
209
  8
Layer_0
  10
265.54602
  20
486.76617
  0
VERTEX
  5
20a
  8
Layer_0
  10
265.35059
  20
486.32843
  0
VERTEX
  5
20b
  8
Layer_0
  10
265.23547
  20
485.86682
  0
VERTEX
  5
20c
  8
Layer_0
  10
265.20227
  20
485.39221
  0
VERTEX
  5
20d
  8
Layer_0
  10
265.25275
  20
484.91547
  0
VERTEX
  5
20e
  8
Layer_0
  10
265.97614
  20
481.22388
  0
VERTEX
  5
20f
  8
Layer_0
  10
266.05139
  20
480.77631
  0
VERTEX
  5
210
  8
Layer_0
  10
266.10217
  20
480.32565
  0
VERTEX
  5
211
  8
Layer_0
  10
266.12866
  20
479.87292
  0
VERTEX
  5
212
  8
Layer_0
  10
266.13062
  20
479.4191
  0
VERTEX
  5
213
  8
Layer_0
  10
266.10803
  20
478.96448
  0
VERTEX
  5
214
  8
Layer_0
  10
266.06104
  20
478.51343
  0
VERTEX
  5
215
  8
Layer_0
  10
265.98975
  20
478.06552
  0
VERTEX
  5
216
  8
Layer_0
  10
265.89429
  20
477.62183
  0
VERTEX
  5
217
  8
Layer_0
  10
265.18036
  20
474.6911
  0
VERTEX
  5
218
  8
Layer_0
  10
265.79407
  20
468.40079
  0
VERTEX
  5
219
  8
Layer_0
  10
265.74683
  20
466.19107
  0
VERTEX
  5
21a
  8
Layer_0
  10
265.84552
  20
465.47
  0
VERTEX
  5
21b
  8
Layer_0
  10
266.11853
  20
463.94437
  0
VERTEX
  5
21c
  8
Layer_0
  10
266.18439
  20
463.16776
  0
VERTEX
  5
21d
  8
Layer_0
  10
265.98285
  20
461.16483
  0
VERTEX
  5
21e
  8
Layer_0
  10
265.71967
  20
458.20715
  0
VERTEX
  5
21f
  8
Layer_0
  10
265.45154
  20
457.05685
  0
VERTEX
  5
220
  8
Layer_0
  10
261.47443
  20
446.78494
  0
VERTEX
  5
221
  8
Layer_0
  10
261.37762
  20
446.48425
  0
VERTEX
  5
222
  8
Layer_0
  10
261.31635
  20
446.17538
  0
VERTEX
  5
223
  8
Layer_0
  10
261.29114
  20
445.86151
  0
VERTEX
  5
224
  8
Layer_0
  10
261.30237
  20
445.54581
  0
VERTEX
  5
225
  8
Layer_0
  10
261.90234
  20
439.14145
  0
VERTEX
  5
226
  8
Layer_0
  10
262.06042
  20
438.18365
  0
VERTEX
  5
227
  8
Layer_0
  10
262.38086
  20
436.83841
  0
VERTEX
  5
228
  8
Layer_0
  10
262.67151
  20
435.91196
  0
VERTEX
  5
229
  8
Layer_0
  10
264.15076
  20
432.14563
  0
VERTEX
  5
22a
  8
Layer_0
  10
264.32776
  20
431.6499
  0
VERTEX
  5
22b
  8
Layer_0
  10
264.47314
  20
431.14459
  0
VERTEX
  5
22c
  8
Layer_0
  10
264.58655
  20
430.6311
  0
VERTEX
  5
22d
  8
Layer_0
  10
264.66779
  20
430.11102
  0
VERTEX
  5
22e
  8
Layer_0
  10
264.71643
  20
429.58539
  0
VERTEX
  5
22f
  8
Layer_0
  10
264.73187
  20
429.05978
  0
VERTEX
  5
230
  8
Layer_0
  10
264.71442
  20
428.53424
  0
VERTEX
  5
231
  8
Layer_0
  10
264.664
  20
428.01028
  0
VERTEX
  5
232
  8
Layer_0
  10
263.78375
  20
421.13074
  0
VERTEX
  5
233
  8
Layer_0
  10
265.16913
  20
411.69974
  0
VERTEX
  5
234
  8
Layer_0
  10
265.22418
  20
411.42444
  0
VERTEX
  5
235
  8
Layer_0
  10
265.30695
  20
411.15698
  0
VERTEX
  5
236
  8
Layer_0
  10
265.41675
  20
410.89941
  0
VERTEX
  5
237
  8
Layer_0
  10
265.55267
  20
410.65387
  0
VERTEX
  5
238
  8
Layer_0
  10
269.70294
  20
403.99258
  0
VERTEX
  5
239
  8
Layer_0
  10
270.00562
  20
403.46515
  0
VERTEX
  5
23a
  8
Layer_0
  10
270.26892
  20
402.91788
  0
VERTEX
  5
23b
  8
Layer_0
  10
270.49207
  20
402.35303
  0
VERTEX
  5
23c
  8
Layer_0
  10
270.67401
  20
401.77277
  0
VERTEX
  5
23d
  8
Layer_0
  10
270.81384
  20
401.17914
  0
VERTEX
  5
23e
  8
Layer_0
  10
270.90991
  20
400.57947
  0
VERTEX
  5
23f
  8
Layer_0
  10
270.9624
  20
399.97443
  0
VERTEX
  5
240
  8
Layer_0
  10
270.97095
  20
399.36636
  0
VERTEX
  5
241
  8
Layer_0
  10
270.90527
  20
396.39832
  0
VERTEX
  5
242
  8
Layer_0
  10
270.91724
  20
396.0752
  0
VERTEX
  5
243
  8
Layer_0
  10
270.96667
  20
395.75909
  0
VERTEX
  5
244
  8
Layer_0
  10
271.05219
  20
395.45288
  0
VERTEX
  5
245
  8
Layer_0
  10
271.1723
  20
395.15964
  0
VERTEX
  5
246
  8
Layer_0
  10
271.32556
  20
394.88229
  0
VERTEX
  5
247
  8
Layer_0
  10
271.51062
  20
394.62378
  0
VERTEX
  5
248
  8
Layer_0
  10
271.72595
  20
394.38715
  0
VERTEX
  5
249
  8
Layer_0
  10
271.97028
  20
394.17529
  0
VERTEX
  5
24a
  8
Layer_0
  10
272.03802
  20
394.12329
  0
VERTEX
  5
24b
  8
Layer_0
  10
272.6825
  20
393.57422
  0
VERTEX
  5
24c
  8
Layer_0
  10
273.26703
  20
392.96466
  0
VERTEX
  5
24d
  8
Layer_0
  10
273.78735
  20
392.29944
  0
VERTEX
  5
24e
  8
Layer_0
  10
274.23926
  20
391.58344
  0
VERTEX
  5
24f
  8
Layer_0
  10
274.61792
  20
390.82343
  0
VERTEX
  5
250
  8
Layer_0
  10
274.91638
  20
390.03345
  0
VERTEX
  5
251
  8
Layer_0
  10
275.13403
  20
389.21744
  0
VERTEX
  5
252
  8
Layer_0
  10
275.2688
  20
388.38156
  0
VERTEX
  5
253
  8
Layer_0
  10
275.37402
  20
387.42389
  0
VERTEX
  5
254
  8
Layer_0
  10
275.41199
  20
387.18018
  0
VERTEX
  5
255
  8
Layer_0
  10
275.47168
  20
386.94141
  0
VERTEX
  5
256
  8
Layer_0
  10
275.55261
  20
386.70895
  0
VERTEX
  5
257
  8
Layer_0
  10
275.65448
  20
386.48434
  0
VERTEX
  5
258
  8
Layer_0
  10
277.6723
  20
382.52597
  0
VERTEX
  5
259
  8
Layer_0
  10
278.27106
  20
381.30588
  0
VERTEX
  5
25a
  8
Layer_0
  10
278.91132
  20
379.94086
  0
VERTEX
  5
25b
  8
Layer_0
  10
279.20367
  20
379.29892
  0
VERTEX
  5
25c
  8
Layer_0
  10
279.46722
  20
378.64966
  0
VERTEX
  5
25d
  8
Layer_0
  10
279.67542
  20
377.98187
  0
VERTEX
  5
25e
  8
Layer_0
  10
279.82727
  20
377.29907
  0
VERTEX
  5
25f
  8
Layer_0
  10
279.92188
  20
376.60477
  0
VERTEX
  5
260
  8
Layer_0
  10
279.95837
  20
375.90302
  0
VERTEX
  5
261
  8
Layer_0
  10
279.93634
  20
375.20386
  0
VERTEX
  5
262
  8
Layer_0
  10
279.85614
  20
374.50897
  0
VERTEX
  5
263
  8
Layer_0
  10
279.71808
  20
373.82202
  0
VERTEX
  5
264
  8
Layer_0
  10
279.55286
  20
373.14682
  0
VERTEX
  5
265
  8
Layer_0
  10
280.16602
  20
366.83981
  0
VERTEX
  5
266
  8
Layer_0
  10
280.20294
  20
366.58502
  0
VERTEX
  5
267
  8
Layer_0
  10
280.26367
  20
366.33533
  0
VERTEX
  5
268
  8
Layer_0
  10
280.34753
  20
366.09247
  0
VERTEX
  5
269
  8
Layer_0
  10
280.45422
  20
365.85812
  0
VERTEX
  5
26a
  8
Layer_0
  10
282.58282
  20
361.71182
  0
VERTEX
  5
26b
  8
Layer_0
  10
283.0127
  20
360.91119
  0
VERTEX
  5
26c
  8
Layer_0
  10
283.06586
  20
360.81543
  0
VERTEX
  5
26d
  8
Layer_0
  10
283.54297
  20
359.98175
  0
VERTEX
  5
26e
  8
Layer_0
  10
284.10107
  20
359.04343
  0
VERTEX
  5
26f
  8
Layer_0
  10
284.72308
  20
358.02939
  0
VERTEX
  5
270
  8
Layer_0
  10
285.94202
  20
356.11688
  0
VERTEX
  5
271
  8
Layer_0
  10
285.99402
  20
356.03738
  0
VERTEX
  5
272
  8
Layer_0
  10
287.27899
  20
354.12006
  0
VERTEX
  5
273
  8
Layer_0
  10
289.40088
  20
350.93283
  0
VERTEX
  5
274
  8
Layer_0
  10
289.80072
  20
350.0455
  0
VERTEX
  5
275
  8
Layer_0
  10
290.05347
  20
349.41827
  0
VERTEX
  5
276
  8
Layer_0
  10
290.25464
  20
348.77374
  0
VERTEX
  5
277
  8
Layer_0
  10
290.40332
  20
348.11514
  0
VERTEX
  5
278
  8
Layer_0
  10
290.49878
  20
347.44565
  0
VERTEX
  5
279
  8
Layer_0
  10
290.54175
  20
346.62991
  0
VERTEX
  5
27a
  8
Layer_0
  10
290.50562
  20
345.81689
  0
VERTEX
  5
27b
  8
Layer_0
  10
290.39093
  20
345.0112
  0
VERTEX
  5
27c
  8
Layer_0
  10
290.19818
  20
344.21857
  0
VERTEX
  5
27d
  8
Layer_0
  10
290.16113
  20
344.09311
  0
VERTEX
  5
27e
  8
Layer_0
  10
290.09277
  20
343.80475
  0
VERTEX
  5
27f
  8
Layer_0
  10
290.05627
  20
343.51324
  0
VERTEX
  5
280
  8
Layer_0
  10
290.05127
  20
343.22113
  0
VERTEX
  5
281
  8
Layer_0
  10
290.07751
  20
342.93097
  0
VERTEX
  5
282
  8
Layer_0
  10
290.1344
  20
342.6452
  0
VERTEX
  5
283
  8
Layer_0
  10
290.2218
  20
342.36646
  0
VERTEX
  5
284
  8
Layer_0
  10
290.33929
  20
342.09717
  0
VERTEX
  5
285
  8
Layer_0
  10
290.48645
  20
341.83994
  0
VERTEX
  5
286
  8
Layer_0
  10
293.88513
  20
336.5827
  0
VERTEX
  5
287
  8
Layer_0
  10
293.96973
  20
336.45691
  0
VERTEX
  5
288
  8
Layer_0
  10
294.60126
  20
335.55331
  0
VERTEX
  5
289
  8
Layer_0
  10
294.72101
  20
335.3905
  0
VERTEX
  5
28a
  8
Layer_0
  10
295.47717
  20
334.41257
  0
VERTEX
  5
28b
  8
Layer_0
  10
295.57715
  20
334.28818
  0
VERTEX
  5
28c
  8
Layer_0
  10
296.37036
  20
333.3392
  0
VERTEX
  5
28d
  8
Layer_0
  10
296.49164
  20
333.20041
  0
VERTEX
  5
28e
  8
Layer_0
  10
297.24365
  20
332.37708
  0
VERTEX
  5
28f
  8
Layer_0
  10
297.33057
  20
332.28476
  0
VERTEX
  5
290
  8
Layer_0
  10
299.71265
  20
329.82993
  0
VERTEX
  5
291
  8
Layer_0
  10
306.54279
  20
325.57355
  0
VERTEX
  5
292
  8
Layer_0
  10
307.36163
  20
325.1366
  0
VERTEX
  5
293
  8
Layer_0
  10
317.41486
  20
320.60989
  0
VERTEX
  5
294
  8
Layer_0
  10
318.03302
  20
320.30035
  0
VERTEX
  5
295
  8
Layer_0
  10
318.62268
  20
319.94159
  0
VERTEX
  5
296
  8
Layer_0
  10
319.18085
  20
319.53561
  0
VERTEX
  5
297
  8
Layer_0
  10
319.70459
  20
319.08438
  0
VERTEX
  5
298
  8
Layer_0
  10
320.19086
  20
318.59021
  0
VERTEX
  5
299
  8
Layer_0
  10
320.63281
  20
318.06012
  0
VERTEX
  5
29a
  8
Layer_0
  10
321.02972
  20
317.49548
  0
VERTEX
  5
29b
  8
Layer_0
  10
321.37946
  20
316.89911
  0
VERTEX
  5
29c
  8
Layer_0
  10
323.14069
  20
313.59064
  0
VERTEX
  5
29d
  8
Layer_0
  10
323.37598
  20
313.2229
  0
VERTEX
  5
29e
  8
Layer_0
  10
323.66504
  20
312.89935
  0
VERTEX
  5
29f
  8
Layer_0
  10
324.00171
  20
312.6257
  0
VERTEX
  5
2a0
  8
Layer_0
  10
324.37994
  20
312.40775
  0
VERTEX
  5
2a1
  8
Layer_0
  10
326.82574
  20
311.24844
  0
VERTEX
  5
2a2
  8
Layer_0
  10
327.38623
  20
310.95642
  0
VERTEX
  5
2a3
  8
Layer_0
  10
327.92084
  20
310.62463
  0
VERTEX
  5
2a4
  8
Layer_0
  10
328.4278
  20
310.25476
  0
VERTEX
  5
2a5
  8
Layer_0
  10
328.90503
  20
309.84863
  0
VERTEX
  5
2a6
  8
Layer_0
  10
329.35071
  20
309.40802
  0
VERTEX
  5
2a7
  8
Layer_0
  10
329.7627
  20
308.93472
  0
VERTEX
  5
2a8
  8
Layer_0
  10
330.13916
  20
308.43054
  0
VERTEX
  5
2a9
  8
Layer_0
  10
330.47827
  20
307.89728
  0
VERTEX
  5
2aa
  8
Layer_0
  10
330.77795
  20
307.33704
  0
VERTEX
  5
2ab
  8
Layer_0
  10
331.03223
  20
306.76138
  0
VERTEX
  5
2ac
  8
Layer_0
  10
331.24213
  20
306.16998
  0
VERTEX
  5
2ad
  8
Layer_0
  10
331.40704
  20
305.56537
  0
VERTEX
  5
2ae
  8
Layer_0
  10
331.52637
  20
304.9502
  0
VERTEX
  5
2af
  8
Layer_0
  10
331.59955
  20
304.32693
  0
VERTEX
  5
2b0
  8
Layer_0
  10
331.62598
  20
303.69824
  0
VERTEX
  5
2b1
  8
Layer_0
  10
331.60498
  20
303.06665
  0
VERTEX
  5
2b2
  8
Layer_0
  10
331.4585
  20
301.00128
  0
VERTEX
  5
2b3
  8
Layer_0
  10
331.45264
  20
300.73428
  0
VERTEX
  5
2b4
  8
Layer_0
  10
331.47272
  20
300.46991
  0
VERTEX
  5
2b5
  8
Layer_0
  10
331.51813
  20
300.2099
  0
VERTEX
  5
2b6
  8
Layer_0
  10
331.58826
  20
299.95605
  0
VERTEX
  5
2b7
  8
Layer_0
  10
331.6825
  20
299.71014
  0
VERTEX
  5
2b8
  8
Layer_0
  10
331.80029
  20
299.47394
  0
VERTEX
  5
2b9
  8
Layer_0
  10
331.9411
  20
299.24927
  0
VERTEX
  5
2ba
  8
Layer_0
  10
332.10437
  20
299.0379
  0
VERTEX
  5
2bb
  8
Layer_0
  10
340.28662
  20
289.44958
  0
VERTEX
  5
2bc
  8
Layer_0
  10
340.49518
  20
289.23096
  0
VERTEX
  5
2bd
  8
Layer_0
  10
340.72449
  20
289.03833
  0
VERTEX
  5
2be
  8
Layer_0
  10
340.97198
  20
288.87292
  0
VERTEX
  5
2bf
  8
Layer_0
  10
341.23529
  20
288.73587
  0
VERTEX
  5
2c0
  8
Layer_0
  10
341.51196
  20
288.6282
  0
VERTEX
  5
2c1
  8
Layer_0
  10
341.7995
  20
288.55109
  0
VERTEX
  5
2c2
  8
Layer_0
  10
342.09546
  20
288.50558
  0
VERTEX
  5
2c3
  8
Layer_0
  10
342.3974
  20
288.49286
  0
VERTEX
  5
2c4
  8
Layer_0
  10
349.18054
  20
288.5881
  0
VERTEX
  5
2c5
  8
Layer_0
  10
364.3924
  20
288.45575
  0
VERTEX
  5
2c6
  8
Layer_0
  10
364.8717
  20
288.43787
  0
VERTEX
  5
2c7
  8
Layer_0
  10
365.34875
  20
288.3927
  0
VERTEX
  5
2c8
  8
Layer_0
  10
365.82251
  20
288.32037
  0
VERTEX
  5
2c9
  8
Layer_0
  10
366.29169
  20
288.22107
  0
VERTEX
  5
2ca
  8
Layer_0
  10
366.7558
  20
288.09479
  0
VERTEX
  5
2cb
  8
Layer_0
  10
367.21021
  20
287.94275
  0
VERTEX
  5
2cc
  8
Layer_0
  10
367.65527
  20
287.76501
  0
VERTEX
  5
2cd
  8
Layer_0
  10
368.23315
  20
287.49506
  0
VERTEX
  5
2ce
  8
Layer_0
  10
368.77087
  20
287.38739
  0
VERTEX
  5
2cf
  8
Layer_0
  10
369.29993
  20
287.24512
  0
VERTEX
  5
2d0
  8
Layer_0
  10
369.81854
  20
287.0686
  0
VERTEX
  5
2d1
  8
Layer_0
  10
370.32507
  20
286.85834
  0
VERTEX
  5
2d2
  8
Layer_0
  10
404.94434
  20
271.14502
  0
VERTEX
  5
2d3
  8
Layer_0
  10
424.31604
  20
262.51404
  0
VERTEX
  5
2d4
  8
Layer_0
  10
424.55212
  20
262.42181
  0
VERTEX
  5
2d5
  8
Layer_0
  10
424.7951
  20
262.35193
  0
VERTEX
  5
2d6
  8
Layer_0
  10
425.04352
  20
262.30493
  0
VERTEX
  5
2d7
  8
Layer_0
  10
425.29578
  20
262.28107
  0
VERTEX
  5
2d8
  8
Layer_0
  10
436.98004
  20
261.72278
  0
VERTEX
  5
2d9
  8
Layer_0
  10
441.6441
  20
261.51703
  0
VERTEX
  5
2da
  8
Layer_0
  10
447.00049
  20
261.3075
  0
VERTEX
  5
2db
  8
Layer_0
  10
452.39099
  20
261.11853
  0
VERTEX
  5
2dc
  8
Layer_0
  10
457.15765
  20
260.97461
  0
VERTEX
  5
2dd
  8
Layer_0
  10
472.1264
  20
260.57428
  0
VERTEX
  5
2de
  8
Layer_0
  10
472.43823
  20
260.5838
  0
VERTEX
  5
2df
  8
Layer_0
  10
472.74402
  20
260.62817
  0
VERTEX
  5
2e0
  8
Layer_0
  10
473.04095
  20
260.70636
  0
VERTEX
  5
2e1
  8
Layer_0
  10
473.32642
  20
260.81708
  0
VERTEX
  5
2e2
  8
Layer_0
  10
473.59766
  20
260.95898
  0
VERTEX
  5
2e3
  8
Layer_0
  10
473.85205
  20
261.13104
  0
VERTEX
  5
2e4
  8
Layer_0
  10
474.08685
  20
261.33191
  0
VERTEX
  5
2e5
  8
Layer_0
  10
474.29932
  20
261.56042
  0
VERTEX
  5
2e6
  8
Layer_0
  10
476.67261
  20
264.42426
  0
VERTEX
  5
2e7
  8
Layer_0
  10
477.17505
  20
264.97894
  0
VERTEX
  5
2e8
  8
Layer_0
  10
477.71667
  20
265.4798
  0
VERTEX
  5
2e9
  8
Layer_0
  10
478.29346
  20
265.92621
  0
VERTEX
  5
2ea
  8
Layer_0
  10
478.90137
  20
266.31738
  0
VERTEX
  5
2eb
  8
Layer_0
  10
479.53644
  20
266.65259
  0
VERTEX
  5
2ec
  8
Layer_0
  10
480.1947
  20
266.93103
  0
VERTEX
  5
2ed
  8
Layer_0
  10
480.87219
  20
267.15198
  0
VERTEX
  5
2ee
  8
Layer_0
  10
481.56494
  20
267.3147
  0
VERTEX
  5
2ef
  8
Layer_0
  10
482.26892
  20
267.41833
  0
VERTEX
  5
2f0
  8
Layer_0
  10
482.98016
  20
267.46228
  0
VERTEX
  5
2f1
  8
Layer_0
  10
483.6947
  20
267.44556
  0
VERTEX
  5
2f2
  8
Layer_0
  10
484.40857
  20
267.36768
  0
VERTEX
  5
2f3
  8
Layer_0
  10
485.1178
  20
267.22766
  0
VERTEX
  5
2f4
  8
Layer_0
  10
485.81836
  20
267.0249
  0
VERTEX
  5
2f5
  8
Layer_0
  10
486.50635
  20
266.75854
  0
VERTEX
  5
2f6
  8
Layer_0
  10
487.17767
  20
266.4278
  0
VERTEX
  5
2f7
  8
Layer_0
  10
487.65381
  20
266.14575
  0
VERTEX
  5
2f8
  8
Layer_0
  10
488.10986
  20
265.83325
  0
VERTEX
  5
2f9
  8
Layer_0
  10
488.54443
  20
265.49139
  0
VERTEX
  5
2fa
  8
Layer_0
  10
488.95593
  20
265.12134
  0
VERTEX
  5
2fb
  8
Layer_0
  10
490.12695
  20
263.99609
  0
VERTEX
  5
2fc
  8
Layer_0
  10
494.23236
  20
260.08148
  0
VERTEX
  5
2fd
  8
Layer_0
  10
497.82684
  20
256.70148
  0
VERTEX
  5
2fe
  8
Layer_0
  10
499.56311
  20
255.08978
  0
VERTEX
  5
2ff
  8
Layer_0
  10
500.52869
  20
253.75818
  0
VERTEX
  5
300
  8
Layer_0
  10
505.56427
  20
242.84192
  0
VERTEX
  5
301
  8
Layer_0
  10
507.30438
  20
240.38605
  0
VERTEX
  5
302
  8
Layer_0
  10
507.38141
  20
240.28082
  0
VERTEX
  5
303
  8
Layer_0
  10
508.04938
  20
239.39771
  0
VERTEX
  5
304
  8
Layer_0
  10
508.16583
  20
239.25067
  0
VERTEX
  5
305
  8
Layer_0
  10
508.95099
  20
238.30371
  0
VERTEX
  5
306
  8
Layer_0
  10
509.05591
  20
238.18201
  0
VERTEX
  5
307
  8
Layer_0
  10
509.87653
  20
237.26599
  0
VERTEX
  5
308
  8
Layer_0
  10
510.01416
  20
237.11951
  0
VERTEX
  5
309
  8
Layer_0
  10
510.7854
  20
236.33746
  0
VERTEX
  5
30a
  8
Layer_0
  10
510.89197
  20
236.23322
  0
VERTEX
  5
30b
  8
Layer_0
  10
513.1286
  20
234.12073
  0
VERTEX
  5
30c
  8
Layer_0
  10
523.94482
  20
227.57495
  0
VERTEX
  5
30d
  8
Layer_0
  10
524.27106
  20
227.39673
  0
VERTEX
  5
30e
  8
Layer_0
  10
527.21948
  20
225.95215
  0
VERTEX
  5
30f
  8
Layer_0
  10
528.59662
  20
225.30988
  0
VERTEX
  5
310
  8
Layer_0
  10
528.72772
  20
225.25153
  0
VERTEX
  5
311
  8
Layer_0
  10
530.11176
  20
224.66364
  0
VERTEX
  5
312
  8
Layer_0
  10
530.25439
  20
224.60608
  0
VERTEX
  5
313
  8
Layer_0
  10
531.54883
  20
224.11145
  0
VERTEX
  5
314
  8
Layer_0
  10
531.70691
  20
224.05463
  0
VERTEX
  5
315
  8
Layer_0
  10
532.45685
  20
223.802
  0
VERTEX
  5
316
  8
Layer_0
  10
532.63586
  20
223.74603
  0
VERTEX
  5
317
  8
Layer_0
  10
533.29053
  20
223.55762
  0
VERTEX
  5
318
  8
Layer_0
  10
533.4303
  20
223.52002
  0
VERTEX
  5
319
  8
Layer_0
  10
538.18652
  20
222.3269
  0
VERTEX
  5
31a
  8
Layer_0
  10
538.62225
  20
222.25446
  0
VERTEX
  5
31b
  8
Layer_0
  10
539.06116
  20
222.25311
  0
VERTEX
  5
31c
  8
Layer_0
  10
539.49463
  20
222.32214
  0
VERTEX
  5
31d
  8
Layer_0
  10
539.91406
  20
222.46106
  0
VERTEX
  5
31e
  8
Layer_0
  10
548.06531
  20
225.91443
  0
VERTEX
  5
31f
  8
Layer_0
  10
548.49915
  20
226.14648
  0
VERTEX
  5
320
  8
Layer_0
  10
548.88135
  20
226.44989
  0
VERTEX
  5
321
  8
Layer_0
  10
549.20337
  20
226.81659
  0
VERTEX
  5
322
  8
Layer_0
  10
549.4566
  20
227.23834
  0
VERTEX
  5
323
  8
Layer_0
  10
549.72754
  20
227.75244
  0
VERTEX
  5
324
  8
Layer_0
  10
550.03058
  20
228.24261
  0
VERTEX
  5
325
  8
Layer_0
  10
550.36414
  20
228.70758
  0
VERTEX
  5
326
  8
Layer_0
  10
550.72656
  20
229.14636
  0
VERTEX
  5
327
  8
Layer_0
  10
551.11615
  20
229.55774
  0
VERTEX
  5
328
  8
Layer_0
  10
551.53125
  20
229.94086
  0
VERTEX
  5
329
  8
Layer_0
  10
551.97021
  20
230.29449
  0
VERTEX
  5
32a
  8
Layer_0
  10
552.43146
  20
230.61755
  0
VERTEX
  5
32b
  8
Layer_0
  10
552.91333
  20
230.90906
  0
VERTEX
  5
32c
  8
Layer_0
  10
553.41406
  20
231.16785
  0
VERTEX
  5
32d
  8
Layer_0
  10
553.93213
  20
231.39288
  0
VERTEX
  5
32e
  8
Layer_0
  10
554.46594
  20
231.58313
  0
VERTEX
  5
32f
  8
Layer_0
  10
555.01367
  20
231.73749
  0
VERTEX
  5
330
  8
Layer_0
  10
555.57367
  20
231.85486
  0
VERTEX
  5
331
  8
Layer_0
  10
556.14441
  20
231.9342
  0
VERTEX
  5
332
  8
Layer_0
  10
556.72424
  20
231.97443
  0
VERTEX
  5
333
  8
Layer_0
  10
557.30542
  20
231.97455
  0
VERTEX
  5
334
  8
Layer_0
  10
557.88037
  20
231.93506
  0
VERTEX
  5
335
  8
Layer_0
  10
558.44727
  20
231.85687
  0
VERTEX
  5
336
  8
Layer_0
  10
559.00433
  20
231.74097
  0
VERTEX
  5
337
  8
Layer_0
  10
559.54993
  20
231.58826
  0
VERTEX
  5
338
  8
Layer_0
  10
560.0824
  20
231.39972
  0
VERTEX
  5
339
  8
Layer_0
  10
560.59998
  20
231.17639
  0
VERTEX
  5
33a
  8
Layer_0
  10
561.10083
  20
230.91901
  0
VERTEX
  5
33b
  8
Layer_0
  10
561.58337
  20
230.62866
  0
VERTEX
  5
33c
  8
Layer_0
  10
562.0459
  20
230.30646
  0
VERTEX
  5
33d
  8
Layer_0
  10
562.48657
  20
229.95319
  0
VERTEX
  5
33e
  8
Layer_0
  10
562.90381
  20
229.56982
  0
VERTEX
  5
33f
  8
Layer_0
  10
563.29578
  20
229.15735
  0
VERTEX
  5
340
  8
Layer_0
  10
563.66083
  20
228.71667
  0
VERTEX
  5
341
  8
Layer_0
  10
563.99725
  20
228.24878
  0
VERTEX
  5
342
  8
Layer_0
  10
564.30328
  20
227.75464
  0
VERTEX
  5
343
  8
Layer_0
  10
564.8739
  20
226.75806
  0
VERTEX
  5
344
  8
Layer_0
  10
566.38708
  20
224.07654
  0
VERTEX
  5
345
  8
Layer_0
  10
566.71509
  20
223.61505
  0
VERTEX
  5
346
  8
Layer_0
  10
571.53809
  20
218.10089
  0
VERTEX
  5
347
  8
Layer_0
  10
572.48438
  20
216.98431
  0
VERTEX
  5
348
  8
Layer_0
  10
572.70685
  20
216.71539
  0
VERTEX
  5
349
  8
Layer_0
  10
573.06744
  20
216.24683
  0
VERTEX
  5
34a
  8
Layer_0
  10
573.3938
  20
215.75464
  0
VERTEX
  5
34b
  8
Layer_0
  10
573.68469
  20
215.24084
  0
VERTEX
  5
34c
  8
Layer_0
  10
573.93909
  20
214.70703
  0
VERTEX
  5
34d
  8
Layer_0
  10
575.12189
  20
211.98218
  0
VERTEX
  5
34e
  8
Layer_0
  10
575.24438
  20
211.73492
  0
VERTEX
  5
34f
  8
Layer_0
  10
575.39093
  20
211.50183
  0
VERTEX
  5
350
  8
Layer_0
  10
575.56018
  20
211.28479
  0
VERTEX
  5
351
  8
Layer_0
  10
575.75104
  20
211.08539
  0
VERTEX
  5
352
  8
Layer_0
  10
577.09448
  20
209.81653
  0
VERTEX
  5
353
  8
Layer_0
  10
577.58624
  20
209.3114
  0
VERTEX
  5
354
  8
Layer_0
  10
578.03308
  20
208.76782
  0
VERTEX
  5
355
  8
Layer_0
  10
578.43286
  20
208.1886
  0
VERTEX
  5
356
  8
Layer_0
  10
578.7832
  20
207.5769
  0
VERTEX
  5
357
  8
Layer_0
  10
579.08191
  20
206.93616
  0
VERTEX
  5
358
  8
Layer_0
  10
579.32471
  20
206.2757
  0
VERTEX
  5
359
  8
Layer_0
  10
579.51135
  20
205.59717
  0
VERTEX
  5
35a
  8
Layer_0
  10
579.64069
  20
204.90417
  0
VERTEX
  5
35b
  8
Layer_0
  10
579.69604
  20
204.62378
  0
VERTEX
  5
35c
  8
Layer_0
  10
579.78021
  20
204.35138
  0
VERTEX
  5
35d
  8
Layer_0
  10
579.89227
  20
204.08929
  0
VERTEX
  5
35e
  8
Layer_0
  10
580.03156
  20
203.83966
  0
VERTEX
  5
35f
  8
Layer_0
  10
588.85339
  20
189.80988
  0
VERTEX
  5
360
  8
Layer_0
  10
594.651
  20
184.26611
  0
VERTEX
  5
361
  8
Layer_0
  10
594.90735
  20
184.04944
  0
VERTEX
  5
362
  8
Layer_0
  10
595.18738
  20
183.8667
  0
VERTEX
  5
363
  8
Layer_0
  10
595.48755
  20
183.71948
  0
VERTEX
  5
364
  8
Layer_0
  10
595.80475
  20
183.60974
  0
VERTEX
  5
365
  8
Layer_0
  10
603.96741
  20
181.33838
  0
VERTEX
  5
366
  8
Layer_0
  10
604.27612
  20
181.27148
  0
VERTEX
  5
367
  8
Layer_0
  10
604.58948
  20
181.24072
  0
VERTEX
  5
368
  8
Layer_0
  10
604.90436
  20
181.24634
  0
VERTEX
  5
369
  8
Layer_0
  10
605.21747
  20
181.28839
  0
VERTEX
  5
36a
  8
Layer_0
  10
605.74445
  20
181.37317
  0
VERTEX
  5
36b
  8
Layer_0
  10
606.27527
  20
181.42432
  0
VERTEX
  5
36c
  8
Layer_0
  10
606.80823
  20
181.44165
  0
VERTEX
  5
36d
  8
Layer_0
  10
607.3418
  20
181.42505
  0
VERTEX
  5
36e
  8
Layer_0
  10
607.87469
  20
181.37451
  0
VERTEX
  5
36f
  8
Layer_0
  10
608.40125
  20
181.29053
  0
VERTEX
  5
370
  8
Layer_0
  10
608.92145
  20
181.17322
  0
VERTEX
  5
371
  8
Layer_0
  10
609.43372
  20
181.02289
  0
VERTEX
  5
372
  8
Layer_0
  10
612.56018
  20
179.9967
  0
VERTEX
  5
373
  8
Layer_0
  10
614.68713
  20
179.90271
  0
VERTEX
  5
374
  8
Layer_0
  10
615.13892
  20
179.87061
  0
VERTEX
  5
375
  8
Layer_0
  10
615.58801
  20
179.81409
  0
VERTEX
  5
376
  8
Layer_0
  10
616.03333
  20
179.73352
  0
VERTEX
  5
377
  8
Layer_0
  10
616.474
  20
179.62897
  0
VERTEX
  5
378
  8
Layer_0
  10
616.90955
  20
179.50049
  0
VERTEX
  5
379
  8
Layer_0
  10
617.33612
  20
179.34924
  0
VERTEX
  5
37a
  8
Layer_0
  10
617.75391
  20
179.17517
  0
VERTEX
  5
37b
  8
Layer_0
  10
618.16199
  20
178.9787
  0
VERTEX
  5
37c
  8
Layer_0
  10
619.88
  20
178.09369
  0
VERTEX
  5
37d
  8
Layer_0
  10
620.1106
  20
177.98816
  0
VERTEX
  5
37e
  8
Layer_0
  10
620.34949
  20
177.90466
  0
VERTEX
  5
37f
  8
Layer_0
  10
620.59509
  20
177.84369
  0
VERTEX
  5
380
  8
Layer_0
  10
620.84583
  20
177.8056
  0
VERTEX
  5
381
  8
Layer_0
  10
634.62622
  20
176.36749
  0
VERTEX
  5
382
  8
Layer_0
  10
634.89783
  20
176.35278
  0
VERTEX
  5
383
  8
Layer_0
  10
635.16748
  20
176.36505
  0
VERTEX
  5
384
  8
Layer_0
  10
635.43335
  20
176.40369
  0
VERTEX
  5
385
  8
Layer_0
  10
635.69366
  20
176.46802
  0
VERTEX
  5
386
  8
Layer_0
  10
635.94635
  20
176.55762
  0
VERTEX
  5
387
  8
Layer_0
  10
636.18951
  20
176.67188
  0
VERTEX
  5
388
  8
Layer_0
  10
636.42133
  20
176.81024
  0
VERTEX
  5
389
  8
Layer_0
  10
636.63989
  20
176.97217
  0
VERTEX
  5
38a
  8
Layer_0
  10
636.84125
  20
177.15503
  0
VERTEX
  5
38b
  8
Layer_0
  10
637.02209
  20
177.35541
  0
VERTEX
  5
38c
  8
Layer_0
  10
637.18158
  20
177.57166
  0
VERTEX
  5
38d
  8
Layer_0
  10
637.31873
  20
177.80212
  0
VERTEX
  5
38e
  8
Layer_0
  10
637.43256
  20
178.0448
  0
VERTEX
  5
38f
  8
Layer_0
  10
637.52222
  20
178.2981
  0
VERTEX
  5
390
  8
Layer_0
  10
637.58667
  20
178.56024
  0
VERTEX
  5
391
  8
Layer_0
  10
637.62512
  20
178.82947
  0
VERTEX
  5
392
  8
Layer_0
  10
638.95471
  20
193.23474
  0
VERTEX
  5
393
  8
Layer_0
  10
637.62628
  20
199.5896
  0
VERTEX
  5
394
  8
Layer_0
  10
637.32666
  20
200.61774
  0
VERTEX
  5
395
  8
Layer_0
  10
635.32813
  20
205.91077
  0
VERTEX
  5
396
  8
Layer_0
  10
635.13171
  20
206.49518
  0
VERTEX
  5
397
  8
Layer_0
  10
634.97882
  20
207.09161
  0
VERTEX
  5
398
  8
Layer_0
  10
634.87012
  20
207.69763
  0
VERTEX
  5
399
  8
Layer_0
  10
634.80609
  20
208.31085
  0
VERTEX
  5
39a
  8
Layer_0
  10
634.78711
  20
208.92889
  0
VERTEX
  5
39b
  8
Layer_0
  10
634.81348
  20
209.54401
  0
VERTEX
  5
39c
  8
Layer_0
  10
634.88477
  20
210.15564
  0
VERTEX
  5
39d
  8
Layer_0
  10
635.00098
  20
210.76111
  0
VERTEX
  5
39e
  8
Layer_0
  10
635.47974
  20
212.84033
  0
VERTEX
  5
39f
  8
Layer_0
  10
635.52612
  20
213.07111
  0
VERTEX
  5
3a0
  8
Layer_0
  10
635.75757
  20
214.41779
  0
VERTEX
  5
3a1
  8
Layer_0
  10
636.29895
  20
215.87793
  0
VERTEX
  5
3a2
  8
Layer_0
  10
637.21802
  20
217.41144
  0
VERTEX
  5
3a3
  8
Layer_0
  10
637.32928
  20
217.58649
  0
VERTEX
  5
3a4
  8
Layer_0
  10
637.75403
  20
218.19403
  0
VERTEX
  5
3a5
  8
Layer_0
  10
638.22968
  20
218.76074
  0
VERTEX
  5
3a6
  8
Layer_0
  10
638.75342
  20
219.28326
  0
VERTEX
  5
3a7
  8
Layer_0
  10
639.32227
  20
219.75854
  0
VERTEX
  5
3a8
  8
Layer_0
  10
639.95105
  20
220.19476
  0
VERTEX
  5
3a9
  8
Layer_0
  10
640.61365
  20
220.57019
  0
VERTEX
  5
3aa
  8
Layer_0
  10
641.30756
  20
220.88403
  0
VERTEX
  5
3ab
  8
Layer_0
  10
642.28076
  20
221.22266
  0
VERTEX
  5
3ac
  8
Layer_0
  10
642.52258
  20
221.33508
  0
VERTEX
  5
3ad
  8
Layer_0
  10
642.7522
  20
221.47064
  0
VERTEX
  5
3ae
  8
Layer_0
  10
642.96802
  20
221.62842
  0
VERTEX
  5
3af
  8
Layer_0
  10
645.94043
  20
224.03284
  0
VERTEX
  5
3b0
  8
Layer_0
  10
646.58667
  20
224.65173
  0
VERTEX
  5
3b1
  8
Layer_0
  10
648.81897
  20
226.30457
  0
VERTEX
  5
3b2
  8
Layer_0
  10
649.9646
  20
227.11554
  0
VERTEX
  5
3b3
  8
Layer_0
  10
651.07434
  20
227.93646
  0
VERTEX
  5
3b4
  8
Layer_0
  10
652.17285
  20
228.78113
  0
VERTEX
  5
3b5
  8
Layer_0
  10
653.25916
  20
229.64594
  0
VERTEX
  5
3b6
  8
Layer_0
  10
654.33032
  20
230.52655
  0
VERTEX
  5
3b7
  8
Layer_0
  10
655.38263
  20
231.41858
  0
VERTEX
  5
3b8
  8
Layer_0
  10
656.41174
  20
232.31738
  0
VERTEX
  5
3b9
  8
Layer_0
  10
657.41321
  20
233.21899
  0
VERTEX
  5
3ba
  8
Layer_0
  10
658.383
  20
234.12012
  0
VERTEX
  5
3bb
  8
Layer_0
  10
659.31775
  20
235.01874
  0
VERTEX
  5
3bc
  8
Layer_0
  10
660.21582
  20
235.91541
  0
VERTEX
  5
3bd
  8
Layer_0
  10
661.078
  20
236.81482
  0
VERTEX
  5
3be
  8
Layer_0
  10
661.15485
  20
236.89734
  0
VERTEX
  5
3bf
  8
Layer_0
  10
661.90942
  20
237.72949
  0
VERTEX
  5
3c0
  8
Layer_0
  10
662.00391
  20
237.83734
  0
VERTEX
  5
3c1
  8
Layer_0
  10
662.72302
  20
238.68713
  0
VERTEX
  5
3c2
  8
Layer_0
  10
662.84442
  20
238.8374
  0
VERTEX
  5
3c3
  8
Layer_0
  10
663.5459
  20
239.74817
  0
VERTEX
  5
3c4
  8
Layer_0
  10
663.97455
  20
240.34412
  0
VERTEX
  5
3c5
  8
Layer_0
  10
664.25366
  20
240.69135
  0
VERTEX
  5
3c6
  8
Layer_0
  10
664.55084
  20
241.02319
  0
VERTEX
  5
3c7
  8
Layer_0
  10
664.86542
  20
241.33905
  0
VERTEX
  5
3c8
  8
Layer_0
  10
665.21002
  20
241.6496
  0
VERTEX
  5
3c9
  8
Layer_0
  10
665.56995
  20
241.93964
  0
VERTEX
  5
3ca
  8
Layer_0
  10
665.94531
  20
242.20941
  0
VERTEX
  5
3cb
  8
Layer_0
  10
666.33521
  20
242.45831
  0
VERTEX
  5
3cc
  8
Layer_0
  10
668.04749
  20
243.48602
  0
VERTEX
  5
3cd
  8
Layer_0
  10
669.08838
  20
243.93335
  0
VERTEX
  5
3ce
  8
Layer_0
  10
670.10474
  20
244.21594
  0
VERTEX
  5
3cf
  8
Layer_0
  10
670.29193
  20
244.27277
  0
VERTEX
  5
3d0
  8
Layer_0
  10
672.86267
  20
245.11853
  0
VERTEX
  5
3d1
  8
Layer_0
  10
673.39709
  20
245.31909
  0
VERTEX
  5
3d2
  8
Layer_0
  10
674.47913
  20
245.77698
  0
VERTEX
  5
3d3
  8
Layer_0
  10
675.05701
  20
245.99683
  0
VERTEX
  5
3d4
  8
Layer_0
  10
675.64868
  20
246.17322
  0
VERTEX
  5
3d5
  8
Layer_0
  10
676.25171
  20
246.30566
  0
VERTEX
  5
3d6
  8
Layer_0
  10
676.86365
  20
246.39355
  0
VERTEX
  5
3d7
  8
Layer_0
  10
677.48218
  20
246.4364
  0
VERTEX
  5
3d8
  8
Layer_0
  10
678.09961
  20
246.43347
  0
VERTEX
  5
3d9
  8
Layer_0
  10
678.71509
  20
246.38525
  0
VERTEX
  5
3da
  8
Layer_0
  10
679.32623
  20
246.29175
  0
VERTEX
  5
3db
  8
Layer_0
  10
685.72205
  20
245.07056
  0
VERTEX
  5
3dc
  8
Layer_0
  10
694.38379
  20
245.88007
  0
VERTEX
  5
3dd
  8
Layer_0
  10
695.00903
  20
245.91504
  0
VERTEX
  5
3de
  8
Layer_0
  10
695.63428
  20
245.90332
  0
VERTEX
  5
3df
  8
Layer_0
  10
696.25696
  20
245.84509
  0
VERTEX
  5
3e0
  8
Layer_0
  10
696.87439
  20
245.7406
  0
VERTEX
  5
3e1
  8
Layer_0
  10
697.48401
  20
245.58984
  0
VERTEX
  5
3e2
  8
Layer_0
  10
698.07825
  20
245.39496
  0
VERTEX
  5
3e3
  8
Layer_0
  10
698.65625
  20
245.15631
  0
VERTEX
  5
3e4
  8
Layer_0
  10
699.2157
  20
244.87494
  0
VERTEX
  5
3e5
  8
Layer_0
  10
699.91748
  20
244.60657
  0
VERTEX
  5
3e6
  8
Layer_0
  10
701.53271
  20
244.3252
  0
VERTEX
  5
3e7
  8
Layer_0
  10
701.98309
  20
244.23395
  0
VERTEX
  5
3e8
  8
Layer_0
  10
702.42743
  20
244.11829
  0
VERTEX
  5
3e9
  8
Layer_0
  10
702.86481
  20
243.97852
  0
VERTEX
  5
3ea
  8
Layer_0
  10
703.29419
  20
243.81488
  0
VERTEX
  5
3eb
  8
Layer_0
  10
709.55469
  20
241.23114
  0
VERTEX
  5
3ec
  8
Layer_0
  10
709.84613
  20
241.1355
  0
VERTEX
  5
3ed
  8
Layer_0
  10
710.14551
  20
241.07324
  0
VERTEX
  5
3ee
  8
Layer_0
  10
710.45007
  20
241.04504
  0
VERTEX
  5
3ef
  8
Layer_0
  10
710.75677
  20
241.05121
  0
VERTEX
  5
3f0
  8
Layer_0
  10
716.76611
  20
241.50897
  0
VERTEX
  5
3f1
  8
Layer_0
  10
719.05383
  20
241.67859
  0
VERTEX
  5
3f2
  8
Layer_0
  10
719.83728
  20
241.85522
  0
VERTEX
  5
3f3
  8
Layer_0
  10
720.94336
  20
242.19806
  0
VERTEX
  5
3f4
  8
Layer_0
  10
721.46851
  20
242.32184
  0
VERTEX
  5
3f5
  8
Layer_0
  10
725.15387
  20
242.70398
  0
VERTEX
  5
3f6
  8
Layer_0
  10
728.57385
  20
242.53772
  0
VERTEX
  5
3f7
  8
Layer_0
  10
728.8855
  20
242.54736
  0
VERTEX
  5
3f8
  8
Layer_0
  10
729.19293
  20
242.59241
  0
VERTEX
  5
3f9
  8
Layer_0
  10
729.49323
  20
242.67212
  0
VERTEX
  5
3fa
  8
Layer_0
  10
729.78345
  20
242.78601
  0
VERTEX
  5
3fb
  8
Layer_0
  10
730.20142
  20
242.96448
  0
VERTEX
  5
3fc
  8
Layer_0
  10
730.62811
  20
243.12
  0
VERTEX
  5
3fd
  8
Layer_0
  10
731.06262
  20
243.2522
  0
VERTEX
  5
3fe
  8
Layer_0
  10
731.50391
  20
243.36072
  0
VERTEX
  5
3ff
  8
Layer_0
  10
731.95172
  20
243.4455
  0
VERTEX
  5
400
  8
Layer_0
  10
732.40186
  20
243.50568
  0
VERTEX
  5
401
  8
Layer_0
  10
732.85455
  20
243.54138
  0
VERTEX
  5
402
  8
Layer_0
  10
733.3089
  20
243.55261
  0
VERTEX
  5
403
  8
Layer_0
  10
734.18115
  20
243.55048
  0
VERTEX
  5
404
  8
Layer_0
  10
734.84369
  20
243.58063
  0
VERTEX
  5
405
  8
Layer_0
  10
739.38672
  20
244.00623
  0
VERTEX
  5
406
  8
Layer_0
  10
742.92242
  20
245.44226
  0
VERTEX
  5
407
  8
Layer_0
  10
744.78357
  20
246.95343
  0
VERTEX
  5
408
  8
Layer_0
  10
745.48676
  20
247.61053
  0
VERTEX
  5
409
  8
Layer_0
  10
746.10437
  20
248.27393
  0
VERTEX
  5
40a
  8
Layer_0
  10
746.33069
  20
248.53821
  0
VERTEX
  5
40b
  8
Layer_0
  10
746.88416
  20
249.24164
  0
VERTEX
  5
40c
  8
Layer_0
  10
747.0882
  20
249.52435
  0
VERTEX
  5
40d
  8
Layer_0
  10
747.73755
  20
250.50775
  0
VERTEX
  5
40e
  8
Layer_0
  10
747.91919
  20
250.80969
  0
VERTEX
  5
40f
  8
Layer_0
  10
748.42926
  20
251.74438
  0
VERTEX
  5
410
  8
Layer_0
  10
748.50562
  20
251.89105
  0
VERTEX
  5
411
  8
Layer_0
  10
750.43323
  20
255.78015
  0
VERTEX
  5
412
  8
Layer_0
  10
750.57721
  20
256.12964
  0
VERTEX
  5
413
  8
Layer_0
  10
750.67114
  20
256.49402
  0
VERTEX
  5
414
  8
Layer_0
  10
750.71411
  20
256.8678
  0
VERTEX
  5
415
  8
Layer_0
  10
750.70502
  20
257.24573
  0
VERTEX
  5
416
  8
Layer_0
  10
750.60162
  20
258.34937
  0
VERTEX
  5
417
  8
Layer_0
  10
750.56531
  20
259.06592
  0
VERTEX
  5
418
  8
Layer_0
  10
750.58997
  20
259.77911
  0
VERTEX
  5
419
  8
Layer_0
  10
750.67474
  20
260.48511
  0
VERTEX
  5
41a
  8
Layer_0
  10
750.81866
  20
261.18018
  0
VERTEX
  5
41b
  8
Layer_0
  10
751.02081
  20
261.86072
  0
VERTEX
  5
41c
  8
Layer_0
  10
751.28021
  20
262.52271
  0
VERTEX
  5
41d
  8
Layer_0
  10
751.59589
  20
263.16272
  0
VERTEX
  5
41e
  8
Layer_0
  10
751.96704
  20
263.77673
  0
VERTEX
  5
41f
  8
Layer_0
  10
752.3913
  20
264.36017
  0
VERTEX
  5
420
  8
Layer_0
  10
752.85876
  20
264.89929
  0
VERTEX
  5
421
  8
Layer_0
  10
753.36853
  20
265.39508
  0
VERTEX
  5
422
  8
Layer_0
  10
753.91736
  20
265.84521
  0
VERTEX
  5
423
  8
Layer_0
  10
754.50232
  20
266.24738
  0
VERTEX
  5
424
  8
Layer_0
  10
755.12024
  20
266.59924
  0
VERTEX
  5
425
  8
Layer_0
  10
755.76807
  20
266.89844
  0
VERTEX
  5
426
  8
Layer_0
  10
756.44263
  20
267.14276
  0
VERTEX
  5
427
  8
Layer_0
  10
756.65857
  20
267.21069
  0
VERTEX
  5
428
  8
Layer_0
  10
761.73584
  20
268.92773
  0
VERTEX
  5
429
  8
Layer_0
  10
762.01624
  20
269.04138
  0
VERTEX
  5
42a
  8
Layer_0
  10
762.28125
  20
269.18542
  0
VERTEX
  5
42b
  8
Layer_0
  10
762.52838
  20
269.35828
  0
VERTEX
  5
42c
  8
Layer_0
  10
763.41827
  20
270.14795
  0
VERTEX
  5
42d
  8
Layer_0
  10
764.13776
  20
270.66272
  0
VERTEX
  5
42e
  8
Layer_0
  10
764.90747
  20
271.09888
  0
VERTEX
  5
42f
  8
Layer_0
  10
765.72107
  20
271.45258
  0
VERTEX
  5
430
  8
Layer_0
  10
766.81787
  20
271.86188
  0
VERTEX
  5
431
  8
Layer_0
  10
767.71271
  20
272.17273
  0
VERTEX
  5
432
  8
Layer_0
  10
768.2113
  20
272.32874
  0
VERTEX
  5
433
  8
Layer_0
  10
768.71826
  20
272.45325
  0
VERTEX
  5
434
  8
Layer_0
  10
769.23193
  20
272.54614
  0
VERTEX
  5
435
  8
Layer_0
  10
769.75085
  20
272.60687
  0
VERTEX
  5
436
  8
Layer_0
  10
771.13165
  20
272.7251
  0
VERTEX
  5
437
  8
Layer_0
  10
771.935
  20
272.75525
  0
VERTEX
  5
438
  8
Layer_0
  10
772.73572
  20
272.70862
  0
VERTEX
  5
439
  8
Layer_0
  10
773.52838
  20
272.58575
  0
VERTEX
  5
43a
  8
Layer_0
  10
774.3075
  20
272.38727
  0
VERTEX
  5
43b
  8
Layer_0
  10
775.07855
  20
272.10938
  0
VERTEX
  5
43c
  8
Layer_0
  10
775.81506
  20
271.75958
  0
VERTEX
  5
43d
  8
Layer_0
  10
776.51422
  20
271.33997
  0
VERTEX
  5
43e
  8
Layer_0
  10
777.17078
  20
270.85327
  0
VERTEX
  5
43f
  8
Layer_0
  10
784.29944
  20
265.01105
  0
VERTEX
  5
440
  8
Layer_0
  10
784.56921
  20
264.8161
  0
VERTEX
  5
441
  8
Layer_0
  10
784.85742
  20
264.6571
  0
VERTEX
  5
442
  8
Layer_0
  10
785.16058
  20
264.53479
  0
VERTEX
  5
443
  8
Layer_0
  10
785.4751
  20
264.44983
  0
VERTEX
  5
444
  8
Layer_0
  10
785.79749
  20
264.40289
  0
VERTEX
  5
445
  8
Layer_0
  10
786.12433
  20
264.39478
  0
VERTEX
  5
446
  8
Layer_0
  10
786.45203
  20
264.42621
  0
VERTEX
  5
447
  8
Layer_0
  10
786.77698
  20
264.49792
  0
VERTEX
  5
448
  8
Layer_0
  10
793.34314
  20
266.37256
  0
VERTEX
  5
449
  8
Layer_0
  10
794.0473
  20
266.58954
  0
VERTEX
  5
44a
  8
Layer_0
  10
794.19922
  20
266.63977
  0
VERTEX
  5
44b
  8
Layer_0
  10
794.8739
  20
266.87726
  0
VERTEX
  5
44c
  8
Layer_0
  10
794.99866
  20
266.9234
  0
VERTEX
  5
44d
  8
Layer_0
  10
795.64874
  20
267.17572
  0
VERTEX
  5
44e
  8
Layer_0
  10
795.75439
  20
267.21838
  0
VERTEX
  5
44f
  8
Layer_0
  10
796.4325
  20
267.50293
  0
VERTEX
  5
450
  8
Layer_0
  10
796.56628
  20
267.56177
  0
VERTEX
  5
451
  8
Layer_0
  10
797.76892
  20
268.11646
  0
VERTEX
  5
452
  8
Layer_0
  10
797.91992
  20
268.18976
  0
VERTEX
  5
453
  8
Layer_0
  10
799.15479
  20
268.82031
  0
VERTEX
  5
454
  8
Layer_0
  10
799.28992
  20
268.89246
  0
VERTEX
  5
455
  8
Layer_0
  10
800.50977
  20
269.57257
  0
VERTEX
  5
456
  8
Layer_0
  10
801.07965
  20
269.86243
  0
VERTEX
  5
457
  8
Layer_0
  10
801.66736
  20
270.10706
  0
VERTEX
  5
458
  8
Layer_0
  10
802.27014
  20
270.30603
  0
VERTEX
  5
459
  8
Layer_0
  10
802.88544
  20
270.45862
  0
VERTEX
  5
45a
  8
Layer_0
  10
803.5105
  20
270.56439
  0
VERTEX
  5
45b
  8
Layer_0
  10
804.14258
  20
270.6228
  0
VERTEX
  5
45c
  8
Layer_0
  10
804.77911
  20
270.63318
  0
VERTEX
  5
45d
  8
Layer_0
  10
805.41736
  20
270.59497
  0
VERTEX
  5
45e
  8
Layer_0
  10
806.05426
  20
270.508
  0
VERTEX
  5
45f
  8
Layer_0
  10
806.67664
  20
270.37408
  0
VERTEX
  5
460
  8
Layer_0
  10
807.28528
  20
270.19397
  0
VERTEX
  5
461
  8
Layer_0
  10
807.87787
  20
269.96863
  0
VERTEX
  5
462
  8
Layer_0
  10
808.45172
  20
269.69928
  0
VERTEX
  5
463
  8
Layer_0
  10
809.00439
  20
269.38696
  0
VERTEX
  5
464
  8
Layer_0
  10
809.53326
  20
269.03271
  0
VERTEX
  5
465
  8
Layer_0
  10
810.03589
  20
268.63757
  0
VERTEX
  5
466
  8
Layer_0
  10
811.92688
  20
267.03088
  0
VERTEX
  5
467
  8
Layer_0
  10
812.18481
  20
266.82025
  0
VERTEX
  5
468
  8
Layer_0
  10
812.55804
  20
266.4989
  0
VERTEX
  5
469
  8
Layer_0
  10
812.91089
  20
266.15698
  0
VERTEX
  5
46a
  8
Layer_0
  10
813.24255
  20
265.79565
  0
VERTEX
  5
46b
  8
Layer_0
  10
813.55237
  20
265.41589
  0
VERTEX
  5
46c
  8
Layer_0
  10
813.83948
  20
265.0188
  0
VERTEX
  5
46d
  8
Layer_0
  10
814.10315
  20
264.60522
  0
VERTEX
  5
46e
  8
Layer_0
  10
814.34253
  20
264.17615
  0
VERTEX
  5
46f
  8
Layer_0
  10
814.55695
  20
263.73273
  0
VERTEX
  5
470
  8
Layer_0
  10
814.74609
  20
263.27496
  0
VERTEX
  5
471
  8
Layer_0
  10
814.90674
  20
262.81067
  0
VERTEX
  5
472
  8
Layer_0
  10
815.03979
  20
262.33856
  0
VERTEX
  5
473
  8
Layer_0
  10
815.1449
  20
261.85992
  0
VERTEX
  5
474
  8
Layer_0
  10
815.22192
  20
261.37598
  0
VERTEX
  5
475
  8
Layer_0
  10
815.27057
  20
260.88794
  0
VERTEX
  5
476
  8
Layer_0
  10
815.29065
  20
260.39709
  0
VERTEX
  5
477
  8
Layer_0
  10
815.28192
  20
259.90454
  0
VERTEX
  5
478
  8
Layer_0
  10
815.03442
  20
254.64667
  0
VERTEX
  5
479
  8
Layer_0
  10
815.0437
  20
254.25891
  0
VERTEX
  5
47a
  8
Layer_0
  10
815.10754
  20
253.87817
  0
VERTEX
  5
47b
  8
Layer_0
  10
815.22449
  20
253.51038
  0
VERTEX
  5
47c
  8
Layer_0
  10
815.39313
  20
253.16101
  0
VERTEX
  5
47d
  8
Layer_0
  10
818.45642
  20
247.82245
  0
VERTEX
  5
47e
  8
Layer_0
  10
820.20508
  20
244.86212
  0
VERTEX
  5
47f
  8
Layer_0
  10
820.39398
  20
244.58325
  0
VERTEX
  5
480
  8
Layer_0
  10
820.61493
  20
244.33069
  0
VERTEX
  5
481
  8
Layer_0
  10
820.86523
  20
244.10712
  0
VERTEX
  5
482
  8
Layer_0
  10
821.14215
  20
243.91534
  0
VERTEX
  5
483
  8
Layer_0
  10
822.43036
  20
242.95667
  0
VERTEX
  5
484
  8
Layer_0
  10
823.0293
  20
242.41461
  0
VERTEX
  5
485
  8
Layer_0
  10
823.67847
  20
241.54926
  0
VERTEX
  5
486
  8
Layer_0
  10
823.74792
  20
241.45917
  0
VERTEX
  5
487
  8
Layer_0
  10
824.66919
  20
240.2981
  0
VERTEX
  5
488
  8
Layer_0
  10
824.72986
  20
240.22345
  0
VERTEX
  5
489
  8
Layer_0
  10
825.69415
  20
239.06372
  0
VERTEX
  5
48a
  8
Layer_0
  10
825.75891
  20
238.98773
  0
VERTEX
  5
48b
  8
Layer_0
  10
826.74072
  20
237.86255
  0
VERTEX
  5
48c
  8
Layer_0
  10
826.8252
  20
237.76855
  0
VERTEX
  5
48d
  8
Layer_0
  10
827.77698
  20
236.74188
  0
VERTEX
  5
48e
  8
Layer_0
  10
827.87146
  20
236.64325
  0
VERTEX
  5
48f
  8
Layer_0
  10
828.40906
  20
236.09998
  0
VERTEX
  5
490
  8
Layer_0
  10
828.505
  20
236.00604
  0
VERTEX
  5
491
  8
Layer_0
  10
829.05591
  20
235.48376
  0
VERTEX
  5
492
  8
Layer_0
  10
829.20074
  20
235.35272
  0
VERTEX
  5
493
  8
Layer_0
  10
829.72211
  20
234.90259
  0
VERTEX
  5
494
  8
Layer_0
  10
829.85352
  20
234.79376
  0
VERTEX
  5
495
  8
Layer_0
  10
830.41968
  20
234.34387
  0
VERTEX
  5
496
  8
Layer_0
  10
830.57666
  20
234.22491
  0
VERTEX
  5
497
  8
Layer_0
  10
831.56921
  20
233.51044
  0
VERTEX
  5
498
  8
Layer_0
  10
832.30231
  20
233.091
  0
VERTEX
  5
499
  8
Layer_0
  10
832.78284
  20
232.79413
  0
VERTEX
  5
49a
  8
Layer_0
  10
833.24084
  20
232.4668
  0
VERTEX
  5
49b
  8
Layer_0
  10
833.67499
  20
232.11035
  0
VERTEX
  5
49c
  8
Layer_0
  10
834.0838
  20
231.72601
  0
VERTEX
  5
49d
  8
Layer_0
  10
834.46606
  20
231.31525
  0
VERTEX
  5
49e
  8
Layer_0
  10
834.82043
  20
230.87939
  0
VERTEX
  5
49f
  8
Layer_0
  10
835.14551
  20
230.4198
  0
VERTEX
  5
4a0
  8
Layer_0
  10
835.43994
  20
229.93781
  0
VERTEX
  5
4a1
  8
Layer_0
  10
835.57703
  20
229.72913
  0
VERTEX
  5
4a2
  8
Layer_0
  10
835.73969
  20
229.5412
  0
VERTEX
  5
4a3
  8
Layer_0
  10
835.92566
  20
229.37634
  0
VERTEX
  5
4a4
  8
Layer_0
  10
836.13269
  20
229.23682
  0
VERTEX
  5
4a5
  8
Layer_0
  10
836.56018
  20
228.97083
  0
VERTEX
  5
4a6
  8
Layer_0
  10
836.97058
  20
228.67993
  0
VERTEX
  5
4a7
  8
Layer_0
  10
837.36279
  20
228.36487
  0
VERTEX
  5
4a8
  8
Layer_0
  10
837.73584
  20
228.02673
  0
VERTEX
  5
4a9
  8
Layer_0
  10
838.0824
  20
227.67444
  0
VERTEX
  5
4aa
  8
Layer_0
  10
838.39459
  20
227.31812
  0
VERTEX
  5
4ab
  8
Layer_0
  10
838.68622
  20
226.94482
  0
VERTEX
  5
4ac
  8
Layer_0
  10
838.95654
  20
226.5553
  0
VERTEX
  5
4ad
  8
Layer_0
  10
839.07922
  20
226.36725
  0
VERTEX
  5
4ae
  8
Layer_0
  10
839.41919
  20
225.86633
  0
VERTEX
  5
4af
  8
Layer_0
  10
841.92749
  20
222.33685
  0
VERTEX
  5
4b0
  8
Layer_0
  10
842.13904
  20
222.07513
  0
VERTEX
  5
4b1
  8
Layer_0
  10
842.38013
  20
221.84229
  0
VERTEX
  5
4b2
  8
Layer_0
  10
842.64801
  20
221.64075
  0
VERTEX
  5
4b3
  8
Layer_0
  10
842.9397
  20
221.47302
  0
VERTEX
  5
4b4
  8
Layer_0
  10
846.15698
  20
219.87842
  0
VERTEX
  5
4b5
  8
Layer_0
  10
846.91669
  20
219.45142
  0
VERTEX
  5
4b6
  8
Layer_0
  10
847.6261
  20
218.94934
  0
VERTEX
  5
4b7
  8
Layer_0
  10
848.27991
  20
218.37659
  0
VERTEX
  5
4b8
  8
Layer_0
  10
848.87244
  20
217.73755
  0
VERTEX
  5
4b9
  8
Layer_0
  10
849.39709
  20
217.0387
  0
VERTEX
  5
4ba
  8
Layer_0
  10
849.84399
  20
216.29321
  0
VERTEX
  5
4bb
  8
Layer_0
  10
850.21143
  20
215.50549
  0
VERTEX
  5
4bc
  8
Layer_0
  10
850.49609
  20
214.68182
  0
VERTEX
  5
4bd
  8
Layer_0
  10
850.66943
  20
214.23346
  0
VERTEX
  5
4be
  8
Layer_0
  10
850.91663
  20
213.8255
  0
VERTEX
  5
4bf
  8
Layer_0
  10
851.23102
  20
213.4668
  0
VERTEX
  5
4c0
  8
Layer_0
  10
851.60614
  20
213.16626
  0
VERTEX
  5
4c1
  8
Layer_0
  10
860.11816
  20
207.50092
  0
VERTEX
  5
4c2
  8
Layer_0
  10
860.53656
  20
207.27246
  0
VERTEX
  5
4c3
  8
Layer_0
  10
860.98486
  20
207.12109
  0
VERTEX
  5
4c4
  8
Layer_0
  10
861.45251
  20
207.0495
  0
VERTEX
  5
4c5
  8
Layer_0
  10
861.92908
  20
207.06012
  0
VERTEX
  5
4c6
  8
Layer_0
  10
865.12347
  20
207.41205
  0
VERTEX
  5
4c7
  8
Layer_0
  10
865.71997
  20
207.45636
  0
VERTEX
  5
4c8
  8
Layer_0
  10
866.31744
  20
207.45801
  0
VERTEX
  5
4c9
  8
Layer_0
  10
866.91351
  20
207.41718
  0
VERTEX
  5
4ca
  8
Layer_0
  10
867.50592
  20
207.33398
  0
VERTEX
  5
4cb
  8
Layer_0
  10
868.09253
  20
207.2085
  0
VERTEX
  5
4cc
  8
Layer_0
  10
868.66632
  20
207.04211
  0
VERTEX
  5
4cd
  8
Layer_0
  10
869.22687
  20
206.83545
  0
VERTEX
  5
4ce
  8
Layer_0
  10
869.77197
  20
206.58905
  0
VERTEX
  5
4cf
  8
Layer_0
  10
873.54572
  20
204.71863
  0
VERTEX
  5
4d0
  8
Layer_0
  10
873.96313
  20
204.55286
  0
VERTEX
  5
4d1
  8
Layer_0
  10
874.39331
  20
204.45898
  0
VERTEX
  5
4d2
  8
Layer_0
  10
874.82776
  20
204.43561
  0
VERTEX
  5
4d3
  8
Layer_0
  10
875.25806
  20
204.48108
  0
VERTEX
  5
4d4
  8
Layer_0
  10
875.67584
  20
204.59375
  0
VERTEX
  5
4d5
  8
Layer_0
  10
876.07263
  20
204.77222
  0
VERTEX
  5
4d6
  8
Layer_0
  10
876.44006
  20
205.01483
  0
VERTEX
  5
4d7
  8
Layer_0
  10
876.76959
  20
205.32001
  0
VERTEX
  5
4d8
  8
Layer_0
  10
882.52063
  20
211.5954
  0
VERTEX
  5
4d9
  8
Layer_0
  10
882.63971
  20
211.73108
  0
VERTEX
  5
4da
  8
Layer_0
  10
883.04602
  20
212.21472
  0
VERTEX
  5
4db
  8
Layer_0
  10
883.18884
  20
212.39441
  0
VERTEX
  5
4dc
  8
Layer_0
  10
883.61554
  20
212.96265
  0
VERTEX
  5
4dd
  8
Layer_0
  10
883.73242
  20
213.12622
  0
VERTEX
  5
4de
  8
Layer_0
  10
884.33423
  20
214.01324
  0
VERTEX
  5
4df
  8
Layer_0
  10
884.43225
  20
214.16455
  0
VERTEX
  5
4e0
  8
Layer_0
  10
885.02924
  20
215.13123
  0
VERTEX
  5
4e1
  8
Layer_0
  10
885.11304
  20
215.27313
  0
VERTEX
  5
4e2
  8
Layer_0
  10
885.63409
  20
216.19617
  0
VERTEX
  5
4e3
  8
Layer_0
  10
887.49976
  20
219.67816
  0
VERTEX
  5
4e4
  8
Layer_0
  10
889.47821
  20
229.68134
  0
VERTEX
  5
4e5
  8
Layer_0
  10
889.51807
  20
229.95569
  0
VERTEX
  5
4e6
  8
Layer_0
  10
889.52997
  20
230.23193
  0
VERTEX
  5
4e7
  8
Layer_0
  10
889.51379
  20
230.508
  0
VERTEX
  5
4e8
  8
Layer_0
  10
889.46973
  20
230.78162
  0
VERTEX
  5
4e9
  8
Layer_0
  10
889.31976
  20
231.76355
  0
VERTEX
  5
4ea
  8
Layer_0
  10
889.2868
  20
232.75568
  0
VERTEX
  5
4eb
  8
Layer_0
  10
889.19775
  20
233.52258
  0
VERTEX
  5
4ec
  8
Layer_0
  10
888.54175
  20
235.74817
  0
VERTEX
  5
4ed
  8
Layer_0
  10
887.03076
  20
246.013
  0
VERTEX
  5
4ee
  8
Layer_0
  10
886.71265
  20
247.98962
  0
VERTEX
  5
4ef
  8
Layer_0
  10
886.68829
  20
248.12622
  0
VERTEX
  5
4f0
  8
Layer_0
  10
886.46716
  20
249.25916
  0
VERTEX
  5
4f1
  8
Layer_0
  10
886.42133
  20
249.46606
  0
VERTEX
  5
4f2
  8
Layer_0
  10
886.11188
  20
250.71289
  0
VERTEX
  5
4f3
  8
Layer_0
  10
886.07031
  20
250.8678
  0
VERTEX
  5
4f4
  8
Layer_0
  10
885.71301
  20
252.10339
  0
VERTEX
  5
4f5
  8
Layer_0
  10
885.67352
  20
252.23218
  0
VERTEX
  5
4f6
  8
Layer_0
  10
885.27289
  20
253.46759
  0
VERTEX
  5
4f7
  8
Layer_0
  10
885.23279
  20
253.58533
  0
VERTEX
  5
4f8
  8
Layer_0
  10
884.79285
  20
254.81659
  0
VERTEX
  5
4f9
  8
Layer_0
  10
884.74878
  20
254.9342
  0
VERTEX
  5
4fa
  8
Layer_0
  10
884.27161
  20
256.15314
  0
VERTEX
  5
4fb
  8
Layer_0
  10
884.21893
  20
256.28131
  0
VERTEX
  5
4fc
  8
Layer_0
  10
883.70245
  20
257.48218
  0
VERTEX
  5
4fd
  8
Layer_0
  10
883.63342
  20
257.63434
  0
VERTEX
  5
4fe
  8
Layer_0
  10
883.11755
  20
258.71332
  0
VERTEX
  5
4ff
  8
Layer_0
  10
883.073
  20
258.80371
  0
VERTEX
  5
500
  8
Layer_0
  10
881.82959
  20
261.25146
  0
VERTEX
  5
501
  8
Layer_0
  10
876.63135
  20
268.14465
  0
VERTEX
  5
502
  8
Layer_0
  10
876.31732
  20
268.73804
  0
VERTEX
  5
503
  8
Layer_0
  10
875.78821
  20
269.96533
  0
VERTEX
  5
504
  8
Layer_0
  10
875.42499
  20
270.67377
  0
VERTEX
  5
505
  8
Layer_0
  10
874.07941
  20
272.55298
  0
VERTEX
  5
506
  8
Layer_0
  10
873.14722
  20
273.89636
  0
VERTEX
  5
507
  8
Layer_0
  10
871.68207
  20
276.4754
  0
VERTEX
  5
508
  8
Layer_0
  10
871.30243
  20
277.36133
  0
VERTEX
  5
509
  8
Layer_0
  10
870.98566
  20
278.43292
  0
VERTEX
  5
50a
  8
Layer_0
  10
870.92999
  20
278.60706
  0
VERTEX
  5
50b
  8
Layer_0
  10
870.53943
  20
279.7439
  0
VERTEX
  5
50c
  8
Layer_0
  10
870.44696
  20
279.98804
  0
VERTEX
  5
50d
  8
Layer_0
  10
869.98114
  20
281.11096
  0
VERTEX
  5
50e
  8
Layer_0
  10
869.86725
  20
281.36194
  0
VERTEX
  5
50f
  8
Layer_0
  10
869.48871
  20
282.12805
  0
VERTEX
  5
510
  8
Layer_0
  10
869.34882
  20
282.38782
  0
VERTEX
  5
511
  8
Layer_0
  10
868.97235
  20
283.03149
  0
VERTEX
  5
512
  8
Layer_0
  10
868.85742
  20
283.2168
  0
VERTEX
  5
513
  8
Layer_0
  10
867.43738
  20
285.37854
  0
VERTEX
  5
514
  8
Layer_0
  10
861.09863
  20
291.49786
  0
VERTEX
  5
515
  8
Layer_0
  10
858.38263
  20
294.94061
  0
VERTEX
  5
516
  8
Layer_0
  10
857.57318
  20
295.96381
  0
VERTEX
  5
517
  8
Layer_0
  10
856.78882
  20
296.98538
  0
VERTEX
  5
518
  8
Layer_0
  10
856.0257
  20
298.00943
  0
VERTEX
  5
519
  8
Layer_0
  10
855.2843
  20
299.03455
  0
VERTEX
  5
51a
  8
Layer_0
  10
854.56622
  20
300.05844
  0
VERTEX
  5
51b
  8
Layer_0
  10
853.87286
  20
301.07883
  0
VERTEX
  5
51c
  8
Layer_0
  10
853.20544
  20
302.09326
  0
VERTEX
  5
51d
  8
Layer_0
  10
852.56543
  20
303.09924
  0
VERTEX
  5
51e
  8
Layer_0
  10
851.95416
  20
304.09418
  0
VERTEX
  5
51f
  8
Layer_0
  10
851.37292
  20
305.07538
  0
VERTEX
  5
520
  8
Layer_0
  10
850.82306
  20
306.04007
  0
VERTEX
  5
521
  8
Layer_0
  10
850.30591
  20
306.98523
  0
VERTEX
  5
522
  8
Layer_0
  10
849.81787
  20
307.91687
  0
VERTEX
  5
523
  8
Layer_0
  10
849.63477
  20
308.2854
  0
VERTEX
  5
524
  8
Layer_0
  10
849.33807
  20
308.95425
  0
VERTEX
  5
525
  8
Layer_0
  10
849.1012
  20
309.64508
  0
VERTEX
  5
526
  8
Layer_0
  10
848.92517
  20
310.35385
  0
VERTEX
  5
527
  8
Layer_0
  10
848.8114
  20
311.07663
  0
VERTEX
  5
528
  8
Layer_0
  10
848.76056
  20
311.81366
  0
VERTEX
  5
529
  8
Layer_0
  10
848.77454
  20
312.54877
  0
VERTEX
  5
52a
  8
Layer_0
  10
848.85278
  20
313.27985
  0
VERTEX
  5
52b
  8
Layer_0
  10
848.995
  20
314.00266
  0
VERTEX
  5
52c
  8
Layer_0
  10
849.46735
  20
315.94772
  0
VERTEX
  5
52d
  8
Layer_0
  10
849.57874
  20
316.6972
  0
VERTEX
  5
52e
  8
Layer_0
  10
849.71375
  20
319.05945
  0
VERTEX
  5
52f
  8
Layer_0
  10
849.7677
  20
319.64417
  0
VERTEX
  5
530
  8
Layer_0
  10
849.8623
  20
320.22296
  0
VERTEX
  5
531
  8
Layer_0
  10
849.99707
  20
320.79376
  0
VERTEX
  5
532
  8
Layer_0
  10
850.17151
  20
321.35446
  0
VERTEX
  5
533
  8
Layer_0
  10
851.09601
  20
323.99503
  0
VERTEX
  5
534
  8
Layer_0
  10
851.98175
  20
325.62726
  0
VERTEX
  5
535
  8
Layer_0
  10
853.68604
  20
328.41113
  0
VERTEX
  5
536
  8
Layer_0
  10
855.13013
  20
330.15411
  0
VERTEX
  5
537
  8
Layer_0
  10
856.71039
  20
332.00168
  0
VERTEX
  5
538
  8
Layer_0
  10
857.17053
  20
332.76355
  0
VERTEX
  5
539
  8
Layer_0
  10
857.75964
  20
333.95642
  0
VERTEX
  5
53a
  8
Layer_0
  10
858.10211
  20
334.53024
  0
VERTEX
  5
53b
  8
Layer_0
  10
862.65771
  20
339.97461
  0
VERTEX
  5
53c
  8
Layer_0
  10
867.55005
  20
349.00876
  0
VERTEX
  5
53d
  8
Layer_0
  10
868.14117
  20
352.02188
  0
VERTEX
  5
53e
  8
Layer_0
  10
868.24792
  20
352.4935
  0
VERTEX
  5
53f
  8
Layer_0
  10
868.38123
  20
352.95703
  0
VERTEX
  5
540
  8
Layer_0
  10
868.54071
  20
353.41141
  0
VERTEX
  5
541
  8
Layer_0
  10
868.72583
  20
353.85553
  0
VERTEX
  5
542
  8
Layer_0
  10
868.93604
  20
354.2883
  0
VERTEX
  5
543
  8
Layer_0
  10
869.1709
  20
354.70868
  0
VERTEX
  5
544
  8
Layer_0
  10
869.42993
  20
355.11554
  0
VERTEX
  5
545
  8
Layer_0
  10
869.71265
  20
355.50778
  0
VERTEX
  5
546
  8
Layer_0
  10
870.01917
  20
355.88528
  0
VERTEX
  5
547
  8
Layer_0
  10
870.3443
  20
356.24158
  0
VERTEX
  5
548
  8
Layer_0
  10
870.68872
  20
356.57809
  0
VERTEX
  5
549
  8
Layer_0
  10
871.05164
  20
356.89404
  0
VERTEX
  5
54a
  8
Layer_0
  10
871.43201
  20
357.18869
  0
VERTEX
  5
54b
  8
Layer_0
  10
871.82898
  20
357.46124
  0
VERTEX
  5
54c
  8
Layer_0
  10
872.24164
  20
357.711
  0
VERTEX
  5
54d
  8
Layer_0
  10
872.66901
  20
357.93716
  0
VERTEX
  5
54e
  8
Layer_0
  10
873.0921
  20
358.14569
  0
VERTEX
  5
54f
  8
Layer_0
  10
873.27228
  20
358.23999
  0
VERTEX
  5
550
  8
Layer_0
  10
873.9071
  20
358.59201
  0
VERTEX
  5
551
  8
Layer_0
  10
874.12701
  20
358.72293
  0
VERTEX
  5
552
  8
Layer_0
  10
874.80298
  20
359.15372
  0
VERTEX
  5
553
  8
Layer_0
  10
875.05377
  20
359.32669
  0
VERTEX
  5
554
  8
Layer_0
  10
875.74738
  20
359.84311
  0
VERTEX
  5
555
  8
Layer_0
  10
876.01007
  20
360.05566
  0
VERTEX
  5
556
  8
Layer_0
  10
876.68018
  20
360.64407
  0
VERTEX
  5
557
  8
Layer_0
  10
876.92896
  20
360.88126
  0
VERTEX
  5
558
  8
Layer_0
  10
877.5307
  20
361.50397
  0
VERTEX
  5
559
  8
Layer_0
  10
877.74225
  20
361.74008
  0
VERTEX
  5
55a
  8
Layer_0
  10
878.24475
  20
362.34567
  0
VERTEX
  5
55b
  8
Layer_0
  10
878.40631
  20
362.55319
  0
VERTEX
  5
55c
  8
Layer_0
  10
878.84076
  20
363.14905
  0
VERTEX
  5
55d
  8
Layer_0
  10
878.98682
  20
363.36298
  0
VERTEX
  5
55e
  8
Layer_0
  10
879.43768
  20
364.06897
  0
VERTEX
  5
55f
  8
Layer_0
  10
879.4903
  20
364.15366
  0
VERTEX
  5
560
  8
Layer_0
  10
881.52203
  20
367.50824
  0
VERTEX
  5
561
  8
Layer_0
  10
881.67786
  20
367.80524
  0
VERTEX
  5
562
  8
Layer_0
  10
881.79193
  20
368.11902
  0
VERTEX
  5
563
  8
Layer_0
  10
881.86292
  20
368.44525
  0
VERTEX
  5
564
  8
Layer_0
  10
881.88959
  20
368.77963
  0
VERTEX
  5
565
  8
Layer_0
  10
881.91821
  20
369.37976
  0
VERTEX
  5
566
  8
Layer_0
  10
881.98877
  20
369.97092
  0
VERTEX
  5
567
  8
Layer_0
  10
882.10022
  20
370.55124
  0
VERTEX
  5
568
  8
Layer_0
  10
882.25122
  20
371.1189
  0
VERTEX
  5
569
  8
Layer_0
  10
882.44067
  20
371.67209
  0
VERTEX
  5
56a
  8
Layer_0
  10
882.66736
  20
372.20898
  0
VERTEX
  5
56b
  8
Layer_0
  10
882.93011
  20
372.72781
  0
VERTEX
  5
56c
  8
Layer_0
  10
883.22784
  20
373.22668
  0
VERTEX
  5
56d
  8
Layer_0
  10
883.55933
  20
373.7038
  0
VERTEX
  5
56e
  8
Layer_0
  10
883.92334
  20
374.15735
  0
VERTEX
  5
56f
  8
Layer_0
  10
884.31873
  20
374.58551
  0
VERTEX
  5
570
  8
Layer_0
  10
884.74438
  20
374.98645
  0
VERTEX
  5
571
  8
Layer_0
  10
885.19897
  20
375.35837
  0
VERTEX
  5
572
  8
Layer_0
  10
885.68158
  20
375.6994
  0
VERTEX
  5
573
  8
Layer_0
  10
886.19086
  20
376.00778
  0
VERTEX
  5
574
  8
Layer_0
  10
886.72565
  20
376.28162
  0
VERTEX
  5
575
  8
Layer_0
  10
890.21423
  20
377.91385
  0
VERTEX
  5
576
  8
Layer_0
  10
890.44537
  20
378.05475
  0
VERTEX
  5
577
  8
Layer_0
  10
890.66089
  20
378.21741
  0
VERTEX
  5
578
  8
Layer_0
  10
890.85925
  20
378.40063
  0
VERTEX
  5
579
  8
Layer_0
  10
891.03894
  20
378.60303
  0
VERTEX
  5
57a
  8
Layer_0
  10
896.54395
  20
385.45999
  0
VERTEX
  5
57b
  8
Layer_0
  10
896.77051
  20
385.78891
  0
VERTEX
  5
57c
  8
Layer_0
  10
896.94586
  20
386.14545
  0
VERTEX
  5
57d
  8
Layer_0
  10
897.06763
  20
386.52368
  0
VERTEX
  5
57e
  8
Layer_0
  10
897.1333
  20
386.91763
  0
VERTEX
  5
57f
  8
Layer_0
  10
897.8017
  20
394.15967
  0
VERTEX
  5
580
  8
Layer_0
  10
897.85376
  20
394.5976
  0
VERTEX
  5
581
  8
Layer_0
  10
897.92871
  20
395.03195
  0
VERTEX
  5
582
  8
Layer_0
  10
898.02637
  20
395.46173
  0
VERTEX
  5
583
  8
Layer_0
  10
898.14648
  20
395.88614
  0
VERTEX
  5
584
  8
Layer_0
  10
898.28912
  20
396.30481
  0
VERTEX
  5
585
  8
Layer_0
  10
898.453
  20
396.71396
  0
VERTEX
  5
586
  8
Layer_0
  10
898.63806
  20
397.11395
  0
VERTEX
  5
587
  8
Layer_0
  10
898.84412
  20
397.50394
  0
VERTEX
  5
588
  8
Layer_0
  10
899.76721
  20
399.14548
  0
VERTEX
  5
589
  8
Layer_0
  10
899.8833
  20
399.3768
  0
VERTEX
  5
58a
  8
Layer_0
  10
899.97675
  20
399.61755
  0
VERTEX
  5
58b
  8
Layer_0
  10
900.04694
  20
399.86606
  0
VERTEX
  5
58c
  8
Layer_0
  10
900.09344
  20
400.12067
  0
VERTEX
  5
58d
  8
Layer_0
  10
901.2345
  20
408.63486
  0
VERTEX
  5
58e
  8
Layer_0
  10
901.25836
  20
409.03693
  0
VERTEX
  5
58f
  8
Layer_0
  10
901.22321
  20
409.43604
  0
VERTEX
  5
590
  8
Layer_0
  10
901.12994
  20
409.82565
  0
VERTEX
  5
591
  8
Layer_0
  10
900.97974
  20
410.19937
  0
VERTEX
  5
592
  8
Layer_0
  10
897.82904
  20
416.56494
  0
VERTEX
  5
593
  8
Layer_0
  10
897.01733
  20
418.42972
  0
VERTEX
  5
594
  8
Layer_0
  10
896.59302
  20
419.10959
  0
VERTEX
  5
595
  8
Layer_0
  10
896.00214
  20
419.892
  0
VERTEX
  5
596
  8
Layer_0
  10
895.72919
  20
420.30106
  0
VERTEX
  5
597
  8
Layer_0
  10
895.50458
  20
420.74155
  0
VERTEX
  5
598
  8
Layer_0
  10
895.40106
  20
420.93222
  0
VERTEX
  5
599
  8
Layer_0
  10
895.05029
  20
421.54016
  0
VERTEX
  5
59a
  8
Layer_0
  10
894.94519
  20
421.71271
  0
VERTEX
  5
59b
  8
Layer_0
  10
894.57629
  20
422.28641
  0
VERTEX
  5
59c
  8
Layer_0
  10
894.47223
  20
422.4407
  0
VERTEX
  5
59d
  8
Layer_0
  10
894.04413
  20
423.04572
  0
VERTEX
  5
59e
  8
Layer_0
  10
893.89471
  20
423.2442
  0
VERTEX
  5
59f
  8
Layer_0
  10
893.80237
  20
423.35953
  0
VERTEX
  5
5a0
  8
Layer_0
  10
893.30231
  20
424.05411
  0
VERTEX
  5
5a1
  8
Layer_0
  10
892.87659
  20
424.79401
  0
VERTEX
  5
5a2
  8
Layer_0
  10
892.5282
  20
425.5733
  0
VERTEX
  5
5a3
  8
Layer_0
  10
892.26019
  20
426.38611
  0
VERTEX
  5
5a4
  8
Layer_0
  10
892.07581
  20
427.22424
  0
VERTEX
  5
5a5
  8
Layer_0
  10
891.97815
  20
428.07233
  0
VERTEX
  5
5a6
  8
Layer_0
  10
891.96716
  20
428.9259
  0
VERTEX
  5
5a7
  8
Layer_0
  10
892.04321
  20
429.77835
  0
VERTEX
  5
5a8
  8
Layer_0
  10
892.82098
  20
435.2981
  0
VERTEX
  5
5a9
  8
Layer_0
  10
893.05835
  20
436.95871
  0
VERTEX
  5
5aa
  8
Layer_0
  10
893.20422
  20
437.72333
  0
VERTEX
  5
5ab
  8
Layer_0
  10
893.41968
  20
438.4696
  0
VERTEX
  5
5ac
  8
Layer_0
  10
893.70319
  20
439.19275
  0
VERTEX
  5
5ad
  8
Layer_0
  10
894.05316
  20
439.88803
  0
VERTEX
  5
5ae
  8
Layer_0
  10
894.46704
  20
440.54977
  0
VERTEX
  5
5af
  8
Layer_0
  10
894.93823
  20
441.16733
  0
VERTEX
  5
5b0
  8
Layer_0
  10
895.46448
  20
441.73865
  0
VERTEX
  5
5b1
  8
Layer_0
  10
896.04254
  20
442.25998
  0
VERTEX
  5
5b2
  8
Layer_0
  10
896.29504
  20
442.49545
  0
VERTEX
  5
5b3
  8
Layer_0
  10
896.51331
  20
442.75766
  0
VERTEX
  5
5b4
  8
Layer_0
  10
896.69586
  20
443.04291
  0
VERTEX
  5
5b5
  8
Layer_0
  10
896.84131
  20
443.34741
  0
VERTEX
  5
5b6
  8
Layer_0
  10
896.94812
  20
443.66754
  0
VERTEX
  5
5b7
  8
Layer_0
  10
897.01477
  20
443.99957
  0
VERTEX
  5
5b8
  8
Layer_0
  10
897.03973
  20
444.33981
  0
VERTEX
  5
5b9
  8
Layer_0
  10
897.02155
  20
444.6846
  0
VERTEX
  5
5ba
  8
Layer_0
  10
896.14709
  20
452.19949
  0
VERTEX
  5
5bb
  8
Layer_0
  10
895.24884
  20
454.92508
  0
VERTEX
  5
5bc
  8
Layer_0
  10
895.09351
  20
455.45416
  0
VERTEX
  5
5bd
  8
Layer_0
  10
894.97339
  20
455.99176
  0
VERTEX
  5
5be
  8
Layer_0
  10
894.88885
  20
456.53607
  0
VERTEX
  5
5bf
  8
Layer_0
  10
894.84009
  20
457.08533
  0
VERTEX
  5
5c0
  8
Layer_0
  10
894.82886
  20
457.73108
  0
VERTEX
  5
5c1
  8
Layer_0
  10
894.86707
  20
458.3732
  0
VERTEX
  5
5c2
  8
Layer_0
  10
894.95428
  20
459.0105
  0
VERTEX
  5
5c3
  8
Layer_0
  10
895.09033
  20
459.6402
  0
VERTEX
  5
5c4
  8
Layer_0
  10
899.57513
  20
477.11877
  0
VERTEX
  5
5c5
  8
Layer_0
  10
899.41687
  20
478.74649
  0
VERTEX
  5
5c6
  8
Layer_0
  10
899.38007
  20
479.34955
  0
VERTEX
  5
5c7
  8
Layer_0
  10
899.38666
  20
479.95132
  0
VERTEX
  5
5c8
  8
Layer_0
  10
899.43616
  20
480.54959
  0
VERTEX
  5
5c9
  8
Layer_0
  10
899.5282
  20
481.14203
  0
VERTEX
  5
5ca
  8
Layer_0
  10
899.66223
  20
481.72638
  0
VERTEX
  5
5cb
  8
Layer_0
  10
899.83789
  20
482.30042
  0
VERTEX
  5
5cc
  8
Layer_0
  10
900.05469
  20
482.86182
  0
VERTEX
  5
5cd
  8
Layer_0
  10
900.31226
  20
483.40833
  0
VERTEX
  5
5ce
  8
Layer_0
  10
900.60999
  20
483.93781
  0
VERTEX
  5
5cf
  8
Layer_0
  10
900.94202
  20
484.43979
  0
VERTEX
  5
5d0
  8
Layer_0
  10
901.30811
  20
484.91553
  0
VERTEX
  5
5d1
  8
Layer_0
  10
901.70679
  20
485.36334
  0
VERTEX
  5
5d2
  8
Layer_0
  10
902.13635
  20
485.78156
  0
VERTEX
  5
5d3
  8
Layer_0
  10
902.59528
  20
486.16852
  0
VERTEX
  5
5d4
  8
Layer_0
  10
903.08197
  20
486.52252
  0
VERTEX
  5
5d5
  8
Layer_0
  10
903.59479
  20
486.84189
  0
VERTEX
  5
5d6
  8
Layer_0
  10
907.63867
  20
489.1626
  0
VERTEX
  5
5d7
  8
Layer_0
  10
907.93811
  20
489.36179
  0
VERTEX
  5
5d8
  8
Layer_0
  10
908.20764
  20
489.5975
  0
VERTEX
  5
5d9
  8
Layer_0
  10
908.44409
  20
489.86652
  0
VERTEX
  5
5da
  8
Layer_0
  10
908.64398
  20
490.1655
  0
VERTEX
  5
5db
  8
Layer_0
  10
909.19745
  20
491.1246
  0
VERTEX
  5
5dc
  8
Layer_0
  10
909.96643
  20
492.0943
  0
VERTEX
  5
5dd
  8
Layer_0
  10
910.51276
  20
492.60666
  0
VERTEX
  5
5de
  8
Layer_0
  10
910.63971
  20
492.7308
  0
VERTEX
  5
5df
  8
Layer_0
  10
911.57147
  20
493.68176
  0
VERTEX
  5
5e0
  8
Layer_0
  10
911.67517
  20
493.79147
  0
VERTEX
  5
5e1
  8
Layer_0
  10
912.53992
  20
494.73996
  0
VERTEX
  5
5e2
  8
Layer_0
  10
917.02301
  20
499.85178
  0
VERTEX
  5
5e3
  8
Layer_0
  10
917.23712
  20
500.13022
  0
VERTEX
  5
5e4
  8
Layer_0
  10
917.41302
  20
500.43256
  0
VERTEX
  5
5e5
  8
Layer_0
  10
917.54883
  20
500.75494
  0
VERTEX
  5
5e6
  8
Layer_0
  10
917.64258
  20
501.09344
  0
VERTEX
  5
5e7
  8
Layer_0
  10
917.74921
  20
501.54236
  0
VERTEX
  5
5e8
  8
Layer_0
  10
917.88
  20
501.9837
  0
VERTEX
  5
5e9
  8
Layer_0
  10
918.03455
  20
502.4166
  0
VERTEX
  5
5ea
  8
Layer_0
  10
918.21246
  20
502.84009
  0
VERTEX
  5
5eb
  8
Layer_0
  10
918.41327
  20
503.25317
  0
VERTEX
  5
5ec
  8
Layer_0
  10
918.63654
  20
503.655
  0
VERTEX
  5
5ed
  8
Layer_0
  10
918.88184
  20
504.04456
  0
VERTEX
  5
5ee
  8
Layer_0
  10
919.1488
  20
504.4209
  0
VERTEX
  5
5ef
  8
Layer_0
  10
919.4375
  20
504.78406
  0
VERTEX
  5
5f0
  8
Layer_0
  10
919.74341
  20
505.12811
  0
VERTEX
  5
5f1
  8
Layer_0
  10
920.0672
  20
505.45441
  0
VERTEX
  5
5f2
  8
Layer_0
  10
920.40808
  20
505.76221
  0
VERTEX
  5
5f3
  8
Layer_0
  10
920.76538
  20
506.0509
  0
VERTEX
  5
5f4
  8
Layer_0
  10
921.13812
  20
506.31985
  0
VERTEX
  5
5f5
  8
Layer_0
  10
921.52563
  20
506.56833
  0
VERTEX
  5
5f6
  8
Layer_0
  10
921.92712
  20
506.79568
  0
VERTEX
  5
5f7
  8
Layer_0
  10
922.69708
  20
507.20419
  0
VERTEX
  5
5f8
  8
Layer_0
  10
922.91266
  20
507.32684
  0
VERTEX
  5
5f9
  8
Layer_0
  10
923.67487
  20
507.79095
  0
VERTEX
  5
5fa
  8
Layer_0
  10
923.79712
  20
507.86823
  0
VERTEX
  5
5fb
  8
Layer_0
  10
924.51038
  20
508.33694
  0
VERTEX
  5
5fc
  8
Layer_0
  10
925.32922
  20
508.89767
  0
VERTEX
  5
5fd
  8
Layer_0
  10
927.08929
  20
510.14197
  0
VERTEX
  5
5fe
  8
Layer_0
  10
929.33502
  20
511.74619
  0
VERTEX
  5
5ff
  8
Layer_0
  10
934.16174
  20
515.19006
  0
VERTEX
  5
600
  8
Layer_0
  10
934.53882
  20
515.51489
  0
VERTEX
  5
601
  8
Layer_0
  10
934.84845
  20
515.89941
  0
VERTEX
  5
602
  8
Layer_0
  10
935.08374
  20
516.3335
  0
VERTEX
  5
603
  8
Layer_0
  10
935.23779
  20
516.80676
  0
VERTEX
  5
604
  8
Layer_0
  10
937.41663
  20
526.39362
  0
VERTEX
  5
605
  8
Layer_0
  10
937.46307
  20
526.65735
  0
VERTEX
  5
606
  8
Layer_0
  10
937.4834
  20
526.92236
  0
VERTEX
  5
607
  8
Layer_0
  10
937.47791
  20
527.18701
  0
VERTEX
  5
608
  8
Layer_0
  10
937.44696
  20
527.44922
  0
VERTEX
  5
609
  8
Layer_0
  10
937.39081
  20
527.70721
  0
VERTEX
  5
60a
  8
Layer_0
  10
937.30975
  20
527.95911
  0
VERTEX
  5
60b
  8
Layer_0
  10
937.20416
  20
528.20313
  0
VERTEX
  5
60c
  8
Layer_0
  10
937.07434
  20
528.43726
  0
VERTEX
  5
60d
  8
Layer_0
  10
931.43903
  20
537.5191
  0
VERTEX
  5
60e
  8
Layer_0
  10
931.20178
  20
537.84497
  0
VERTEX
  5
60f
  8
Layer_0
  10
930.92078
  20
538.13098
  0
VERTEX
  5
610
  8
Layer_0
  10
930.60083
  20
538.37268
  0
VERTEX
  5
611
  8
Layer_0
  10
930.24701
  20
538.5658
  0
VERTEX
  5
612
  8
Layer_0
  10
929.5047
  20
538.90228
  0
VERTEX
  5
613
  8
Layer_0
  10
929.0376
  20
539.13171
  0
VERTEX
  5
614
  8
Layer_0
  10
928.58856
  20
539.38782
  0
VERTEX
  5
615
  8
Layer_0
  10
928.15857
  20
539.66937
  0
VERTEX
  5
616
  8
Layer_0
  10
927.74841
  20
539.97528
  0
VERTEX
  5
617
  8
Layer_0
  10
927.35907
  20
540.30444
  0
VERTEX
  5
618
  8
Layer_0
  10
926.99133
  20
540.6557
  0
VERTEX
  5
619
  8
Layer_0
  10
926.64606
  20
541.02795
  0
VERTEX
  5
61a
  8
Layer_0
  10
926.32416
  20
541.42004
  0
VERTEX
  5
61b
  8
Layer_0
  10
926.02649
  20
541.83081
  0
VERTEX
  5
61c
  8
Layer_0
  10
925.75397
  20
542.25916
  0
VERTEX
  5
61d
  8
Layer_0
  10
925.50739
  20
542.70398
  0
VERTEX
  5
61e
  8
Layer_0
  10
925.28772
  20
543.16406
  0
VERTEX
  5
61f
  8
Layer_0
  10
925.09576
  20
543.63837
  0
VERTEX
  5
620
  8
Layer_0
  10
924.93237
  20
544.12567
  0
VERTEX
  5
621
  8
Layer_0
  10
924.79846
  20
544.62488
  0
VERTEX
  5
622
  8
Layer_0
  10
924.69495
  20
545.13495
  0
VERTEX
  5
623
  8
Layer_0
  10
924.62317
  20
545.65039
  0
VERTEX
  5
624
  8
Layer_0
  10
924.58356
  20
546.16577
  0
VERTEX
  5
625
  8
Layer_0
  10
924.57574
  20
546.67975
  0
VERTEX
  5
626
  8
Layer_0
  10
924.59924
  20
547.19086
  0
VERTEX
  5
627
  8
Layer_0
  10
924.65356
  20
547.69781
  0
VERTEX
  5
628
  8
Layer_0
  10
924.7384
  20
548.19928
  0
VERTEX
  5
629
  8
Layer_0
  10
924.85315
  20
548.69385
  0
VERTEX
  5
62a
  8
Layer_0
  10
924.99738
  20
549.18018
  0
VERTEX
  5
62b
  8
Layer_0
  10
925.17078
  20
549.65692
  0
VERTEX
  5
62c
  8
Layer_0
  10
925.37274
  20
550.12268
  0
VERTEX
  5
62d
  8
Layer_0
  10
925.60291
  20
550.57623
  0
VERTEX
  5
62e
  8
Layer_0
  10
925.86078
  20
551.01605
  0
VERTEX
  5
62f
  8
Layer_0
  10
926.146
  20
551.44086
  0
VERTEX
  5
630
  8
Layer_0
  10
926.45801
  20
551.8493
  0
VERTEX
  5
631
  8
Layer_0
  10
926.79645
  20
552.23999
  0
VERTEX
  5
632
  8
Layer_0
  10
927.46997
  20
552.92554
  0
VERTEX
  5
633
  8
Layer_0
  10
928.1601
  20
553.69818
  0
VERTEX
  5
634
  8
Layer_0
  10
928.27704
  20
553.83173
  0
VERTEX
  5
635
  8
Layer_0
  10
928.76672
  20
554.3476
  0
VERTEX
  5
636
  8
Layer_0
  10
929.29736
  20
554.81934
  0
VERTEX
  5
637
  8
Layer_0
  10
929.86603
  20
555.24451
  0
VERTEX
  5
638
  8
Layer_0
  10
930.46967
  20
555.62079
  0
VERTEX
  5
639
  8
Layer_0
  10
931.10474
  20
555.94556
  0
VERTEX
  5
63a
  8
Layer_0
  10
931.76196
  20
556.21411
  0
VERTEX
  5
63b
  8
Layer_0
  10
932.43958
  20
556.42615
  0
VERTEX
  5
63c
  8
Layer_0
  10
933.13391
  20
556.58044
  0
VERTEX
  5
63d
  8
Layer_0
  10
934.63574
  20
556.8479
  0
VERTEX
  5
63e
  8
Layer_0
  10
935.12146
  20
556.98077
  0
VERTEX
  5
63f
  8
Layer_0
  10
935.56317
  20
557.19489
  0
VERTEX
  5
640
  8
Layer_0
  10
935.95349
  20
557.48077
  0
VERTEX
  5
641
  8
Layer_0
  10
936.28479
  20
557.82898
  0
VERTEX
  5
642
  8
Layer_0
  10
936.54968
  20
558.2301
  0
VERTEX
  5
643
  8
Layer_0
  10
936.7406
  20
558.67468
  0
VERTEX
  5
644
  8
Layer_0
  10
936.84998
  20
559.1532
  0
VERTEX
  5
645
  8
Layer_0
  10
936.87036
  20
559.65637
  0
VERTEX
  5
646
  8
Layer_0
  10
936.86261
  20
560.33746
  0
VERTEX
  5
647
  8
Layer_0
  10
936.90973
  20
561.01367
  0
VERTEX
  5
648
  8
Layer_0
  10
937.01086
  20
561.68164
  0
VERTEX
  5
649
  8
Layer_0
  10
937.1651
  20
562.33838
  0
VERTEX
  5
64a
  8
Layer_0
  10
937.37158
  20
562.98059
  0
VERTEX
  5
64b
  8
Layer_0
  10
937.62939
  20
563.6051
  0
VERTEX
  5
64c
  8
Layer_0
  10
937.93768
  20
564.20874
  0
VERTEX
  5
64d
  8
Layer_0
  10
938.29553
  20
564.78833
  0
VERTEX
  5
64e
  8
Layer_0
  10
938.42151
  20
565.09161
  0
VERTEX
  5
64f
  8
Layer_0
  10
938.62775
  20
565.68616
  0
VERTEX
  5
650
  8
Layer_0
  10
938.85535
  20
566.27075
  0
VERTEX
  5
651
  8
Layer_0
  10
939.12555
  20
566.836
  0
VERTEX
  5
652
  8
Layer_0
  10
939.43713
  20
567.37952
  0
VERTEX
  5
653
  8
Layer_0
  10
939.78894
  20
567.89893
  0
VERTEX
  5
654
  8
Layer_0
  10
940.17963
  20
568.39203
  0
VERTEX
  5
655
  8
Layer_0
  10
940.60425
  20
568.85266
  0
VERTEX
  5
656
  8
Layer_0
  10
941.06201
  20
569.28033
  0
VERTEX
  5
657
  8
Layer_0
  10
941.55115
  20
569.67322
  0
VERTEX
  5
658
  8
Layer_0
  10
941.68854
  20
569.77533
  0
VERTEX
  5
659
  8
Layer_0
  10
942.13373
  20
570.15753
  0
VERTEX
  5
65a
  8
Layer_0
  10
943.38757
  20
571.39642
  0
VERTEX
  5
65b
  8
Layer_0
  10
943.77509
  20
571.83704
  0
VERTEX
  5
65c
  8
Layer_0
  10
948.62744
  20
578.20282
  0
VERTEX
  5
65d
  8
Layer_0
  10
948.87616
  20
578.59406
  0
VERTEX
  5
65e
  8
Layer_0
  10
949.05408
  20
579.01862
  0
VERTEX
  5
65f
  8
Layer_0
  10
949.15808
  20
579.4671
  0
VERTEX
  5
660
  8
Layer_0
  10
949.18512
  20
579.92993
  0
VERTEX
  5
661
  8
Layer_0
  10
949.07324
  20
584.12329
  0
VERTEX
  5
662
  8
Layer_0
  10
949.0694
  20
584.22382
  0
VERTEX
  5
663
  8
Layer_0
  10
949.03088
  20
584.98395
  0
VERTEX
  5
664
  8
Layer_0
  10
949.00916
  20
585.24719
  0
VERTEX
  5
665
  8
Layer_0
  10
948.89807
  20
586.22156
  0
VERTEX
  5
666
  8
Layer_0
  10
948.83984
  20
586.58752
  0
VERTEX
  5
667
  8
Layer_0
  10
948.6051
  20
587.73401
  0
VERTEX
  5
668
  8
Layer_0
  10
948.47723
  20
588.21271
  0
VERTEX
  5
669
  8
Layer_0
  10
948.04089
  20
589.5285
  0
VERTEX
  5
66a
  8
Layer_0
  10
947.80377
  20
590.09894
  0
VERTEX
  5
66b
  8
Layer_0
  10
947.09692
  20
591.49841
  0
VERTEX
  5
66c
  8
Layer_0
  10
946.73199
  20
592.09241
  0
VERTEX
  5
66d
  8
Layer_0
  10
946.37427
  20
592.57861
  0
VERTEX
  5
66e
  8
Layer_0
  10
945.40631
  20
593.81464
  0
VERTEX
  5
66f
  8
Layer_0
  10
942.06116
  20
599.026
  0
VERTEX
  5
670
  8
Layer_0
  10
941.86719
  20
599.2915
  0
VERTEX
  5
671
  8
Layer_0
  10
941.64355
  20
599.53094
  0
VERTEX
  5
672
  8
Layer_0
  10
941.39282
  20
599.74182
  0
VERTEX
  5
673
  8
Layer_0
  10
941.11761
  20
599.92181
  0
VERTEX
  5
674
  8
Layer_0
  10
940.16901
  20
600.55243
  0
VERTEX
  5
675
  8
Layer_0
  10
939.315
  20
601.30499
  0
VERTEX
  5
676
  8
Layer_0
  10
938.75275
  20
601.74084
  0
VERTEX
  5
677
  8
Layer_0
  10
936.82361
  20
602.86798
  0
VERTEX
  5
678
  8
Layer_0
  10
936.36414
  20
603.15674
  0
VERTEX
  5
679
  8
Layer_0
  10
935.92468
  20
603.47424
  0
VERTEX
  5
67a
  8
Layer_0
  10
935.50665
  20
603.81952
  0
VERTEX
  5
67b
  8
Layer_0
  10
935.11145
  20
604.19141
  0
VERTEX
  5
67c
  8
Layer_0
  10
932.20123
  20
607.11267
  0
VERTEX
  5
67d
  8
Layer_0
  10
930.85193
  20
608.48645
  0
VERTEX
  5
67e
  8
Layer_0
  10
930.00671
  20
609.72656
  0
VERTEX
  5
67f
  8
Layer_0
  10
922.92163
  20
625.58905
  0
VERTEX
  5
680
  8
Layer_0
  10
922.75171
  20
625.91028
  0
VERTEX
  5
681
  8
Layer_0
  10
922.54358
  20
626.20239
  0
VERTEX
  5
682
  8
Layer_0
  10
922.30103
  20
626.46265
  0
VERTEX
  5
683
  8
Layer_0
  10
922.02783
  20
626.68835
  0
VERTEX
  5
684
  8
Layer_0
  10
921.72778
  20
626.87677
  0
VERTEX
  5
685
  8
Layer_0
  10
921.40448
  20
627.02527
  0
VERTEX
  5
686
  8
Layer_0
  10
921.06177
  20
627.13098
  0
VERTEX
  5
687
  8
Layer_0
  10
920.70343
  20
627.19141
  0
VERTEX
  5
688
  8
Layer_0
  10
917.05341
  20
627.55908
  0
VERTEX
  5
689
  8
Layer_0
  10
915.80164
  20
627.88416
  0
VERTEX
  5
68a
  8
Layer_0
  10
914.18591
  20
628.58203
  0
VERTEX
  5
68b
  8
Layer_0
  10
914.00916
  20
628.65363
  0
VERTEX
  5
68c
  8
Layer_0
  10
913.32526
  20
628.91278
  0
VERTEX
  5
68d
  8
Layer_0
  10
913.18744
  20
628.96234
  0
VERTEX
  5
68e
  8
Layer_0
  10
912.5271
  20
629.18658
  0
VERTEX
  5
68f
  8
Layer_0
  10
912.35065
  20
629.24219
  0
VERTEX
  5
690
  8
Layer_0
  10
911.6062
  20
629.45892
  0
VERTEX
  5
691
  8
Layer_0
  10
911.35034
  20
629.52472
  0
VERTEX
  5
692
  8
Layer_0
  10
910.6427
  20
629.68323
  0
VERTEX
  5
693
  8
Layer_0
  10
910.46027
  20
629.71985
  0
VERTEX
  5
694
  8
Layer_0
  10
905.94281
  20
630.52319
  0
VERTEX
  5
695
  8
Layer_0
  10
905.51453
  20
630.56488
  0
VERTEX
  5
696
  8
Layer_0
  10
905.08759
  20
630.53912
  0
VERTEX
  5
697
  8
Layer_0
  10
904.66998
  20
630.44696
  0
VERTEX
  5
698
  8
Layer_0
  10
904.26947
  20
630.28955
  0
VERTEX
  5
699
  8
Layer_0
  10
901.59357
  20
628.9856
  0
VERTEX
  5
69a
  8
Layer_0
  10
901.14685
  20
628.78381
  0
VERTEX
  5
69b
  8
Layer_0
  10
900.68951
  20
628.60864
  0
VERTEX
  5
69c
  8
Layer_0
  10
900.22278
  20
628.46039
  0
VERTEX
  5
69d
  8
Layer_0
  10
899.74774
  20
628.33954
  0
VERTEX
  5
69e
  8
Layer_0
  10
899.26514
  20
628.24634
  0
VERTEX
  5
69f
  8
Layer_0
  10
898.77966
  20
628.18164
  0
VERTEX
  5
6a0
  8
Layer_0
  10
898.29126
  20
628.14545
  0
VERTEX
  5
6a1
  8
Layer_0
  10
897.80115
  20
628.13782
  0
VERTEX
  5
6a2
  8
Layer_0
  10
896.49005
  20
628.15558
  0
VERTEX
  5
6a3
  8
Layer_0
  10
896.04193
  20
628.1377
  0
VERTEX
  5
6a4
  8
Layer_0
  10
890.98492
  20
627.664
  0
VERTEX
  5
6a5
  8
Layer_0
  10
890.71759
  20
627.62555
  0
VERTEX
  5
6a6
  8
Layer_0
  10
890.45728
  20
627.5614
  0
VERTEX
  5
6a7
  8
Layer_0
  10
890.20569
  20
627.47253
  0
VERTEX
  5
6a8
  8
Layer_0
  10
889.96448
  20
627.35974
  0
VERTEX
  5
6a9
  8
Layer_0
  10
889.73541
  20
627.224
  0
VERTEX
  5
6aa
  8
Layer_0
  10
889.5202
  20
627.06622
  0
VERTEX
  5
6ab
  8
Layer_0
  10
889.32056
  20
626.88727
  0
VERTEX
  5
6ac
  8
Layer_0
  10
889.13812
  20
626.68811
  0
VERTEX
  5
6ad
  8
Layer_0
  10
883.87158
  20
620.33276
  0
VERTEX
  5
6ae
  8
Layer_0
  10
883.68396
  20
620.07764
  0
VERTEX
  5
6af
  8
Layer_0
  10
883.52771
  20
619.80334
  0
VERTEX
  5
6b0
  8
Layer_0
  10
883.40411
  20
619.51294
  0
VERTEX
  5
6b1
  8
Layer_0
  10
883.3147
  20
619.20911
  0
VERTEX
  5
6b2
  8
Layer_0
  10
879.28766
  20
601.87866
  0
VERTEX
  5
6b3
  8
Layer_0
  10
879.60522
  20
596.17426
  0
VERTEX
  5
6b4
  8
Layer_0
  10
879.85974
  20
592.08099
  0
VERTEX
  5
6b5
  8
Layer_0
  10
880.02899
  20
589.68176
  0
VERTEX
  5
6b6
  8
Layer_0
  10
880.04755
  20
588.89508
  0
VERTEX
  5
6b7
  8
Layer_0
  10
879.99292
  20
588.11523
  0
VERTEX
  5
6b8
  8
Layer_0
  10
879.86664
  20
587.34705
  0
VERTEX
  5
6b9
  8
Layer_0
  10
879.67023
  20
586.59546
  0
VERTEX
  5
6ba
  8
Layer_0
  10
879.40521
  20
585.86517
  0
VERTEX
  5
6bb
  8
Layer_0
  10
879.073
  20
585.16113
  0
VERTEX
  5
6bc
  8
Layer_0
  10
878.67523
  20
584.4881
  0
VERTEX
  5
6bd
  8
Layer_0
  10
878.21338
  20
583.85101
  0
VERTEX
  5
6be
  8
Layer_0
  10
874.47278
  20
579.16992
  0
VERTEX
  5
6bf
  8
Layer_0
  10
874.10358
  20
578.73865
  0
VERTEX
  5
6c0
  8
Layer_0
  10
873.70746
  20
578.33459
  0
VERTEX
  5
6c1
  8
Layer_0
  10
873.28601
  20
577.95898
  0
VERTEX
  5
6c2
  8
Layer_0
  10
872.84082
  20
577.61298
  0
VERTEX
  5
6c3
  8
Layer_0
  10
872.37335
  20
577.29761
  0
VERTEX
  5
6c4
  8
Layer_0
  10
871.88519
  20
577.01404
  0
VERTEX
  5
6c5
  8
Layer_0
  10
871.37799
  20
576.76343
  0
VERTEX
  5
6c6
  8
Layer_0
  10
870.85321
  20
576.54681
  0
VERTEX
  5
6c7
  8
Layer_0
  10
870.50946
  20
576.41846
  0
VERTEX
  5
6c8
  8
Layer_0
  10
866.83905
  20
575.06073
  0
VERTEX
  5
6c9
  8
Layer_0
  10
862.61127
  20
573.51801
  0
VERTEX
  5
6ca
  8
Layer_0
  10
858.35156
  20
571.98096
  0
VERTEX
  5
6cb
  8
Layer_0
  10
854.58582
  20
570.64038
  0
VERTEX
  5
6cc
  8
Layer_0
  10
845.49829
  20
567.43677
  0
VERTEX
  5
6cd
  8
Layer_0
  10
844.64935
  20
567.0246
  0
VERTEX
  5
6ce
  8
Layer_0
  10
839.9281
  20
564.03162
  0
VERTEX
  5
6cf
  8
Layer_0
  10
838.90173
  20
563.11102
  0
VERTEX
  5
6d0
  8
Layer_0
  10
833.61658
  20
556.48749
  0
VERTEX
  5
6d1
  8
Layer_0
  10
832.9845
  20
555.38507
  0
VERTEX
  5
6d2
  8
Layer_0
  10
830.15149
  20
548.03101
  0
VERTEX
  5
6d3
  8
Layer_0
  10
829.62506
  20
547.06427
  0
VERTEX
  5
6d4
  8
Layer_0
  10
829.10211
  20
546.34619
  0
VERTEX
  5
6d5
  8
Layer_0
  10
829.03894
  20
546.25702
  0
VERTEX
  5
6d6
  8
Layer_0
  10
828.60852
  20
545.63251
  0
VERTEX
  5
6d7
  8
Layer_0
  10
828.51978
  20
545.49829
  0
VERTEX
  5
6d8
  8
Layer_0
  10
827.84338
  20
544.4314
  0
VERTEX
  5
6d9
  8
Layer_0
  10
827.74609
  20
544.27008
  0
VERTEX
  5
6da
  8
Layer_0
  10
827.36926
  20
543.61206
  0
VERTEX
  5
6db
  8
Layer_0
  10
827.28827
  20
543.46387
  0
VERTEX
  5
6dc
  8
Layer_0
  10
826.93384
  20
542.7829
  0
VERTEX
  5
6dd
  8
Layer_0
  10
826.8244
  20
542.5564
  0
VERTEX
  5
6de
  8
Layer_0
  10
826.41992
  20
541.65039
  0
VERTEX
  5
6df
  8
Layer_0
  10
826.25635
  20
541.22266
  0
VERTEX
  5
6e0
  8
Layer_0
  10
825.92535
  20
540.19189
  0
VERTEX
  5
6e1
  8
Layer_0
  10
825.81757
  20
539.78815
  0
VERTEX
  5
6e2
  8
Layer_0
  10
825.36224
  20
537.6626
  0
VERTEX
  5
6e3
  8
Layer_0
  10
825.20294
  20
537.03717
  0
VERTEX
  5
6e4
  8
Layer_0
  10
824.99707
  20
536.42859
  0
VERTEX
  5
6e5
  8
Layer_0
  10
824.74603
  20
535.83917
  0
VERTEX
  5
6e6
  8
Layer_0
  10
824.45123
  20
535.27142
  0
VERTEX
  5
6e7
  8
Layer_0
  10
824.11401
  20
534.72778
  0
VERTEX
  5
6e8
  8
Layer_0
  10
823.73584
  20
534.21063
  0
VERTEX
  5
6e9
  8
Layer_0
  10
823.31812
  20
533.72253
  0
VERTEX
  5
6ea
  8
Layer_0
  10
822.86212
  20
533.26587
  0
VERTEX
  5
6eb
  8
Layer_0
  10
822.36987
  20
532.8432
  0
VERTEX
  5
6ec
  8
Layer_0
  10
821.85168
  20
532.46338
  0
VERTEX
  5
6ed
  8
Layer_0
  10
821.30756
  20
532.12518
  0
VERTEX
  5
6ee
  8
Layer_0
  10
820.74005
  20
531.8299
  0
VERTEX
  5
6ef
  8
Layer_0
  10
820.15173
  20
531.57861
  0
VERTEX
  5
6f0
  8
Layer_0
  10
819.5451
  20
531.37268
  0
VERTEX
  5
6f1
  8
Layer_0
  10
818.92273
  20
531.2132
  0
VERTEX
  5
6f2
  8
Layer_0
  10
818.28717
  20
531.10144
  0
VERTEX
  5
6f3
  8
Layer_0
  10
816.16632
  20
530.81195
  0
VERTEX
  5
6f4
  8
Layer_0
  10
807.52026
  20
527.0744
  0
VERTEX
  5
6f5
  8
Layer_0
  10
800.43921
  20
521.23016
  0
VERTEX
  5
6f6
  8
Layer_0
  10
800.23999
  20
521.04852
  0
VERTEX
  5
6f7
  8
Layer_0
  10
800.06097
  20
520.84961
  0
VERTEX
  5
6f8
  8
Layer_0
  10
799.90295
  20
520.63519
  0
VERTEX
  5
6f9
  8
Layer_0
  10
799.76685
  20
520.40692
  0
VERTEX
  5
6fa
  8
Layer_0
  10
799.65363
  20
520.1665
  0
VERTEX
  5
6fb
  8
Layer_0
  10
799.56415
  20
519.91559
  0
VERTEX
  5
6fc
  8
Layer_0
  10
799.49933
  20
519.65594
  0
VERTEX
  5
6fd
  8
Layer_0
  10
799.46002
  20
519.38928
  0
VERTEX
  5
6fe
  8
Layer_0
  10
799.11853
  20
515.87451
  0
VERTEX
  5
6ff
  8
Layer_0
  10
799.02246
  20
515.18323
  0
VERTEX
  5
700
  8
Layer_0
  10
798.87164
  20
514.51062
  0
VERTEX
  5
701
  8
Layer_0
  10
798.66833
  20
513.85913
  0
VERTEX
  5
702
  8
Layer_0
  10
798.41486
  20
513.2312
  0
VERTEX
  5
703
  8
Layer_0
  10
798.1134
  20
512.62939
  0
VERTEX
  5
704
  8
Layer_0
  10
797.76617
  20
512.05603
  0
VERTEX
  5
705
  8
Layer_0
  10
797.37549
  20
511.51355
  0
VERTEX
  5
706
  8
Layer_0
  10
796.9436
  20
511.00446
  0
VERTEX
  5
707
  8
Layer_0
  10
796.47266
  20
510.53116
  0
VERTEX
  5
708
  8
Layer_0
  10
795.96509
  20
510.09616
  0
VERTEX
  5
709
  8
Layer_0
  10
795.42297
  20
509.7019
  0
VERTEX
  5
70a
  8
Layer_0
  10
794.84863
  20
509.35077
  0
VERTEX
  5
70b
  8
Layer_0
  10
794.24432
  20
509.04523
  0
VERTEX
  5
70c
  8
Layer_0
  10
793.6123
  20
508.78778
  0
VERTEX
  5
70d
  8
Layer_0
  10
792.95483
  20
508.58081
  0
VERTEX
  5
70e
  8
Layer_0
  10
792.27411
  20
508.42685
  0
VERTEX
  5
70f
  8
Layer_0
  10
791.58301
  20
508.32953
  0
VERTEX
  5
710
  8
Layer_0
  10
790.89484
  20
508.28995
  0
VERTEX
  5
711
  8
Layer_0
  10
790.21259
  20
508.30661
  0
VERTEX
  5
712
  8
Layer_0
  10
789.53925
  20
508.37805
  0
VERTEX
  5
713
  8
Layer_0
  10
788.87775
  20
508.50275
  0
VERTEX
  5
714
  8
Layer_0
  10
788.23108
  20
508.67926
  0
VERTEX
  5
715
  8
Layer_0
  10
787.60223
  20
508.90601
  0
VERTEX
  5
716
  8
Layer_0
  10
786.99414
  20
509.18164
  0
VERTEX
  5
717
  8
Layer_0
  10
786.40979
  20
509.50452
  0
VERTEX
  5
718
  8
Layer_0
  10
785.85217
  20
509.87323
  0
VERTEX
  5
719
  8
Layer_0
  10
785.32422
  20
510.28632
  0
VERTEX
  5
71a
  8
Layer_0
  10
784.82898
  20
510.74219
  0
VERTEX
  5
71b
  8
Layer_0
  10
784.36938
  20
511.23944
  0
VERTEX
  5
71c
  8
Layer_0
  10
783.9483
  20
511.77649
  0
VERTEX
  5
71d
  8
Layer_0
  10
783.56885
  20
512.35193
  0
VERTEX
  5
71e
  8
Layer_0
  10
783.23389
  20
512.96423
  0
VERTEX
  5
71f
  8
Layer_0
  10
782.95435
  20
513.52942
  0
VERTEX
  5
720
  8
Layer_0
  10
782.89734
  20
513.64069
  0
VERTEX
  5
721
  8
Layer_0
  10
782.19141
  20
514.96722
  0
VERTEX
  5
722
  8
Layer_0
  10
782.13184
  20
515.07532
  0
VERTEX
  5
723
  8
Layer_0
  10
781.41565
  20
516.33069
  0
VERTEX
  5
724
  8
Layer_0
  10
778.90588
  20
520.58594
  0
SEQEND
  0
POLYLINE
  5
726
  8
Layer_0
  62
0
  66
1
  10
0
  20
0
  30
0
  0
VERTEX
  5
726
  8
Layer_0
  10
767.74011
  20
537.12085
  0
VERTEX
  5
727
  8
Layer_0
  10
761.75055
  20
543.04175
  0
SEQEND
  0
POLYLINE
  5
729
  8
Layer_0
  62
0
  66
1
  10
0
  20
0
  30
0
  0
VERTEX
  5
729
  8
Layer_0
  10
774.27692
  20
257.22894
  0
VERTEX
  5
72a
  8
Layer_0
  10
774.27759
  20
257.22906
  0
SEQEND
  0
POLYLINE
  5
72c
  8
Layer_0
  62
0
  66
1
  10
0
  20
0
  30
0
  0
VERTEX
  5
72c
  8
Layer_0
  10
863.28961
  20
312.41592
  0
VERTEX
  5
72d
  8
Layer_0
  10
863.28979
  20
312.41687
  0
SEQEND
  0
POLYLINE
  5
72f
  8
Layer_0
  62
0
  66
1
  10
0
  20
0
  30
0
  0
VERTEX
  5
72f
  8
Layer_0
  10
772.49316
  20
256.58289
  0
VERTEX
  5
730
  8
Layer_0
  10
772.49426
  20
256.58362
  0
SEQEND
  0
POLYLINE
  5
732
  8
Layer_0
  62
0
  66
1
  10
0
  20
0
  30
0
  0
VERTEX
  5
732
  8
Layer_0
  10
580.492
  20
578.88507
  0
VERTEX
  5
733
  8
Layer_0
  10
580.75024
  20
578.70367
  0
VERTEX
  5
734
  8
Layer_0
  10
580.98853
  20
578.50342
  0
VERTEX
  5
735
  8
Layer_0
  10
581.2063
  20
578.28589
  0
VERTEX
  5
736
  8
Layer_0
  10
581.40314
  20
578.05249
  0
VERTEX
  5
737
  8
Layer_0
  10
581.57837
  20
577.80499
  0
VERTEX
  5
738
  8
Layer_0
  10
581.73151
  20
577.5448
  0
VERTEX
  5
739
  8
Layer_0
  10
581.86206
  20
577.27356
  0
VERTEX
  5
73a
  8
Layer_0
  10
581.96948
  20
576.99286
  0
VERTEX
  5
73b
  8
Layer_0
  10
582.05334
  20
576.70422
  0
VERTEX
  5
73c
  8
Layer_0
  10
582.11292
  20
576.40918
  0
VERTEX
  5
73d
  8
Layer_0
  10
582.14783
  20
576.10925
  0
VERTEX
  5
73e
  8
Layer_0
  10
582.15753
  20
575.80615
  0
VERTEX
  5
73f
  8
Layer_0
  10
582.14148
  20
575.50134
  0
VERTEX
  5
740
  8
Layer_0
  10
582.09924
  20
575.19641
  0
VERTEX
  5
741
  8
Layer_0
  10
582.03015
  20
574.89294
  0
VERTEX
  5
742
  8
Layer_0
  10
581.93372
  20
574.59241
  0
VERTEX
  5
743
  8
Layer_0
  10
582.31006
  20
572.03381
  0
VERTEX
  5
744
  8
Layer_0
  10
582.75842
  20
569.4884
  0
VERTEX
  5
745
  8
Layer_0
  10
583.2782
  20
566.95776
  0
VERTEX
  5
746
  8
Layer_0
  10
583.86926
  20
564.44324
  0
VERTEX
  5
747
  8
Layer_0
  10
584.53107
  20
561.94641
  0
VERTEX
  5
748
  8
Layer_0
  10
585.26331
  20
559.46881
  0
VERTEX
  5
749
  8
Layer_0
  10
586.06555
  20
557.0119
  0
VERTEX
  5
74a
  8
Layer_0
  10
586.93756
  20
554.57721
  0
VERTEX
  5
74b
  8
Layer_0
  10
587.15112
  20
552.79437
  0
VERTEX
  5
74c
  8
Layer_0
  10
587.40991
  20
551.01959
  0
VERTEX
  5
74d
  8
Layer_0
  10
587.71362
  20
549.25372
  0
VERTEX
  5
74e
  8
Layer_0
  10
588.06201
  20
547.49756
  0
VERTEX
  5
74f
  8
Layer_0
  10
588.45471
  20
545.75201
  0
VERTEX
  5
750
  8
Layer_0
  10
588.89154
  20
544.01782
  0
VERTEX
  5
751
  8
Layer_0
  10
589.37219
  20
542.2959
  0
VERTEX
  5
752
  8
Layer_0
  10
589.89636
  20
540.58704
  0
VERTEX
  5
753
  8
Layer_0
  10
590.46387
  20
538.89203
  0
VERTEX
  5
754
  8
Layer_0
  10
591.0744
  20
537.21173
  0
VERTEX
  5
755
  8
Layer_0
  10
591.72766
  20
535.547
  0
VERTEX
  5
756
  8
Layer_0
  10
592.42346
  20
533.89862
  0
VERTEX
  5
757
  8
Layer_0
  10
593.1615
  20
532.26746
  0
VERTEX
  5
758
  8
Layer_0
  10
593.94153
  20
530.65436
  0
VERTEX
  5
759
  8
Layer_0
  10
594.76324
  20
529.06012
  0
VERTEX
  5
75a
  8
Layer_0
  10
595.6264
  20
527.4856
  0
VERTEX
  5
75b
  8
Layer_0
  10
595.16632
  20
527.21838
  0
VERTEX
  5
75c
  8
Layer_0
  10
594.73206
  20
526.92041
  0
VERTEX
  5
75d
  8
Layer_0
  10
594.32471
  20
526.59363
  0
VERTEX
  5
75e
  8
Layer_0
  10
593.94531
  20
526.23975
  0
VERTEX
  5
75f
  8
Layer_0
  10
593.59485
  20
525.86078
  0
VERTEX
  5
760
  8
Layer_0
  10
593.27417
  20
525.45856
  0
VERTEX
  5
761
  8
Layer_0
  10
592.9845
  20
525.03503
  0
VERTEX
  5
762
  8
Layer_0
  10
592.72681
  20
524.59198
  0
VERTEX
  5
763
  8
Layer_0
  10
592.50201
  20
524.13135
  0
VERTEX
  5
764
  8
Layer_0
  10
592.31122
  20
523.65503
  0
VERTEX
  5
765
  8
Layer_0
  10
592.1554
  20
523.16492
  0
VERTEX
  5
766
  8
Layer_0
  10
592.0354
  20
522.66284
  0
VERTEX
  5
767
  8
Layer_0
  10
591.95239
  20
522.1507
  0
VERTEX
  5
768
  8
Layer_0
  10
591.90747
  20
521.63037
  0
VERTEX
  5
769
  8
Layer_0
  10
591.90149
  20
521.10382
  0
VERTEX
  5
76a
  8
Layer_0
  10
591.93542
  20
520.57281
  0
VERTEX
  5
76b
  8
Layer_0
  10
592.00928
  20
520.0459
  0
VERTEX
  5
76c
  8
Layer_0
  10
592.12146
  20
519.53137
  0
VERTEX
  5
76d
  8
Layer_0
  10
592.27051
  20
519.03082
  0
VERTEX
  5
76e
  8
Layer_0
  10
592.45508
  20
518.54596
  0
VERTEX
  5
76f
  8
Layer_0
  10
592.67383
  20
518.07843
  0
VERTEX
  5
770
  8
Layer_0
  10
592.92542
  20
517.62976
  0
VERTEX
  5
771
  8
Layer_0
  10
593.20837
  20
517.20178
  0
VERTEX
  5
772
  8
Layer_0
  10
593.52148
  20
516.79596
  0
VERTEX
  5
773
  8
Layer_0
  10
593.86328
  20
516.41406
  0
VERTEX
  5
774
  8
Layer_0
  10
594.23242
  20
516.05762
  0
VERTEX
  5
775
  8
Layer_0
  10
594.62756
  20
515.72839
  0
VERTEX
  5
776
  8
Layer_0
  10
595.0473
  20
515.42792
  0
VERTEX
  5
777
  8
Layer_0
  10
595.49036
  20
515.15784
  0
VERTEX
  5
778
  8
Layer_0
  10
595.9552
  20
514.91992
  0
VERTEX
  5
779
  8
Layer_0
  10
596.44055
  20
514.7157
  0
VERTEX
  5
77a
  8
Layer_0
  10
596.94513
  20
514.54688
  0
VERTEX
  5
77b
  8
Layer_0
  10
599.88599
  20
485.69284
  0
VERTEX
  5
77c
  8
Layer_0
  10
600.37817
  20
485.27209
  0
VERTEX
  5
77d
  8
Layer_0
  10
600.81006
  20
484.79956
  0
VERTEX
  5
77e
  8
Layer_0
  10
601.17871
  20
484.28174
  0
VERTEX
  5
77f
  8
Layer_0
  10
601.48114
  20
483.72504
  0
VERTEX
  5
780
  8
Layer_0
  10
601.71429
  20
483.13599
  0
VERTEX
  5
781
  8
Layer_0
  10
601.87518
  20
482.521
  0
VERTEX
  5
782
  8
Layer_0
  10
601.96069
  20
481.88657
  0
VERTEX
  5
783
  8
Layer_0
  10
601.9679
  20
481.23914
  0
VERTEX
  5
784
  8
Layer_0
  10
601.89539
  20
480.59573
  0
VERTEX
  5
785
  8
Layer_0
  10
601.74622
  20
479.97318
  0
VERTEX
  5
786
  8
Layer_0
  10
601.52405
  20
479.37756
  0
VERTEX
  5
787
  8
Layer_0
  10
601.23267
  20
478.81506
  0
VERTEX
  5
788
  8
Layer_0
  10
600.87555
  20
478.29175
  0
VERTEX
  5
789
  8
Layer_0
  10
600.45648
  20
477.81378
  0
VERTEX
  5
78a
  8
Layer_0
  10
599.97906
  20
477.38727
  0
VERTEX
  5
78b
  8
Layer_0
  10
599.44702
  20
477.01831
  0
VERTEX
  5
78c
  8
Layer_0
  10
599.40973
  20
476.3588
  0
VERTEX
  5
78d
  8
Layer_0
  10
599.39917
  20
475.7002
  0
VERTEX
  5
78e
  8
Layer_0
  10
599.41504
  20
475.04327
  0
VERTEX
  5
78f
  8
Layer_0
  10
599.45728
  20
474.38885
  0
VERTEX
  5
790
  8
Layer_0
  10
599.5257
  20
473.73773
  0
VERTEX
  5
791
  8
Layer_0
  10
599.62012
  20
473.09061
  0
VERTEX
  5
792
  8
Layer_0
  10
599.74023
  20
472.44827
  0
VERTEX
  5
793
  8
Layer_0
  10
599.88599
  20
471.81152
  0
VERTEX
  5
794
  8
Layer_0
  10
600.05707
  20
471.18109
  0
VERTEX
  5
795
  8
Layer_0
  10
600.2533
  20
470.5578
  0
VERTEX
  5
796
  8
Layer_0
  10
600.47461
  20
469.94238
  0
VERTEX
  5
797
  8
Layer_0
  10
600.72064
  20
469.33563
  0
VERTEX
  5
798
  8
Layer_0
  10
600.99133
  20
468.73834
  0
VERTEX
  5
799
  8
Layer_0
  10
601.28638
  20
468.15125
  0
VERTEX
  5
79a
  8
Layer_0
  10
601.60571
  20
467.57507
  0
VERTEX
  5
79b
  8
Layer_0
  10
601.94897
  20
467.01068
  0
VERTEX
  5
79c
  8
Layer_0
  10
603.09717
  20
463.22412
  0
VERTEX
  5
79d
  8
Layer_0
  10
604.31409
  20
459.45947
  0
VERTEX
  5
79e
  8
Layer_0
  10
605.59937
  20
455.71756
  0
VERTEX
  5
79f
  8
Layer_0
  10
606.95276
  20
451.9993
  0
VERTEX
  5
7a0
  8
Layer_0
  10
607.7746
  20
451.30917
  0
VERTEX
  5
7a1
  8
Layer_0
  10
608.53479
  20
450.56717
  0
VERTEX
  5
7a2
  8
Layer_0
  10
609.23206
  20
449.77728
  0
VERTEX
  5
7a3
  8
Layer_0
  10
609.86511
  20
448.9436
  0
VERTEX
  5
7a4
  8
Layer_0
  10
610.43243
  20
448.07007
  0
VERTEX
  5
7a5
  8
Layer_0
  10
610.93286
  20
447.16083
  0
VERTEX
  5
7a6
  8
Layer_0
  10
611.36487
  20
446.21982
  0
VERTEX
  5
7a7
  8
Layer_0
  10
611.72717
  20
445.2511
  0
VERTEX
  5
7a8
  8
Layer_0
  10
612.01849
  20
444.25873
  0
VERTEX
  5
7a9
  8
Layer_0
  10
612.23749
  20
443.2467
  0
VERTEX
  5
7aa
  8
Layer_0
  10
612.38281
  20
442.21909
  0
VERTEX
  5
7ab
  8
Layer_0
  10
612.453
  20
441.17987
  0
VERTEX
  5
7ac
  8
Layer_0
  10
612.44684
  20
440.13312
  0
VERTEX
  5
7ad
  8
Layer_0
  10
612.36292
  20
439.08289
  0
VERTEX
  5
7ae
  8
Layer_0
  10
612.19995
  20
438.03311
  0
VERTEX
  5
7af
  8
Layer_0
  10
611.95654
  20
436.98792
  0
VERTEX
  5
7b0
  8
Layer_0
  10
611.95654
  20
434.48602
  0
VERTEX
  5
7b1
  8
Layer_0
  10
613.10547
  20
433.4057
  0
VERTEX
  5
7b2
  8
Layer_0
  10
614.19763
  20
432.27203
  0
VERTEX
  5
7b3
  8
Layer_0
  10
615.23132
  20
431.08734
  0
VERTEX
  5
7b4
  8
Layer_0
  10
616.20483
  20
429.85385
  0
VERTEX
  5
7b5
  8
Layer_0
  10
617.11646
  20
428.57391
  0
VERTEX
  5
7b6
  8
Layer_0
  10
617.96429
  20
427.24985
  0
VERTEX
  5
7b7
  8
Layer_0
  10
618.74683
  20
425.88391
  0
VERTEX
  5
7b8
  8
Layer_0
  10
619.46222
  20
424.47842
  0
VERTEX
  5
7b9
  8
Layer_0
  10
619.8241
  20
424.8829
  0
VERTEX
  5
7ba
  8
Layer_0
  10
620.2406
  20
425.21201
  0
VERTEX
  5
7bb
  8
Layer_0
  10
620.70056
  20
425.46292
  0
VERTEX
  5
7bc
  8
Layer_0
  10
621.19299
  20
425.63281
  0
VERTEX
  5
7bd
  8
Layer_0
  10
621.70673
  20
425.71887
  0
VERTEX
  5
7be
  8
Layer_0
  10
622.23071
  20
425.71835
  0
VERTEX
  5
7bf
  8
Layer_0
  10
622.75378
  20
425.62833
  0
VERTEX
  5
7c0
  8
Layer_0
  10
623.26501
  20
425.44598
  0
VERTEX
  5
7c1
  8
Layer_0
  10
623.73718
  20
425.1785
  0
VERTEX
  5
7c2
  8
Layer_0
  10
624.14746
  20
424.84161
  0
VERTEX
  5
7c3
  8
Layer_0
  10
624.49054
  20
424.44556
  0
VERTEX
  5
7c4
  8
Layer_0
  10
624.76135
  20
424.00061
  0
VERTEX
  5
7c5
  8
Layer_0
  10
624.95483
  20
423.51697
  0
VERTEX
  5
7c6
  8
Layer_0
  10
625.0658
  20
423.00488
  0
VERTEX
  5
7c7
  8
Layer_0
  10
625.08917
  20
422.47455
  0
VERTEX
  5
7c8
  8
Layer_0
  10
625.01984
  20
421.93631
  0
VERTEX
  5
7c9
  8
Layer_0
  10
624.85895
  20
421.41797
  0
VERTEX
  5
7ca
  8
Layer_0
  10
624.61707
  20
420.94547
  0
VERTEX
  5
7cb
  8
Layer_0
  10
624.30316
  20
420.52594
  0
VERTEX
  5
7cc
  8
Layer_0
  10
623.92609
  20
420.16663
  0
VERTEX
  5
7cd
  8
Layer_0
  10
623.49475
  20
419.87466
  0
VERTEX
  5
7ce
  8
Layer_0
  10
623.01801
  20
419.65723
  0
VERTEX
  5
7cf
  8
Layer_0
  10
622.50482
  20
419.52148
  0
VERTEX
  5
7d0
  8
Layer_0
  10
621.96411
  20
419.47464
  0
VERTEX
  5
7d1
  8
Layer_0
  10
633.04419
  20
411.61066
  0
VERTEX
  5
7d2
  8
Layer_0
  10
636.97552
  20
364.4328
  0
VERTEX
  5
7d3
  8
Layer_0
  10
644.22418
  20
315.34418
  0
VERTEX
  5
7d4
  8
Layer_0
  10
651.98694
  20
316.89673
  0
VERTEX
  5
7d5
  8
Layer_0
  10
656.99072
  20
291.87772
  0
VERTEX
  5
7d6
  8
Layer_0
  10
661.99457
  20
291.87772
  0
VERTEX
  5
7d7
  8
Layer_0
  10
662.58209
  20
288.78354
  0
VERTEX
  5
7d8
  8
Layer_0
  10
663.13312
  20
285.68341
  0
VERTEX
  5
7d9
  8
Layer_0
  10
663.64758
  20
282.57764
  0
VERTEX
  5
7da
  8
Layer_0
  10
664.12555
  20
279.46667
  0
VERTEX
  5
7db
  8
Layer_0
  10
664.56689
  20
276.35071
  0
VERTEX
  5
7dc
  8
Layer_0
  10
664.97168
  20
273.2301
  0
VERTEX
  5
7dd
  8
Layer_0
  10
665.33984
  20
270.1051
  0
VERTEX
  5
7de
  8
Layer_0
  10
665.6712
  20
266.9762
  0
VERTEX
  5
7df
  8
Layer_0
  10
665.96594
  20
263.84363
  0
VERTEX
  5
7e0
  8
Layer_0
  10
666.22388
  20
260.70764
  0
VERTEX
  5
7e1
  8
Layer_0
  10
666.44519
  20
257.56866
  0
VERTEX
  5
7e2
  8
Layer_0
  10
666.62952
  20
254.427
  0
VERTEX
  5
7e3
  8
Layer_0
  10
666.7771
  20
251.2829
  0
VERTEX
  5
7e4
  8
Layer_0
  10
666.88776
  20
248.13678
  0
VERTEX
  5
7e5
  8
Layer_0
  10
666.96149
  20
244.98889
  0
VERTEX
  5
7e6
  8
Layer_0
  10
666.99835
  20
241.83972
  0
SEQEND
  0
POLYLINE
  5
7e8
  8
Layer_0
  62
0
  66
1
  10
0
  20
0
  30
0
  0
VERTEX
  5
7e8
  8
Layer_0
  10
379.89264
  20
369.24704
  0
VERTEX
  5
7e9
  8
Layer_0
  10
383.95026
  20
368.88104
  0
VERTEX
  5
7ea
  8
Layer_0
  10
388.01019
  20
368.54565
  0
VERTEX
  5
7eb
  8
Layer_0
  10
392.07227
  20
368.24081
  0
VERTEX
  5
7ec
  8
Layer_0
  10
396.13617
  20
367.96655
  0
VERTEX
  5
7ed
  8
Layer_0
  10
400.20178
  20
367.72284
  0
VERTEX
  5
7ee
  8
Layer_0
  10
404.26904
  20
367.5097
  0
VERTEX
  5
7ef
  8
Layer_0
  10
408.33759
  20
367.32715
  0
VERTEX
  5
7f0
  8
Layer_0
  10
412.40735
  20
367.1752
  0
VERTEX
  5
7f1
  8
Layer_0
  10
416.47815
  20
367.05383
  0
VERTEX
  5
7f2
  8
Layer_0
  10
420.54974
  20
366.9631
  0
VERTEX
  5
7f3
  8
Layer_0
  10
424.62207
  20
366.90295
  0
VERTEX
  5
7f4
  8
Layer_0
  10
428.69482
  20
366.87344
  0
VERTEX
  5
7f5
  8
Layer_0
  10
432.76794
  20
366.87454
  0
VERTEX
  5
7f6
  8
Layer_0
  10
436.84125
  20
366.90628
  0
VERTEX
  5
7f7
  8
Layer_0
  10
440.91449
  20
366.96866
  0
VERTEX
  5
7f8
  8
Layer_0
  10
444.98755
  20
367.06165
  0
VERTEX
  5
7f9
  8
Layer_0
  10
454.27899
  20
366.68964
  0
VERTEX
  5
7fa
  8
Layer_0
  10
463.57263
  20
366.37531
  0
VERTEX
  5
7fb
  8
Layer_0
  10
472.8681
  20
366.11859
  0
VERTEX
  5
7fc
  8
Layer_0
  10
482.16504
  20
365.91956
  0
VERTEX
  5
7fd
  8
Layer_0
  10
491.46301
  20
365.77814
  0
VERTEX
  5
7fe
  8
Layer_0
  10
500.76172
  20
365.6944
  0
VERTEX
  5
7ff
  8
Layer_0
  10
510.06067
  20
365.66833
  0
VERTEX
  5
800
  8
Layer_0
  10
519.3595
  20
365.69992
  0
VERTEX
  5
801
  8
Layer_0
  10
526.60315
  20
366.00696
  0
VERTEX
  5
802
  8
Layer_0
  10
533.84509
  20
366.34454
  0
VERTEX
  5
803
  8
Layer_0
  10
541.08533
  20
366.71271
  0
VERTEX
  5
804
  8
Layer_0
  10
548.32373
  20
367.11139
  0
VERTEX
  5
805
  8
Layer_0
  10
555.56012
  20
367.54062
  0
VERTEX
  5
806
  8
Layer_0
  10
562.79456
  20
368.00037
  0
VERTEX
  5
807
  8
Layer_0
  10
570.02686
  20
368.4906
  0
VERTEX
  5
808
  8
Layer_0
  10
577.25696
  20
369.01141
  0
VERTEX
  5
809
  8
Layer_0
  10
584.48486
  20
369.56268
  0
VERTEX
  5
80a
  8
Layer_0
  10
591.71039
  20
370.1445
  0
VERTEX
  5
80b
  8
Layer_0
  10
598.93353
  20
370.75681
  0
VERTEX
  5
80c
  8
Layer_0
  10
606.15417
  20
371.39963
  0
VERTEX
  5
80d
  8
Layer_0
  10
613.37225
  20
372.07291
  0
VERTEX
  5
80e
  8
Layer_0
  10
620.58765
  20
372.7767
  0
VERTEX
  5
80f
  8
Layer_0
  10
627.80029
  20
373.51093
  0
VERTEX
  5
810
  8
Layer_0
  10
635.01025
  20
374.27563
  0
VERTEX
  5
811
  8
Layer_0
  10
636.14508
  20
374.39853
  0
SEQEND
  0
POLYLINE
  5
813
  8
Layer_0
  62
0
  66
1
  10
0
  20
0
  30
0
  0
VERTEX
  5
813
  8
Layer_0
  10
507.52991
  20
505.642
  0
VERTEX
  5
814
  8
Layer_0
  10
502.95612
  20
505.4534
  0
VERTEX
  5
815
  8
Layer_0
  10
498.38165
  20
505.28992
  0
VERTEX
  5
816
  8
Layer_0
  10
493.80652
  20
505.15161
  0
VERTEX
  5
817
  8
Layer_0
  10
489.23096
  20
505.03839
  0
VERTEX
  5
818
  8
Layer_0
  10
484.65503
  20
504.95038
  0
VERTEX
  5
819
  8
Layer_0
  10
480.07874
  20
504.88748
  0
VERTEX
  5
81a
  8
Layer_0
  10
475.50232
  20
504.84976
  0
VERTEX
  5
81b
  8
Layer_0
  10
470.92578
  20
504.83716
  0
VERTEX
  5
81c
  8
Layer_0
  10
466.34924
  20
504.84976
  0
VERTEX
  5
81d
  8
Layer_0
  10
461.77283
  20
504.88748
  0
VERTEX
  5
81e
  8
Layer_0
  10
457.19653
  20
504.95038
  0
VERTEX
  5
81f
  8
Layer_0
  10
452.62061
  20
505.03839
  0
VERTEX
  5
820
  8
Layer_0
  10
448.04504
  20
505.15161
  0
VERTEX
  5
821
  8
Layer_0
  10
443.46991
  20
505.28995
  0
VERTEX
  5
822
  8
Layer_0
  10
438.89545
  20
505.45346
  0
VERTEX
  5
823
  8
Layer_0
  10
434.32166
  20
505.64212
  0
VERTEX
  5
824
  8
Layer_0
  10
434.32166
  20
434.48599
  0
VERTEX
  5
825
  8
Layer_0
  10
448.08209
  20
434.48587
  0
VERTEX
  5
826
  8
Layer_0
  10
453.12958
  20
434.50043
  0
VERTEX
  5
827
  8
Layer_0
  10
458.17657
  20
434.54407
  0
VERTEX
  5
828
  8
Layer_0
  10
463.2229
  20
434.61676
  0
VERTEX
  5
829
  8
Layer_0
  10
468.26855
  20
434.71851
  0
VERTEX
  5
82a
  8
Layer_0
  10
473.31335
  20
434.8493
  0
VERTEX
  5
82b
  8
Layer_0
  10
478.35718
  20
435.00922
  0
VERTEX
  5
82c
  8
Layer_0
  10
483.39978
  20
435.19812
  0
VERTEX
  5
82d
  8
Layer_0
  10
488.44128
  20
435.41608
  0
VERTEX
  5
82e
  8
Layer_0
  10
493.48145
  20
435.66302
  0
VERTEX
  5
82f
  8
Layer_0
  10
498.52008
  20
435.93909
  0
VERTEX
  5
830
  8
Layer_0
  10
503.55713
  20
436.24414
  0
VERTEX
  5
831
  8
Layer_0
  10
508.59253
  20
436.57825
  0
VERTEX
  5
832
  8
Layer_0
  10
513.6261
  20
436.94128
  0
VERTEX
  5
833
  8
Layer_0
  10
518.65771
  20
437.33344
  0
VERTEX
  5
834
  8
Layer_0
  10
523.68732
  20
437.75452
  0
VERTEX
  5
835
  8
Layer_0
  10
528.71472
  20
438.20462
  0
VERTEX
  5
836
  8
Layer_0
  10
532.64069
  20
366.28625
  0
SEQEND
  0
POLYLINE
  5
838
  8
Layer_0
  62
0
  66
1
  10
0
  20
0
  30
0
  0
VERTEX
  5
838
  8
Layer_0
  10
509.38818
  20
436.63382
  0
VERTEX
  5
839
  8
Layer_0
  10
507.53003
  20
505.64212
  0
VERTEX
  5
83a
  8
Layer_0
  10
504.27698
  20
575.53577
  0
SEQEND
  0
POLYLINE
  5
83c
  8
Layer_0
  62
0
  66
1
  10
0
  20
0
  30
0
  0
VERTEX
  5
83c
  8
Layer_0
  10
265.44336
  20
472.51489
  0
VERTEX
  5
83d
  8
Layer_0
  10
268.71106
  20
471.595
  0
VERTEX
  5
83e
  8
Layer_0
  10
271.99225
  20
470.73053
  0
VERTEX
  5
83f
  8
Layer_0
  10
275.28601
  20
469.92163
  0
VERTEX
  5
840
  8
Layer_0
  10
278.5918
  20
469.16837
  0
VERTEX
  5
841
  8
Layer_0
  10
281.90875
  20
468.47089
  0
VERTEX
  5
842
  8
Layer_0
  10
285.23627
  20
467.82922
  0
VERTEX
  5
843
  8
Layer_0
  10
288.57361
  20
467.24359
  0
VERTEX
  5
844
  8
Layer_0
  10
291.92004
  20
466.71399
  0
VERTEX
  5
845
  8
Layer_0
  10
295.2749
  20
466.2406
  0
VERTEX
  5
846
  8
Layer_0
  10
298.63745
  20
465.82346
  0
VERTEX
  5
847
  8
Layer_0
  10
302.00696
  20
465.46271
  0
VERTEX
  5
848
  8
Layer_0
  10
305.38281
  20
465.15851
  0
VERTEX
  5
849
  8
Layer_0
  10
308.76422
  20
464.91089
  0
VERTEX
  5
84a
  8
Layer_0
  10
312.15051
  20
464.72003
  0
VERTEX
  5
84b
  8
Layer_0
  10
315.54102
  20
464.58594
  0
VERTEX
  5
84c
  8
Layer_0
  10
318.93481
  20
464.50882
  0
VERTEX
  5
84d
  8
Layer_0
  10
322.49408
  20
463.78894
  0
VERTEX
  5
84e
  8
Layer_0
  10
326.0578
  20
463.09521
  0
VERTEX
  5
84f
  8
Layer_0
  10
329.62585
  20
462.42761
  0
VERTEX
  5
850
  8
Layer_0
  10
333.198
  20
461.78616
  0
VERTEX
  5
851
  8
Layer_0
  10
336.77417
  20
461.1709
  0
VERTEX
  5
852
  8
Layer_0
  10
340.35425
  20
460.58185
  0
VERTEX
  5
853
  8
Layer_0
  10
343.93811
  20
460.01898
  0
VERTEX
  5
854
  8
Layer_0
  10
347.52539
  20
459.48236
  0
VERTEX
  5
855
  8
Layer_0
  10
351.11621
  20
458.97198
  0
VERTEX
  5
856
  8
Layer_0
  10
354.71033
  20
458.48782
  0
VERTEX
  5
857
  8
Layer_0
  10
358.30762
  20
458.02991
  0
VERTEX
  5
858
  8
Layer_0
  10
361.90784
  20
457.59827
  0
VERTEX
  5
859
  8
Layer_0
  10
365.51093
  20
457.19293
  0
VERTEX
  5
85a
  8
Layer_0
  10
369.1167
  20
456.81387
  0
VERTEX
  5
85b
  8
Layer_0
  10
372.7251
  20
456.46115
  0
VERTEX
  5
85c
  8
Layer_0
  10
376.33594
  20
456.1347
  0
VERTEX
  5
85d
  8
Layer_0
  10
379.94904
  20
455.83459
  0
VERTEX
  5
85e
  8
Layer_0
  10
383.56433
  20
455.56085
  0
VERTEX
  5
85f
  8
Layer_0
  10
387.18158
  20
455.31342
  0
VERTEX
  5
860
  8
Layer_0
  10
390.8006
  20
455.09241
  0
VERTEX
  5
861
  8
Layer_0
  10
394.42133
  20
454.89777
  0
VERTEX
  5
862
  8
Layer_0
  10
398.0437
  20
454.72952
  0
VERTEX
  5
863
  8
Layer_0
  10
401.66748
  20
454.58765
  0
VERTEX
  5
864
  8
Layer_0
  10
405.2926
  20
454.47223
  0
VERTEX
  5
865
  8
Layer_0
  10
408.91882
  20
454.38324
  0
VERTEX
  5
866
  8
Layer_0
  10
412.54602
  20
454.32068
  0
VERTEX
  5
867
  8
Layer_0
  10
416.17407
  20
454.28455
  0
VERTEX
  5
868
  8
Layer_0
  10
419.80273
  20
454.2749
  0
VERTEX
  5
869
  8
Layer_0
  10
423.43207
  20
454.29172
  0
VERTEX
  5
86a
  8
Layer_0
  10
427.06177
  20
454.33505
  0
VERTEX
  5
86b
  8
Layer_0
  10
430.69171
  20
454.40488
  0
VERTEX
  5
86c
  8
Layer_0
  10
434.32178
  20
454.50122
  0
SEQEND
  0
POLYLINE
  5
86e
  8
Layer_0
  62
0
  66
1
  10
0
  20
0
  30
0
  0
VERTEX
  5
86e
  8
Layer_0
  10
314.10388
  20
464.63586
  0
VERTEX
  5
86f
  8
Layer_0
  10
308.12793
  20
401.37793
  0
VERTEX
  5
870
  8
Layer_0
  10
369.73743
  20
329.61948
  0
VERTEX
  5
871
  8
Layer_0
  10
377.22925
  20
323.54892
  0
VERTEX
  5
872
  8
Layer_0
  10
369.73743
  20
318.77454
  0
VERTEX
  5
873
  8
Layer_0
  10
369.21899
  20
318.42773
  0
VERTEX
  5
874
  8
Layer_0
  10
368.72034
  20
318.06128
  0
VERTEX
  5
875
  8
Layer_0
  10
368.24182
  20
317.67593
  0
VERTEX
  5
876
  8
Layer_0
  10
367.78357
  20
317.27255
  0
VERTEX
  5
877
  8
Layer_0
  10
367.34601
  20
316.85187
  0
VERTEX
  5
878
  8
Layer_0
  10
366.92926
  20
316.41473
  0
VERTEX
  5
879
  8
Layer_0
  10
366.53369
  20
315.96191
  0
VERTEX
  5
87a
  8
Layer_0
  10
366.15948
  20
315.4942
  0
VERTEX
  5
87b
  8
Layer_0
  10
365.80701
  20
315.01245
  0
VERTEX
  5
87c
  8
Layer_0
  10
365.47632
  20
314.5174
  0
VERTEX
  5
87d
  8
Layer_0
  10
365.16785
  20
314.00986
  0
VERTEX
  5
87e
  8
Layer_0
  10
364.88171
  20
313.49066
  0
VERTEX
  5
87f
  8
Layer_0
  10
364.37793
  20
312.42041
  0
VERTEX
  5
880
  8
Layer_0
  10
363.96692
  20
311.31305
  0
VERTEX
  5
881
  8
Layer_0
  10
363.79688
  20
310.74744
  0
VERTEX
  5
882
  8
Layer_0
  10
363.65076
  20
310.17493
  0
VERTEX
  5
883
  8
Layer_0
  10
363.52893
  20
309.59637
  0
VERTEX
  5
884
  8
Layer_0
  10
363.43164
  20
309.01251
  0
VERTEX
  5
885
  8
Layer_0
  10
363.35913
  20
308.42419
  0
VERTEX
  5
886
  8
Layer_0
  10
363.31152
  20
307.83218
  0
VERTEX
  5
887
  8
Layer_0
  10
363.28918
  20
307.23727
  0
VERTEX
  5
888
  8
Layer_0
  10
363.29242
  20
306.64029
  0
VERTEX
  5
889
  8
Layer_0
  10
363.32141
  20
306.04202
  0
VERTEX
  5
88a
  8
Layer_0
  10
363.37646
  20
305.44327
  0
VERTEX
  5
88b
  8
Layer_0
  10
363.45782
  20
304.84485
  0
VERTEX
  5
88c
  8
Layer_0
  10
363.5658
  20
304.2475
  0
VERTEX
  5
88d
  8
Layer_0
  10
363.70056
  20
303.65207
  0
VERTEX
  5
88e
  8
Layer_0
  10
363.86243
  20
303.05939
  0
VERTEX
  5
88f
  8
Layer_0
  10
364.05164
  20
302.47021
  0
VERTEX
  5
890
  8
Layer_0
  10
364.26843
  20
301.88531
  0
VERTEX
  5
891
  8
Layer_0
  10
365.63428
  20
301.38196
  0
VERTEX
  5
892
  8
Layer_0
  10
369.43536
  20
298.1568
  0
VERTEX
  5
893
  8
Layer_0
  10
365.63428
  20
295.3924
  0
VERTEX
  5
894
  8
Layer_0
  10
363.56097
  20
288.48132
  0
SEQEND
  0
POLYLINE
  5
896
  8
Layer_0
  62
0
  66
1
  10
0
  20
0
  30
0
  0
VERTEX
  5
896
  8
Layer_0
  10
444.98767
  20
367.06146
  0
VERTEX
  5
897
  8
Layer_0
  10
445.67438
  20
367.07974
  0
SEQEND
  0
POLYLINE
  5
899
  8
Layer_0
  62
0
  66
1
  10
0
  20
0
  30
0
  0
VERTEX
  5
899
  8
Layer_0
  10
385.50781
  20
455.42465
  0
VERTEX
  5
89a
  8
Layer_0
  10
378.82562
  20
352.87262
  0
VERTEX
  5
89b
  8
Layer_0
  10
378.80212
  20
352.40802
  0
VERTEX
  5
89c
  8
Layer_0
  10
378.73328
  20
351.95682
  0
VERTEX
  5
89d
  8
Layer_0
  10
378.62134
  20
351.52133
  0
VERTEX
  5
89e
  8
Layer_0
  10
378.46851
  20
351.10382
  0
VERTEX
  5
89f
  8
Layer_0
  10
378.27716
  20
350.7066
  0
VERTEX
  5
8a0
  8
Layer_0
  10
378.04956
  20
350.33191
  0
VERTEX
  5
8a1
  8
Layer_0
  10
377.78802
  20
349.98212
  0
VERTEX
  5
8a2
  8
Layer_0
  10
377.49469
  20
349.65942
  0
VERTEX
  5
8a3
  8
Layer_0
  10
377.172
  20
349.36615
  0
VERTEX
  5
8a4
  8
Layer_0
  10
376.82214
  20
349.10455
  0
VERTEX
  5
8a5
  8
Layer_0
  10
376.44751
  20
348.87692
  0
VERTEX
  5
8a6
  8
Layer_0
  10
376.05029
  20
348.68558
  0
VERTEX
  5
8a7
  8
Layer_0
  10
375.63275
  20
348.53278
  0
VERTEX
  5
8a8
  8
Layer_0
  10
375.19727
  20
348.42081
  0
VERTEX
  5
8a9
  8
Layer_0
  10
374.74609
  20
348.35196
  0
VERTEX
  5
8aa
  8
Layer_0
  10
374.28149
  20
348.32849
  0
VERTEX
  5
8ab
  8
Layer_0
  10
373.81689
  20
348.35196
  0
VERTEX
  5
8ac
  8
Layer_0
  10
373.36572
  20
348.42081
  0
VERTEX
  5
8ad
  8
Layer_0
  10
372.93024
  20
348.53278
  0
VERTEX
  5
8ae
  8
Layer_0
  10
372.5127
  20
348.68558
  0
VERTEX
  5
8af
  8
Layer_0
  10
372.11548
  20
348.87692
  0
VERTEX
  5
8b0
  8
Layer_0
  10
371.74084
  20
349.10455
  0
VERTEX
  5
8b1
  8
Layer_0
  10
371.39099
  20
349.36615
  0
VERTEX
  5
8b2
  8
Layer_0
  10
371.06836
  20
349.65942
  0
VERTEX
  5
8b3
  8
Layer_0
  10
370.77509
  20
349.98212
  0
VERTEX
  5
8b4
  8
Layer_0
  10
370.51349
  20
350.33191
  0
VERTEX
  5
8b5
  8
Layer_0
  10
370.28589
  20
350.7066
  0
VERTEX
  5
8b6
  8
Layer_0
  10
370.09448
  20
351.10382
  0
VERTEX
  5
8b7
  8
Layer_0
  10
369.94171
  20
351.52133
  0
VERTEX
  5
8b8
  8
Layer_0
  10
369.82971
  20
351.95682
  0
VERTEX
  5
8b9
  8
Layer_0
  10
369.76086
  20
352.40802
  0
VERTEX
  5
8ba
  8
Layer_0
  10
369.73743
  20
352.87262
  0
VERTEX
  5
8bb
  8
Layer_0
  10
369.73743
  20
329.61948
  0
SEQEND
  0
POLYLINE
  5
8bd
  8
Layer_0
  62
0
  66
1
  10
0
  20
0
  30
0
  0
VERTEX
  5
8bd
  8
Layer_0
  10
448.08209
  20
434.48599
  0
VERTEX
  5
8be
  8
Layer_0
  10
441.89331
  20
261.22546
  0
SEQEND
  0
POLYLINE
  5
8c0
  8
Layer_0
  62
0
  66
1
  10
0
  20
0
  30
0
  0
VERTEX
  5
8c0
  8
Layer_0
  10
519.35913
  20
365.69986
  0
VERTEX
  5
8c1
  8
Layer_0
  10
519.35913
  20
279.16174
  0
VERTEX
  5
8c2
  8
Layer_0
  10
465.91003
  20
279.16174
  0
VERTEX
  5
8c3
  8
Layer_0
  10
479.35583
  20
266.8587
  0
SEQEND
  0
POLYLINE
  5
8c5
  8
Layer_0
  62
0
  66
1
  10
0
  20
0
  30
0
  0
VERTEX
  5
8c5
  8
Layer_0
  10
506.71582
  20
523.13361
  0
VERTEX
  5
8c6
  8
Layer_0
  10
512.28638
  20
522.69873
  0
VERTEX
  5
8c7
  8
Layer_0
  10
517.8606
  20
522.35846
  0
VERTEX
  5
8c8
  8
Layer_0
  10
523.4375
  20
522.11261
  0
VERTEX
  5
8c9
  8
Layer_0
  10
529.01575
  20
521.96112
  0
VERTEX
  5
8ca
  8
Layer_0
  10
534.59412
  20
521.90405
  0
VERTEX
  5
8cb
  8
Layer_0
  10
540.17151
  20
521.94116
  0
VERTEX
  5
8cc
  8
Layer_0
  10
545.7467
  20
522.07257
  0
VERTEX
  5
8cd
  8
Layer_0
  10
551.31848
  20
522.2981
  0
VERTEX
  5
8ce
  8
Layer_0
  10
556.88562
  20
522.6178
  0
VERTEX
  5
8cf
  8
Layer_0
  10
562.44696
  20
523.03149
  0
VERTEX
  5
8d0
  8
Layer_0
  10
568.00134
  20
523.53918
  0
VERTEX
  5
8d1
  8
Layer_0
  10
573.54749
  20
524.14087
  0
VERTEX
  5
8d2
  8
Layer_0
  10
579.08423
  20
524.83636
  0
VERTEX
  5
8d3
  8
Layer_0
  10
584.61047
  20
525.62567
  0
VERTEX
  5
8d4
  8
Layer_0
  10
590.12488
  20
526.50879
  0
VERTEX
  5
8d5
  8
Layer_0
  10
595.62634
  20
527.48553
  0
SEQEND
  0
POLYLINE
  5
8d7
  8
Layer_0
  62
0
  66
1
  10
0
  20
0
  30
0
  0
VERTEX
  5
8d7
  8
Layer_0
  10
318.93488
  20
459.505
  0
VERTEX
  5
8d8
  8
Layer_0
  10
318.93488
  20
464.50882
  0
SEQEND
  0
POLYLINE
  5
8da
  8
Layer_0
  62
0
  66
1
  10
0
  20
0
  30
0
  0
VERTEX
  5
8da
  8
Layer_0
  10
282.02399
  20
534.29614
  0
VERTEX
  5
8db
  8
Layer_0
  10
282.22864
  20
534.23486
  0
VERTEX
  5
8dc
  8
Layer_0
  10
284.53094
  20
533.59082
  0
VERTEX
  5
8dd
  8
Layer_0
  10
286.84973
  20
533.03265
  0
VERTEX
  5
8de
  8
Layer_0
  10
289.18274
  20
532.56036
  0
VERTEX
  5
8df
  8
Layer_0
  10
291.52759
  20
532.17395
  0
VERTEX
  5
8e0
  8
Layer_0
  10
293.88184
  20
531.87341
  0
VERTEX
  5
8e1
  8
Layer_0
  10
296.24316
  20
531.65869
  0
VERTEX
  5
8e2
  8
Layer_0
  10
298.60913
  20
531.52991
  0
VERTEX
  5
8e3
  8
Layer_0
  10
300.97754
  20
531.48694
  0
VERTEX
  5
8e4
  8
Layer_0
  10
303.34595
  20
531.52991
  0
VERTEX
  5
8e5
  8
Layer_0
  10
305.71191
  20
531.65869
  0
VERTEX
  5
8e6
  8
Layer_0
  10
308.07324
  20
531.87341
  0
VERTEX
  5
8e7
  8
Layer_0
  10
310.42749
  20
532.17395
  0
VERTEX
  5
8e8
  8
Layer_0
  10
312.77234
  20
532.56036
  0
VERTEX
  5
8e9
  8
Layer_0
  10
315.10535
  20
533.03265
  0
VERTEX
  5
8ea
  8
Layer_0
  10
317.42413
  20
533.59082
  0
VERTEX
  5
8eb
  8
Layer_0
  10
319.72644
  20
534.23486
  0
VERTEX
  5
8ec
  8
Layer_0
  10
347.53345
  20
533.05383
  0
VERTEX
  5
8ed
  8
Layer_0
  10
352.02759
  20
532.66516
  0
SEQEND
  0
POLYLINE
  5
8ef
  8
Layer_0
  62
0
  66
1
  10
0
  20
0
  30
0
  0
VERTEX
  5
8ef
  8
Layer_0
  10
677.00598
  20
577.09436
  0
VERTEX
  5
8f0
  8
Layer_0
  10
674.58093
  20
575.7041
  0
VERTEX
  5
8f1
  8
Layer_0
  10
672.20483
  20
574.24097
  0
VERTEX
  5
8f2
  8
Layer_0
  10
669.87927
  20
572.70624
  0
VERTEX
  5
8f3
  8
Layer_0
  10
667.60559
  20
571.10144
  0
VERTEX
  5
8f4
  8
Layer_0
  10
665.38538
  20
569.42786
  0
VERTEX
  5
8f5
  8
Layer_0
  10
663.22021
  20
567.68701
  0
VERTEX
  5
8f6
  8
Layer_0
  10
661.11145
  20
565.88019
  0
VERTEX
  5
8f7
  8
Layer_0
  10
659.06055
  20
564.00891
  0
VERTEX
  5
8f8
  8
Layer_0
  10
657.06909
  20
562.07446
  0
VERTEX
  5
8f9
  8
Layer_0
  10
655.13855
  20
560.07837
  0
VERTEX
  5
8fa
  8
Layer_0
  10
653.27045
  20
558.02191
  0
VERTEX
  5
8fb
  8
Layer_0
  10
651.46625
  20
555.90656
  0
VERTEX
  5
8fc
  8
Layer_0
  10
649.72736
  20
553.7337
  0
VERTEX
  5
8fd
  8
Layer_0
  10
648.05542
  20
551.50476
  0
VERTEX
  5
8fe
  8
Layer_0
  10
646.45178
  20
549.22107
  0
VERTEX
  5
8ff
  8
Layer_0
  10
644.91809
  20
546.88416
  0
VERTEX
  5
900
  8
Layer_0
  10
644.91809
  20
535.80493
  0
VERTEX
  5
901
  8
Layer_0
  10
640.72839
  20
531.6153
  0
VERTEX
  5
902
  8
Layer_0
  10
639.47742
  20
527.05627
  0
VERTEX
  5
903
  8
Layer_0
  10
641.97931
  20
524.55444
  0
VERTEX
  5
904
  8
Layer_0
  10
641.89093
  20
523.59045
  0
VERTEX
  5
905
  8
Layer_0
  10
641.83582
  20
522.62598
  0
VERTEX
  5
906
  8
Layer_0
  10
641.81384
  20
521.66187
  0
VERTEX
  5
907
  8
Layer_0
  10
641.82489
  20
520.69904
  0
VERTEX
  5
908
  8
Layer_0
  10
641.86884
  20
519.73822
  0
VERTEX
  5
909
  8
Layer_0
  10
641.94543
  20
518.78027
  0
VERTEX
  5
90a
  8
Layer_0
  10
642.05463
  20
517.82605
  0
VERTEX
  5
90b
  8
Layer_0
  10
642.19635
  20
516.8764
  0
VERTEX
  5
90c
  8
Layer_0
  10
642.37036
  20
515.93213
  0
VERTEX
  5
90d
  8
Layer_0
  10
642.57654
  20
514.99402
  0
VERTEX
  5
90e
  8
Layer_0
  10
642.81476
  20
514.06305
  0
VERTEX
  5
90f
  8
Layer_0
  10
643.08478
  20
513.13989
  0
VERTEX
  5
910
  8
Layer_0
  10
643.38654
  20
512.22552
  0
VERTEX
  5
911
  8
Layer_0
  10
643.71997
  20
511.32071
  0
VERTEX
  5
912
  8
Layer_0
  10
644.08496
  20
510.42627
  0
VERTEX
  5
913
  8
Layer_0
  10
644.4812
  20
509.54303
  0
VERTEX
  5
914
  8
Layer_0
  10
646.12006
  20
508.98419
  0
VERTEX
  5
915
  8
Layer_0
  10
647.71936
  20
508.34326
  0
VERTEX
  5
916
  8
Layer_0
  10
649.27661
  20
507.6225
  0
VERTEX
  5
917
  8
Layer_0
  10
650.78912
  20
506.82419
  0
VERTEX
  5
918
  8
Layer_0
  10
652.25427
  20
505.95062
  0
VERTEX
  5
919
  8
Layer_0
  10
653.66943
  20
505.00409
  0
VERTEX
  5
91a
  8
Layer_0
  10
655.03198
  20
503.98688
  0
VERTEX
  5
91b
  8
Layer_0
  10
656.33936
  20
502.90125
  0
VERTEX
  5
91c
  8
Layer_0
  10
657.58887
  20
501.74957
  0
VERTEX
  5
91d
  8
Layer_0
  10
658.77795
  20
500.53409
  0
VERTEX
  5
91e
  8
Layer_0
  10
659.90399
  20
499.25708
  0
VERTEX
  5
91f
  8
Layer_0
  10
660.96436
  20
497.9209
  0
VERTEX
  5
920
  8
Layer_0
  10
661.9563
  20
496.52777
  0
VERTEX
  5
921
  8
Layer_0
  10
662.87744
  20
495.07999
  0
VERTEX
  5
922
  8
Layer_0
  10
663.7251
  20
493.5799
  0
VERTEX
  5
923
  8
Layer_0
  10
664.49646
  20
492.02972
  0
VERTEX
  5
924
  8
Layer_0
  10
665.13623
  20
491.45639
  0
VERTEX
  5
925
  8
Layer_0
  10
665.73523
  20
490.84888
  0
VERTEX
  5
926
  8
Layer_0
  10
666.29272
  20
490.20935
  0
VERTEX
  5
927
  8
Layer_0
  10
666.8078
  20
489.53998
  0
VERTEX
  5
928
  8
Layer_0
  10
667.27954
  20
488.84299
  0
VERTEX
  5
929
  8
Layer_0
  10
667.70703
  20
488.12054
  0
VERTEX
  5
92a
  8
Layer_0
  10
668.08936
  20
487.37482
  0
VERTEX
  5
92b
  8
Layer_0
  10
668.42578
  20
486.60803
  0
VERTEX
  5
92c
  8
Layer_0
  10
668.71533
  20
485.82233
  0
VERTEX
  5
92d
  8
Layer_0
  10
668.95709
  20
485.0199
  0
VERTEX
  5
92e
  8
Layer_0
  10
669.15027
  20
484.20294
  0
VERTEX
  5
92f
  8
Layer_0
  10
669.29388
  20
483.37372
  0
VERTEX
  5
930
  8
Layer_0
  10
669.38715
  20
482.5343
  0
VERTEX
  5
931
  8
Layer_0
  10
669.4292
  20
481.68695
  0
VERTEX
  5
932
  8
Layer_0
  10
669.41907
  20
480.8338
  0
VERTEX
  5
933
  8
Layer_0
  10
669.35583
  20
479.97708
  0
VERTEX
  5
934
  8
Layer_0
  10
670.47009
  20
479.84674
  0
VERTEX
  5
935
  8
Layer_0
  10
671.55859
  20
479.6322
  0
VERTEX
  5
936
  8
Layer_0
  10
672.61768
  20
479.33655
  0
VERTEX
  5
937
  8
Layer_0
  10
673.64355
  20
478.96286
  0
VERTEX
  5
938
  8
Layer_0
  10
674.63251
  20
478.51422
  0
VERTEX
  5
939
  8
Layer_0
  10
675.58081
  20
477.99374
  0
VERTEX
  5
93a
  8
Layer_0
  10
676.48468
  20
477.40442
  0
VERTEX
  5
93b
  8
Layer_0
  10
677.34052
  20
476.74939
  0
VERTEX
  5
93c
  8
Layer_0
  10
678.14459
  20
476.03174
  0
VERTEX
  5
93d
  8
Layer_0
  10
678.89313
  20
475.25452
  0
VERTEX
  5
93e
  8
Layer_0
  10
679.5824
  20
474.42078
  0
VERTEX
  5
93f
  8
Layer_0
  10
680.20868
  20
473.53366
  0
VERTEX
  5
940
  8
Layer_0
  10
680.76831
  20
472.59619
  0
VERTEX
  5
941
  8
Layer_0
  10
681.25745
  20
471.61148
  0
VERTEX
  5
942
  8
Layer_0
  10
681.67261
  20
470.58258
  0
VERTEX
  5
943
  8
Layer_0
  10
682.00977
  20
469.5126
  0
VERTEX
  5
944
  8
Layer_0
  10
682.03345
  20
468.94012
  0
VERTEX
  5
945
  8
Layer_0
  10
682.02979
  20
468.37247
  0
VERTEX
  5
946
  8
Layer_0
  10
681.99957
  20
467.81033
  0
VERTEX
  5
947
  8
Layer_0
  10
681.94324
  20
467.25439
  0
VERTEX
  5
948
  8
Layer_0
  10
681.86133
  20
466.70535
  0
VERTEX
  5
949
  8
Layer_0
  10
681.75439
  20
466.16388
  0
VERTEX
  5
94a
  8
Layer_0
  10
681.62305
  20
465.63068
  0
VERTEX
  5
94b
  8
Layer_0
  10
681.46777
  20
465.10645
  0
VERTEX
  5
94c
  8
Layer_0
  10
681.08771
  20
464.08762
  0
VERTEX
  5
94d
  8
Layer_0
  10
680.61865
  20
463.11292
  0
VERTEX
  5
94e
  8
Layer_0
  10
680.065
  20
462.18777
  0
VERTEX
  5
94f
  8
Layer_0
  10
679.43115
  20
461.31775
  0
VERTEX
  5
950
  8
Layer_0
  10
678.7215
  20
460.50836
  0
VERTEX
  5
951
  8
Layer_0
  10
677.94043
  20
459.76514
  0
VERTEX
  5
952
  8
Layer_0
  10
677.09247
  20
459.09357
  0
VERTEX
  5
953
  8
Layer_0
  10
676.18188
  20
458.49908
  0
VERTEX
  5
954
  8
Layer_0
  10
675.70453
  20
458.23254
  0
VERTEX
  5
955
  8
Layer_0
  10
675.2132
  20
457.98737
  0
VERTEX
  5
956
  8
Layer_0
  10
674.70837
  20
457.76416
  0
VERTEX
  5
957
  8
Layer_0
  10
674.19067
  20
457.56372
  0
VERTEX
  5
958
  8
Layer_0
  10
673.66071
  20
457.38672
  0
VERTEX
  5
959
  8
Layer_0
  10
673.1189
  20
457.23383
  0
VERTEX
  5
95a
  8
Layer_0
  10
672.56586
  20
457.10571
  0
VERTEX
  5
95b
  8
Layer_0
  10
672.00214
  20
457.00311
  0
VERTEX
  5
95c
  8
Layer_0
  10
672.62775
  20
455.40347
  0
VERTEX
  5
95d
  8
Layer_0
  10
673.30933
  20
453.82745
  0
VERTEX
  5
95e
  8
Layer_0
  10
674.04626
  20
452.27652
  0
VERTEX
  5
95f
  8
Layer_0
  10
674.83777
  20
450.75214
  0
VERTEX
  5
960
  8
Layer_0
  10
672.17377
  20
445.11823
  0
VERTEX
  5
961
  8
Layer_0
  10
669.49988
  20
439.48932
  0
VERTEX
  5
962
  8
Layer_0
  10
669.37354
  20
438.78448
  0
VERTEX
  5
963
  8
Layer_0
  10
669.2807
  20
438.08072
  0
VERTEX
  5
964
  8
Layer_0
  10
669.22083
  20
437.37897
  0
VERTEX
  5
965
  8
Layer_0
  10
669.19348
  20
436.68008
  0
VERTEX
  5
966
  8
Layer_0
  10
669.19812
  20
435.98505
  0
VERTEX
  5
967
  8
Layer_0
  10
669.23413
  20
435.29468
  0
VERTEX
  5
968
  8
Layer_0
  10
669.30115
  20
434.60999
  0
VERTEX
  5
969
  8
Layer_0
  10
669.3985
  20
433.93182
  0
VERTEX
  5
96a
  8
Layer_0
  10
669.5257
  20
433.26111
  0
VERTEX
  5
96b
  8
Layer_0
  10
669.68231
  20
432.59869
  0
VERTEX
  5
96c
  8
Layer_0
  10
669.8678
  20
431.94556
  0
VERTEX
  5
96d
  8
Layer_0
  10
670.0816
  20
431.30261
  0
VERTEX
  5
96e
  8
Layer_0
  10
670.32312
  20
430.67072
  0
VERTEX
  5
96f
  8
Layer_0
  10
670.59204
  20
430.05084
  0
VERTEX
  5
970
  8
Layer_0
  10
670.88776
  20
429.44385
  0
VERTEX
  5
971
  8
Layer_0
  10
671.20972
  20
428.85065
  0
VERTEX
  5
972
  8
Layer_0
  10
671.55737
  20
428.27213
  0
VERTEX
  5
973
  8
Layer_0
  10
671.9303
  20
427.70926
  0
VERTEX
  5
974
  8
Layer_0
  10
672.32788
  20
427.1629
  0
VERTEX
  5
975
  8
Layer_0
  10
672.74963
  20
426.63397
  0
VERTEX
  5
976
  8
Layer_0
  10
673.19501
  20
426.12335
  0
VERTEX
  5
977
  8
Layer_0
  10
673.66357
  20
425.63199
  0
VERTEX
  5
978
  8
Layer_0
  10
674.15472
  20
425.16077
  0
VERTEX
  5
979
  8
Layer_0
  10
674.66803
  20
424.71063
  0
VERTEX
  5
97a
  8
Layer_0
  10
675.20288
  20
424.28247
  0
VERTEX
  5
97b
  8
Layer_0
  10
675.75879
  20
423.87714
  0
VERTEX
  5
97c
  8
Layer_0
  10
676.33533
  20
423.49564
  0
VERTEX
  5
97d
  8
Layer_0
  10
676.93182
  20
423.13879
  0
VERTEX
  5
97e
  8
Layer_0
  10
677.54785
  20
422.80756
  0
VERTEX
  5
97f
  8
Layer_0
  10
678.18286
  20
422.50284
  0
VERTEX
  5
980
  8
Layer_0
  10
678.83636
  20
422.22552
  0
VERTEX
  5
981
  8
Layer_0
  10
679.50781
  20
421.97653
  0
VERTEX
  5
982
  8
Layer_0
  10
684.5116
  20
414.47083
  0
VERTEX
  5
983
  8
Layer_0
  10
689.51544
  20
414.47083
  0
VERTEX
  5
984
  8
Layer_0
  10
689.95398
  20
414.44
  0
VERTEX
  5
985
  8
Layer_0
  10
690.37775
  20
414.34967
  0
VERTEX
  5
986
  8
Layer_0
  10
690.78137
  20
414.20319
  0
VERTEX
  5
987
  8
Layer_0
  10
691.15961
  20
414.00372
  0
VERTEX
  5
988
  8
Layer_0
  10
691.50708
  20
413.75464
  0
VERTEX
  5
989
  8
Layer_0
  10
691.81866
  20
413.45911
  0
VERTEX
  5
98a
  8
Layer_0
  10
692.08899
  20
413.12048
  0
VERTEX
  5
98b
  8
Layer_0
  10
692.31268
  20
412.74203
  0
VERTEX
  5
98c
  8
Layer_0
  10
692.4812
  20
412.336
  0
VERTEX
  5
98d
  8
Layer_0
  10
692.58997
  20
411.9166
  0
VERTEX
  5
98e
  8
Layer_0
  10
692.6394
  20
411.49005
  0
VERTEX
  5
98f
  8
Layer_0
  10
692.63019
  20
411.06256
  0
VERTEX
  5
990
  8
Layer_0
  10
692.56281
  20
410.64032
  0
VERTEX
  5
991
  8
Layer_0
  10
692.43787
  20
410.22952
  0
VERTEX
  5
992
  8
Layer_0
  10
692.25586
  20
409.83636
  0
VERTEX
  5
993
  8
Layer_0
  10
692.01733
  20
409.46701
  0
VERTEX
  5
994
  8
Layer_0
  10
691.81873
  20
409.01764
  0
VERTEX
  5
995
  8
Layer_0
  10
691.65314
  20
408.5596
  0
VERTEX
  5
996
  8
Layer_0
  10
691.52051
  20
408.09454
  0
VERTEX
  5
997
  8
Layer_0
  10
691.42065
  20
407.62415
  0
VERTEX
  5
998
  8
Layer_0
  10
691.35345
  20
407.15009
  0
VERTEX
  5
999
  8
Layer_0
  10
691.31873
  20
406.67407
  0
VERTEX
  5
99a
  8
Layer_0
  10
691.31628
  20
406.19775
  0
VERTEX
  5
99b
  8
Layer_0
  10
691.34601
  20
405.7229
  0
VERTEX
  5
99c
  8
Layer_0
  10
691.40765
  20
405.2511
  0
VERTEX
  5
99d
  8
Layer_0
  10
691.50116
  20
404.78409
  0
VERTEX
  5
99e
  8
Layer_0
  10
691.62628
  20
404.32352
  0
VERTEX
  5
99f
  8
Layer_0
  10
691.7829
  20
403.87109
  0
VERTEX
  5
9a0
  8
Layer_0
  10
691.97083
  20
403.42844
  0
VERTEX
  5
9a1
  8
Layer_0
  10
692.18994
  20
402.99731
  0
VERTEX
  5
9a2
  8
Layer_0
  10
692.44006
  20
402.57938
  0
VERTEX
  5
9a3
  8
Layer_0
  10
692.72101
  20
402.1763
  0
VERTEX
  5
9a4
  8
Layer_0
  10
693.0293
  20
401.79373
  0
VERTEX
  5
9a5
  8
Layer_0
  10
693.36047
  20
401.43661
  0
VERTEX
  5
9a6
  8
Layer_0
  10
693.71301
  20
401.10556
  0
VERTEX
  5
9a7
  8
Layer_0
  10
694.08533
  20
400.80121
  0
VERTEX
  5
9a8
  8
Layer_0
  10
694.47577
  20
400.52417
  0
VERTEX
  5
9a9
  8
Layer_0
  10
694.88287
  20
400.27509
  0
VERTEX
  5
9aa
  8
Layer_0
  10
695.30505
  20
400.05457
  0
VERTEX
  5
9ab
  8
Layer_0
  10
695.74072
  20
399.86322
  0
VERTEX
  5
9ac
  8
Layer_0
  10
696.18829
  20
399.70172
  0
VERTEX
  5
9ad
  8
Layer_0
  10
696.64624
  20
399.57071
  0
VERTEX
  5
9ae
  8
Layer_0
  10
697.11292
  20
399.47079
  0
VERTEX
  5
9af
  8
Layer_0
  10
697.58679
  20
399.40259
  0
VERTEX
  5
9b0
  8
Layer_0
  10
698.06635
  20
399.3667
  0
VERTEX
  5
9b1
  8
Layer_0
  10
698.54993
  20
399.36383
  0
VERTEX
  5
9b2
  8
Layer_0
  10
699.03601
  20
399.3945
  0
VERTEX
  5
9b3
  8
Layer_0
  10
699.52307
  20
399.45941
  0
VERTEX
  5
9b4
  8
Layer_0
  10
700.17004
  20
399.51831
  0
VERTEX
  5
9b5
  8
Layer_0
  10
700.80719
  20
399.47894
  0
VERTEX
  5
9b6
  8
Layer_0
  10
701.4248
  20
399.34589
  0
VERTEX
  5
9b7
  8
Layer_0
  10
702.013
  20
399.12378
  0
VERTEX
  5
9b8
  8
Layer_0
  10
702.56189
  20
398.81714
  0
VERTEX
  5
9b9
  8
Layer_0
  10
703.06158
  20
398.4306
  0
VERTEX
  5
9ba
  8
Layer_0
  10
703.50232
  20
397.96875
  0
VERTEX
  5
9bb
  8
Layer_0
  10
703.87421
  20
397.4361
  0
VERTEX
  5
9bc
  8
Layer_0
  10
704.16052
  20
396.85297
  0
VERTEX
  5
9bd
  8
Layer_0
  10
704.35168
  20
396.24377
  0
VERTEX
  5
9be
  8
Layer_0
  10
704.4483
  20
395.61945
  0
VERTEX
  5
9bf
  8
Layer_0
  10
704.45117
  20
394.99078
  0
VERTEX
  5
9c0
  8
Layer_0
  10
704.36108
  20
394.36853
  0
VERTEX
  5
9c1
  8
Layer_0
  10
704.17883
  20
393.76364
  0
VERTEX
  5
9c2
  8
Layer_0
  10
703.90509
  20
393.18686
  0
VERTEX
  5
9c3
  8
Layer_0
  10
703.54071
  20
392.64908
  0
VERTEX
  5
9c4
  8
Layer_0
  10
708.11414
  20
385.46225
  0
VERTEX
  5
9c5
  8
Layer_0
  10
712.03253
  20
385.46225
  0
VERTEX
  5
9c6
  8
Layer_0
  10
712.46686
  20
385.78357
  0
VERTEX
  5
9c7
  8
Layer_0
  10
712.92102
  20
386.06207
  0
VERTEX
  5
9c8
  8
Layer_0
  10
713.39233
  20
386.29767
  0
VERTEX
  5
9c9
  8
Layer_0
  10
713.87787
  20
386.49048
  0
VERTEX
  5
9ca
  8
Layer_0
  10
714.37476
  20
386.64044
  0
VERTEX
  5
9cb
  8
Layer_0
  10
714.88013
  20
386.74756
  0
VERTEX
  5
9cc
  8
Layer_0
  10
715.39124
  20
386.81183
  0
VERTEX
  5
9cd
  8
Layer_0
  10
715.90521
  20
386.83325
  0
VERTEX
  5
9ce
  8
Layer_0
  10
716.41919
  20
386.81183
  0
VERTEX
  5
9cf
  8
Layer_0
  10
716.9303
  20
386.74756
  0
VERTEX
  5
9d0
  8
Layer_0
  10
717.43567
  20
386.64044
  0
VERTEX
  5
9d1
  8
Layer_0
  10
717.93256
  20
386.49048
  0
VERTEX
  5
9d2
  8
Layer_0
  10
718.41809
  20
386.29767
  0
VERTEX
  5
9d3
  8
Layer_0
  10
718.8894
  20
386.06201
  0
VERTEX
  5
9d4
  8
Layer_0
  10
719.34363
  20
385.78357
  0
VERTEX
  5
9d5
  8
Layer_0
  10
719.77795
  20
385.46222
  0
VERTEX
  5
9d6
  8
Layer_0
  10
719.95233
  20
385.6904
  0
VERTEX
  5
9d7
  8
Layer_0
  10
720.09924
  20
385.93417
  0
VERTEX
  5
9d8
  8
Layer_0
  10
720.2179
  20
386.19104
  0
VERTEX
  5
9d9
  8
Layer_0
  10
720.30774
  20
386.45856
  0
VERTEX
  5
9da
  8
Layer_0
  10
720.36804
  20
386.73422
  0
VERTEX
  5
9db
  8
Layer_0
  10
720.39807
  20
387.01559
  0
VERTEX
  5
9dc
  8
Layer_0
  10
720.39722
  20
387.3002
  0
VERTEX
  5
9dd
  8
Layer_0
  10
720.36475
  20
387.5856
  0
VERTEX
  5
9de
  8
Layer_0
  10
720.30103
  20
387.86566
  0
VERTEX
  5
9df
  8
Layer_0
  10
720.2077
  20
388.13452
  0
VERTEX
  5
9e0
  8
Layer_0
  10
720.0863
  20
388.39011
  0
VERTEX
  5
9e1
  8
Layer_0
  10
719.93823
  20
388.63034
  0
VERTEX
  5
9e2
  8
Layer_0
  10
719.76501
  20
388.85309
  0
VERTEX
  5
9e3
  8
Layer_0
  10
719.56805
  20
389.05624
  0
VERTEX
  5
9e4
  8
Layer_0
  10
719.34875
  20
389.23773
  0
VERTEX
  5
9e5
  8
Layer_0
  10
719.10876
  20
389.39542
  0
VERTEX
  5
9e6
  8
Layer_0
  10
719.59637
  20
390.07019
  0
VERTEX
  5
9e7
  8
Layer_0
  10
720.12354
  20
390.7114
  0
VERTEX
  5
9e8
  8
Layer_0
  10
720.68854
  20
391.31744
  0
VERTEX
  5
9e9
  8
Layer_0
  10
721.28943
  20
391.88669
  0
VERTEX
  5
9ea
  8
Layer_0
  10
721.9245
  20
392.4176
  0
VERTEX
  5
9eb
  8
Layer_0
  10
722.59192
  20
392.90851
  0
VERTEX
  5
9ec
  8
Layer_0
  10
723.28992
  20
393.35785
  0
VERTEX
  5
9ed
  8
Layer_0
  10
724.0166
  20
393.76401
  0
VERTEX
  5
9ee
  8
Layer_0
  10
723.80072
  20
395.36823
  0
VERTEX
  5
9ef
  8
Layer_0
  10
723.64648
  20
396.97772
  0
VERTEX
  5
9f0
  8
Layer_0
  10
723.55396
  20
398.59076
  0
VERTEX
  5
9f1
  8
Layer_0
  10
723.52307
  20
400.2056
  0
VERTEX
  5
9f2
  8
Layer_0
  10
723.55396
  20
401.8204
  0
VERTEX
  5
9f3
  8
Layer_0
  10
723.64648
  20
403.43344
  0
VERTEX
  5
9f4
  8
Layer_0
  10
723.80072
  20
405.04294
  0
VERTEX
  5
9f5
  8
Layer_0
  10
724.0166
  20
406.64713
  0
VERTEX
  5
9f6
  8
Layer_0
  10
724.53302
  20
408.16705
  0
VERTEX
  5
9f7
  8
Layer_0
  10
725.02509
  20
409.69476
  0
VERTEX
  5
9f8
  8
Layer_0
  10
725.49274
  20
411.22992
  0
VERTEX
  5
9f9
  8
Layer_0
  10
725.93585
  20
412.77222
  0
VERTEX
  5
9fa
  8
Layer_0
  10
726.35437
  20
414.32135
  0
VERTEX
  5
9fb
  8
Layer_0
  10
726.74823
  20
415.87708
  0
VERTEX
  5
9fc
  8
Layer_0
  10
727.11731
  20
417.43903
  0
VERTEX
  5
9fd
  8
Layer_0
  10
727.46155
  20
419.00699
  0
VERTEX
  5
9fe
  8
Layer_0
  10
726.99316
  20
419.39505
  0
VERTEX
  5
9ff
  8
Layer_0
  10
726.57129
  20
419.81885
  0
VERTEX
  5
a00
  8
Layer_0
  10
726.19666
  20
420.27466
  0
VERTEX
  5
a01
  8
Layer_0
  10
725.86993
  20
420.75864
  0
VERTEX
  5
a02
  8
Layer_0
  10
725.5918
  20
421.26706
  0
VERTEX
  5
a03
  8
Layer_0
  10
725.36298
  20
421.79614
  0
VERTEX
  5
a04
  8
Layer_0
  10
725.18408
  20
422.3421
  0
VERTEX
  5
a05
  8
Layer_0
  10
725.05585
  20
422.90115
  0
VERTEX
  5
a06
  8
Layer_0
  10
724.97894
  20
423.46954
  0
VERTEX
  5
a07
  8
Layer_0
  10
724.9541
  20
424.04352
  0
VERTEX
  5
a08
  8
Layer_0
  10
724.98193
  20
424.61929
  0
VERTEX
  5
a09
  8
Layer_0
  10
725.06317
  20
425.19312
  0
VERTEX
  5
a0a
  8
Layer_0
  10
725.19849
  20
425.76117
  0
VERTEX
  5
a0b
  8
Layer_0
  10
725.38861
  20
426.3197
  0
VERTEX
  5
a0c
  8
Layer_0
  10
725.63416
  20
426.8649
  0
VERTEX
  5
a0d
  8
Layer_0
  10
725.93585
  20
427.3931
  0
VERTEX
  5
a0e
  8
Layer_0
  10
719.53827
  20
467.01071
  0
VERTEX
  5
a0f
  8
Layer_0
  10
718.46826
  20
468.49207
  0
VERTEX
  5
a10
  8
Layer_0
  10
717.43512
  20
469.99832
  0
VERTEX
  5
a11
  8
Layer_0
  10
716.43921
  20
471.52881
  0
VERTEX
  5
a12
  8
Layer_0
  10
715.4809
  20
473.08279
  0
VERTEX
  5
a13
  8
Layer_0
  10
714.56067
  20
474.65961
  0
VERTEX
  5
a14
  8
Layer_0
  10
713.67896
  20
476.25861
  0
VERTEX
  5
a15
  8
Layer_0
  10
712.83606
  20
477.87903
  0
VERTEX
  5
a16
  8
Layer_0
  10
712.03253
  20
479.5202
  0
VERTEX
  5
a17
  8
Layer_0
  10
711.63928
  20
480.71948
  0
VERTEX
  5
a18
  8
Layer_0
  10
711.28308
  20
481.92816
  0
VERTEX
  5
a19
  8
Layer_0
  10
710.96399
  20
483.14539
  0
VERTEX
  5
a1a
  8
Layer_0
  10
710.68207
  20
484.3703
  0
VERTEX
  5
a1b
  8
Layer_0
  10
710.43738
  20
485.60205
  0
VERTEX
  5
a1c
  8
Layer_0
  10
710.22998
  20
486.83975
  0
VERTEX
  5
a1d
  8
Layer_0
  10
710.05994
  20
488.08258
  0
VERTEX
  5
a1e
  8
Layer_0
  10
709.92737
  20
489.32971
  0
VERTEX
  5
a1f
  8
Layer_0
  10
709.8324
  20
490.58026
  0
VERTEX
  5
a20
  8
Layer_0
  10
709.77509
  20
491.83337
  0
VERTEX
  5
a21
  8
Layer_0
  10
709.75543
  20
493.08817
  0
VERTEX
  5
a22
  8
Layer_0
  10
709.77356
  20
494.34384
  0
VERTEX
  5
a23
  8
Layer_0
  10
709.82959
  20
495.59955
  0
VERTEX
  5
a24
  8
Layer_0
  10
709.92352
  20
496.8544
  0
VERTEX
  5
a25
  8
Layer_0
  10
710.05554
  20
498.10754
  0
VERTEX
  5
a26
  8
Layer_0
  10
710.22559
  20
499.35812
  0
VERTEX
  5
a27
  8
Layer_0
  10
710.09534
  20
500.57654
  0
VERTEX
  5
a28
  8
Layer_0
  10
709.99133
  20
501.79645
  0
VERTEX
  5
a29
  8
Layer_0
  10
709.91357
  20
503.01746
  0
VERTEX
  5
a2a
  8
Layer_0
  10
709.862
  20
504.2392
  0
VERTEX
  5
a2b
  8
Layer_0
  10
709.83667
  20
505.46115
  0
VERTEX
  5
a2c
  8
Layer_0
  10
709.83759
  20
506.68298
  0
VERTEX
  5
a2d
  8
Layer_0
  10
709.86462
  20
507.90424
  0
VERTEX
  5
a2e
  8
Layer_0
  10
709.91785
  20
509.12451
  0
VERTEX
  5
a2f
  8
Layer_0
  10
709.99719
  20
510.34335
  0
VERTEX
  5
a30
  8
Layer_0
  10
710.1026
  20
511.56036
  0
VERTEX
  5
a31
  8
Layer_0
  10
710.23407
  20
512.77509
  0
VERTEX
  5
a32
  8
Layer_0
  10
710.3916
  20
513.98712
  0
VERTEX
  5
a33
  8
Layer_0
  10
710.57526
  20
515.19604
  0
VERTEX
  5
a34
  8
Layer_0
  10
710.78485
  20
516.40149
  0
VERTEX
  5
a35
  8
Layer_0
  10
711.02039
  20
517.60297
  0
VERTEX
  5
a36
  8
Layer_0
  10
711.28198
  20
518.80005
  0
VERTEX
  5
a37
  8
Layer_0
  10
711.42114
  20
519.08856
  0
VERTEX
  5
a38
  8
Layer_0
  10
711.52167
  20
519.38867
  0
VERTEX
  5
a39
  8
Layer_0
  10
711.58344
  20
519.69678
  0
VERTEX
  5
a3a
  8
Layer_0
  10
711.60645
  20
520.00897
  0
VERTEX
  5
a3b
  8
Layer_0
  10
711.59064
  20
520.32166
  0
VERTEX
  5
a3c
  8
Layer_0
  10
711.53595
  20
520.63104
  0
VERTEX
  5
a3d
  8
Layer_0
  10
711.44238
  20
520.93347
  0
VERTEX
  5
a3e
  8
Layer_0
  10
711.30981
  20
521.2251
  0
VERTEX
  5
a3f
  8
Layer_0
  10
711.14148
  20
521.49762
  0
VERTEX
  5
a40
  8
Layer_0
  10
710.9425
  20
521.74377
  0
VERTEX
  5
a41
  8
Layer_0
  10
710.71606
  20
521.96155
  0
VERTEX
  5
a42
  8
Layer_0
  10
710.46521
  20
522.14886
  0
VERTEX
  5
a43
  8
Layer_0
  10
710.19312
  20
522.30371
  0
VERTEX
  5
a44
  8
Layer_0
  10
709.90283
  20
522.42401
  0
VERTEX
  5
a45
  8
Layer_0
  10
709.59753
  20
522.50775
  0
VERTEX
  5
a46
  8
Layer_0
  10
709.2804
  20
522.55286
  0
VERTEX
  5
a47
  8
Layer_0
  10
709.16864
  20
522.08856
  0
VERTEX
  5
a48
  8
Layer_0
  10
709.02502
  20
521.63776
  0
VERTEX
  5
a49
  8
Layer_0
  10
708.85077
  20
521.20178
  0
VERTEX
  5
a4a
  8
Layer_0
  10
708.64722
  20
520.78192
  0
VERTEX
  5
a4b
  8
Layer_0
  10
708.41541
  20
520.37939
  0
VERTEX
  5
a4c
  8
Layer_0
  10
708.15674
  20
519.99548
  0
VERTEX
  5
a4d
  8
Layer_0
  10
707.87238
  20
519.63153
  0
VERTEX
  5
a4e
  8
Layer_0
  10
707.5636
  20
519.28876
  0
VERTEX
  5
a4f
  8
Layer_0
  10
707.23157
  20
518.96838
  0
VERTEX
  5
a50
  8
Layer_0
  10
706.8775
  20
518.67175
  0
VERTEX
  5
a51
  8
Layer_0
  10
706.50269
  20
518.40015
  0
VERTEX
  5
a52
  8
Layer_0
  10
706.10828
  20
518.15479
  0
VERTEX
  5
a53
  8
Layer_0
  10
705.69556
  20
517.93695
  0
VERTEX
  5
a54
  8
Layer_0
  10
705.26581
  20
517.74799
  0
VERTEX
  5
a55
  8
Layer_0
  10
704.82019
  20
517.58911
  0
VERTEX
  5
a56
  8
Layer_0
  10
704.35992
  20
517.46155
  0
VERTEX
  5
a57
  8
Layer_0
  10
704.12433
  20
518.03992
  0
VERTEX
  5
a58
  8
Layer_0
  10
703.94794
  20
518.62805
  0
VERTEX
  5
a59
  8
Layer_0
  10
703.82953
  20
519.22229
  0
VERTEX
  5
a5a
  8
Layer_0
  10
703.76801
  20
519.81891
  0
VERTEX
  5
a5b
  8
Layer_0
  10
703.76208
  20
520.41412
  0
VERTEX
  5
a5c
  8
Layer_0
  10
703.81067
  20
521.00421
  0
VERTEX
  5
a5d
  8
Layer_0
  10
703.91241
  20
521.58551
  0
VERTEX
  5
a5e
  8
Layer_0
  10
704.06628
  20
522.15417
  0
VERTEX
  5
a5f
  8
Layer_0
  10
704.27106
  20
522.7066
  0
VERTEX
  5
a60
  8
Layer_0
  10
704.52551
  20
523.23907
  0
VERTEX
  5
a61
  8
Layer_0
  10
704.82843
  20
523.7478
  0
VERTEX
  5
a62
  8
Layer_0
  10
705.17865
  20
524.22913
  0
VERTEX
  5
a63
  8
Layer_0
  10
705.57495
  20
524.67926
  0
VERTEX
  5
a64
  8
Layer_0
  10
706.01624
  20
525.09448
  0
VERTEX
  5
a65
  8
Layer_0
  10
706.50122
  20
525.47107
  0
VERTEX
  5
a66
  8
Layer_0
  10
707.02875
  20
525.80542
  0
VERTEX
  5
a67
  8
Layer_0
  10
707.46338
  20
527.89276
  0
VERTEX
  5
a68
  8
Layer_0
  10
707.95319
  20
529.96667
  0
VERTEX
  5
a69
  8
Layer_0
  10
708.49786
  20
532.02612
  0
VERTEX
  5
a6a
  8
Layer_0
  10
709.09705
  20
534.06995
  0
VERTEX
  5
a6b
  8
Layer_0
  10
709.75049
  20
536.09711
  0
VERTEX
  5
a6c
  8
Layer_0
  10
710.45776
  20
538.10651
  0
VERTEX
  5
a6d
  8
Layer_0
  10
711.21851
  20
540.09711
  0
VERTEX
  5
a6e
  8
Layer_0
  10
712.03247
  20
542.06775
  0
VERTEX
  5
a6f
  8
Layer_0
  10
713.28345
  20
538.31482
  0
VERTEX
  5
a70
  8
Layer_0
  10
716.78162
  20
541.69965
  0
VERTEX
  5
a71
  8
Layer_0
  10
718.64856
  20
540.61682
  0
VERTEX
  5
a72
  8
Layer_0
  10
722.30731
  20
544.15704
  0
VERTEX
  5
a73
  8
Layer_0
  10
722.84314
  20
544.23749
  0
VERTEX
  5
a74
  8
Layer_0
  10
723.37183
  20
544.34424
  0
VERTEX
  5
a75
  8
Layer_0
  10
723.89258
  20
544.47681
  0
VERTEX
  5
a76
  8
Layer_0
  10
724.40454
  20
544.63464
  0
VERTEX
  5
a77
  8
Layer_0
  10
724.9068
  20
544.81738
  0
VERTEX
  5
a78
  8
Layer_0
  10
725.3985
  20
545.02435
  0
VERTEX
  5
a79
  8
Layer_0
  10
725.87878
  20
545.25519
  0
VERTEX
  5
a7a
  8
Layer_0
  10
726.34692
  20
545.50928
  0
VERTEX
  5
a7b
  8
Layer_0
  10
726.80182
  20
545.78625
  0
VERTEX
  5
a7c
  8
Layer_0
  10
727.24274
  20
546.08557
  0
VERTEX
  5
a7d
  8
Layer_0
  10
727.66876
  20
546.40674
  0
VERTEX
  5
a7e
  8
Layer_0
  10
728.0791
  20
546.74915
  0
VERTEX
  5
a7f
  8
Layer_0
  10
728.47278
  20
547.11243
  0
VERTEX
  5
a80
  8
Layer_0
  10
728.84912
  20
547.49609
  0
VERTEX
  5
a81
  8
Layer_0
  10
729.20703
  20
547.8996
  0
VERTEX
  5
a82
  8
Layer_0
  10
729.54584
  20
548.32245
  0
VERTEX
  5
a83
  8
Layer_0
  10
730.18933
  20
548.49695
  0
VERTEX
  5
a84
  8
Layer_0
  10
730.83783
  20
548.62598
  0
VERTEX
  5
a85
  8
Layer_0
  10
731.48907
  20
548.71008
  0
VERTEX
  5
a86
  8
Layer_0
  10
732.14087
  20
548.74982
  0
VERTEX
  5
a87
  8
Layer_0
  10
732.79114
  20
548.74567
  0
VERTEX
  5
a88
  8
Layer_0
  10
733.43768
  20
548.69824
  0
VERTEX
  5
a89
  8
Layer_0
  10
734.07831
  20
548.60791
  0
VERTEX
  5
a8a
  8
Layer_0
  10
734.71094
  20
548.47534
  0
VERTEX
  5
a8b
  8
Layer_0
  10
735.33331
  20
548.30103
  0
VERTEX
  5
a8c
  8
Layer_0
  10
735.94336
  20
548.08557
  0
VERTEX
  5
a8d
  8
Layer_0
  10
736.53882
  20
547.82935
  0
VERTEX
  5
a8e
  8
Layer_0
  10
737.11761
  20
547.53296
  0
VERTEX
  5
a8f
  8
Layer_0
  10
737.67755
  20
547.1969
  0
VERTEX
  5
a90
  8
Layer_0
  10
738.21649
  20
546.82178
  0
VERTEX
  5
a91
  8
Layer_0
  10
738.73224
  20
546.40808
  0
VERTEX
  5
a92
  8
Layer_0
  10
739.22266
  20
545.95636
  0
VERTEX
  5
a93
  8
Layer_0
  10
740.76367
  20
545.38287
  0
VERTEX
  5
a94
  8
Layer_0
  10
742.3136
  20
544.83655
  0
VERTEX
  5
a95
  8
Layer_0
  10
743.87207
  20
544.31738
  0
VERTEX
  5
a96
  8
Layer_0
  10
745.43872
  20
543.82544
  0
VERTEX
  5
a97
  8
Layer_0
  10
747.01318
  20
543.36096
  0
VERTEX
  5
a98
  8
Layer_0
  10
748.59515
  20
542.92389
  0
VERTEX
  5
a99
  8
Layer_0
  10
750.1842
  20
542.51434
  0
VERTEX
  5
a9a
  8
Layer_0
  10
751.77991
  20
542.13245
  0
VERTEX
  5
a9b
  8
Layer_0
  10
753.38208
  20
541.77826
  0
VERTEX
  5
a9c
  8
Layer_0
  10
754.99023
  20
541.45178
  0
VERTEX
  5
a9d
  8
Layer_0
  10
756.604
  20
541.15326
  0
VERTEX
  5
a9e
  8
Layer_0
  10
758.22314
  20
540.88263
  0
VERTEX
  5
a9f
  8
Layer_0
  10
759.84717
  20
540.64008
  0
VERTEX
  5
aa0
  8
Layer_0
  10
761.47583
  20
540.4256
  0
VERTEX
  5
aa1
  8
Layer_0
  10
763.10864
  20
540.23932
  0
VERTEX
  5
aa2
  8
Layer_0
  10
764.7453
  20
540.08136
  0
SEQEND
  0
POLYLINE
  5
aa4
  8
Layer_0
  62
0
  66
1
  10
0
  20
0
  30
0
  0
VERTEX
  5
aa4
  8
Layer_0
  10
519.35925
  20
357.79492
  0
VERTEX
  5
aa5
  8
Layer_0
  10
529.6593
  20
358.2106
  0
VERTEX
  5
aa6
  8
Layer_0
  10
539.95642
  20
358.68787
  0
VERTEX
  5
aa7
  8
Layer_0
  10
550.25037
  20
359.22668
  0
VERTEX
  5
aa8
  8
Layer_0
  10
560.54083
  20
359.82709
  0
VERTEX
  5
aa9
  8
Layer_0
  10
562.35242
  20
326.6445
  0
VERTEX
  5
aaa
  8
Layer_0
  10
563.31128
  20
326.13123
  0
VERTEX
  5
aab
  8
Layer_0
  10
564.28186
  20
325.64154
  0
VERTEX
  5
aac
  8
Layer_0
  10
565.26367
  20
325.1756
  0
VERTEX
  5
aad
  8
Layer_0
  10
566.25641
  20
324.7337
  0
VERTEX
  5
aae
  8
Layer_0
  10
567.25952
  20
324.31592
  0
VERTEX
  5
aaf
  8
Layer_0
  10
568.27258
  20
323.92249
  0
VERTEX
  5
ab0
  8
Layer_0
  10
569.29517
  20
323.55359
  0
VERTEX
  5
ab1
  8
Layer_0
  10
570.32684
  20
323.20944
  0
VERTEX
  5
ab2
  8
Layer_0
  10
572.06897
  20
324.73367
  0
VERTEX
  5
ab3
  8
Layer_0
  10
576.09583
  20
320.13116
  0
VERTEX
  5
ab4
  8
Layer_0
  10
586.93756
  20
319.39862
  0
VERTEX
  5
ab5
  8
Layer_0
  10
589.85718
  20
320.13116
  0
VERTEX
  5
ab6
  8
Layer_0
  10
594.90021
  20
315.96582
  0
VERTEX
  5
ab7
  8
Layer_0
  10
596.62042
  20
318.04849
  0
VERTEX
  5
ab8
  8
Layer_0
  10
603.70258
  20
317.00714
  0
VERTEX
  5
ab9
  8
Layer_0
  10
604.45081
  20
314.39484
  0
VERTEX
  5
aba
  8
Layer_0
  10
607.46863
  20
318.04849
  0
VERTEX
  5
abb
  8
Layer_0
  10
610.85455
  20
318.04849
  0
VERTEX
  5
abc
  8
Layer_0
  10
616.72278
  20
315.70099
  0
VERTEX
  5
abd
  8
Layer_0
  10
617.51807
  20
316.36823
  0
VERTEX
  5
abe
  8
Layer_0
  10
618.34753
  20
316.98047
  0
VERTEX
  5
abf
  8
Layer_0
  10
619.20825
  20
317.53708
  0
VERTEX
  5
ac0
  8
Layer_0
  10
620.09753
  20
318.03735
  0
VERTEX
  5
ac1
  8
Layer_0
  10
621.01245
  20
318.48059
  0
VERTEX
  5
ac2
  8
Layer_0
  10
621.95038
  20
318.86615
  0
VERTEX
  5
ac3
  8
Layer_0
  10
622.90839
  20
319.19336
  0
VERTEX
  5
ac4
  8
Layer_0
  10
623.88367
  20
319.46146
  0
VERTEX
  5
ac5
  8
Layer_0
  10
624.87341
  20
319.66983
  0
VERTEX
  5
ac6
  8
Layer_0
  10
625.87488
  20
319.81781
  0
VERTEX
  5
ac7
  8
Layer_0
  10
626.88525
  20
319.90466
  0
VERTEX
  5
ac8
  8
Layer_0
  10
627.90167
  20
319.92975
  0
VERTEX
  5
ac9
  8
Layer_0
  10
628.92139
  20
319.89236
  0
VERTEX
  5
aca
  8
Layer_0
  10
629.94141
  20
319.79184
  0
VERTEX
  5
acb
  8
Layer_0
  10
630.95911
  20
319.6275
  0
VERTEX
  5
acc
  8
Layer_0
  10
631.97168
  20
319.39862
  0
VERTEX
  5
acd
  8
Layer_0
  10
644.22418
  20
315.34418
  0
SEQEND
  0
POLYLINE
  5
acf
  8
Layer_0
  62
0
  66
1
  10
0
  20
0
  30
0
  0
VERTEX
  5
acf
  8
Layer_0
  10
599.88586
  20
485.69281
  0
VERTEX
  5
ad0
  8
Layer_0
  10
603.9436
  20
485.85889
  0
VERTEX
  5
ad1
  8
Layer_0
  10
607.99951
  20
486.05573
  0
VERTEX
  5
ad2
  8
Layer_0
  10
612.05347
  20
486.28333
  0
VERTEX
  5
ad3
  8
Layer_0
  10
616.10522
  20
486.54156
  0
VERTEX
  5
ad4
  8
Layer_0
  10
620.15466
  20
486.83051
  0
VERTEX
  5
ad5
  8
Layer_0
  10
624.20166
  20
487.15015
  0
VERTEX
  5
ad6
  8
Layer_0
  10
628.24591
  20
487.50043
  0
VERTEX
  5
ad7
  8
Layer_0
  10
632.28735
  20
487.88132
  0
VERTEX
  5
ad8
  8
Layer_0
  10
636.32581
  20
488.29285
  0
VERTEX
  5
ad9
  8
Layer_0
  10
640.36108
  20
488.73499
  0
VERTEX
  5
ada
  8
Layer_0
  10
644.39294
  20
489.20773
  0
VERTEX
  5
adb
  8
Layer_0
  10
648.42139
  20
489.71106
  0
VERTEX
  5
adc
  8
Layer_0
  10
652.44617
  20
490.24493
  0
VERTEX
  5
add
  8
Layer_0
  10
656.46704
  20
490.80936
  0
VERTEX
  5
ade
  8
Layer_0
  10
660.48383
  20
491.40427
  0
VERTEX
  5
adf
  8
Layer_0
  10
664.49646
  20
492.02972
  0
SEQEND
  0
POLYLINE
  5
ae1
  8
Layer_0
  62
0
  66
1
  10
0
  20
0
  30
0
  0
VERTEX
  5
ae1
  8
Layer_0
  10
351.68048
  20
458.89426
  0
VERTEX
  5
ae2
  8
Layer_0
  10
351.68048
  20
495.23477
  0
VERTEX
  5
ae3
  8
Layer_0
  10
350.93988
  20
495.61304
  0
VERTEX
  5
ae4
  8
Layer_0
  10
350.23041
  20
496.04083
  0
VERTEX
  5
ae5
  8
Layer_0
  10
349.55438
  20
496.51617
  0
VERTEX
  5
ae6
  8
Layer_0
  10
348.91394
  20
497.03705
  0
VERTEX
  5
ae7
  8
Layer_0
  10
348.31152
  20
497.60141
  0
VERTEX
  5
ae8
  8
Layer_0
  10
347.74939
  20
498.20728
  0
VERTEX
  5
ae9
  8
Layer_0
  10
347.2298
  20
498.85263
  0
VERTEX
  5
aea
  8
Layer_0
  10
346.75513
  20
499.53543
  0
VERTEX
  5
aeb
  8
Layer_0
  10
346.67285
  20
500.2587
  0
VERTEX
  5
aec
  8
Layer_0
  10
346.66364
  20
500.97296
  0
VERTEX
  5
aed
  8
Layer_0
  10
346.72473
  20
501.67419
  0
VERTEX
  5
aee
  8
Layer_0
  10
346.85309
  20
502.35828
  0
VERTEX
  5
aef
  8
Layer_0
  10
347.0459
  20
503.02112
  0
VERTEX
  5
af0
  8
Layer_0
  10
347.30029
  20
503.65863
  0
VERTEX
  5
af1
  8
Layer_0
  10
347.61328
  20
504.26675
  0
VERTEX
  5
af2
  8
Layer_0
  10
347.98193
  20
504.84143
  0
VERTEX
  5
af3
  8
Layer_0
  10
348.40344
  20
505.37854
  0
VERTEX
  5
af4
  8
Layer_0
  10
348.87488
  20
505.87402
  0
VERTEX
  5
af5
  8
Layer_0
  10
349.39337
  20
506.32382
  0
VERTEX
  5
af6
  8
Layer_0
  10
349.95599
  20
506.72382
  0
VERTEX
  5
af7
  8
Layer_0
  10
350.55975
  20
507.06995
  0
VERTEX
  5
af8
  8
Layer_0
  10
351.20197
  20
507.35812
  0
VERTEX
  5
af9
  8
Layer_0
  10
351.87958
  20
507.58429
  0
VERTEX
  5
afa
  8
Layer_0
  10
352.58972
  20
507.74432
  0
VERTEX
  5
afb
  8
Layer_0
  10
356.67334
  20
522.69934
  0
VERTEX
  5
afc
  8
Layer_0
  10
356.86462
  20
522.99664
  0
VERTEX
  5
afd
  8
Layer_0
  10
357.03003
  20
523.30457
  0
VERTEX
  5
afe
  8
Layer_0
  10
357.1698
  20
523.62158
  0
VERTEX
  5
aff
  8
Layer_0
  10
357.28369
  20
523.94604
  0
VERTEX
  5
b00
  8
Layer_0
  10
357.37189
  20
524.27655
  0
VERTEX
  5
b01
  8
Layer_0
  10
357.43433
  20
524.61157
  0
VERTEX
  5
b02
  8
Layer_0
  10
357.47107
  20
524.94946
  0
VERTEX
  5
b03
  8
Layer_0
  10
357.48206
  20
525.28876
  0
VERTEX
  5
b04
  8
Layer_0
  10
357.46741
  20
525.62793
  0
VERTEX
  5
b05
  8
Layer_0
  10
357.427
  20
525.96539
  0
VERTEX
  5
b06
  8
Layer_0
  10
357.3609
  20
526.29968
  0
VERTEX
  5
b07
  8
Layer_0
  10
357.2691
  20
526.62921
  0
VERTEX
  5
b08
  8
Layer_0
  10
357.15161
  20
526.95251
  0
VERTEX
  5
b09
  8
Layer_0
  10
357.00854
  20
527.26794
  0
VERTEX
  5
b0a
  8
Layer_0
  10
356.83972
  20
527.57404
  0
VERTEX
  5
b0b
  8
Layer_0
  10
356.64526
  20
527.86926
  0
VERTEX
  5
b0c
  8
Layer_0
  10
356.42822
  20
528.14832
  0
VERTEX
  5
b0d
  8
Layer_0
  10
356.19263
  20
528.40649
  0
VERTEX
  5
b0e
  8
Layer_0
  10
355.93994
  20
528.64349
  0
VERTEX
  5
b0f
  8
Layer_0
  10
355.67163
  20
528.85864
  0
VERTEX
  5
b10
  8
Layer_0
  10
355.3891
  20
529.05151
  0
VERTEX
  5
b11
  8
Layer_0
  10
355.09387
  20
529.22156
  0
VERTEX
  5
b12
  8
Layer_0
  10
354.78729
  20
529.36835
  0
VERTEX
  5
b13
  8
Layer_0
  10
354.47083
  20
529.49133
  0
VERTEX
  5
b14
  8
Layer_0
  10
354.146
  20
529.58997
  0
VERTEX
  5
b15
  8
Layer_0
  10
353.81421
  20
529.66388
  0
VERTEX
  5
b16
  8
Layer_0
  10
353.47693
  20
529.71246
  0
VERTEX
  5
b17
  8
Layer_0
  10
353.13562
  20
529.73523
  0
VERTEX
  5
b18
  8
Layer_0
  10
352.79175
  20
529.73169
  0
VERTEX
  5
b19
  8
Layer_0
  10
352.44672
  20
529.70135
  0
VERTEX
  5
b1a
  8
Layer_0
  10
352.10193
  20
529.64368
  0
VERTEX
  5
b1b
  8
Layer_0
  10
351.75891
  20
529.55823
  0
VERTEX
  5
b1c
  8
Layer_0
  10
356.64526
  20
586.0675
  0
SEQEND
  0
POLYLINE
  5
b1e
  8
Layer_0
  62
0
  66
1
  10
0
  20
0
  30
0
  0
VERTEX
  5
b1e
  8
Layer_0
  10
669.50024
  20
439.48987
  0
VERTEX
  5
b1f
  8
Layer_0
  10
665.79413
  20
442.87131
  0
VERTEX
  5
b20
  8
Layer_0
  10
652.34399
  20
441.00815
  0
VERTEX
  5
b21
  8
Layer_0
  10
638.8894
  20
439.19824
  0
VERTEX
  5
b22
  8
Layer_0
  10
625.42755
  20
437.44116
  0
VERTEX
  5
b23
  8
Layer_0
  10
611.95581
  20
435.73663
  0
SEQEND
  0
POLYLINE
  5
b25
  8
Layer_0
  62
0
  66
1
  10
0
  20
0
  30
0
  0
VERTEX
  5
b25
  8
Layer_0
  10
366.77032
  20
584.59998
  0
VERTEX
  5
b26
  8
Layer_0
  10
364.26843
  20
564.58484
  0
VERTEX
  5
b27
  8
Layer_0
  10
366.77032
  20
558.40582
  0
VERTEX
  5
b28
  8
Layer_0
  10
374.276
  20
544.56964
  0
VERTEX
  5
b29
  8
Layer_0
  10
386.78552
  20
534.56201
  0
VERTEX
  5
b2a
  8
Layer_0
  10
383.36041
  20
517.43286
  0
VERTEX
  5
b2b
  8
Layer_0
  10
383.29321
  20
517.01459
  0
VERTEX
  5
b2c
  8
Layer_0
  10
383.25848
  20
516.59686
  0
VERTEX
  5
b2d
  8
Layer_0
  10
383.25537
  20
516.18127
  0
VERTEX
  5
b2e
  8
Layer_0
  10
383.28333
  20
515.76941
  0
VERTEX
  5
b2f
  8
Layer_0
  10
383.34155
  20
515.36279
  0
VERTEX
  5
b30
  8
Layer_0
  10
383.42944
  20
514.96313
  0
VERTEX
  5
b31
  8
Layer_0
  10
383.54639
  20
514.57202
  0
VERTEX
  5
b32
  8
Layer_0
  10
383.69159
  20
514.19104
  0
VERTEX
  5
b33
  8
Layer_0
  10
383.8645
  20
513.82178
  0
VERTEX
  5
b34
  8
Layer_0
  10
384.06427
  20
513.46582
  0
VERTEX
  5
b35
  8
Layer_0
  10
384.29034
  20
513.12476
  0
VERTEX
  5
b36
  8
Layer_0
  10
384.54205
  20
512.80017
  0
VERTEX
  5
b37
  8
Layer_0
  10
384.81866
  20
512.49365
  0
VERTEX
  5
b38
  8
Layer_0
  10
385.11951
  20
512.20691
  0
VERTEX
  5
b39
  8
Layer_0
  10
385.44391
  20
511.94147
  0
VERTEX
  5
b3a
  8
Layer_0
  10
385.7912
  20
511.69891
  0
VERTEX
  5
b3b
  8
Layer_0
  10
386.15594
  20
511.48352
  0
VERTEX
  5
b3c
  8
Layer_0
  10
386.5321
  20
511.29846
  0
VERTEX
  5
b3d
  8
Layer_0
  10
386.91785
  20
511.14368
  0
VERTEX
  5
b3e
  8
Layer_0
  10
387.3114
  20
511.0191
  0
VERTEX
  5
b3f
  8
Layer_0
  10
387.71112
  20
510.92474
  0
VERTEX
  5
b40
  8
Layer_0
  10
388.11523
  20
510.86053
  0
VERTEX
  5
b41
  8
Layer_0
  10
388.52197
  20
510.82635
  0
VERTEX
  5
b42
  8
Layer_0
  10
388.92975
  20
510.8223
  0
VERTEX
  5
b43
  8
Layer_0
  10
389.33673
  20
510.84824
  0
VERTEX
  5
b44
  8
Layer_0
  10
389.74109
  20
510.90408
  0
VERTEX
  5
b45
  8
Layer_0
  10
390.14111
  20
510.98987
  0
VERTEX
  5
b46
  8
Layer_0
  10
390.53528
  20
511.1055
  0
VERTEX
  5
b47
  8
Layer_0
  10
390.92163
  20
511.25095
  0
VERTEX
  5
b48
  8
Layer_0
  10
391.29846
  20
511.42618
  0
VERTEX
  5
b49
  8
Layer_0
  10
391.66412
  20
511.63113
  0
VERTEX
  5
b4a
  8
Layer_0
  10
392.01685
  20
511.86575
  0
VERTEX
  5
b4b
  8
Layer_0
  10
395.88849
  20
499.76767
  0
VERTEX
  5
b4c
  8
Layer_0
  10
408.80573
  20
499.76767
  0
VERTEX
  5
b4d
  8
Layer_0
  10
415.58728
  20
505.81671
  0
VERTEX
  5
b4e
  8
Layer_0
  10
420.98291
  20
499.76767
  0
VERTEX
  5
b4f
  8
Layer_0
  10
430.7027
  20
499.76767
  0
VERTEX
  5
b50
  8
Layer_0
  10
434.32166
  20
495.71051
  0
SEQEND
  0
POLYLINE
  5
b52
  8
Layer_0
  62
0
  66
1
  10
0
  20
0
  30
0
  0
VERTEX
  5
b52
  8
Layer_0
  10
601.94891
  20
467.01071
  0
VERTEX
  5
b53
  8
Layer_0
  10
601.54004
  20
467.61923
  0
VERTEX
  5
b54
  8
Layer_0
  10
601.10352
  20
468.20416
  0
VERTEX
  5
b55
  8
Layer_0
  10
600.64026
  20
468.76474
  0
VERTEX
  5
b56
  8
Layer_0
  10
600.15137
  20
469.30023
  0
VERTEX
  5
b57
  8
Layer_0
  10
599.63794
  20
469.80981
  0
VERTEX
  5
b58
  8
Layer_0
  10
599.10107
  20
470.29285
  0
VERTEX
  5
b59
  8
Layer_0
  10
598.54193
  20
470.7485
  0
VERTEX
  5
b5a
  8
Layer_0
  10
597.96143
  20
471.17603
  0
VERTEX
  5
b5b
  8
Layer_0
  10
597.36084
  20
471.57465
  0
VERTEX
  5
b5c
  8
Layer_0
  10
596.74097
  20
471.94366
  0
VERTEX
  5
b5d
  8
Layer_0
  10
596.10315
  20
472.28229
  0
VERTEX
  5
b5e
  8
Layer_0
  10
595.44836
  20
472.58972
  0
VERTEX
  5
b5f
  8
Layer_0
  10
594.77771
  20
472.8653
  0
VERTEX
  5
b60
  8
Layer_0
  10
594.09229
  20
473.10822
  0
VERTEX
  5
b61
  8
Layer_0
  10
593.39307
  20
473.31772
  0
VERTEX
  5
b62
  8
Layer_0
  10
592.68121
  20
473.49304
  0
VERTEX
  5
b63
  8
Layer_0
  10
591.96149
  20
473.63281
  0
VERTEX
  5
b64
  8
Layer_0
  10
591.23901
  20
473.73621
  0
VERTEX
  5
b65
  8
Layer_0
  10
590.51489
  20
473.80353
  0
VERTEX
  5
b66
  8
Layer_0
  10
589.79053
  20
473.83502
  0
VERTEX
  5
b67
  8
Layer_0
  10
589.06714
  20
473.8309
  0
VERTEX
  5
b68
  8
Layer_0
  10
588.34607
  20
473.79138
  0
VERTEX
  5
b69
  8
Layer_0
  10
587.62866
  20
473.71671
  0
VERTEX
  5
b6a
  8
Layer_0
  10
586.91608
  20
473.60712
  0
VERTEX
  5
b6b
  8
Layer_0
  10
586.20972
  20
473.46283
  0
VERTEX
  5
b6c
  8
Layer_0
  10
585.51086
  20
473.28406
  0
VERTEX
  5
b6d
  8
Layer_0
  10
584.82092
  20
473.07104
  0
VERTEX
  5
b6e
  8
Layer_0
  10
584.14099
  20
472.8241
  0
VERTEX
  5
b6f
  8
Layer_0
  10
583.47253
  20
472.5434
  0
VERTEX
  5
b70
  8
Layer_0
  10
582.81665
  20
472.22913
  0
VERTEX
  5
b71
  8
Layer_0
  10
582.1748
  20
471.88153
  0
VERTEX
  5
b72
  8
Layer_0
  10
581.54828
  20
471.50092
  0
VERTEX
  5
b73
  8
Layer_0
  10
580.29034
  20
471.67749
  0
VERTEX
  5
b74
  8
Layer_0
  10
579.04425
  20
471.9126
  0
VERTEX
  5
b75
  8
Layer_0
  10
577.81189
  20
472.20551
  0
VERTEX
  5
b76
  8
Layer_0
  10
576.59528
  20
472.55573
  0
VERTEX
  5
b77
  8
Layer_0
  10
575.39642
  20
472.96252
  0
VERTEX
  5
b78
  8
Layer_0
  10
574.21729
  20
473.42535
  0
VERTEX
  5
b79
  8
Layer_0
  10
573.05981
  20
473.94351
  0
VERTEX
  5
b7a
  8
Layer_0
  10
571.92615
  20
474.51642
  0
VERTEX
  5
b7b
  8
Layer_0
  10
567.98242
  20
473.98505
  0
VERTEX
  5
b7c
  8
Layer_0
  10
564.03381
  20
473.49777
  0
VERTEX
  5
b7d
  8
Layer_0
  10
560.08069
  20
473.05463
  0
VERTEX
  5
b7e
  8
Layer_0
  10
556.12354
  20
472.65558
  0
VERTEX
  5
b7f
  8
Layer_0
  10
552.16266
  20
472.30069
  0
VERTEX
  5
b80
  8
Layer_0
  10
548.19849
  20
471.98993
  0
VERTEX
  5
b81
  8
Layer_0
  10
544.23132
  20
471.72333
  0
VERTEX
  5
b82
  8
Layer_0
  10
540.2616
  20
471.50095
  0
VERTEX
  5
b83
  8
Layer_0
  10
536.28967
  20
471.32278
  0
VERTEX
  5
b84
  8
Layer_0
  10
532.3158
  20
471.18881
  0
VERTEX
  5
b85
  8
Layer_0
  10
528.34045
  20
471.09912
  0
VERTEX
  5
b86
  8
Layer_0
  10
524.36401
  20
471.05371
  0
VERTEX
  5
b87
  8
Layer_0
  10
520.38684
  20
471.05255
  0
VERTEX
  5
b88
  8
Layer_0
  10
516.40918
  20
471.09573
  0
VERTEX
  5
b89
  8
Layer_0
  10
512.43164
  20
471.18323
  0
VERTEX
  5
b8a
  8
Layer_0
  10
508.45435
  20
471.31506
  0
SEQEND
  0
POLYLINE
  5
b8c
  8
Layer_0
  62
0
  66
1
  10
0
  20
0
  30
0
  0
VERTEX
  5
b8c
  8
Layer_0
  10
636.65692
  20
366.58801
  0
VERTEX
  5
b8d
  8
Layer_0
  10
651.75873
  20
368.45245
  0
VERTEX
  5
b8e
  8
Layer_0
  10
666.85614
  20
370.383
  0
VERTEX
  5
b8f
  8
Layer_0
  10
681.94507
  20
372.37915
  0
VERTEX
  5
b90
  8
Layer_0
  10
697.02112
  20
374.4404
  0
VERTEX
  5
b91
  8
Layer_0
  10
697.50842
  20
374.12643
  0
VERTEX
  5
b92
  8
Layer_0
  10
697.9433
  20
373.75504
  0
VERTEX
  5
b93
  8
Layer_0
  10
698.3219
  20
373.33276
  0
VERTEX
  5
b94
  8
Layer_0
  10
698.64026
  20
372.86618
  0
VERTEX
  5
b95
  8
Layer_0
  10
698.89465
  20
372.36182
  0
VERTEX
  5
b96
  8
Layer_0
  10
699.08118
  20
371.82623
  0
VERTEX
  5
b97
  8
Layer_0
  10
699.19592
  20
371.26596
  0
VERTEX
  5
b98
  8
Layer_0
  10
699.23499
  20
370.68756
  0
VERTEX
  5
b99
  8
Layer_0
  10
699.19592
  20
370.10916
  0
VERTEX
  5
b9a
  8
Layer_0
  10
699.08118
  20
369.54889
  0
VERTEX
  5
b9b
  8
Layer_0
  10
698.89465
  20
369.01331
  0
VERTEX
  5
b9c
  8
Layer_0
  10
698.64026
  20
368.50894
  0
VERTEX
  5
b9d
  8
Layer_0
  10
698.3219
  20
368.04236
  0
VERTEX
  5
b9e
  8
Layer_0
  10
697.9433
  20
367.62009
  0
VERTEX
  5
b9f
  8
Layer_0
  10
697.50842
  20
367.24869
  0
VERTEX
  5
ba0
  8
Layer_0
  10
697.02112
  20
366.93472
  0
VERTEX
  5
ba1
  8
Layer_0
  10
704.52686
  20
366.93472
  0
SEQEND
  0
POLYLINE
  5
ba3
  8
Layer_0
  62
0
  66
1
  10
0
  20
0
  30
0
  0
VERTEX
  5
ba3
  8
Layer_0
  10
529.73572
  20
419.50494
  0
VERTEX
  5
ba4
  8
Layer_0
  10
540.85742
  20
420.08093
  0
VERTEX
  5
ba5
  8
Layer_0
  10
551.97437
  20
420.73257
  0
VERTEX
  5
ba6
  8
Layer_0
  10
563.08618
  20
421.45978
  0
VERTEX
  5
ba7
  8
Layer_0
  10
574.1925
  20
422.26257
  0
VERTEX
  5
ba8
  8
Layer_0
  10
585.29309
  20
423.14093
  0
VERTEX
  5
ba9
  8
Layer_0
  10
596.38751
  20
424.09482
  0
VERTEX
  5
baa
  8
Layer_0
  10
607.47559
  20
425.12421
  0
VERTEX
  5
bab
  8
Layer_0
  10
618.55713
  20
426.2291
  0
SEQEND
  0
POLYLINE
  5
bad
  8
Layer_0
  62
0
  66
1
  10
0
  20
0
  30
0
  0
VERTEX
  5
bad
  8
Layer_0
  10
750.67114
  20
256.49402
  0
VERTEX
  5
bae
  8
Layer_0
  10
749.56104
  20
256.85107
  0
VERTEX
  5
baf
  8
Layer_0
  10
748.22198
  20
256.72162
  0
VERTEX
  5
bb0
  8
Layer_0
  10
746.88403
  20
256.6593
  0
VERTEX
  5
bb1
  8
Layer_0
  10
745.54962
  20
256.66351
  0
VERTEX
  5
bb2
  8
Layer_0
  10
744.22101
  20
256.73352
  0
VERTEX
  5
bb3
  8
Layer_0
  10
742.90057
  20
256.86871
  0
VERTEX
  5
bb4
  8
Layer_0
  10
741.5907
  20
257.06842
  0
VERTEX
  5
bb5
  8
Layer_0
  10
740.2937
  20
257.33191
  0
VERTEX
  5
bb6
  8
Layer_0
  10
739.0119
  20
257.65869
  0
VERTEX
  5
bb7
  8
Layer_0
  10
737.74774
  20
258.04791
  0
VERTEX
  5
bb8
  8
Layer_0
  10
736.50348
  20
258.49902
  0
VERTEX
  5
bb9
  8
Layer_0
  10
735.28156
  20
259.01135
  0
VERTEX
  5
bba
  8
Layer_0
  10
734.08423
  20
259.58423
  0
VERTEX
  5
bbb
  8
Layer_0
  10
732.91388
  20
260.21704
  0
VERTEX
  5
bbc
  8
Layer_0
  10
731.77283
  20
260.90906
  0
VERTEX
  5
bbd
  8
Layer_0
  10
730.66351
  20
261.65955
  0
VERTEX
  5
bbe
  8
Layer_0
  10
729.5882
  20
262.46802
  0
VERTEX
  5
bbf
  8
Layer_0
  10
728.55457
  20
263.3291
  0
VERTEX
  5
bc0
  8
Layer_0
  10
727.56946
  20
264.23669
  0
VERTEX
  5
bc1
  8
Layer_0
  10
726.63416
  20
265.18842
  0
VERTEX
  5
bc2
  8
Layer_0
  10
725.74969
  20
266.18237
  0
VERTEX
  5
bc3
  8
Layer_0
  10
724.91736
  20
267.21631
  0
VERTEX
  5
bc4
  8
Layer_0
  10
724.13837
  20
268.28809
  0
VERTEX
  5
bc5
  8
Layer_0
  10
723.41376
  20
269.39563
  0
VERTEX
  5
bc6
  8
Layer_0
  10
722.74481
  20
270.53674
  0
VERTEX
  5
bc7
  8
Layer_0
  10
722.13269
  20
271.70935
  0
VERTEX
  5
bc8
  8
Layer_0
  10
721.57861
  20
272.91125
  0
VERTEX
  5
bc9
  8
Layer_0
  10
721.08368
  20
274.14032
  0
VERTEX
  5
bca
  8
Layer_0
  10
720.64911
  20
275.39453
  0
VERTEX
  5
bcb
  8
Layer_0
  10
720.27612
  20
276.67163
  0
VERTEX
  5
bcc
  8
Layer_0
  10
719.96582
  20
277.96948
  0
VERTEX
  5
bcd
  8
Layer_0
  10
719.71948
  20
279.28607
  0
VERTEX
  5
bce
  8
Layer_0
  10
719.53821
  20
280.61914
  0
VERTEX
  5
bcf
  8
Layer_0
  10
717.71539
  20
280.63708
  0
VERTEX
  5
bd0
  8
Layer_0
  10
715.89368
  20
280.62109
  0
VERTEX
  5
bd1
  8
Layer_0
  10
714.07349
  20
280.57129
  0
VERTEX
  5
bd2
  8
Layer_0
  10
712.25531
  20
280.48755
  0
VERTEX
  5
bd3
  8
Layer_0
  10
710.4397
  20
280.37012
  0
VERTEX
  5
bd4
  8
Layer_0
  10
708.62695
  20
280.21893
  0
VERTEX
  5
bd5
  8
Layer_0
  10
706.81775
  20
280.03406
  0
VERTEX
  5
bd6
  8
Layer_0
  10
705.01233
  20
279.81567
  0
VERTEX
  5
bd7
  8
Layer_0
  10
703.21136
  20
279.56372
  0
VERTEX
  5
bd8
  8
Layer_0
  10
701.41522
  20
279.27832
  0
VERTEX
  5
bd9
  8
Layer_0
  10
699.62439
  20
278.95947
  0
VERTEX
  5
bda
  8
Layer_0
  10
697.83936
  20
278.6073
  0
VERTEX
  5
bdb
  8
Layer_0
  10
696.06055
  20
278.2218
  0
VERTEX
  5
bdc
  8
Layer_0
  10
694.28845
  20
277.8031
  0
VERTEX
  5
bdd
  8
Layer_0
  10
692.52356
  20
277.35132
  0
VERTEX
  5
bde
  8
Layer_0
  10
690.76636
  20
276.86633
  0
VERTEX
  5
bdf
  8
Layer_0
  10
690.81177
  20
277.80945
  0
VERTEX
  5
be0
  8
Layer_0
  10
690.88373
  20
278.74963
  0
VERTEX
  5
be1
  8
Layer_0
  10
690.98199
  20
279.68622
  0
VERTEX
  5
be2
  8
Layer_0
  10
691.10645
  20
280.61884
  0
VERTEX
  5
be3
  8
Layer_0
  10
691.25702
  20
281.54675
  0
VERTEX
  5
be4
  8
Layer_0
  10
691.43347
  20
282.4696
  0
VERTEX
  5
be5
  8
Layer_0
  10
691.63574
  20
283.38678
  0
VERTEX
  5
be6
  8
Layer_0
  10
691.86359
  20
284.29773
  0
VERTEX
  5
be7
  8
Layer_0
  10
692.11694
  20
285.2019
  0
VERTEX
  5
be8
  8
Layer_0
  10
692.39569
  20
286.09875
  0
VERTEX
  5
be9
  8
Layer_0
  10
692.69958
  20
286.98785
  0
VERTEX
  5
bea
  8
Layer_0
  10
693.02863
  20
287.86853
  0
VERTEX
  5
beb
  8
Layer_0
  10
693.38257
  20
288.74026
  0
VERTEX
  5
bec
  8
Layer_0
  10
693.76123
  20
289.60254
  0
VERTEX
  5
bed
  8
Layer_0
  10
694.16455
  20
290.45483
  0
VERTEX
  5
bee
  8
Layer_0
  10
694.59235
  20
291.2966
  0
VERTEX
  5
bef
  8
Layer_0
  10
695.16577
  20
291.93695
  0
VERTEX
  5
bf0
  8
Layer_0
  10
695.68378
  20
292.61176
  0
VERTEX
  5
bf1
  8
Layer_0
  10
696.14569
  20
293.31757
  0
VERTEX
  5
bf2
  8
Layer_0
  10
696.55096
  20
294.05096
  0
VERTEX
  5
bf3
  8
Layer_0
  10
696.89899
  20
294.80853
  0
VERTEX
  5
bf4
  8
Layer_0
  10
697.18915
  20
295.58685
  0
VERTEX
  5
bf5
  8
Layer_0
  10
697.4209
  20
296.38251
  0
VERTEX
  5
bf6
  8
Layer_0
  10
697.59357
  20
297.19202
  0
VERTEX
  5
bf7
  8
Layer_0
  10
697.7066
  20
298.01199
  0
VERTEX
  5
bf8
  8
Layer_0
  10
697.75934
  20
298.83899
  0
VERTEX
  5
bf9
  8
Layer_0
  10
697.75128
  20
299.66962
  0
VERTEX
  5
bfa
  8
Layer_0
  10
697.68176
  20
300.50043
  0
VERTEX
  5
bfb
  8
Layer_0
  10
697.55017
  20
301.32797
  0
VERTEX
  5
bfc
  8
Layer_0
  10
697.3559
  20
302.14886
  0
VERTEX
  5
bfd
  8
Layer_0
  10
697.09839
  20
302.95966
  0
VERTEX
  5
bfe
  8
Layer_0
  10
696.77704
  20
303.75687
  0
VERTEX
  5
bff
  8
Layer_0
  10
696.23914
  20
304.08356
  0
VERTEX
  5
c00
  8
Layer_0
  10
695.72839
  20
304.44263
  0
VERTEX
  5
c01
  8
Layer_0
  10
695.24603
  20
304.8324
  0
VERTEX
  5
c02
  8
Layer_0
  10
694.79297
  20
305.2511
  0
VERTEX
  5
c03
  8
Layer_0
  10
694.3703
  20
305.69693
  0
VERTEX
  5
c04
  8
Layer_0
  10
693.979
  20
306.16818
  0
VERTEX
  5
c05
  8
Layer_0
  10
693.62012
  20
306.66309
  0
VERTEX
  5
c06
  8
Layer_0
  10
693.29468
  20
307.17987
  0
VERTEX
  5
c07
  8
Layer_0
  10
693.00366
  20
307.71683
  0
VERTEX
  5
c08
  8
Layer_0
  10
692.74811
  20
308.27222
  0
VERTEX
  5
c09
  8
Layer_0
  10
692.52905
  20
308.84427
  0
VERTEX
  5
c0a
  8
Layer_0
  10
692.34753
  20
309.43118
  0
VERTEX
  5
c0b
  8
Layer_0
  10
692.20459
  20
310.03125
  0
VERTEX
  5
c0c
  8
Layer_0
  10
692.10126
  20
310.64273
  0
VERTEX
  5
c0d
  8
Layer_0
  10
692.03851
  20
311.26389
  0
VERTEX
  5
c0e
  8
Layer_0
  10
692.01733
  20
311.89291
  0
VERTEX
  5
c0f
  8
Layer_0
  10
692.01733
  20
319.39862
  0
VERTEX
  5
c10
  8
Layer_0
  10
692.20801
  20
321.33459
  0
VERTEX
  5
c11
  8
Layer_0
  10
692.43646
  20
323.26514
  0
VERTEX
  5
c12
  8
Layer_0
  10
692.70251
  20
325.18973
  0
VERTEX
  5
c13
  8
Layer_0
  10
693.00604
  20
327.10785
  0
VERTEX
  5
c14
  8
Layer_0
  10
693.34692
  20
329.01889
  0
VERTEX
  5
c15
  8
Layer_0
  10
693.72504
  20
330.92236
  0
VERTEX
  5
c16
  8
Layer_0
  10
694.1402
  20
332.81775
  0
VERTEX
  5
c17
  8
Layer_0
  10
694.59235
  20
334.70447
  0
VERTEX
  5
c18
  8
Layer_0
  10
695.0813
  20
336.58197
  0
VERTEX
  5
c19
  8
Layer_0
  10
695.60687
  20
338.44977
  0
VERTEX
  5
c1a
  8
Layer_0
  10
696.16907
  20
340.30725
  0
VERTEX
  5
c1b
  8
Layer_0
  10
696.76758
  20
342.15387
  0
VERTEX
  5
c1c
  8
Layer_0
  10
697.40234
  20
343.9892
  0
VERTEX
  5
c1d
  8
Layer_0
  10
698.0733
  20
345.81256
  0
VERTEX
  5
c1e
  8
Layer_0
  10
698.78021
  20
347.62347
  0
VERTEX
  5
c1f
  8
Layer_0
  10
699.52301
  20
349.42142
  0
VERTEX
  5
c20
  8
Layer_0
  10
700.21191
  20
350.37427
  0
VERTEX
  5
c21
  8
Layer_0
  10
700.85315
  20
351.35443
  0
VERTEX
  5
c22
  8
Layer_0
  10
701.44604
  20
352.36017
  0
VERTEX
  5
c23
  8
Layer_0
  10
701.99023
  20
353.38962
  0
VERTEX
  5
c24
  8
Layer_0
  10
702.48511
  20
354.44098
  0
VERTEX
  5
c25
  8
Layer_0
  10
702.93011
  20
355.51245
  0
VERTEX
  5
c26
  8
Layer_0
  10
703.32483
  20
356.60217
  0
VERTEX
  5
c27
  8
Layer_0
  10
703.6687
  20
357.7084
  0
VERTEX
  5
c28
  8
Layer_0
  10
703.96118
  20
358.82928
  0
VERTEX
  5
c29
  8
Layer_0
  10
704.20178
  20
359.96307
  0
VERTEX
  5
c2a
  8
Layer_0
  10
704.38995
  20
361.10785
  0
VERTEX
  5
c2b
  8
Layer_0
  10
704.52521
  20
362.26196
  0
VERTEX
  5
c2c
  8
Layer_0
  10
704.60706
  20
363.42352
  0
VERTEX
  5
c2d
  8
Layer_0
  10
704.63495
  20
364.5907
  0
VERTEX
  5
c2e
  8
Layer_0
  10
704.6084
  20
365.76169
  0
VERTEX
  5
c2f
  8
Layer_0
  10
704.52686
  20
366.93469
  0
VERTEX
  5
c30
  8
Layer_0
  10
704.48547
  20
367.70029
  0
VERTEX
  5
c31
  8
Layer_0
  10
704.5033
  20
368.45844
  0
VERTEX
  5
c32
  8
Layer_0
  10
704.5788
  20
369.20627
  0
VERTEX
  5
c33
  8
Layer_0
  10
704.71027
  20
369.94104
  0
VERTEX
  5
c34
  8
Layer_0
  10
704.89618
  20
370.65991
  0
VERTEX
  5
c35
  8
Layer_0
  10
705.13489
  20
371.35999
  0
VERTEX
  5
c36
  8
Layer_0
  10
705.4248
  20
372.03851
  0
VERTEX
  5
c37
  8
Layer_0
  10
705.76434
  20
372.69263
  0
VERTEX
  5
c38
  8
Layer_0
  10
706.15186
  20
373.31952
  0
VERTEX
  5
c39
  8
Layer_0
  10
706.58575
  20
373.91629
  0
VERTEX
  5
c3a
  8
Layer_0
  10
707.06445
  20
374.48019
  0
VERTEX
  5
c3b
  8
Layer_0
  10
707.5863
  20
375.00836
  0
VERTEX
  5
c3c
  8
Layer_0
  10
708.14972
  20
375.49799
  0
VERTEX
  5
c3d
  8
Layer_0
  10
708.75311
  20
375.94623
  0
VERTEX
  5
c3e
  8
Layer_0
  10
709.3949
  20
376.35028
  0
VERTEX
  5
c3f
  8
Layer_0
  10
710.07336
  20
376.70731
  0
VERTEX
  5
c40
  8
Layer_0
  10
727.04395
  20
376.70731
  0
VERTEX
  5
c41
  8
Layer_0
  10
725.99927
  20
379.69254
  0
VERTEX
  5
c42
  8
Layer_0
  10
734.28455
  20
381.10059
  0
VERTEX
  5
c43
  8
Layer_0
  10
742.56287
  20
382.54422
  0
VERTEX
  5
c44
  8
Layer_0
  10
750.83435
  20
384.02341
  0
VERTEX
  5
c45
  8
Layer_0
  10
759.09912
  20
385.53818
  0
VERTEX
  5
c46
  8
Layer_0
  10
767.35724
  20
387.08853
  0
VERTEX
  5
c47
  8
Layer_0
  10
775.60889
  20
388.67459
  0
VERTEX
  5
c48
  8
Layer_0
  10
783.85425
  20
390.2963
  0
VERTEX
  5
c49
  8
Layer_0
  10
792.09338
  20
391.95367
  0
VERTEX
  5
c4a
  8
Layer_0
  10
797.74207
  20
393.5145
  0
VERTEX
  5
c4b
  8
Layer_0
  10
803.40649
  20
395.01492
  0
VERTEX
  5
c4c
  8
Layer_0
  10
809.08655
  20
396.45493
  0
VERTEX
  5
c4d
  8
Layer_0
  10
814.78223
  20
397.83447
  0
VERTEX
  5
c4e
  8
Layer_0
  10
819.87207
  20
399.05713
  0
VERTEX
  5
c4f
  8
Layer_0
  10
824.95306
  20
400.31451
  0
VERTEX
  5
c50
  8
Layer_0
  10
830.0249
  20
401.60666
  0
VERTEX
  5
c51
  8
Layer_0
  10
835.08752
  20
402.93344
  0
VERTEX
  5
c52
  8
Layer_0
  10
840.14063
  20
404.29483
  0
VERTEX
  5
c53
  8
Layer_0
  10
845.18408
  20
405.69083
  0
VERTEX
  5
c54
  8
Layer_0
  10
850.21771
  20
407.12131
  0
VERTEX
  5
c55
  8
Layer_0
  10
855.24133
  20
408.58624
  0
VERTEX
  5
c56
  8
Layer_0
  10
860.25482
  20
410.0856
  0
VERTEX
  5
c57
  8
Layer_0
  10
865.25793
  20
411.61929
  0
VERTEX
  5
c58
  8
Layer_0
  10
870.25061
  20
413.18729
  0
VERTEX
  5
c59
  8
Layer_0
  10
875.23254
  20
414.78955
  0
VERTEX
  5
c5a
  8
Layer_0
  10
880.20367
  20
416.42603
  0
VERTEX
  5
c5b
  8
Layer_0
  10
885.16376
  20
418.09665
  0
VERTEX
  5
c5c
  8
Layer_0
  10
890.11261
  20
419.80139
  0
VERTEX
  5
c5d
  8
Layer_0
  10
895.05005
  20
421.54016
  0
VERTEX
  5
c5e
  8
Layer_0
  10
894.27161
  20
422.05121
  0
VERTEX
  5
c5f
  8
Layer_0
  10
893.50873
  20
422.58292
  0
VERTEX
  5
c60
  8
Layer_0
  10
892.76166
  20
423.13489
  0
VERTEX
  5
c61
  8
Layer_0
  10
892.03082
  20
423.70679
  0
VERTEX
  5
c62
  8
Layer_0
  10
891.31659
  20
424.29816
  0
VERTEX
  5
c63
  8
Layer_0
  10
890.61938
  20
424.90869
  0
VERTEX
  5
c64
  8
Layer_0
  10
889.93945
  20
425.53799
  0
VERTEX
  5
c65
  8
Layer_0
  10
889.27734
  20
426.1857
  0
VERTEX
  5
c66
  8
Layer_0
  10
888.6333
  20
426.85138
  0
VERTEX
  5
c67
  8
Layer_0
  10
888.00769
  20
427.53476
  0
VERTEX
  5
c68
  8
Layer_0
  10
887.401
  20
428.23535
  0
VERTEX
  5
c69
  8
Layer_0
  10
886.8136
  20
428.95285
  0
VERTEX
  5
c6a
  8
Layer_0
  10
886.24579
  20
429.68683
  0
VERTEX
  5
c6b
  8
Layer_0
  10
885.69794
  20
430.43698
  0
VERTEX
  5
c6c
  8
Layer_0
  10
885.17041
  20
431.20288
  0
VERTEX
  5
c6d
  8
Layer_0
  10
884.6637
  20
431.98413
  0
VERTEX
  5
c6e
  8
Layer_0
  10
884.26178
  20
432.44058
  0
VERTEX
  5
c6f
  8
Layer_0
  10
883.88599
  20
432.91498
  0
VERTEX
  5
c70
  8
Layer_0
  10
883.53656
  20
433.40625
  0
VERTEX
  5
c71
  8
Layer_0
  10
883.21405
  20
433.91324
  0
VERTEX
  5
c72
  8
Layer_0
  10
882.9187
  20
434.43481
  0
VERTEX
  5
c73
  8
Layer_0
  10
882.65106
  20
434.96979
  0
VERTEX
  5
c74
  8
Layer_0
  10
882.41138
  20
435.51712
  0
VERTEX
  5
c75
  8
Layer_0
  10
882.2002
  20
436.07562
  0
VERTEX
  5
c76
  8
Layer_0
  10
882.01782
  20
436.6442
  0
VERTEX
  5
c77
  8
Layer_0
  10
881.86456
  20
437.22174
  0
VERTEX
  5
c78
  8
Layer_0
  10
881.74097
  20
437.80707
  0
VERTEX
  5
c79
  8
Layer_0
  10
881.64734
  20
438.39905
  0
VERTEX
  5
c7a
  8
Layer_0
  10
881.58411
  20
438.99658
  0
VERTEX
  5
c7b
  8
Layer_0
  10
881.5517
  20
439.59857
  0
VERTEX
  5
c7c
  8
Layer_0
  10
881.55042
  20
440.20383
  0
VERTEX
  5
c7d
  8
Layer_0
  10
881.58075
  20
440.81122
  0
VERTEX
  5
c7e
  8
Layer_0
  10
880.89966
  20
440.78387
  0
VERTEX
  5
c7f
  8
Layer_0
  10
880.22827
  20
440.84052
  0
VERTEX
  5
c80
  8
Layer_0
  10
879.57361
  20
440.97815
  0
VERTEX
  5
c81
  8
Layer_0
  10
878.94281
  20
441.19397
  0
VERTEX
  5
c82
  8
Layer_0
  10
878.34296
  20
441.48492
  0
VERTEX
  5
c83
  8
Layer_0
  10
877.78119
  20
441.84814
  0
VERTEX
  5
c84
  8
Layer_0
  10
877.26453
  20
442.2807
  0
VERTEX
  5
c85
  8
Layer_0
  10
876.80017
  20
442.77969
  0
VERTEX
  5
c86
  8
Layer_0
  10
872.7226
  20
442.77969
  0
VERTEX
  5
c87
  8
Layer_0
  10
872.20837
  20
442.97794
  0
VERTEX
  5
c88
  8
Layer_0
  10
871.71051
  20
443.20966
  0
VERTEX
  5
c89
  8
Layer_0
  10
871.23047
  20
443.47385
  0
VERTEX
  5
c8a
  8
Layer_0
  10
870.76978
  20
443.76941
  0
VERTEX
  5
c8b
  8
Layer_0
  10
870.33008
  20
444.09531
  0
VERTEX
  5
c8c
  8
Layer_0
  10
869.91278
  20
444.45044
  0
VERTEX
  5
c8d
  8
Layer_0
  10
869.51953
  20
444.83374
  0
VERTEX
  5
c8e
  8
Layer_0
  10
869.15179
  20
445.24417
  0
VERTEX
  5
c8f
  8
Layer_0
  10
868.64111
  20
445.18658
  0
VERTEX
  5
c90
  8
Layer_0
  10
868.13531
  20
445.10181
  0
VERTEX
  5
c91
  8
Layer_0
  10
867.6355
  20
444.99017
  0
VERTEX
  5
c92
  8
Layer_0
  10
867.14276
  20
444.85205
  0
VERTEX
  5
c93
  8
Layer_0
  10
866.65808
  20
444.68771
  0
VERTEX
  5
c94
  8
Layer_0
  10
866.18262
  20
444.49756
  0
VERTEX
  5
c95
  8
Layer_0
  10
865.71735
  20
444.28186
  0
VERTEX
  5
c96
  8
Layer_0
  10
865.26331
  20
444.04095
  0
VERTEX
  5
c97
  8
Layer_0
  10
864.91235
  20
444.4458
  0
VERTEX
  5
c98
  8
Layer_0
  10
864.62207
  20
444.88773
  0
VERTEX
  5
c99
  8
Layer_0
  10
864.39429
  20
445.36011
  0
VERTEX
  5
c9a
  8
Layer_0
  10
864.23059
  20
445.8562
  0
VERTEX
  5
c9b
  8
Layer_0
  10
864.13287
  20
446.36935
  0
VERTEX
  5
c9c
  8
Layer_0
  10
864.10278
  20
446.89294
  0
VERTEX
  5
c9d
  8
Layer_0
  10
864.14197
  20
447.42023
  0
VERTEX
  5
c9e
  8
Layer_0
  10
864.25232
  20
447.94455
  0
VERTEX
  5
c9f
  8
Layer_0
  10
864.43158
  20
448.44949
  0
VERTEX
  5
ca0
  8
Layer_0
  10
864.67297
  20
448.91986
  0
VERTEX
  5
ca1
  8
Layer_0
  10
864.97168
  20
449.35092
  0
VERTEX
  5
ca2
  8
Layer_0
  10
865.32263
  20
449.73785
  0
VERTEX
  5
ca3
  8
Layer_0
  10
865.72095
  20
450.07587
  0
VERTEX
  5
ca4
  8
Layer_0
  10
866.16168
  20
450.36017
  0
VERTEX
  5
ca5
  8
Layer_0
  10
866.63977
  20
450.58591
  0
VERTEX
  5
ca6
  8
Layer_0
  10
867.15033
  20
450.74838
  0
VERTEX
  5
ca7
  8
Layer_0
  10
866.98157
  20
451.37506
  0
VERTEX
  5
ca8
  8
Layer_0
  10
866.75598
  20
451.97113
  0
VERTEX
  5
ca9
  8
Layer_0
  10
866.47717
  20
452.53412
  0
VERTEX
  5
caa
  8
Layer_0
  10
866.14868
  20
453.06165
  0
VERTEX
  5
cab
  8
Layer_0
  10
865.77405
  20
453.55133
  0
VERTEX
  5
cac
  8
Layer_0
  10
865.35706
  20
454.00073
  0
VERTEX
  5
cad
  8
Layer_0
  10
864.90118
  20
454.40747
  0
VERTEX
  5
cae
  8
Layer_0
  10
864.4101
  20
454.76917
  0
VERTEX
  5
caf
  8
Layer_0
  10
863.88733
  20
455.08337
  0
VERTEX
  5
cb0
  8
Layer_0
  10
863.33655
  20
455.34772
  0
VERTEX
  5
cb1
  8
Layer_0
  10
862.76135
  20
455.55981
  0
VERTEX
  5
cb2
  8
Layer_0
  10
862.16528
  20
455.71722
  0
VERTEX
  5
cb3
  8
Layer_0
  10
861.552
  20
455.81757
  0
VERTEX
  5
cb4
  8
Layer_0
  10
860.92505
  20
455.85846
  0
VERTEX
  5
cb5
  8
Layer_0
  10
860.28809
  20
455.83746
  0
VERTEX
  5
cb6
  8
Layer_0
  10
859.64465
  20
455.75217
  0
VERTEX
  5
cb7
  8
Layer_0
  10
859.4231
  20
456.2146
  0
VERTEX
  5
cb8
  8
Layer_0
  10
859.13922
  20
456.63092
  0
VERTEX
  5
cb9
  8
Layer_0
  10
858.79987
  20
456.9964
  0
VERTEX
  5
cba
  8
Layer_0
  10
858.41211
  20
457.30618
  0
VERTEX
  5
cbb
  8
Layer_0
  10
857.98291
  20
457.55551
  0
VERTEX
  5
cbc
  8
Layer_0
  10
857.51941
  20
457.73953
  0
VERTEX
  5
cbd
  8
Layer_0
  10
857.02844
  20
457.85345
  0
VERTEX
  5
cbe
  8
Layer_0
  10
856.51721
  20
457.89252
  0
VERTEX
  5
cbf
  8
Layer_0
  10
856.00598
  20
457.85345
  0
VERTEX
  5
cc0
  8
Layer_0
  10
855.51514
  20
457.73953
  0
VERTEX
  5
cc1
  8
Layer_0
  10
855.05157
  20
457.55551
  0
VERTEX
  5
cc2
  8
Layer_0
  10
854.62244
  20
457.30621
  0
VERTEX
  5
cc3
  8
Layer_0
  10
854.23462
  20
456.99643
  0
VERTEX
  5
cc4
  8
Layer_0
  10
853.89526
  20
456.63095
  0
VERTEX
  5
cc5
  8
Layer_0
  10
853.61133
  20
456.2146
  0
VERTEX
  5
cc6
  8
Layer_0
  10
853.38989
  20
455.7522
  0
VERTEX
  5
cc7
  8
Layer_0
  10
852.90271
  20
456.16302
  0
VERTEX
  5
cc8
  8
Layer_0
  10
852.37122
  20
456.49756
  0
VERTEX
  5
cc9
  8
Layer_0
  10
851.80383
  20
456.75381
  0
VERTEX
  5
cca
  8
Layer_0
  10
851.20947
  20
456.92987
  0
VERTEX
  5
ccb
  8
Layer_0
  10
850.59668
  20
457.0238
  0
VERTEX
  5
ccc
  8
Layer_0
  10
849.97418
  20
457.03363
  0
VERTEX
  5
ccd
  8
Layer_0
  10
849.35077
  20
456.9574
  0
VERTEX
  5
cce
  8
Layer_0
  10
848.73505
  20
456.79321
  0
VERTEX
  5
ccf
  8
Layer_0
  10
848.14813
  20
456.54501
  0
VERTEX
  5
cd0
  8
Layer_0
  10
847.60913
  20
456.22256
  0
VERTEX
  5
cd1
  8
Layer_0
  10
847.12372
  20
455.83282
  0
VERTEX
  5
cd2
  8
Layer_0
  10
846.69757
  20
455.38257
  0
VERTEX
  5
cd3
  8
Layer_0
  10
846.3363
  20
454.87875
  0
VERTEX
  5
cd4
  8
Layer_0
  10
846.04565
  20
454.32822
  0
VERTEX
  5
cd5
  8
Layer_0
  10
845.8313
  20
453.73785
  0
VERTEX
  5
cd6
  8
Layer_0
  10
845.69885
  20
453.11456
  0
VERTEX
  5
cd7
  8
Layer_0
  10
844.79187
  20
451.63
  0
VERTEX
  5
cd8
  8
Layer_0
  10
843.91779
  20
450.12659
  0
VERTEX
  5
cd9
  8
Layer_0
  10
843.0769
  20
448.60486
  0
VERTEX
  5
cda
  8
Layer_0
  10
842.26941
  20
447.06537
  0
VERTEX
  5
cdb
  8
Layer_0
  10
841.49561
  20
445.50867
  0
VERTEX
  5
cdc
  8
Layer_0
  10
840.75574
  20
443.9353
  0
VERTEX
  5
cdd
  8
Layer_0
  10
840.05023
  20
442.34583
  0
VERTEX
  5
cde
  8
Layer_0
  10
839.37927
  20
440.74075
  0
VERTEX
  5
cdf
  8
Layer_0
  10
839.2688
  20
440.28162
  0
VERTEX
  5
ce0
  8
Layer_0
  10
839.10132
  20
439.84647
  0
VERTEX
  5
ce1
  8
Layer_0
  10
838.88074
  20
439.43997
  0
VERTEX
  5
ce2
  8
Layer_0
  10
838.61072
  20
439.06662
  0
VERTEX
  5
ce3
  8
Layer_0
  10
838.29504
  20
438.73099
  0
VERTEX
  5
ce4
  8
Layer_0
  10
837.93744
  20
438.43762
  0
VERTEX
  5
ce5
  8
Layer_0
  10
837.54175
  20
438.19107
  0
VERTEX
  5
ce6
  8
Layer_0
  10
837.11169
  20
437.99591
  0
VERTEX
  5
ce7
  8
Layer_0
  10
836.65967
  20
437.85892
  0
VERTEX
  5
ce8
  8
Layer_0
  10
836.19971
  20
437.7832
  0
VERTEX
  5
ce9
  8
Layer_0
  10
835.73743
  20
437.76782
  0
VERTEX
  5
cea
  8
Layer_0
  10
835.27875
  20
437.81189
  0
VERTEX
  5
ceb
  8
Layer_0
  10
834.82953
  20
437.91443
  0
VERTEX
  5
cec
  8
Layer_0
  10
834.39557
  20
438.07446
  0
VERTEX
  5
ced
  8
Layer_0
  10
833.98273
  20
438.29108
  0
VERTEX
  5
cee
  8
Layer_0
  10
833.5968
  20
438.56329
  0
VERTEX
  5
cef
  8
Layer_0
  10
832.85278
  20
436.23444
  0
VERTEX
  5
cf0
  8
Layer_0
  10
832.17877
  20
433.88605
  0
VERTEX
  5
cf1
  8
Layer_0
  10
831.57501
  20
431.51978
  0
VERTEX
  5
cf2
  8
Layer_0
  10
831.04187
  20
429.13715
  0
VERTEX
  5
cf3
  8
Layer_0
  10
830.57959
  20
426.73975
  0
VERTEX
  5
cf4
  8
Layer_0
  10
830.18866
  20
424.3291
  0
VERTEX
  5
cf5
  8
Layer_0
  10
829.86926
  20
421.90689
  0
VERTEX
  5
cf6
  8
Layer_0
  10
829.62189
  20
419.47461
  0
VERTEX
  5
cf7
  8
Layer_0
  10
829.10028
  20
418.86783
  0
VERTEX
  5
cf8
  8
Layer_0
  10
828.56018
  20
418.28284
  0
VERTEX
  5
cf9
  8
Layer_0
  10
828.00226
  20
417.71988
  0
VERTEX
  5
cfa
  8
Layer_0
  10
827.42725
  20
417.17911
  0
VERTEX
  5
cfb
  8
Layer_0
  10
826.83575
  20
416.66077
  0
VERTEX
  5
cfc
  8
Layer_0
  10
826.22852
  20
416.1651
  0
VERTEX
  5
cfd
  8
Layer_0
  10
825.60614
  20
415.69238
  0
VERTEX
  5
cfe
  8
Layer_0
  10
824.9693
  20
415.24271
  0
VERTEX
  5
cff
  8
Layer_0
  10
824.31873
  20
414.81641
  0
VERTEX
  5
d00
  8
Layer_0
  10
823.65503
  20
414.41367
  0
VERTEX
  5
d01
  8
Layer_0
  10
822.97894
  20
414.0347
  0
VERTEX
  5
d02
  8
Layer_0
  10
822.29114
  20
413.67972
  0
VERTEX
  5
d03
  8
Layer_0
  10
821.59216
  20
413.349
  0
VERTEX
  5
d04
  8
Layer_0
  10
820.88287
  20
413.04272
  0
VERTEX
  5
d05
  8
Layer_0
  10
820.16382
  20
412.76117
  0
VERTEX
  5
d06
  8
Layer_0
  10
819.43573
  20
412.50452
  0
VERTEX
  5
d07
  8
Layer_0
  10
818.69928
  20
412.27298
  0
VERTEX
  5
d08
  8
Layer_0
  10
817.95508
  20
412.06683
  0
VERTEX
  5
d09
  8
Layer_0
  10
817.20386
  20
411.88623
  0
VERTEX
  5
d0a
  8
Layer_0
  10
816.44635
  20
411.73148
  0
VERTEX
  5
d0b
  8
Layer_0
  10
815.68311
  20
411.60275
  0
VERTEX
  5
d0c
  8
Layer_0
  10
814.91479
  20
411.50024
  0
VERTEX
  5
d0d
  8
Layer_0
  10
814.14221
  20
411.42426
  0
VERTEX
  5
d0e
  8
Layer_0
  10
813.36597
  20
411.37497
  0
VERTEX
  5
d0f
  8
Layer_0
  10
812.58673
  20
411.3526
  0
VERTEX
  5
d10
  8
Layer_0
  10
811.80511
  20
411.35739
  0
VERTEX
  5
d11
  8
Layer_0
  10
811.02191
  20
411.38956
  0
VERTEX
  5
d12
  8
Layer_0
  10
810.23773
  20
411.44934
  0
VERTEX
  5
d13
  8
Layer_0
  10
809.45325
  20
411.53696
  0
VERTEX
  5
d14
  8
Layer_0
  10
808.66919
  20
411.65262
  0
VERTEX
  5
d15
  8
Layer_0
  10
807.88611
  20
411.79657
  0
VERTEX
  5
d16
  8
Layer_0
  10
807.10474
  20
411.96896
  0
VERTEX
  5
d17
  8
Layer_0
  10
805.90601
  20
412.30624
  0
VERTEX
  5
d18
  8
Layer_0
  10
804.75049
  20
412.73172
  0
VERTEX
  5
d19
  8
Layer_0
  10
803.64172
  20
413.24136
  0
VERTEX
  5
d1a
  8
Layer_0
  10
802.58331
  20
413.83105
  0
VERTEX
  5
d1b
  8
Layer_0
  10
801.57886
  20
414.49673
  0
VERTEX
  5
d1c
  8
Layer_0
  10
800.6319
  20
415.23431
  0
VERTEX
  5
d1d
  8
Layer_0
  10
799.74597
  20
416.03973
  0
VERTEX
  5
d1e
  8
Layer_0
  10
798.92468
  20
416.909
  0
VERTEX
  5
d1f
  8
Layer_0
  10
798.17163
  20
417.83795
  0
VERTEX
  5
d20
  8
Layer_0
  10
797.49023
  20
418.82245
  0
VERTEX
  5
d21
  8
Layer_0
  10
796.88422
  20
419.85858
  0
VERTEX
  5
d22
  8
Layer_0
  10
796.35706
  20
420.9422
  0
VERTEX
  5
d23
  8
Layer_0
  10
795.91235
  20
422.06918
  0
VERTEX
  5
d24
  8
Layer_0
  10
795.55371
  20
423.23553
  0
VERTEX
  5
d25
  8
Layer_0
  10
795.28455
  20
424.43716
  0
VERTEX
  5
d26
  8
Layer_0
  10
795.10864
  20
425.67001
  0
VERTEX
  5
d27
  8
Layer_0
  10
794.3938
  20
426.31845
  0
VERTEX
  5
d28
  8
Layer_0
  10
793.64716
  20
426.92682
  0
VERTEX
  5
d29
  8
Layer_0
  10
792.87048
  20
427.49408
  0
VERTEX
  5
d2a
  8
Layer_0
  10
792.06549
  20
428.01923
  0
VERTEX
  5
d2b
  8
Layer_0
  10
791.23395
  20
428.50116
  0
VERTEX
  5
d2c
  8
Layer_0
  10
790.3775
  20
428.93884
  0
VERTEX
  5
d2d
  8
Layer_0
  10
789.49792
  20
429.33118
  0
VERTEX
  5
d2e
  8
Layer_0
  10
788.59692
  20
429.67715
  0
VERTEX
  5
d2f
  8
Layer_0
  10
787.65967
  20
429.29163
  0
VERTEX
  5
d30
  8
Layer_0
  10
786.71082
  20
428.94318
  0
VERTEX
  5
d31
  8
Layer_0
  10
785.7514
  20
428.6319
  0
VERTEX
  5
d32
  8
Layer_0
  10
784.78265
  20
428.35791
  0
VERTEX
  5
d33
  8
Layer_0
  10
783.80548
  20
428.12128
  0
VERTEX
  5
d34
  8
Layer_0
  10
782.82117
  20
427.92218
  0
VERTEX
  5
d35
  8
Layer_0
  10
781.83057
  20
427.76068
  0
VERTEX
  5
d36
  8
Layer_0
  10
780.83496
  20
427.6369
  0
VERTEX
  5
d37
  8
Layer_0
  10
779.83539
  20
427.55103
  0
VERTEX
  5
d38
  8
Layer_0
  10
778.83295
  20
427.50311
  0
VERTEX
  5
d39
  8
Layer_0
  10
777.82874
  20
427.49326
  0
VERTEX
  5
d3a
  8
Layer_0
  10
776.82373
  20
427.52161
  0
VERTEX
  5
d3b
  8
Layer_0
  10
775.81909
  20
427.58826
  0
VERTEX
  5
d3c
  8
Layer_0
  10
774.81598
  20
427.69333
  0
VERTEX
  5
d3d
  8
Layer_0
  10
773.81543
  20
427.83698
  0
VERTEX
  5
d3e
  8
Layer_0
  10
772.81848
  20
428.01923
  0
VERTEX
  5
d3f
  8
Layer_0
  10
772.45984
  20
428.66827
  0
VERTEX
  5
d40
  8
Layer_0
  10
772.03802
  20
429.27063
  0
VERTEX
  5
d41
  8
Layer_0
  10
771.55774
  20
429.82227
  0
VERTEX
  5
d42
  8
Layer_0
  10
771.02374
  20
430.31927
  0
VERTEX
  5
d43
  8
Layer_0
  10
770.44067
  20
430.75769
  0
VERTEX
  5
d44
  8
Layer_0
  10
769.81323
  20
431.13361
  0
VERTEX
  5
d45
  8
Layer_0
  10
769.14624
  20
431.44308
  0
VERTEX
  5
d46
  8
Layer_0
  10
768.44421
  20
431.68216
  0
VERTEX
  5
d47
  8
Layer_0
  10
767.72083
  20
431.84528
  0
VERTEX
  5
d48
  8
Layer_0
  10
766.99036
  20
431.93011
  0
VERTEX
  5
d49
  8
Layer_0
  10
766.25903
  20
431.93756
  0
VERTEX
  5
d4a
  8
Layer_0
  10
765.53278
  20
431.86859
  0
VERTEX
  5
d4b
  8
Layer_0
  10
764.81775
  20
431.72406
  0
VERTEX
  5
d4c
  8
Layer_0
  10
764.11993
  20
431.50482
  0
VERTEX
  5
d4d
  8
Layer_0
  10
763.44556
  20
431.21182
  0
VERTEX
  5
d4e
  8
Layer_0
  10
762.80048
  20
430.84595
  0
SEQEND
  0
POLYLINE
  5
d50
  8
Layer_0
  62
0
  66
1
  10
0
  20
0
  30
0
  0
VERTEX
  5
d50
  8
Layer_0
  10
877.53064
  20
361.50403
  0
VERTEX
  5
d51
  8
Layer_0
  10
874.08606
  20
363.21106
  0
VERTEX
  5
d52
  8
Layer_0
  10
870.65662
  20
364.94812
  0
VERTEX
  5
d53
  8
Layer_0
  10
867.24255
  20
366.71509
  0
VERTEX
  5
d54
  8
Layer_0
  10
863.84424
  20
368.51184
  0
VERTEX
  5
d55
  8
Layer_0
  10
860.46167
  20
370.33826
  0
VERTEX
  5
d56
  8
Layer_0
  10
857.09521
  20
372.19424
  0
VERTEX
  5
d57
  8
Layer_0
  10
853.74506
  20
374.07965
  0
VERTEX
  5
d58
  8
Layer_0
  10
850.41144
  20
375.99438
  0
VERTEX
  5
d59
  8
Layer_0
  10
846.57025
  20
374.81042
  0
VERTEX
  5
d5a
  8
Layer_0
  10
842.73914
  20
373.5965
  0
VERTEX
  5
d5b
  8
Layer_0
  10
838.91772
  20
372.35242
  0
VERTEX
  5
d5c
  8
Layer_0
  10
835.10559
  20
371.07809
  0
VERTEX
  5
d5d
  8
Layer_0
  10
834.7132
  20
371.7731
  0
VERTEX
  5
d5e
  8
Layer_0
  10
834.28857
  20
372.44727
  0
VERTEX
  5
d5f
  8
Layer_0
  10
833.83252
  20
373.09949
  0
VERTEX
  5
d60
  8
Layer_0
  10
833.34607
  20
373.72876
  0
VERTEX
  5
d61
  8
Layer_0
  10
832.82996
  20
374.33392
  0
VERTEX
  5
d62
  8
Layer_0
  10
832.28503
  20
374.91397
  0
VERTEX
  5
d63
  8
Layer_0
  10
831.71228
  20
375.4678
  0
VERTEX
  5
d64
  8
Layer_0
  10
831.11249
  20
375.99435
  0
VERTEX
  5
d65
  8
Layer_0
  10
829.07837
  20
375.98044
  0
VERTEX
  5
d66
  8
Layer_0
  10
827.05573
  20
375.86856
  0
VERTEX
  5
d67
  8
Layer_0
  10
825.04785
  20
375.65997
  0
VERTEX
  5
d68
  8
Layer_0
  10
823.05804
  20
375.35587
  0
VERTEX
  5
d69
  8
Layer_0
  10
821.08948
  20
374.95752
  0
VERTEX
  5
d6a
  8
Layer_0
  10
819.14545
  20
374.46625
  0
VERTEX
  5
d6b
  8
Layer_0
  10
817.22919
  20
373.88324
  0
VERTEX
  5
d6c
  8
Layer_0
  10
815.34399
  20
373.20975
  0
VERTEX
  5
d6d
  8
Layer_0
  10
813.49304
  20
372.44708
  0
VERTEX
  5
d6e
  8
Layer_0
  10
811.67969
  20
371.59637
  0
VERTEX
  5
d6f
  8
Layer_0
  10
809.9071
  20
370.65894
  0
VERTEX
  5
d70
  8
Layer_0
  10
808.17865
  20
369.63608
  0
VERTEX
  5
d71
  8
Layer_0
  10
806.4975
  20
368.52899
  0
VERTEX
  5
d72
  8
Layer_0
  10
804.86694
  20
367.33896
  0
VERTEX
  5
d73
  8
Layer_0
  10
803.29016
  20
366.0672
  0
VERTEX
  5
d74
  8
Layer_0
  10
801.77051
  20
364.71497
  0
VERTEX
  5
d75
  8
Layer_0
  10
801.01221
  20
363.75049
  0
VERTEX
  5
d76
  8
Layer_0
  10
800.22876
  20
362.8067
  0
VERTEX
  5
d77
  8
Layer_0
  10
799.42047
  20
361.88403
  0
VERTEX
  5
d78
  8
Layer_0
  10
798.58777
  20
360.98297
  0
VERTEX
  5
d79
  8
Layer_0
  10
798.94788
  20
360.46539
  0
VERTEX
  5
d7a
  8
Layer_0
  10
799.33954
  20
359.97821
  0
VERTEX
  5
d7b
  8
Layer_0
  10
799.7608
  20
359.5224
  0
VERTEX
  5
d7c
  8
Layer_0
  10
800.20972
  20
359.09882
  0
VERTEX
  5
d7d
  8
Layer_0
  10
800.68433
  20
358.70847
  0
VERTEX
  5
d7e
  8
Layer_0
  10
801.18274
  20
358.35223
  0
VERTEX
  5
d7f
  8
Layer_0
  10
801.70294
  20
358.03113
  0
VERTEX
  5
d80
  8
Layer_0
  10
802.24304
  20
357.74603
  0
VERTEX
  5
d81
  8
Layer_0
  10
802.80115
  20
357.49792
  0
VERTEX
  5
d82
  8
Layer_0
  10
803.37524
  20
357.28778
  0
VERTEX
  5
d83
  8
Layer_0
  10
803.96338
  20
357.11649
  0
VERTEX
  5
d84
  8
Layer_0
  10
804.56372
  20
356.98502
  0
VERTEX
  5
d85
  8
Layer_0
  10
805.17419
  20
356.89429
  0
VERTEX
  5
d86
  8
Layer_0
  10
805.79291
  20
356.84525
  0
VERTEX
  5
d87
  8
Layer_0
  10
806.41797
  20
356.83881
  0
VERTEX
  5
d88
  8
Layer_0
  10
807.04736
  20
356.87598
  0
VERTEX
  5
d89
  8
Layer_0
  10
808.62506
  20
355.29407
  0
VERTEX
  5
d8a
  8
Layer_0
  10
810.25745
  20
353.772
  0
VERTEX
  5
d8b
  8
Layer_0
  10
811.94299
  20
352.3111
  0
VERTEX
  5
d8c
  8
Layer_0
  10
813.67975
  20
350.91272
  0
VERTEX
  5
d8d
  8
Layer_0
  10
815.46606
  20
349.57825
  0
VERTEX
  5
d8e
  8
Layer_0
  10
817.30017
  20
348.30899
  0
VERTEX
  5
d8f
  8
Layer_0
  10
819.18036
  20
347.10632
  0
VERTEX
  5
d90
  8
Layer_0
  10
821.10486
  20
345.97159
  0
VERTEX
  5
d91
  8
Layer_0
  10
821.71722
  20
345.15515
  0
VERTEX
  5
d92
  8
Layer_0
  10
822.35486
  20
344.36087
  0
VERTEX
  5
d93
  8
Layer_0
  10
823.01721
  20
343.58923
  0
VERTEX
  5
d94
  8
Layer_0
  10
823.70361
  20
342.84076
  0
VERTEX
  5
d95
  8
Layer_0
  10
824.41345
  20
342.11603
  0
VERTEX
  5
d96
  8
Layer_0
  10
825.14612
  20
341.41547
  0
VERTEX
  5
d97
  8
Layer_0
  10
825.90088
  20
340.73969
  0
VERTEX
  5
d98
  8
Layer_0
  10
826.67719
  20
340.08911
  0
VERTEX
  5
d99
  8
Layer_0
  10
827.47437
  20
339.46429
  0
VERTEX
  5
d9a
  8
Layer_0
  10
828.29181
  20
338.86578
  0
VERTEX
  5
d9b
  8
Layer_0
  10
829.12885
  20
338.29407
  0
VERTEX
  5
d9c
  8
Layer_0
  10
829.98486
  20
337.74963
  0
VERTEX
  5
d9d
  8
Layer_0
  10
830.85925
  20
337.23303
  0
VERTEX
  5
d9e
  8
Layer_0
  10
831.75122
  20
336.74481
  0
VERTEX
  5
d9f
  8
Layer_0
  10
832.66034
  20
336.28546
  0
VERTEX
  5
da0
  8
Layer_0
  10
833.58582
  20
335.85544
  0
VERTEX
  5
da1
  8
Layer_0
  10
833.58972
  20
335.36438
  0
VERTEX
  5
da2
  8
Layer_0
  10
833.6261
  20
334.87857
  0
VERTEX
  5
da3
  8
Layer_0
  10
833.69434
  20
334.39944
  0
VERTEX
  5
da4
  8
Layer_0
  10
833.79352
  20
333.92838
  0
VERTEX
  5
da5
  8
Layer_0
  10
833.92297
  20
333.46674
  0
VERTEX
  5
da6
  8
Layer_0
  10
834.08197
  20
333.01593
  0
VERTEX
  5
da7
  8
Layer_0
  10
834.26965
  20
332.57733
  0
VERTEX
  5
da8
  8
Layer_0
  10
834.48535
  20
332.15231
  0
VERTEX
  5
da9
  8
Layer_0
  10
834.72827
  20
331.74225
  0
VERTEX
  5
daa
  8
Layer_0
  10
834.99768
  20
331.34848
  0
VERTEX
  5
dab
  8
Layer_0
  10
835.29279
  20
330.97244
  0
VERTEX
  5
dac
  8
Layer_0
  10
835.61285
  20
330.61551
  0
VERTEX
  5
dad
  8
Layer_0
  10
835.95709
  20
330.27905
  0
VERTEX
  5
dae
  8
Layer_0
  10
836.32483
  20
329.96442
  0
VERTEX
  5
daf
  8
Layer_0
  10
836.71521
  20
329.67303
  0
VERTEX
  5
db0
  8
Layer_0
  10
837.12744
  20
329.40625
  0
VERTEX
  5
db1
  8
Layer_0
  10
840.31812
  20
327.28067
  0
VERTEX
  5
db2
  8
Layer_0
  10
843.55652
  20
325.22968
  0
VERTEX
  5
db3
  8
Layer_0
  10
846.84143
  20
323.25403
  0
VERTEX
  5
db4
  8
Layer_0
  10
850.17151
  20
321.35443
  0
SEQEND
  0
POLYLINE
  5
db6
  8
Layer_0
  62
0
  66
1
  10
0
  20
0
  30
0
  0
VERTEX
  5
db6
  8
Layer_0
  10
853.20544
  20
302.09326
  0
VERTEX
  5
db7
  8
Layer_0
  10
852.08673
  20
301.69446
  0
VERTEX
  5
db8
  8
Layer_0
  10
850.96014
  20
301.32169
  0
VERTEX
  5
db9
  8
Layer_0
  10
849.82623
  20
300.97507
  0
VERTEX
  5
dba
  8
Layer_0
  10
848.68549
  20
300.6546
  0
VERTEX
  5
dbb
  8
Layer_0
  10
847.53833
  20
300.36047
  0
VERTEX
  5
dbc
  8
Layer_0
  10
846.38513
  20
300.09268
  0
VERTEX
  5
dbd
  8
Layer_0
  10
845.22644
  20
299.85132
  0
VERTEX
  5
dbe
  8
Layer_0
  10
844.06268
  20
299.63651
  0
VERTEX
  5
dbf
  8
Layer_0
  10
842.89435
  20
299.44827
  0
VERTEX
  5
dc0
  8
Layer_0
  10
841.72192
  20
299.28671
  0
VERTEX
  5
dc1
  8
Layer_0
  10
840.54572
  20
299.15192
  0
VERTEX
  5
dc2
  8
Layer_0
  10
839.36633
  20
299.04398
  0
VERTEX
  5
dc3
  8
Layer_0
  10
838.1842
  20
298.96295
  0
VERTEX
  5
dc4
  8
Layer_0
  10
836.99976
  20
298.90891
  0
VERTEX
  5
dc5
  8
Layer_0
  10
835.81342
  20
298.88193
  0
VERTEX
  5
dc6
  8
Layer_0
  10
834.62573
  20
298.88211
  0
VERTEX
  5
dc7
  8
Layer_0
  10
834.62567
  20
291.87775
  0
VERTEX
  5
dc8
  8
Layer_0
  10
834.59094
  20
291.62775
  0
VERTEX
  5
dc9
  8
Layer_0
  10
834.47803
  20
291.40948
  0
VERTEX
  5
dca
  8
Layer_0
  10
834.29993
  20
291.24023
  0
VERTEX
  5
dcb
  8
Layer_0
  10
834.06946
  20
291.13721
  0
VERTEX
  5
dcc
  8
Layer_0
  10
833.81781
  20
291.11768
  0
VERTEX
  5
dcd
  8
Layer_0
  10
833.58044
  20
291.1813
  0
VERTEX
  5
dce
  8
Layer_0
  10
833.37708
  20
291.31915
  0
VERTEX
  5
dcf
  8
Layer_0
  10
833.22717
  20
291.52225
  0
VERTEX
  5
dd0
  8
Layer_0
  10
832.1228
  20
294.38208
  0
VERTEX
  5
dd1
  8
Layer_0
  10
812.08716
  20
290.36179
  0
VERTEX
  5
dd2
  8
Layer_0
  10
792.06409
  20
286.28046
  0
VERTEX
  5
dd3
  8
Layer_0
  10
790.96436
  20
289.10095
  0
VERTEX
  5
dd4
  8
Layer_0
  10
788.76318
  20
290.7518
  0
VERTEX
  5
dd5
  8
Layer_0
  10
787.65417
  20
294.76904
  0
VERTEX
  5
dd6
  8
Layer_0
  10
786.58844
  20
298.79797
  0
VERTEX
  5
dd7
  8
Layer_0
  10
785.56622
  20
302.8382
  0
VERTEX
  5
dd8
  8
Layer_0
  10
784.58765
  20
306.88919
  0
VERTEX
  5
dd9
  8
Layer_0
  10
785.05133
  20
308.52643
  0
VERTEX
  5
dda
  8
Layer_0
  10
785.44781
  20
310.18048
  0
VERTEX
  5
ddb
  8
Layer_0
  10
785.77673
  20
311.8493
  0
VERTEX
  5
ddc
  8
Layer_0
  10
786.0376
  20
313.53085
  0
VERTEX
  5
ddd
  8
Layer_0
  10
784.59064
  20
316.06689
  0
VERTEX
  5
dde
  8
Layer_0
  10
783.17578
  20
318.62012
  0
VERTEX
  5
ddf
  8
Layer_0
  10
781.79321
  20
321.19019
  0
VERTEX
  5
de0
  8
Layer_0
  10
780.44312
  20
323.77682
  0
VERTEX
  5
de1
  8
Layer_0
  10
779.12555
  20
326.37973
  0
VERTEX
  5
de2
  8
Layer_0
  10
777.8407
  20
328.99854
  0
VERTEX
  5
de3
  8
Layer_0
  10
776.58875
  20
331.63297
  0
VERTEX
  5
de4
  8
Layer_0
  10
775.36987
  20
334.28268
  0
VERTEX
  5
de5
  8
Layer_0
  10
774.18408
  20
336.94739
  0
VERTEX
  5
de6
  8
Layer_0
  10
773.03149
  20
339.62683
  0
VERTEX
  5
de7
  8
Layer_0
  10
771.91241
  20
342.32065
  0
VERTEX
  5
de8
  8
Layer_0
  10
770.8269
  20
345.0285
  0
VERTEX
  5
de9
  8
Layer_0
  10
769.77509
  20
347.75012
  0
VERTEX
  5
dea
  8
Layer_0
  10
768.75708
  20
350.4852
  0
VERTEX
  5
deb
  8
Layer_0
  10
767.77313
  20
353.2334
  0
VERTEX
  5
dec
  8
Layer_0
  10
766.82324
  20
355.99445
  0
SEQEND
  0
POLYLINE
  5
dee
  8
Layer_0
  62
0
  66
1
  10
0
  20
0
  30
0
  0
VERTEX
  5
dee
  8
Layer_0
  10
761.73584
  20
268.92773
  0
VERTEX
  5
def
  8
Layer_0
  10
761.7157
  20
269.9613
  0
VERTEX
  5
df0
  8
Layer_0
  10
761.64844
  20
270.98914
  0
VERTEX
  5
df1
  8
Layer_0
  10
761.53467
  20
272.00964
  0
VERTEX
  5
df2
  8
Layer_0
  10
761.37494
  20
273.02118
  0
VERTEX
  5
df3
  8
Layer_0
  10
761.1698
  20
274.02246
  0
VERTEX
  5
df4
  8
Layer_0
  10
760.91974
  20
275.01184
  0
VERTEX
  5
df5
  8
Layer_0
  10
760.62537
  20
275.98804
  0
VERTEX
  5
df6
  8
Layer_0
  10
760.28729
  20
276.94928
  0
VERTEX
  5
df7
  8
Layer_0
  10
759.90601
  20
277.89441
  0
VERTEX
  5
df8
  8
Layer_0
  10
759.48218
  20
278.82166
  0
VERTEX
  5
df9
  8
Layer_0
  10
759.01624
  20
279.72961
  0
VERTEX
  5
dfa
  8
Layer_0
  10
758.50885
  20
280.61682
  0
VERTEX
  5
dfb
  8
Layer_0
  10
757.96051
  20
281.48175
  0
VERTEX
  5
dfc
  8
Layer_0
  10
757.37183
  20
282.32294
  0
VERTEX
  5
dfd
  8
Layer_0
  10
756.74335
  20
283.13892
  0
VERTEX
  5
dfe
  8
Layer_0
  10
756.07562
  20
283.92816
  0
VERTEX
  5
dff
  8
Layer_0
  10
758.16345
  20
284.10461
  0
VERTEX
  5
e00
  8
Layer_0
  10
760.24707
  20
284.31494
  0
VERTEX
  5
e01
  8
Layer_0
  10
762.32629
  20
284.55884
  0
VERTEX
  5
e02
  8
Layer_0
  10
764.40057
  20
284.8363
  0
VERTEX
  5
e03
  8
Layer_0
  10
766.46954
  20
285.14728
  0
VERTEX
  5
e04
  8
Layer_0
  10
768.53284
  20
285.49158
  0
VERTEX
  5
e05
  8
Layer_0
  10
770.59003
  20
285.86914
  0
VERTEX
  5
e06
  8
Layer_0
  10
772.64069
  20
286.27991
  0
VERTEX
  5
e07
  8
Layer_0
  10
774.68445
  20
286.72382
  0
VERTEX
  5
e08
  8
Layer_0
  10
776.72089
  20
287.20081
  0
VERTEX
  5
e09
  8
Layer_0
  10
778.74957
  20
287.71075
  0
VERTEX
  5
e0a
  8
Layer_0
  10
780.77014
  20
288.25354
  0
VERTEX
  5
e0b
  8
Layer_0
  10
782.78223
  20
288.8291
  0
VERTEX
  5
e0c
  8
Layer_0
  10
784.78534
  20
289.43741
  0
VERTEX
  5
e0d
  8
Layer_0
  10
786.77917
  20
290.07834
  0
VERTEX
  5
e0e
  8
Layer_0
  10
788.76318
  20
290.7518
  0
SEQEND
  0
POLYLINE
  5
e10
  8
Layer_0
  62
0
  66
1
  10
0
  20
0
  30
0
  0
VERTEX
  5
e10
  8
Layer_0
  10
807.10474
  20
411.96893
  0
VERTEX
  5
e11
  8
Layer_0
  10
806.13531
  20
410.61304
  0
VERTEX
  5
e12
  8
Layer_0
  10
805.12885
  20
409.28564
  0
VERTEX
  5
e13
  8
Layer_0
  10
804.08594
  20
407.98752
  0
VERTEX
  5
e14
  8
Layer_0
  10
803.00732
  20
406.71933
  0
VERTEX
  5
e15
  8
Layer_0
  10
801.89355
  20
405.48187
  0
VERTEX
  5
e16
  8
Layer_0
  10
800.74536
  20
404.27594
  0
VERTEX
  5
e17
  8
Layer_0
  10
799.56335
  20
403.10217
  0
VERTEX
  5
e18
  8
Layer_0
  10
798.34814
  20
401.9613
  0
VERTEX
  5
e19
  8
Layer_0
  10
797.70874
  20
400.62601
  0
VERTEX
  5
e1a
  8
Layer_0
  10
797.02753
  20
399.31287
  0
VERTEX
  5
e1b
  8
Layer_0
  10
796.30493
  20
398.02289
  0
VERTEX
  5
e1c
  8
Layer_0
  10
795.54163
  20
396.75699
  0
VERTEX
  5
e1d
  8
Layer_0
  10
794.73822
  20
395.51617
  0
VERTEX
  5
e1e
  8
Layer_0
  10
793.89532
  20
394.30139
  0
VERTEX
  5
e1f
  8
Layer_0
  10
793.01349
  20
393.11356
  0
VERTEX
  5
e20
  8
Layer_0
  10
792.09338
  20
391.95374
  0
SEQEND
  0
POLYLINE
  5
e22
  8
Layer_0
  62
0
  66
1
  10
0
  20
0
  30
0
  0
VERTEX
  5
e22
  8
Layer_0
  10
712.03253
  20
385.46225
  0
VERTEX
  5
e23
  8
Layer_0
  10
710.07336
  20
376.70731
  0
SEQEND
  0
POLYLINE
  5
e25
  8
Layer_0
  62
0
  66
1
  10
0
  20
0
  30
0
  0
VERTEX
  5
e25
  8
Layer_0
  10
751.96704
  20
263.77673
  0
VERTEX
  5
e26
  8
Layer_0
  10
741.30432
  20
295.2869
  0
VERTEX
  5
e27
  8
Layer_0
  10
735.28625
  20
351.66669
  0
SEQEND
  0
POLYLINE
  5
e29
  8
Layer_0
  62
0
  66
1
  10
0
  20
0
  30
0
  0
VERTEX
  5
e29
  8
Layer_0
  10
653.86005
  20
307.53113
  0
VERTEX
  5
e2a
  8
Layer_0
  10
656.26917
  20
307.52301
  0
VERTEX
  5
e2b
  8
Layer_0
  10
658.67712
  20
307.55258
  0
VERTEX
  5
e2c
  8
Layer_0
  10
661.08337
  20
307.61975
  0
VERTEX
  5
e2d
  8
Layer_0
  10
663.48767
  20
307.72446
  0
VERTEX
  5
e2e
  8
Layer_0
  10
665.8894
  20
307.8667
  0
VERTEX
  5
e2f
  8
Layer_0
  10
668.28821
  20
308.04639
  0
VERTEX
  5
e30
  8
Layer_0
  10
670.68359
  20
308.26352
  0
VERTEX
  5
e31
  8
Layer_0
  10
673.07513
  20
308.51801
  0
VERTEX
  5
e32
  8
Layer_0
  10
675.4624
  20
308.80981
  0
VERTEX
  5
e33
  8
Layer_0
  10
677.84497
  20
309.13885
  0
VERTEX
  5
e34
  8
Layer_0
  10
680.22241
  20
309.50513
  0
VERTEX
  5
e35
  8
Layer_0
  10
682.59436
  20
309.90857
  0
VERTEX
  5
e36
  8
Layer_0
  10
684.96021
  20
310.34912
  0
VERTEX
  5
e37
  8
Layer_0
  10
687.31958
  20
310.82672
  0
VERTEX
  5
e38
  8
Layer_0
  10
689.67212
  20
311.34134
  0
VERTEX
  5
e39
  8
Layer_0
  10
692.01733
  20
311.89291
  0
SEQEND
  0
POLYLINE
  5
e3b
  8
Layer_0
  62
0
  66
1
  10
0
  20
0
  30
0
  0
VERTEX
  5
e3b
  8
Layer_0
  10
699.52295
  20
349.42142
  0
VERTEX
  5
e3c
  8
Layer_0
  10
702.77063
  20
349.44055
  0
VERTEX
  5
e3d
  8
Layer_0
  10
706.01709
  20
349.48962
  0
VERTEX
  5
e3e
  8
Layer_0
  10
709.26184
  20
349.56854
  0
VERTEX
  5
e3f
  8
Layer_0
  10
712.50494
  20
349.67728
  0
VERTEX
  5
e40
  8
Layer_0
  10
715.74603
  20
349.81583
  0
VERTEX
  5
e41
  8
Layer_0
  10
718.98499
  20
349.98419
  0
VERTEX
  5
e42
  8
Layer_0
  10
722.22156
  20
350.18231
  0
VERTEX
  5
e43
  8
Layer_0
  10
725.45551
  20
350.41016
  0
VERTEX
  5
e44
  8
Layer_0
  10
728.68671
  20
350.66766
  0
VERTEX
  5
e45
  8
Layer_0
  10
731.91498
  20
350.95483
  0
VERTEX
  5
e46
  8
Layer_0
  10
735.14001
  20
351.27167
  0
VERTEX
  5
e47
  8
Layer_0
  10
738.36169
  20
351.61804
  0
VERTEX
  5
e48
  8
Layer_0
  10
741.57977
  20
351.99402
  0
VERTEX
  5
e49
  8
Layer_0
  10
744.79407
  20
352.39954
  0
VERTEX
  5
e4a
  8
Layer_0
  10
748.00433
  20
352.83456
  0
VERTEX
  5
e4b
  8
Layer_0
  10
751.21045
  20
353.29907
  0
VERTEX
  5
e4c
  8
Layer_0
  10
754.41211
  20
353.79303
  0
VERTEX
  5
e4d
  8
Layer_0
  10
757.60919
  20
354.31635
  0
VERTEX
  5
e4e
  8
Layer_0
  10
760.80151
  20
354.86908
  0
VERTEX
  5
e4f
  8
Layer_0
  10
763.98871
  20
355.4512
  0
VERTEX
  5
e50
  8
Layer_0
  10
767.17078
  20
356.06262
  0
VERTEX
  5
e51
  8
Layer_0
  10
770.34735
  20
356.70337
  0
VERTEX
  5
e52
  8
Layer_0
  10
773.51837
  20
357.37335
  0
VERTEX
  5
e53
  8
Layer_0
  10
776.68353
  20
358.07254
  0
VERTEX
  5
e54
  8
Layer_0
  10
779.84265
  20
358.80096
  0
VERTEX
  5
e55
  8
Layer_0
  10
782.99554
  20
359.55853
  0
VERTEX
  5
e56
  8
Layer_0
  10
786.14197
  20
360.34528
  0
VERTEX
  5
e57
  8
Layer_0
  10
789.2818
  20
361.16113
  0
VERTEX
  5
e58
  8
Layer_0
  10
792.41473
  20
362.00604
  0
VERTEX
  5
e59
  8
Layer_0
  10
795.54065
  20
362.88
  0
VERTEX
  5
e5a
  8
Layer_0
  10
798.6593
  20
363.78302
  0
VERTEX
  5
e5b
  8
Layer_0
  10
801.77051
  20
364.715
  0
SEQEND
  0
POLYLINE
  5
e5d
  8
Layer_0
  62
0
  66
1
  10
0
  20
0
  30
0
  0
VERTEX
  5
e5d
  8
Layer_0
  10
786.0376
  20
360.3187
  0
VERTEX
  5
e5e
  8
Layer_0
  10
785.70386
  20
361.27014
  0
VERTEX
  5
e5f
  8
Layer_0
  10
785.46735
  20
362.23254
  0
VERTEX
  5
e60
  8
Layer_0
  10
785.32581
  20
363.19983
  0
VERTEX
  5
e61
  8
Layer_0
  10
785.27698
  20
364.16608
  0
VERTEX
  5
e62
  8
Layer_0
  10
785.31848
  20
365.12524
  0
VERTEX
  5
e63
  8
Layer_0
  10
785.44806
  20
366.07132
  0
VERTEX
  5
e64
  8
Layer_0
  10
785.66339
  20
366.99832
  0
VERTEX
  5
e65
  8
Layer_0
  10
785.96222
  20
367.90027
  0
VERTEX
  5
e66
  8
Layer_0
  10
786.34222
  20
368.77112
  0
VERTEX
  5
e67
  8
Layer_0
  10
786.80115
  20
369.60489
  0
VERTEX
  5
e68
  8
Layer_0
  10
787.33655
  20
370.39557
  0
VERTEX
  5
e69
  8
Layer_0
  10
787.94629
  20
371.13715
  0
VERTEX
  5
e6a
  8
Layer_0
  10
788.62799
  20
371.82361
  0
VERTEX
  5
e6b
  8
Layer_0
  10
789.37939
  20
372.44901
  0
VERTEX
  5
e6c
  8
Layer_0
  10
790.19818
  20
373.00726
  0
VERTEX
  5
e6d
  8
Layer_0
  10
791.08203
  20
373.49246
  0
VERTEX
  5
e6e
  8
Layer_0
  10
792.6441
  20
374.64044
  0
VERTEX
  5
e6f
  8
Layer_0
  10
794.16132
  20
375.84387
  0
VERTEX
  5
e70
  8
Layer_0
  10
795.63226
  20
377.10144
  0
VERTEX
  5
e71
  8
Layer_0
  10
797.05548
  20
378.41177
  0
VERTEX
  5
e72
  8
Layer_0
  10
798.42963
  20
379.77353
  0
VERTEX
  5
e73
  8
Layer_0
  10
799.75317
  20
381.18536
  0
VERTEX
  5
e74
  8
Layer_0
  10
801.02484
  20
382.64587
  0
VERTEX
  5
e75
  8
Layer_0
  10
802.24304
  20
384.15375
  0
VERTEX
  5
e76
  8
Layer_0
  10
802.86694
  20
384.29279
  0
VERTEX
  5
e77
  8
Layer_0
  10
803.48071
  20
384.45575
  0
VERTEX
  5
e78
  8
Layer_0
  10
804.08398
  20
384.64212
  0
VERTEX
  5
e79
  8
Layer_0
  10
804.67609
  20
384.85135
  0
VERTEX
  5
e7a
  8
Layer_0
  10
805.8252
  20
385.33627
  0
VERTEX
  5
e7b
  8
Layer_0
  10
806.92413
  20
385.90625
  0
VERTEX
  5
e7c
  8
Layer_0
  10
807.96912
  20
386.55707
  0
VERTEX
  5
e7d
  8
Layer_0
  10
808.95605
  20
387.28448
  0
VERTEX
  5
e7e
  8
Layer_0
  10
809.88123
  20
388.08423
  0
VERTEX
  5
e7f
  8
Layer_0
  10
810.74066
  20
388.95203
  0
VERTEX
  5
e80
  8
Layer_0
  10
811.53046
  20
389.88361
  0
VERTEX
  5
e81
  8
Layer_0
  10
812.2467
  20
390.87476
  0
VERTEX
  5
e82
  8
Layer_0
  10
812.88562
  20
391.92123
  0
VERTEX
  5
e83
  8
Layer_0
  10
813.44318
  20
393.0188
  0
VERTEX
  5
e84
  8
Layer_0
  10
813.91553
  20
394.16315
  0
VERTEX
  5
e85
  8
Layer_0
  10
814.29871
  20
395.35004
  0
VERTEX
  5
e86
  8
Layer_0
  10
814.45563
  20
395.95813
  0
VERTEX
  5
e87
  8
Layer_0
  10
814.58887
  20
396.57526
  0
VERTEX
  5
e88
  8
Layer_0
  10
814.69788
  20
397.20087
  0
VERTEX
  5
e89
  8
Layer_0
  10
814.78217
  20
397.8345
  0
SEQEND
  0
POLYLINE
  5
e8b
  8
Layer_0
  62
0
  66
1
  10
0
  20
0
  30
0
  0
VERTEX
  5
e8b
  8
Layer_0
  10
750.43323
  20
255.78015
  0
VERTEX
  5
e8c
  8
Layer_0
  10
750.57721
  20
256.12964
  0
VERTEX
  5
e8d
  8
Layer_0
  10
750.67114
  20
256.49402
  0
VERTEX
  5
e8e
  8
Layer_0
  10
750.71411
  20
256.8678
  0
VERTEX
  5
e8f
  8
Layer_0
  10
750.70502
  20
257.24573
  0
SEQEND
  0
POLYLINE
  5
e91
  8
Layer_0
  62
0
  66
1
  10
0
  20
0
  30
0
  0
VERTEX
  5
e91
  8
Layer_0
  10
723.52307
  20
400.2056
  0
VERTEX
  5
e92
  8
Layer_0
  10
724.22205
  20
400.83588
  0
VERTEX
  5
e93
  8
Layer_0
  10
724.96124
  20
401.39948
  0
VERTEX
  5
e94
  8
Layer_0
  10
725.73633
  20
401.89572
  0
VERTEX
  5
e95
  8
Layer_0
  10
726.54272
  20
402.32413
  0
VERTEX
  5
e96
  8
Layer_0
  10
727.3761
  20
402.68408
  0
VERTEX
  5
e97
  8
Layer_0
  10
728.23193
  20
402.97501
  0
VERTEX
  5
e98
  8
Layer_0
  10
729.1059
  20
403.19632
  0
VERTEX
  5
e99
  8
Layer_0
  10
729.99347
  20
403.34747
  0
VERTEX
  5
e9a
  8
Layer_0
  10
730.89026
  20
403.42792
  0
VERTEX
  5
e9b
  8
Layer_0
  10
731.79169
  20
403.43698
  0
VERTEX
  5
e9c
  8
Layer_0
  10
732.69348
  20
403.37415
  0
VERTEX
  5
e9d
  8
Layer_0
  10
733.59113
  20
403.23883
  0
VERTEX
  5
e9e
  8
Layer_0
  10
734.48022
  20
403.03046
  0
VERTEX
  5
e9f
  8
Layer_0
  10
735.3562
  20
402.74847
  0
VERTEX
  5
ea0
  8
Layer_0
  10
736.21484
  20
402.39227
  0
VERTEX
  5
ea1
  8
Layer_0
  10
737.05151
  20
401.9613
  0
VERTEX
  5
ea2
  8
Layer_0
  10
737.75903
  20
402.20593
  0
VERTEX
  5
ea3
  8
Layer_0
  10
738.4502
  20
402.48471
  0
VERTEX
  5
ea4
  8
Layer_0
  10
739.12378
  20
402.79678
  0
VERTEX
  5
ea5
  8
Layer_0
  10
739.77893
  20
403.1412
  0
VERTEX
  5
ea6
  8
Layer_0
  10
740.41443
  20
403.51706
  0
VERTEX
  5
ea7
  8
Layer_0
  10
741.02924
  20
403.92346
  0
VERTEX
  5
ea8
  8
Layer_0
  10
741.62238
  20
404.35947
  0
VERTEX
  5
ea9
  8
Layer_0
  10
742.19269
  20
404.82422
  0
VERTEX
  5
eaa
  8
Layer_0
  10
742.73914
  20
405.31677
  0
VERTEX
  5
eab
  8
Layer_0
  10
743.26074
  20
405.83624
  0
VERTEX
  5
eac
  8
Layer_0
  10
743.75641
  20
406.38165
  0
VERTEX
  5
ead
  8
Layer_0
  10
744.22504
  20
406.95221
  0
VERTEX
  5
eae
  8
Layer_0
  10
744.66553
  20
407.54694
  0
VERTEX
  5
eaf
  8
Layer_0
  10
745.07697
  20
408.16489
  0
VERTEX
  5
eb0
  8
Layer_0
  10
745.45819
  20
408.80521
  0
VERTEX
  5
eb1
  8
Layer_0
  10
745.80817
  20
409.46701
  0
VERTEX
  5
eb2
  8
Layer_0
  10
746.40735
  20
409.21814
  0
VERTEX
  5
eb3
  8
Layer_0
  10
747.01575
  20
408.9953
  0
VERTEX
  5
eb4
  8
Layer_0
  10
747.63257
  20
408.79871
  0
VERTEX
  5
eb5
  8
Layer_0
  10
748.25677
  20
408.62845
  0
VERTEX
  5
eb6
  8
Layer_0
  10
748.8877
  20
408.48486
  0
VERTEX
  5
eb7
  8
Layer_0
  10
749.52448
  20
408.36813
  0
VERTEX
  5
eb8
  8
Layer_0
  10
750.16614
  20
408.27847
  0
VERTEX
  5
eb9
  8
Layer_0
  10
750.81201
  20
408.21606
  0
VERTEX
  5
eba
  8
Layer_0
  10
751.21625
  20
409.56757
  0
VERTEX
  5
ebb
  8
Layer_0
  10
751.68597
  20
410.8949
  0
VERTEX
  5
ebc
  8
Layer_0
  10
752.22009
  20
412.19583
  0
VERTEX
  5
ebd
  8
Layer_0
  10
752.81744
  20
413.46808
  0
VERTEX
  5
ebe
  8
Layer_0
  10
753.47681
  20
414.70929
  0
VERTEX
  5
ebf
  8
Layer_0
  10
754.19714
  20
415.91718
  0
VERTEX
  5
ec0
  8
Layer_0
  10
754.97717
  20
417.08939
  0
VERTEX
  5
ec1
  8
Layer_0
  10
755.8158
  20
418.22366
  0
VERTEX
  5
ec2
  8
Layer_0
  10
755.68665
  20
418.89221
  0
VERTEX
  5
ec3
  8
Layer_0
  10
755.64288
  20
419.56369
  0
VERTEX
  5
ec4
  8
Layer_0
  10
755.68262
  20
420.23047
  0
VERTEX
  5
ec5
  8
Layer_0
  10
755.80389
  20
420.88495
  0
VERTEX
  5
ec6
  8
Layer_0
  10
756.00488
  20
421.51947
  0
VERTEX
  5
ec7
  8
Layer_0
  10
756.28357
  20
422.12646
  0
VERTEX
  5
ec8
  8
Layer_0
  10
756.63818
  20
422.69836
  0
VERTEX
  5
ec9
  8
Layer_0
  10
757.06671
  20
423.22748
  0
VERTEX
  5
eca
  8
Layer_0
  10
757.57275
  20
423.04535
  0
VERTEX
  5
ecb
  8
Layer_0
  10
758.09125
  20
422.9259
  0
VERTEX
  5
ecc
  8
Layer_0
  10
758.61676
  20
422.86877
  0
VERTEX
  5
ecd
  8
Layer_0
  10
759.14368
  20
422.87354
  0
VERTEX
  5
ece
  8
Layer_0
  10
759.66638
  20
422.93985
  0
VERTEX
  5
ecf
  8
Layer_0
  10
760.17932
  20
423.06732
  0
VERTEX
  5
ed0
  8
Layer_0
  10
760.677
  20
423.25555
  0
VERTEX
  5
ed1
  8
Layer_0
  10
761.15393
  20
423.50421
  0
VERTEX
  5
ed2
  8
Layer_0
  10
761.59772
  20
423.80798
  0
VERTEX
  5
ed3
  8
Layer_0
  10
761.99805
  20
424.15851
  0
VERTEX
  5
ed4
  8
Layer_0
  10
762.35193
  20
424.55115
  0
VERTEX
  5
ed5
  8
Layer_0
  10
762.65637
  20
424.9812
  0
VERTEX
  5
ed6
  8
Layer_0
  10
762.90851
  20
425.44385
  0
VERTEX
  5
ed7
  8
Layer_0
  10
763.10541
  20
425.93442
  0
VERTEX
  5
ed8
  8
Layer_0
  10
763.24402
  20
426.44815
  0
VERTEX
  5
ed9
  8
Layer_0
  10
763.32153
  20
426.98035
  0
VERTEX
  5
eda
  8
Layer_0
  10
763.22211
  20
427.95071
  0
VERTEX
  5
edb
  8
Layer_0
  10
763.10211
  20
428.9187
  0
VERTEX
  5
edc
  8
Layer_0
  10
762.96155
  20
429.88388
  0
VERTEX
  5
edd
  8
Layer_0
  10
762.80048
  20
430.84595
  0
VERTEX
  5
ede
  8
Layer_0
  10
754.56488
  20
477.01834
  0
VERTEX
  5
edf
  8
Layer_0
  10
752.92419
  20
476.36182
  0
VERTEX
  5
ee0
  8
Layer_0
  10
751.26855
  20
475.75031
  0
VERTEX
  5
ee1
  8
Layer_0
  10
749.59888
  20
475.18402
  0
VERTEX
  5
ee2
  8
Layer_0
  10
747.9162
  20
474.66312
  0
VERTEX
  5
ee3
  8
Layer_0
  10
746.22131
  20
474.18781
  0
VERTEX
  5
ee4
  8
Layer_0
  10
744.51532
  20
473.75818
  0
VERTEX
  5
ee5
  8
Layer_0
  10
742.79901
  20
473.37451
  0
VERTEX
  5
ee6
  8
Layer_0
  10
741.07336
  20
473.03687
  0
VERTEX
  5
ee7
  8
Layer_0
  10
739.33936
  20
472.74548
  0
VERTEX
  5
ee8
  8
Layer_0
  10
737.59778
  20
472.50046
  0
VERTEX
  5
ee9
  8
Layer_0
  10
735.84973
  20
472.30206
  0
VERTEX
  5
eea
  8
Layer_0
  10
734.09607
  20
472.15036
  0
VERTEX
  5
eeb
  8
Layer_0
  10
732.33771
  20
472.04559
  0
VERTEX
  5
eec
  8
Layer_0
  10
730.57562
  20
471.98792
  0
VERTEX
  5
eed
  8
Layer_0
  10
728.81073
  20
471.97751
  0
VERTEX
  5
eee
  8
Layer_0
  10
727.04395
  20
472.01453
  0
SEQEND
  0
POLYLINE
  5
ef0
  8
Layer_0
  62
0
  66
1
  10
0
  20
0
  30
0
  0
VERTEX
  5
ef0
  8
Layer_0
  10
755.48468
  20
477.01834
  0
VERTEX
  5
ef1
  8
Layer_0
  10
756.45178
  20
477.00842
  0
VERTEX
  5
ef2
  8
Layer_0
  10
757.4176
  20
477.02393
  0
VERTEX
  5
ef3
  8
Layer_0
  10
758.38165
  20
477.06476
  0
VERTEX
  5
ef4
  8
Layer_0
  10
759.34351
  20
477.1308
  0
VERTEX
  5
ef5
  8
Layer_0
  10
760.30261
  20
477.22198
  0
VERTEX
  5
ef6
  8
Layer_0
  10
761.25854
  20
477.33817
  0
VERTEX
  5
ef7
  8
Layer_0
  10
762.21082
  20
477.47931
  0
VERTEX
  5
ef8
  8
Layer_0
  10
763.15887
  20
477.64532
  0
VERTEX
  5
ef9
  8
Layer_0
  10
764.10223
  20
477.83606
  0
VERTEX
  5
efa
  8
Layer_0
  10
765.04047
  20
478.05151
  0
VERTEX
  5
efb
  8
Layer_0
  10
765.97302
  20
478.29153
  0
VERTEX
  5
efc
  8
Layer_0
  10
766.89954
  20
478.55603
  0
VERTEX
  5
efd
  8
Layer_0
  10
767.81934
  20
478.84491
  0
VERTEX
  5
efe
  8
Layer_0
  10
768.73206
  20
479.15808
  0
VERTEX
  5
eff
  8
Layer_0
  10
769.63715
  20
479.49548
  0
VERTEX
  5
f00
  8
Layer_0
  10
770.53418
  20
479.85699
  0
VERTEX
  5
f01
  8
Layer_0
  10
771.492
  20
479.97742
  0
VERTEX
  5
f02
  8
Layer_0
  10
772.45117
  20
480.01343
  0
VERTEX
  5
f03
  8
Layer_0
  10
773.40625
  20
479.966
  0
VERTEX
  5
f04
  8
Layer_0
  10
774.35199
  20
479.83615
  0
VERTEX
  5
f05
  8
Layer_0
  10
775.2829
  20
479.62482
  0
VERTEX
  5
f06
  8
Layer_0
  10
776.1936
  20
479.33298
  0
VERTEX
  5
f07
  8
Layer_0
  10
777.07867
  20
478.96164
  0
VERTEX
  5
f08
  8
Layer_0
  10
777.93286
  20
478.51178
  0
VERTEX
  5
f09
  8
Layer_0
  10
783.31366
  20
495.66315
  0
VERTEX
  5
f0a
  8
Layer_0
  10
784.58765
  20
494.53159
  0
VERTEX
  5
f0b
  8
Layer_0
  10
784.89954
  20
495.47308
  0
VERTEX
  5
f0c
  8
Layer_0
  10
785.17822
  20
496.42279
  0
VERTEX
  5
f0d
  8
Layer_0
  10
785.42371
  20
497.37982
  0
VERTEX
  5
f0e
  8
Layer_0
  10
785.6358
  20
498.34332
  0
VERTEX
  5
f0f
  8
Layer_0
  10
785.81458
  20
499.31238
  0
VERTEX
  5
f10
  8
Layer_0
  10
785.95984
  20
500.28613
  0
VERTEX
  5
f11
  8
Layer_0
  10
786.07172
  20
501.26379
  0
VERTEX
  5
f12
  8
Layer_0
  10
786.15002
  20
502.24438
  0
VERTEX
  5
f13
  8
Layer_0
  10
786.1947
  20
503.22711
  0
VERTEX
  5
f14
  8
Layer_0
  10
786.20581
  20
504.21106
  0
VERTEX
  5
f15
  8
Layer_0
  10
786.18317
  20
505.19534
  0
VERTEX
  5
f16
  8
Layer_0
  10
786.12677
  20
506.17914
  0
VERTEX
  5
f17
  8
Layer_0
  10
786.03662
  20
507.16156
  0
VERTEX
  5
f18
  8
Layer_0
  10
785.91254
  20
508.14172
  0
VERTEX
  5
f19
  8
Layer_0
  10
785.75452
  20
509.11884
  0
VERTEX
  5
f1a
  8
Layer_0
  10
785.56262
  20
510.09189
  0
SEQEND
  0
POLYLINE
  5
f1c
  8
Layer_0
  62
0
  66
1
  10
0
  20
0
  30
0
  0
VERTEX
  5
f1c
  8
Layer_0
  10
853.38989
  20
455.7522
  0
VERTEX
  5
f1d
  8
Layer_0
  10
853.49915
  20
456.09122
  0
VERTEX
  5
f1e
  8
Layer_0
  10
853.56726
  20
456.4371
  0
VERTEX
  5
f1f
  8
Layer_0
  10
853.59473
  20
456.78632
  0
VERTEX
  5
f20
  8
Layer_0
  10
853.58167
  20
457.13525
  0
VERTEX
  5
f21
  8
Layer_0
  10
853.52869
  20
457.48041
  0
VERTEX
  5
f22
  8
Layer_0
  10
853.43591
  20
457.81818
  0
VERTEX
  5
f23
  8
Layer_0
  10
853.30377
  20
458.14502
  0
VERTEX
  5
f24
  8
Layer_0
  10
853.13257
  20
458.45737
  0
VERTEX
  5
f25
  8
Layer_0
  10
852.9259
  20
458.74747
  0
VERTEX
  5
f26
  8
Layer_0
  10
852.68921
  20
459.00876
  0
VERTEX
  5
f27
  8
Layer_0
  10
852.42554
  20
459.23932
  0
VERTEX
  5
f28
  8
Layer_0
  10
852.13794
  20
459.43732
  0
VERTEX
  5
f29
  8
Layer_0
  10
851.82947
  20
459.60095
  0
VERTEX
  5
f2a
  8
Layer_0
  10
851.50317
  20
459.7283
  0
VERTEX
  5
f2b
  8
Layer_0
  10
851.16205
  20
459.81757
  0
VERTEX
  5
f2c
  8
Layer_0
  10
850.80933
  20
459.86685
  0
VERTEX
  5
f2d
  8
Layer_0
  10
849.83813
  20
459.91229
  0
VERTEX
  5
f2e
  8
Layer_0
  10
848.86932
  20
459.89325
  0
VERTEX
  5
f2f
  8
Layer_0
  10
847.90601
  20
459.8103
  0
VERTEX
  5
f30
  8
Layer_0
  10
846.95129
  20
459.664
  0
VERTEX
  5
f31
  8
Layer_0
  10
846.0083
  20
459.45499
  0
VERTEX
  5
f32
  8
Layer_0
  10
845.0802
  20
459.18384
  0
VERTEX
  5
f33
  8
Layer_0
  10
844.1701
  20
458.85107
  0
VERTEX
  5
f34
  8
Layer_0
  10
843.28119
  20
458.45737
  0
VERTEX
  5
f35
  8
Layer_0
  10
842.34399
  20
458.41882
  0
VERTEX
  5
f36
  8
Layer_0
  10
841.42725
  20
458.29926
  0
VERTEX
  5
f37
  8
Layer_0
  10
840.53491
  20
458.1019
  0
VERTEX
  5
f38
  8
Layer_0
  10
839.6709
  20
457.82996
  0
VERTEX
  5
f39
  8
Layer_0
  10
838.83923
  20
457.48669
  0
VERTEX
  5
f3a
  8
Layer_0
  10
838.0437
  20
457.07544
  0
VERTEX
  5
f3b
  8
Layer_0
  10
837.28845
  20
456.59937
  0
VERTEX
  5
f3c
  8
Layer_0
  10
836.57727
  20
456.06177
  0
VERTEX
  5
f3d
  8
Layer_0
  10
835.91418
  20
455.46588
  0
VERTEX
  5
f3e
  8
Layer_0
  10
835.30316
  20
454.81494
  0
VERTEX
  5
f3f
  8
Layer_0
  10
834.74805
  20
454.11227
  0
VERTEX
  5
f40
  8
Layer_0
  10
834.25281
  20
453.36105
  0
VERTEX
  5
f41
  8
Layer_0
  10
833.82147
  20
452.56458
  0
VERTEX
  5
f42
  8
Layer_0
  10
833.45795
  20
451.7261
  0
VERTEX
  5
f43
  8
Layer_0
  10
833.16614
  20
450.84888
  0
VERTEX
  5
f44
  8
Layer_0
  10
832.95001
  20
449.93613
  0
VERTEX
  5
f45
  8
Layer_0
  10
830.22705
  20
458.42532
  0
SEQEND
  0
POLYLINE
  5
f47
  8
Layer_0
  62
0
  66
1
  10
0
  20
0
  30
0
  0
VERTEX
  5
f47
  8
Layer_0
  10
877.15796
  20
472.01453
  0
VERTEX
  5
f48
  8
Layer_0
  10
874.16876
  20
471.37103
  0
VERTEX
  5
f49
  8
Layer_0
  10
871.18616
  20
470.69989
  0
VERTEX
  5
f4a
  8
Layer_0
  10
868.21033
  20
470.0011
  0
VERTEX
  5
f4b
  8
Layer_0
  10
865.24146
  20
469.27469
  0
VERTEX
  5
f4c
  8
Layer_0
  10
862.27972
  20
468.52075
  0
VERTEX
  5
f4d
  8
Layer_0
  10
859.32532
  20
467.73932
  0
VERTEX
  5
f4e
  8
Layer_0
  10
856.37848
  20
466.93042
  0
VERTEX
  5
f4f
  8
Layer_0
  10
853.43933
  20
466.09418
  0
VERTEX
  5
f50
  8
Layer_0
  10
850.50806
  20
465.23062
  0
VERTEX
  5
f51
  8
Layer_0
  10
847.58496
  20
464.33978
  0
VERTEX
  5
f52
  8
Layer_0
  10
844.67017
  20
463.42175
  0
VERTEX
  5
f53
  8
Layer_0
  10
841.76379
  20
462.47656
  0
VERTEX
  5
f54
  8
Layer_0
  10
838.86615
  20
461.50427
  0
VERTEX
  5
f55
  8
Layer_0
  10
835.97729
  20
460.50491
  0
VERTEX
  5
f56
  8
Layer_0
  10
833.09753
  20
459.47858
  0
VERTEX
  5
f57
  8
Layer_0
  10
830.22705
  20
458.42532
  0
VERTEX
  5
f58
  8
Layer_0
  10
817.09283
  20
456.06174
  0
VERTEX
  5
f59
  8
Layer_0
  10
800.81775
  20
506.80161
  0
VERTEX
  5
f5a
  8
Layer_0
  10
797.94177
  20
512.33386
  0
SEQEND
  0
POLYLINE
  5
f5c
  8
Layer_0
  62
0
  66
1
  10
0
  20
0
  30
0
  0
VERTEX
  5
f5c
  8
Layer_0
  10
812.64233
  20
469.93695
  0
VERTEX
  5
f5d
  8
Layer_0
  10
812.64227
  20
458.81244
  0
VERTEX
  5
f5e
  8
Layer_0
  10
812.79749
  20
458.2995
  0
VERTEX
  5
f5f
  8
Layer_0
  10
812.92511
  20
457.78162
  0
VERTEX
  5
f60
  8
Layer_0
  10
813.02515
  20
457.25995
  0
VERTEX
  5
f61
  8
Layer_0
  10
813.09766
  20
456.7355
  0
VERTEX
  5
f62
  8
Layer_0
  10
813.14288
  20
456.20938
  0
VERTEX
  5
f63
  8
Layer_0
  10
813.16077
  20
455.68265
  0
VERTEX
  5
f64
  8
Layer_0
  10
813.15161
  20
455.15631
  0
VERTEX
  5
f65
  8
Layer_0
  10
813.1153
  20
454.63153
  0
VERTEX
  5
f66
  8
Layer_0
  10
813.05206
  20
454.10931
  0
VERTEX
  5
f67
  8
Layer_0
  10
812.96191
  20
453.59064
  0
VERTEX
  5
f68
  8
Layer_0
  10
812.84509
  20
453.07672
  0
VERTEX
  5
f69
  8
Layer_0
  10
812.7016
  20
452.56854
  0
VERTEX
  5
f6a
  8
Layer_0
  10
812.53156
  20
452.06717
  0
VERTEX
  5
f6b
  8
Layer_0
  10
812.33502
  20
451.57367
  0
VERTEX
  5
f6c
  8
Layer_0
  10
812.11218
  20
451.08911
  0
VERTEX
  5
f6d
  8
Layer_0
  10
811.86304
  20
450.61462
  0
VERTEX
  5
f6e
  8
Layer_0
  10
811.58936
  20
450.15381
  0
VERTEX
  5
f6f
  8
Layer_0
  10
811.29346
  20
449.71008
  0
VERTEX
  5
f70
  8
Layer_0
  10
810.97614
  20
449.28415
  0
VERTEX
  5
f71
  8
Layer_0
  10
810.63824
  20
448.87659
  0
VERTEX
  5
f72
  8
Layer_0
  10
810.28064
  20
448.48807
  0
VERTEX
  5
f73
  8
Layer_0
  10
809.90411
  20
448.11926
  0
VERTEX
  5
f74
  8
Layer_0
  10
809.50964
  20
447.77075
  0
VERTEX
  5
f75
  8
Layer_0
  10
809.0979
  20
447.44321
  0
VERTEX
  5
f76
  8
Layer_0
  10
808.66992
  20
447.1373
  0
VERTEX
  5
f77
  8
Layer_0
  10
808.2265
  20
446.85364
  0
VERTEX
  5
f78
  8
Layer_0
  10
807.76843
  20
446.5929
  0
VERTEX
  5
f79
  8
Layer_0
  10
807.29669
  20
446.35571
  0
VERTEX
  5
f7a
  8
Layer_0
  10
806.81201
  20
446.1427
  0
VERTEX
  5
f7b
  8
Layer_0
  10
806.31531
  20
445.95453
  0
VERTEX
  5
f7c
  8
Layer_0
  10
805.80737
  20
445.79187
  0
VERTEX
  5
f7d
  8
Layer_0
  10
805.28912
  20
445.65527
  0
VERTEX
  5
f7e
  8
Layer_0
  10
805.20343
  20
444.93716
  0
VERTEX
  5
f7f
  8
Layer_0
  10
805.0752
  20
444.23029
  0
VERTEX
  5
f80
  8
Layer_0
  10
804.90552
  20
443.53622
  0
VERTEX
  5
f81
  8
Layer_0
  10
804.69531
  20
442.8566
  0
VERTEX
  5
f82
  8
Layer_0
  10
804.44568
  20
442.19299
  0
VERTEX
  5
f83
  8
Layer_0
  10
804.15771
  20
441.54712
  0
VERTEX
  5
f84
  8
Layer_0
  10
803.83234
  20
440.92047
  0
VERTEX
  5
f85
  8
Layer_0
  10
803.47064
  20
440.31476
  0
VERTEX
  5
f86
  8
Layer_0
  10
803.07361
  20
439.73157
  0
VERTEX
  5
f87
  8
Layer_0
  10
802.64233
  20
439.17252
  0
VERTEX
  5
f88
  8
Layer_0
  10
802.17786
  20
438.63922
  0
VERTEX
  5
f89
  8
Layer_0
  10
801.68115
  20
438.13333
  0
VERTEX
  5
f8a
  8
Layer_0
  10
801.15332
  20
437.65643
  0
VERTEX
  5
f8b
  8
Layer_0
  10
800.59528
  20
437.21014
  0
VERTEX
  5
f8c
  8
Layer_0
  10
800.00818
  20
436.79614
  0
VERTEX
  5
f8d
  8
Layer_0
  10
799.39294
  20
436.41595
  0
VERTEX
  5
f8e
  8
Layer_0
  10
799.72827
  20
435.6611
  0
VERTEX
  5
f8f
  8
Layer_0
  10
799.97888
  20
434.88147
  0
VERTEX
  5
f90
  8
Layer_0
  10
800.14441
  20
434.08398
  0
VERTEX
  5
f91
  8
Layer_0
  10
800.22473
  20
433.27563
  0
VERTEX
  5
f92
  8
Layer_0
  10
800.2193
  20
432.46332
  0
VERTEX
  5
f93
  8
Layer_0
  10
800.12793
  20
431.65402
  0
VERTEX
  5
f94
  8
Layer_0
  10
799.9502
  20
430.85461
  0
VERTEX
  5
f95
  8
Layer_0
  10
799.68591
  20
430.07208
  0
VERTEX
  5
f96
  8
Layer_0
  10
799.33929
  20
429.32236
  0
VERTEX
  5
f97
  8
Layer_0
  10
798.91821
  20
428.62
  0
VERTEX
  5
f98
  8
Layer_0
  10
798.42773
  20
427.96982
  0
VERTEX
  5
f99
  8
Layer_0
  10
797.87274
  20
427.37659
  0
VERTEX
  5
f9a
  8
Layer_0
  10
797.25836
  20
426.84521
  0
VERTEX
  5
f9b
  8
Layer_0
  10
796.58954
  20
426.38043
  0
VERTEX
  5
f9c
  8
Layer_0
  10
795.87128
  20
425.98706
  0
VERTEX
  5
f9d
  8
Layer_0
  10
795.10864
  20
425.66998
  0
SEQEND
  0
POLYLINE
  5
f9f
  8
Layer_0
  62
0
  66
1
  10
0
  20
0
  30
0
  0
VERTEX
  5
f9f
  8
Layer_0
  10
895.09033
  20
459.64017
  0
VERTEX
  5
fa0
  8
Layer_0
  10
894.27246
  20
459.8092
  0
VERTEX
  5
fa1
  8
Layer_0
  10
893.46967
  20
460.02216
  0
VERTEX
  5
fa2
  8
Layer_0
  10
892.68347
  20
460.27795
  0
VERTEX
  5
fa3
  8
Layer_0
  10
891.91534
  20
460.5755
  0
VERTEX
  5
fa4
  8
Layer_0
  10
891.16687
  20
460.9137
  0
VERTEX
  5
fa5
  8
Layer_0
  10
890.43945
  20
461.2915
  0
VERTEX
  5
fa6
  8
Layer_0
  10
889.7348
  20
461.70782
  0
VERTEX
  5
fa7
  8
Layer_0
  10
889.05432
  20
462.16162
  0
VERTEX
  5
fa8
  8
Layer_0
  10
888.39948
  20
462.65173
  0
VERTEX
  5
fa9
  8
Layer_0
  10
887.77191
  20
463.17719
  0
VERTEX
  5
faa
  8
Layer_0
  10
887.1731
  20
463.73685
  0
VERTEX
  5
fab
  8
Layer_0
  10
886.60455
  20
464.32965
  0
VERTEX
  5
fac
  8
Layer_0
  10
886.06781
  20
464.95453
  0
VERTEX
  5
fad
  8
Layer_0
  10
885.56445
  20
465.61035
  0
VERTEX
  5
fae
  8
Layer_0
  10
885.09583
  20
466.29614
  0
VERTEX
  5
faf
  8
Layer_0
  10
884.66364
  20
467.01071
  0
VERTEX
  5
fb0
  8
Layer_0
  10
884.10913
  20
468.06357
  0
VERTEX
  5
fb1
  8
Layer_0
  10
883.62329
  20
469.1459
  0
VERTEX
  5
fb2
  8
Layer_0
  10
883.20697
  20
470.25439
  0
VERTEX
  5
fb3
  8
Layer_0
  10
882.86108
  20
471.38565
  0
VERTEX
  5
fb4
  8
Layer_0
  10
882.58649
  20
472.53632
  0
VERTEX
  5
fb5
  8
Layer_0
  10
882.38422
  20
473.703
  0
VERTEX
  5
fb6
  8
Layer_0
  10
882.25513
  20
474.88232
  0
VERTEX
  5
fb7
  8
Layer_0
  10
882.20013
  20
476.07098
  0
VERTEX
  5
fb8
  8
Layer_0
  10
881.72144
  20
476.32944
  0
VERTEX
  5
fb9
  8
Layer_0
  10
881.21753
  20
476.50568
  0
VERTEX
  5
fba
  8
Layer_0
  10
880.69812
  20
476.60025
  0
VERTEX
  5
fbb
  8
Layer_0
  10
880.1731
  20
476.61368
  0
VERTEX
  5
fbc
  8
Layer_0
  10
879.65222
  20
476.54639
  0
VERTEX
  5
fbd
  8
Layer_0
  10
879.14532
  20
476.39899
  0
VERTEX
  5
fbe
  8
Layer_0
  10
878.66211
  20
476.17194
  0
VERTEX
  5
fbf
  8
Layer_0
  10
878.21246
  20
475.86569
  0
VERTEX
  5
fc0
  8
Layer_0
  10
877.81708
  20
475.49207
  0
VERTEX
  5
fc1
  8
Layer_0
  10
877.49182
  20
475.06873
  0
VERTEX
  5
fc2
  8
Layer_0
  10
877.23926
  20
474.60516
  0
VERTEX
  5
fc3
  8
Layer_0
  10
877.06201
  20
474.11078
  0
VERTEX
  5
fc4
  8
Layer_0
  10
876.96265
  20
473.59506
  0
VERTEX
  5
fc5
  8
Layer_0
  10
876.94379
  20
473.0675
  0
VERTEX
  5
fc6
  8
Layer_0
  10
877.00806
  20
472.53748
  0
VERTEX
  5
fc7
  8
Layer_0
  10
877.15796
  20
472.01453
  0
VERTEX
  5
fc8
  8
Layer_0
  10
884.6637
  20
451.99933
  0
VERTEX
  5
fc9
  8
Layer_0
  10
895.24884
  20
454.92508
  0
SEQEND
  0
POLYLINE
  5
fcb
  8
Layer_0
  62
0
  66
1
  10
0
  20
0
  30
0
  0
VERTEX
  5
fcb
  8
Layer_0
  10
707.02875
  20
525.80536
  0
VERTEX
  5
fcc
  8
Layer_0
  10
706.90204
  20
526.79272
  0
VERTEX
  5
fcd
  8
Layer_0
  10
706.71277
  20
527.76233
  0
VERTEX
  5
fce
  8
Layer_0
  10
706.46265
  20
528.71167
  0
VERTEX
  5
fcf
  8
Layer_0
  10
706.15338
  20
529.63831
  0
VERTEX
  5
fd0
  8
Layer_0
  10
705.78674
  20
530.53961
  0
VERTEX
  5
fd1
  8
Layer_0
  10
705.36444
  20
531.41315
  0
VERTEX
  5
fd2
  8
Layer_0
  10
704.88831
  20
532.25653
  0
VERTEX
  5
fd3
  8
Layer_0
  10
704.35992
  20
533.06714
  0
VERTEX
  5
fd4
  8
Layer_0
  10
703.78113
  20
533.84253
  0
VERTEX
  5
fd5
  8
Layer_0
  10
703.15369
  20
534.58032
  0
VERTEX
  5
fd6
  8
Layer_0
  10
702.47925
  20
535.27783
  0
VERTEX
  5
fd7
  8
Layer_0
  10
701.75958
  20
535.93274
  0
VERTEX
  5
fd8
  8
Layer_0
  10
700.99646
  20
536.54248
  0
VERTEX
  5
fd9
  8
Layer_0
  10
700.19159
  20
537.10461
  0
VERTEX
  5
fda
  8
Layer_0
  10
699.34668
  20
537.61658
  0
VERTEX
  5
fdb
  8
Layer_0
  10
698.4635
  20
538.07593
  0
VERTEX
  5
fdc
  8
Layer_0
  10
697.37372
  20
538.40918
  0
VERTEX
  5
fdd
  8
Layer_0
  10
696.27338
  20
538.70081
  0
VERTEX
  5
fde
  8
Layer_0
  10
695.16364
  20
538.95056
  0
VERTEX
  5
fdf
  8
Layer_0
  10
694.04565
  20
539.15845
  0
VERTEX
  5
fe0
  8
Layer_0
  10
692.92065
  20
539.32404
  0
VERTEX
  5
fe1
  8
Layer_0
  10
691.78979
  20
539.44733
  0
VERTEX
  5
fe2
  8
Layer_0
  10
690.6543
  20
539.52795
  0
VERTEX
  5
fe3
  8
Layer_0
  10
689.51538
  20
539.5658
  0
VERTEX
  5
fe4
  8
Layer_0
  10
687.29712
  20
539.63318
  0
VERTEX
  5
fe5
  8
Layer_0
  10
685.08386
  20
539.77112
  0
VERTEX
  5
fe6
  8
Layer_0
  10
682.87726
  20
539.97937
  0
VERTEX
  5
fe7
  8
Layer_0
  10
680.67896
  20
540.25781
  0
VERTEX
  5
fe8
  8
Layer_0
  10
678.4906
  20
540.60608
  0
VERTEX
  5
fe9
  8
Layer_0
  10
676.3139
  20
541.02399
  0
VERTEX
  5
fea
  8
Layer_0
  10
674.15057
  20
541.51129
  0
VERTEX
  5
feb
  8
Layer_0
  10
672.0022
  20
542.06775
  0
VERTEX
  5
fec
  8
Layer_0
  10
671.76233
  20
542.72937
  0
VERTEX
  5
fed
  8
Layer_0
  10
671.44958
  20
543.35181
  0
VERTEX
  5
fee
  8
Layer_0
  10
671.06897
  20
543.92969
  0
VERTEX
  5
fef
  8
Layer_0
  10
670.62537
  20
544.45801
  0
VERTEX
  5
ff0
  8
Layer_0
  10
670.12366
  20
544.93152
  0
VERTEX
  5
ff1
  8
Layer_0
  10
669.56873
  20
545.34497
  0
VERTEX
  5
ff2
  8
Layer_0
  10
668.96545
  20
545.69318
  0
VERTEX
  5
ff3
  8
Layer_0
  10
668.31885
  20
545.97095
  0
VERTEX
  5
ff4
  8
Layer_0
  10
667.64392
  20
546.17059
  0
VERTEX
  5
ff5
  8
Layer_0
  10
666.95746
  20
546.28833
  0
VERTEX
  5
ff6
  8
Layer_0
  10
666.26642
  20
546.32501
  0
VERTEX
  5
ff7
  8
Layer_0
  10
665.578
  20
546.28149
  0
VERTEX
  5
ff8
  8
Layer_0
  10
664.89917
  20
546.15875
  0
VERTEX
  5
ff9
  8
Layer_0
  10
664.23706
  20
545.95752
  0
VERTEX
  5
ffa
  8
Layer_0
  10
663.59875
  20
545.67865
  0
VERTEX
  5
ffb
  8
Layer_0
  10
662.99133
  20
545.32306
  0
VERTEX
  5
ffc
  8
Layer_0
  10
662.82684
  20
545.47772
  0
VERTEX
  5
ffd
  8
Layer_0
  10
662.68335
  20
545.64893
  0
VERTEX
  5
ffe
  8
Layer_0
  10
662.56171
  20
545.83459
  0
VERTEX
  5
fff
  8
Layer_0
  10
662.46295
  20
546.03253
  0
VERTEX
  5
1000
  8
Layer_0
  10
662.38794
  20
546.2406
  0
VERTEX
  5
1001
  8
Layer_0
  10
662.33752
  20
546.45679
  0
VERTEX
  5
1002
  8
Layer_0
  10
662.31268
  20
546.67877
  0
VERTEX
  5
1003
  8
Layer_0
  10
662.31439
  20
546.90454
  0
VERTEX
  5
1004
  8
Layer_0
  10
662.3429
  20
547.12854
  0
VERTEX
  5
1005
  8
Layer_0
  10
662.39709
  20
547.34521
  0
VERTEX
  5
1006
  8
Layer_0
  10
662.47589
  20
547.55273
  0
VERTEX
  5
1007
  8
Layer_0
  10
662.578
  20
547.74896
  0
VERTEX
  5
1008
  8
Layer_0
  10
662.70233
  20
547.93201
  0
VERTEX
  5
1009
  8
Layer_0
  10
662.8476
  20
548.09973
  0
VERTEX
  5
100a
  8
Layer_0
  10
663.0127
  20
548.25024
  0
VERTEX
  5
100b
  8
Layer_0
  10
663.19635
  20
548.38153
  0
VERTEX
  5
100c
  8
Layer_0
  10
663.41785
  20
548.42798
  0
VERTEX
  5
100d
  8
Layer_0
  10
663.62695
  20
548.50488
  0
VERTEX
  5
100e
  8
Layer_0
  10
663.82092
  20
548.60992
  0
VERTEX
  5
100f
  8
Layer_0
  10
663.99713
  20
548.74097
  0
VERTEX
  5
1010
  8
Layer_0
  10
664.15302
  20
548.89563
  0
VERTEX
  5
1011
  8
Layer_0
  10
664.28589
  20
549.07178
  0
VERTEX
  5
1012
  8
Layer_0
  10
664.39313
  20
549.26697
  0
VERTEX
  5
1013
  8
Layer_0
  10
664.47217
  20
549.47906
  0
VERTEX
  5
1014
  8
Layer_0
  10
664.51941
  20
549.70044
  0
VERTEX
  5
1015
  8
Layer_0
  10
664.53369
  20
549.92273
  0
VERTEX
  5
1016
  8
Layer_0
  10
664.51611
  20
550.14264
  0
VERTEX
  5
1017
  8
Layer_0
  10
664.46753
  20
550.35681
  0
VERTEX
  5
1018
  8
Layer_0
  10
664.38916
  20
550.56201
  0
VERTEX
  5
1019
  8
Layer_0
  10
664.28198
  20
550.75476
  0
VERTEX
  5
101a
  8
Layer_0
  10
664.14685
  20
550.93182
  0
VERTEX
  5
101b
  8
Layer_0
  10
663.9848
  20
551.0899
  0
VERTEX
  5
101c
  8
Layer_0
  10
663.80145
  20
551.22266
  0
VERTEX
  5
101d
  8
Layer_0
  10
663.604
  20
551.32568
  0
VERTEX
  5
101e
  8
Layer_0
  10
663.39575
  20
551.39856
  0
VERTEX
  5
101f
  8
Layer_0
  10
663.1803
  20
551.44092
  0
VERTEX
  5
1020
  8
Layer_0
  10
662.961
  20
551.45227
  0
VERTEX
  5
1021
  8
Layer_0
  10
662.74127
  20
551.43219
  0
VERTEX
  5
1022
  8
Layer_0
  10
662.52466
  20
551.38031
  0
VERTEX
  5
1023
  8
Layer_0
  10
662.31458
  20
551.29614
  0
VERTEX
  5
1024
  8
Layer_0
  10
661.3866
  20
550.57782
  0
VERTEX
  5
1025
  8
Layer_0
  10
660.42554
  20
549.91553
  0
VERTEX
  5
1026
  8
Layer_0
  10
659.43408
  20
549.30988
  0
VERTEX
  5
1027
  8
Layer_0
  10
658.41455
  20
548.76154
  0
VERTEX
  5
1028
  8
Layer_0
  10
657.36963
  20
548.27112
  0
VERTEX
  5
1029
  8
Layer_0
  10
656.30176
  20
547.83936
  0
VERTEX
  5
102a
  8
Layer_0
  10
655.2135
  20
547.46674
  0
VERTEX
  5
102b
  8
Layer_0
  10
654.10736
  20
547.15405
  0
VERTEX
  5
102c
  8
Layer_0
  10
652.98584
  20
546.90179
  0
VERTEX
  5
102d
  8
Layer_0
  10
651.85156
  20
546.71069
  0
VERTEX
  5
102e
  8
Layer_0
  10
650.70703
  20
546.58142
  0
VERTEX
  5
102f
  8
Layer_0
  10
649.55469
  20
546.51453
  0
VERTEX
  5
1030
  8
Layer_0
  10
648.39709
  20
546.51074
  0
VERTEX
  5
1031
  8
Layer_0
  10
647.23682
  20
546.57068
  0
VERTEX
  5
1032
  8
Layer_0
  10
646.07629
  20
546.69495
  0
VERTEX
  5
1033
  8
Layer_0
  10
644.91809
  20
546.88416
  0
SEQEND
  0
POLYLINE
  5
1035
  8
Layer_0
  62
0
  66
1
  10
0
  20
0
  30
0
  0
VERTEX
  5
1035
  8
Layer_0
  10
719.53821
  20
467.01071
  0
VERTEX
  5
1036
  8
Layer_0
  10
720.17468
  20
466.95197
  0
VERTEX
  5
1037
  8
Layer_0
  10
720.80359
  20
466.95264
  0
VERTEX
  5
1038
  8
Layer_0
  10
721.42194
  20
467.01059
  0
VERTEX
  5
1039
  8
Layer_0
  10
722.02637
  20
467.12372
  0
VERTEX
  5
103a
  8
Layer_0
  10
722.61383
  20
467.28995
  0
VERTEX
  5
103b
  8
Layer_0
  10
723.18109
  20
467.50711
  0
VERTEX
  5
103c
  8
Layer_0
  10
723.72498
  20
467.77313
  0
VERTEX
  5
103d
  8
Layer_0
  10
724.24231
  20
468.08582
  0
VERTEX
  5
103e
  8
Layer_0
  10
724.72992
  20
468.44312
  0
VERTEX
  5
103f
  8
Layer_0
  10
725.18463
  20
468.84283
  0
VERTEX
  5
1040
  8
Layer_0
  10
725.60327
  20
469.28293
  0
VERTEX
  5
1041
  8
Layer_0
  10
725.98267
  20
469.76126
  0
VERTEX
  5
1042
  8
Layer_0
  10
726.31958
  20
470.2757
  0
VERTEX
  5
1043
  8
Layer_0
  10
726.6109
  20
470.82416
  0
VERTEX
  5
1044
  8
Layer_0
  10
726.85339
  20
471.40448
  0
VERTEX
  5
1045
  8
Layer_0
  10
727.04395
  20
472.01453
  0
VERTEX
  5
1046
  8
Layer_0
  10
727.69214
  20
472.75638
  0
VERTEX
  5
1047
  8
Layer_0
  10
728.29846
  20
473.52112
  0
VERTEX
  5
1048
  8
Layer_0
  10
728.86298
  20
474.30716
  0
VERTEX
  5
1049
  8
Layer_0
  10
729.38568
  20
475.11304
  0
VERTEX
  5
104a
  8
Layer_0
  10
729.86658
  20
475.93723
  0
VERTEX
  5
104b
  8
Layer_0
  10
730.30566
  20
476.77817
  0
VERTEX
  5
104c
  8
Layer_0
  10
730.703
  20
477.63437
  0
VERTEX
  5
104d
  8
Layer_0
  10
731.05841
  20
478.50433
  0
VERTEX
  5
104e
  8
Layer_0
  10
731.37207
  20
479.38647
  0
VERTEX
  5
104f
  8
Layer_0
  10
731.6438
  20
480.2793
  0
VERTEX
  5
1050
  8
Layer_0
  10
731.87384
  20
481.18127
  0
VERTEX
  5
1051
  8
Layer_0
  10
732.06201
  20
482.09085
  0
VERTEX
  5
1052
  8
Layer_0
  10
732.20837
  20
483.00653
  0
VERTEX
  5
1053
  8
Layer_0
  10
732.31287
  20
483.92682
  0
VERTEX
  5
1054
  8
Layer_0
  10
732.37561
  20
484.8501
  0
VERTEX
  5
1055
  8
Layer_0
  10
732.39655
  20
485.77496
  0
VERTEX
  5
1056
  8
Layer_0
  10
732.37561
  20
486.69983
  0
VERTEX
  5
1057
  8
Layer_0
  10
732.31287
  20
487.62311
  0
VERTEX
  5
1058
  8
Layer_0
  10
732.20837
  20
488.5434
  0
VERTEX
  5
1059
  8
Layer_0
  10
732.06201
  20
489.45908
  0
VERTEX
  5
105a
  8
Layer_0
  10
731.87384
  20
490.36865
  0
VERTEX
  5
105b
  8
Layer_0
  10
731.6438
  20
491.27063
  0
VERTEX
  5
105c
  8
Layer_0
  10
731.37207
  20
492.16345
  0
VERTEX
  5
105d
  8
Layer_0
  10
731.05841
  20
493.04559
  0
VERTEX
  5
105e
  8
Layer_0
  10
730.703
  20
493.91556
  0
VERTEX
  5
105f
  8
Layer_0
  10
730.30566
  20
494.77176
  0
VERTEX
  5
1060
  8
Layer_0
  10
729.86664
  20
495.6127
  0
VERTEX
  5
1061
  8
Layer_0
  10
729.38574
  20
496.43692
  0
VERTEX
  5
1062
  8
Layer_0
  10
728.86304
  20
497.24283
  0
VERTEX
  5
1063
  8
Layer_0
  10
728.29846
  20
498.02887
  0
VERTEX
  5
1064
  8
Layer_0
  10
727.69214
  20
498.79358
  0
VERTEX
  5
1065
  8
Layer_0
  10
727.04395
  20
499.53543
  0
VERTEX
  5
1066
  8
Layer_0
  10
726.5647
  20
500.88916
  0
VERTEX
  5
1067
  8
Layer_0
  10
726.12799
  20
502.2547
  0
VERTEX
  5
1068
  8
Layer_0
  10
725.73389
  20
503.63104
  0
VERTEX
  5
1069
  8
Layer_0
  10
725.38257
  20
505.01721
  0
VERTEX
  5
106a
  8
Layer_0
  10
725.0741
  20
506.41217
  0
VERTEX
  5
106b
  8
Layer_0
  10
724.80859
  20
507.81494
  0
VERTEX
  5
106c
  8
Layer_0
  10
724.58618
  20
509.22455
  0
VERTEX
  5
106d
  8
Layer_0
  10
724.40698
  20
510.63995
  0
VERTEX
  5
106e
  8
Layer_0
  10
724.27112
  20
512.06018
  0
VERTEX
  5
106f
  8
Layer_0
  10
724.17865
  20
513.48425
  0
VERTEX
  5
1070
  8
Layer_0
  10
724.1297
  20
514.91107
  0
VERTEX
  5
1071
  8
Layer_0
  10
724.12445
  20
516.33972
  0
VERTEX
  5
1072
  8
Layer_0
  10
724.1629
  20
517.76917
  0
VERTEX
  5
1073
  8
Layer_0
  10
724.24524
  20
519.19849
  0
VERTEX
  5
1074
  8
Layer_0
  10
724.37158
  20
520.62659
  0
VERTEX
  5
1075
  8
Layer_0
  10
724.54199
  20
522.05249
  0
VERTEX
  5
1076
  8
Layer_0
  10
725.09607
  20
523.33386
  0
VERTEX
  5
1077
  8
Layer_0
  10
725.7052
  20
524.58429
  0
VERTEX
  5
1078
  8
Layer_0
  10
726.36792
  20
525.80237
  0
VERTEX
  5
1079
  8
Layer_0
  10
727.08289
  20
526.98651
  0
VERTEX
  5
107a
  8
Layer_0
  10
727.84875
  20
528.13519
  0
VERTEX
  5
107b
  8
Layer_0
  10
728.66394
  20
529.24689
  0
VERTEX
  5
107c
  8
Layer_0
  10
729.52716
  20
530.32007
  0
VERTEX
  5
107d
  8
Layer_0
  10
730.43701
  20
531.35321
  0
VERTEX
  5
107e
  8
Layer_0
  10
731.39197
  20
532.34473
  0
VERTEX
  5
107f
  8
Layer_0
  10
732.39075
  20
533.29309
  0
VERTEX
  5
1080
  8
Layer_0
  10
733.43182
  20
534.19684
  0
VERTEX
  5
1081
  8
Layer_0
  10
734.51379
  20
535.05432
  0
VERTEX
  5
1082
  8
Layer_0
  10
735.63525
  20
535.86407
  0
VERTEX
  5
1083
  8
Layer_0
  10
736.79486
  20
536.62457
  0
VERTEX
  5
1084
  8
Layer_0
  10
737.99109
  20
537.33423
  0
VERTEX
  5
1085
  8
Layer_0
  10
739.22266
  20
537.99158
  0
VERTEX
  5
1086
  8
Layer_0
  10
738.95453
  20
538.45563
  0
VERTEX
  5
1087
  8
Layer_0
  10
738.72217
  20
538.93323
  0
VERTEX
  5
1088
  8
Layer_0
  10
738.52557
  20
539.42236
  0
VERTEX
  5
1089
  8
Layer_0
  10
738.36469
  20
539.92114
  0
VERTEX
  5
108a
  8
Layer_0
  10
738.23956
  20
540.42761
  0
VERTEX
  5
108b
  8
Layer_0
  10
738.15015
  20
540.93982
  0
VERTEX
  5
108c
  8
Layer_0
  10
738.09656
  20
541.45593
  0
VERTEX
  5
108d
  8
Layer_0
  10
738.07867
  20
541.97394
  0
VERTEX
  5
108e
  8
Layer_0
  10
738.09656
  20
542.49194
  0
VERTEX
  5
108f
  8
Layer_0
  10
738.15015
  20
543.00806
  0
VERTEX
  5
1090
  8
Layer_0
  10
738.23956
  20
543.52026
  0
VERTEX
  5
1091
  8
Layer_0
  10
738.36469
  20
544.02673
  0
VERTEX
  5
1092
  8
Layer_0
  10
738.52557
  20
544.52551
  0
VERTEX
  5
1093
  8
Layer_0
  10
738.72217
  20
545.01465
  0
VERTEX
  5
1094
  8
Layer_0
  10
738.95453
  20
545.49225
  0
VERTEX
  5
1095
  8
Layer_0
  10
739.22266
  20
545.95636
  0
SEQEND
  0
POLYLINE
  5
1097
  8
Layer_0
  62
0
  66
1
  10
0
  20
0
  30
0
  0
VERTEX
  5
1097
  8
Layer_0
  10
783.23389
  20
512.96423
  0
VERTEX
  5
1098
  8
Layer_0
  10
783.56885
  20
512.35193
  0
VERTEX
  5
1099
  8
Layer_0
  10
783.9483
  20
511.77649
  0
VERTEX
  5
109a
  8
Layer_0
  10
784.36938
  20
511.23944
  0
VERTEX
  5
109b
  8
Layer_0
  10
784.82898
  20
510.74219
  0
VERTEX
  5
109c
  8
Layer_0
  10
785.32422
  20
510.28632
  0
VERTEX
  5
109d
  8
Layer_0
  10
785.85217
  20
509.87323
  0
VERTEX
  5
109e
  8
Layer_0
  10
786.40979
  20
509.50452
  0
VERTEX
  5
109f
  8
Layer_0
  10
786.99414
  20
509.18164
  0
VERTEX
  5
10a0
  8
Layer_0
  10
787.60223
  20
508.90601
  0
VERTEX
  5
10a1
  8
Layer_0
  10
788.23108
  20
508.67926
  0
VERTEX
  5
10a2
  8
Layer_0
  10
788.87775
  20
508.50275
  0
VERTEX
  5
10a3
  8
Layer_0
  10
789.53925
  20
508.37805
  0
VERTEX
  5
10a4
  8
Layer_0
  10
790.21259
  20
508.30661
  0
VERTEX
  5
10a5
  8
Layer_0
  10
790.89484
  20
508.28995
  0
VERTEX
  5
10a6
  8
Layer_0
  10
791.58301
  20
508.32953
  0
VERTEX
  5
10a7
  8
Layer_0
  10
792.27411
  20
508.42685
  0
VERTEX
  5
10a8
  8
Layer_0
  10
792.95483
  20
508.58081
  0
VERTEX
  5
10a9
  8
Layer_0
  10
793.6123
  20
508.78778
  0
VERTEX
  5
10aa
  8
Layer_0
  10
794.24432
  20
509.04523
  0
VERTEX
  5
10ab
  8
Layer_0
  10
794.84863
  20
509.35077
  0
VERTEX
  5
10ac
  8
Layer_0
  10
795.42297
  20
509.7019
  0
VERTEX
  5
10ad
  8
Layer_0
  10
795.96509
  20
510.09616
  0
VERTEX
  5
10ae
  8
Layer_0
  10
796.47266
  20
510.53116
  0
VERTEX
  5
10af
  8
Layer_0
  10
796.9436
  20
511.00446
  0
VERTEX
  5
10b0
  8
Layer_0
  10
797.37549
  20
511.51355
  0
VERTEX
  5
10b1
  8
Layer_0
  10
797.76617
  20
512.05603
  0
VERTEX
  5
10b2
  8
Layer_0
  10
798.1134
  20
512.62939
  0
VERTEX
  5
10b3
  8
Layer_0
  10
798.41486
  20
513.2312
  0
VERTEX
  5
10b4
  8
Layer_0
  10
798.66833
  20
513.85913
  0
VERTEX
  5
10b5
  8
Layer_0
  10
798.87164
  20
514.51062
  0
VERTEX
  5
10b6
  8
Layer_0
  10
799.02246
  20
515.18323
  0
VERTEX
  5
10b7
  8
Layer_0
  10
799.11853
  20
515.87451
  0
SEQEND
  0
POLYLINE
  5
10b9
  8
Layer_0
  62
0
  66
1
  10
0
  20
0
  30
0
  0
VERTEX
  5
10b9
  8
Layer_0
  10
679.97565
  20
473.87939
  0
VERTEX
  5
10ba
  8
Layer_0
  10
684.01807
  20
474.36932
  0
VERTEX
  5
10bb
  8
Layer_0
  10
688.05182
  20
474.92096
  0
VERTEX
  5
10bc
  8
Layer_0
  10
692.07617
  20
475.53421
  0
VERTEX
  5
10bd
  8
Layer_0
  10
696.09045
  20
476.20895
  0
VERTEX
  5
10be
  8
Layer_0
  10
700.09393
  20
476.94504
  0
VERTEX
  5
10bf
  8
Layer_0
  10
704.08594
  20
477.74237
  0
VERTEX
  5
10c0
  8
Layer_0
  10
708.06573
  20
478.6008
  0
VERTEX
  5
10c1
  8
Layer_0
  10
712.03259
  20
479.5202
  0
SEQEND
  0
POLYLINE
  5
10c3
  8
Layer_0
  62
0
  66
1
  10
0
  20
0
  30
0
  0
VERTEX
  5
10c3
  8
Layer_0
  10
800.81775
  20
506.80161
  0
VERTEX
  5
10c4
  8
Layer_0
  10
809.60657
  20
512.04492
  0
VERTEX
  5
10c5
  8
Layer_0
  10
812.73425
  20
506.80118
  0
VERTEX
  5
10c6
  8
Layer_0
  10
825.72083
  20
509.93723
  0
VERTEX
  5
10c7
  8
Layer_0
  10
838.70703
  20
513.1087
  0
VERTEX
  5
10c8
  8
Layer_0
  10
851.6853
  20
516.31384
  0
VERTEX
  5
10c9
  8
Layer_0
  10
864.64844
  20
519.55066
  0
VERTEX
  5
10ca
  8
Layer_0
  10
866.45203
  20
517.89319
  0
VERTEX
  5
10cb
  8
Layer_0
  10
868.23926
  20
516.21777
  0
VERTEX
  5
10cc
  8
Layer_0
  10
870.00977
  20
514.52478
  0
VERTEX
  5
10cd
  8
Layer_0
  10
871.76324
  20
512.81445
  0
VERTEX
  5
10ce
  8
Layer_0
  10
872.94055
  20
511.69659
  0
VERTEX
  5
10cf
  8
Layer_0
  10
874.15692
  20
510.62378
  0
VERTEX
  5
10d0
  8
Layer_0
  10
875.41089
  20
509.59698
  0
VERTEX
  5
10d1
  8
Layer_0
  10
876.70129
  20
508.61719
  0
VERTEX
  5
10d2
  8
Layer_0
  10
878.02673
  20
507.68533
  0
VERTEX
  5
10d3
  8
Layer_0
  10
879.38593
  20
506.80237
  0
VERTEX
  5
10d4
  8
Layer_0
  10
880.77747
  20
505.9693
  0
VERTEX
  5
10d5
  8
Layer_0
  10
882.20007
  20
505.1871
  0
VERTEX
  5
10d6
  8
Layer_0
  10
883.78992
  20
504.78705
  0
VERTEX
  5
10d7
  8
Layer_0
  10
885.3858
  20
504.41373
  0
VERTEX
  5
10d8
  8
Layer_0
  10
886.98755
  20
504.06723
  0
VERTEX
  5
10d9
  8
Layer_0
  10
888.59473
  20
503.74762
  0
VERTEX
  5
10da
  8
Layer_0
  10
890.20703
  20
503.45496
  0
VERTEX
  5
10db
  8
Layer_0
  10
891.8241
  20
503.18924
  0
VERTEX
  5
10dc
  8
Layer_0
  10
893.44562
  20
502.95059
  0
VERTEX
  5
10dd
  8
Layer_0
  10
895.07129
  20
502.73911
  0
VERTEX
  5
10de
  8
Layer_0
  10
895.15552
  20
501.76093
  0
VERTEX
  5
10df
  8
Layer_0
  10
895.20129
  20
500.78137
  0
VERTEX
  5
10e0
  8
Layer_0
  10
895.20862
  20
499.80151
  0
VERTEX
  5
10e1
  8
Layer_0
  10
895.17761
  20
498.82251
  0
VERTEX
  5
10e2
  8
Layer_0
  10
895.1084
  20
497.84543
  0
VERTEX
  5
10e3
  8
Layer_0
  10
895.00085
  20
496.87146
  0
VERTEX
  5
10e4
  8
Layer_0
  10
894.8551
  20
495.9017
  0
VERTEX
  5
10e5
  8
Layer_0
  10
894.67126
  20
494.93729
  0
VERTEX
  5
10e6
  8
Layer_0
  10
897.71948
  20
494.93732
  0
VERTEX
  5
10e7
  8
Layer_0
  10
898.12714
  20
494.29327
  0
VERTEX
  5
10e8
  8
Layer_0
  10
898.5033
  20
493.63361
  0
VERTEX
  5
10e9
  8
Layer_0
  10
898.8476
  20
492.95953
  0
VERTEX
  5
10ea
  8
Layer_0
  10
899.15985
  20
492.27216
  0
VERTEX
  5
10eb
  8
Layer_0
  10
899.43982
  20
491.57263
  0
VERTEX
  5
10ec
  8
Layer_0
  10
899.68719
  20
490.86212
  0
VERTEX
  5
10ed
  8
Layer_0
  10
899.90173
  20
490.14182
  0
VERTEX
  5
10ee
  8
Layer_0
  10
900.08325
  20
489.41284
  0
VERTEX
  5
10ef
  8
Layer_0
  10
900.23132
  20
488.67636
  0
VERTEX
  5
10f0
  8
Layer_0
  10
900.34583
  20
487.93353
  0
VERTEX
  5
10f1
  8
Layer_0
  10
900.42645
  20
487.18555
  0
VERTEX
  5
10f2
  8
Layer_0
  10
900.4729
  20
486.43353
  0
VERTEX
  5
10f3
  8
Layer_0
  10
900.48499
  20
485.67862
  0
VERTEX
  5
10f4
  8
Layer_0
  10
900.4624
  20
484.92203
  0
VERTEX
  5
10f5
  8
Layer_0
  10
900.40491
  20
484.16489
  0
VERTEX
  5
10f6
  8
Layer_0
  10
900.31226
  20
483.40833
  0
SEQEND
  0
POLYLINE
  5
10f8
  8
Layer_0
  62
0
  66
1
  10
0
  20
0
  30
0
  0
VERTEX
  5
10f8
  8
Layer_0
  10
936.32727
  20
521.60022
  0
VERTEX
  5
10f9
  8
Layer_0
  10
933.8938
  20
521.09705
  0
VERTEX
  5
10fa
  8
Layer_0
  10
931.47498
  20
520.53802
  0
VERTEX
  5
10fb
  8
Layer_0
  10
929.07178
  20
519.92334
  0
VERTEX
  5
10fc
  8
Layer_0
  10
926.68518
  20
519.25342
  0
VERTEX
  5
10fd
  8
Layer_0
  10
924.31598
  20
518.52863
  0
VERTEX
  5
10fe
  8
Layer_0
  10
921.96521
  20
517.74939
  0
VERTEX
  5
10ff
  8
Layer_0
  10
919.63379
  20
516.91602
  0
VERTEX
  5
1100
  8
Layer_0
  10
917.32263
  20
516.02887
  0
VERTEX
  5
1101
  8
Layer_0
  10
915.03265
  20
515.08832
  0
VERTEX
  5
1102
  8
Layer_0
  10
912.76483
  20
514.09479
  0
VERTEX
  5
1103
  8
Layer_0
  10
910.52008
  20
513.04858
  0
VERTEX
  5
1104
  8
Layer_0
  10
908.29932
  20
511.9502
  0
VERTEX
  5
1105
  8
Layer_0
  10
906.10352
  20
510.79984
  0
VERTEX
  5
1106
  8
Layer_0
  10
903.93353
  20
509.59796
  0
VERTEX
  5
1107
  8
Layer_0
  10
901.79041
  20
508.34491
  0
VERTEX
  5
1108
  8
Layer_0
  10
899.67499
  20
507.04111
  0
VERTEX
  5
1109
  8
Layer_0
  10
899.30139
  20
506.83752
  0
VERTEX
  5
110a
  8
Layer_0
  10
898.90967
  20
506.68582
  0
VERTEX
  5
110b
  8
Layer_0
  10
898.50488
  20
506.5863
  0
VERTEX
  5
110c
  8
Layer_0
  10
898.09222
  20
506.53918
  0
VERTEX
  5
110d
  8
Layer_0
  10
897.67694
  20
506.54471
  0
VERTEX
  5
110e
  8
Layer_0
  10
897.26416
  20
506.60321
  0
VERTEX
  5
110f
  8
Layer_0
  10
896.85919
  20
506.7149
  0
VERTEX
  5
1110
  8
Layer_0
  10
896.4671
  20
506.88004
  0
VERTEX
  5
1111
  8
Layer_0
  10
896.09973
  20
507.09464
  0
VERTEX
  5
1112
  8
Layer_0
  10
895.7674
  20
507.35162
  0
VERTEX
  5
1113
  8
Layer_0
  10
895.47296
  20
507.64673
  0
VERTEX
  5
1114
  8
Layer_0
  10
895.21936
  20
507.97562
  0
VERTEX
  5
1115
  8
Layer_0
  10
895.00952
  20
508.33401
  0
VERTEX
  5
1116
  8
Layer_0
  10
894.84625
  20
508.71759
  0
VERTEX
  5
1117
  8
Layer_0
  10
894.73254
  20
509.12201
  0
VERTEX
  5
1118
  8
Layer_0
  10
894.67126
  20
509.54303
  0
VERTEX
  5
1119
  8
Layer_0
  10
893.24487
  20
513.04413
  0
VERTEX
  5
111a
  8
Layer_0
  10
891.77893
  20
516.5285
  0
VERTEX
  5
111b
  8
Layer_0
  10
890.27362
  20
519.99573
  0
VERTEX
  5
111c
  8
Layer_0
  10
888.72906
  20
523.44556
  0
VERTEX
  5
111d
  8
Layer_0
  10
887.14545
  20
526.87762
  0
VERTEX
  5
111e
  8
Layer_0
  10
885.52295
  20
530.29163
  0
VERTEX
  5
111f
  8
Layer_0
  10
883.86169
  20
533.68719
  0
VERTEX
  5
1120
  8
Layer_0
  10
882.16174
  20
537.06396
  0
VERTEX
  5
1121
  8
Layer_0
  10
882.16174
  20
534.56201
  0
VERTEX
  5
1122
  8
Layer_0
  10
881.18585
  20
535.56042
  0
VERTEX
  5
1123
  8
Layer_0
  10
880.23163
  20
536.57666
  0
VERTEX
  5
1124
  8
Layer_0
  10
879.29932
  20
537.61035
  0
VERTEX
  5
1125
  8
Layer_0
  10
878.38904
  20
538.66113
  0
VERTEX
  5
1126
  8
Layer_0
  10
877.50104
  20
539.72864
  0
VERTEX
  5
1127
  8
Layer_0
  10
876.63544
  20
540.81238
  0
VERTEX
  5
1128
  8
Layer_0
  10
875.79248
  20
541.91223
  0
VERTEX
  5
1129
  8
Layer_0
  10
874.97229
  20
543.02759
  0
VERTEX
  5
112a
  8
Layer_0
  10
874.17517
  20
544.1582
  0
VERTEX
  5
112b
  8
Layer_0
  10
873.40112
  20
545.30371
  0
VERTEX
  5
112c
  8
Layer_0
  10
872.65051
  20
546.46362
  0
VERTEX
  5
112d
  8
Layer_0
  10
871.9234
  20
547.63776
  0
VERTEX
  5
112e
  8
Layer_0
  10
871.22003
  20
548.82562
  0
VERTEX
  5
112f
  8
Layer_0
  10
870.54059
  20
550.02686
  0
VERTEX
  5
1130
  8
Layer_0
  10
869.88525
  20
551.24109
  0
VERTEX
  5
1131
  8
Layer_0
  10
869.25421
  20
552.46802
  0
VERTEX
  5
1132
  8
Layer_0
  10
868.64758
  20
553.70728
  0
VERTEX
  5
1133
  8
Layer_0
  10
868.06567
  20
554.95837
  0
VERTEX
  5
1134
  8
Layer_0
  10
867.50861
  20
556.22095
  0
VERTEX
  5
1135
  8
Layer_0
  10
866.97656
  20
557.49481
  0
VERTEX
  5
1136
  8
Layer_0
  10
866.46967
  20
558.77942
  0
VERTEX
  5
1137
  8
Layer_0
  10
865.98822
  20
560.07452
  0
VERTEX
  5
1138
  8
Layer_0
  10
865.53235
  20
561.37964
  0
VERTEX
  5
1139
  8
Layer_0
  10
865.10229
  20
562.69446
  0
VERTEX
  5
113a
  8
Layer_0
  10
864.69812
  20
564.01868
  0
VERTEX
  5
113b
  8
Layer_0
  10
864.32007
  20
565.35175
  0
VERTEX
  5
113c
  8
Layer_0
  10
863.96838
  20
566.69348
  0
VERTEX
  5
113d
  8
Layer_0
  10
863.64319
  20
568.0434
  0
VERTEX
  5
113e
  8
Layer_0
  10
863.34473
  20
569.40118
  0
VERTEX
  5
113f
  8
Layer_0
  10
863.07312
  20
570.76648
  0
VERTEX
  5
1140
  8
Layer_0
  10
862.82855
  20
572.13885
  0
VERTEX
  5
1141
  8
Layer_0
  10
862.61127
  20
573.51801
  0
SEQEND
  0
POLYLINE
  5
1143
  8
Layer_0
  62
0
  66
1
  10
0
  20
0
  30
0
  0
VERTEX
  5
1143
  8
Layer_0
  10
915.75879
  20
528.57288
  0
VERTEX
  5
1144
  8
Layer_0
  10
919.54156
  20
517.04871
  0
VERTEX
  5
1145
  8
Layer_0
  10
919.54156
  20
516.88184
  0
SEQEND
  0
POLYLINE
  5
1147
  8
Layer_0
  62
0
  66
1
  10
0
  20
0
  30
0
  0
VERTEX
  5
1147
  8
Layer_0
  10
882.20007
  20
505.18707
  0
VERTEX
  5
1148
  8
Layer_0
  10
881.80585
  20
503.40564
  0
VERTEX
  5
1149
  8
Layer_0
  10
881.48523
  20
501.61179
  0
VERTEX
  5
114a
  8
Layer_0
  10
881.23853
  20
499.80783
  0
VERTEX
  5
114b
  8
Layer_0
  10
881.06586
  20
497.99603
  0
VERTEX
  5
114c
  8
Layer_0
  10
880.96735
  20
496.17868
  0
VERTEX
  5
114d
  8
Layer_0
  10
880.94324
  20
494.35806
  0
VERTEX
  5
114e
  8
Layer_0
  10
880.99365
  20
492.5365
  0
VERTEX
  5
114f
  8
Layer_0
  10
881.11877
  20
490.71622
  0
VERTEX
  5
1150
  8
Layer_0
  10
881.94666
  20
489.96906
  0
VERTEX
  5
1151
  8
Layer_0
  10
882.79883
  20
489.25122
  0
VERTEX
  5
1152
  8
Layer_0
  10
883.67444
  20
488.5632
  0
VERTEX
  5
1153
  8
Layer_0
  10
884.57269
  20
487.90558
  0
VERTEX
  5
1154
  8
Layer_0
  10
885.4928
  20
487.27893
  0
VERTEX
  5
1155
  8
Layer_0
  10
886.43396
  20
486.68375
  0
VERTEX
  5
1156
  8
Layer_0
  10
887.39551
  20
486.12067
  0
VERTEX
  5
1157
  8
Layer_0
  10
888.37646
  20
485.59027
  0
VERTEX
  5
1158
  8
Layer_0
  10
888.20911
  20
484.8775
  0
VERTEX
  5
1159
  8
Layer_0
  10
888.0097
  20
484.1759
  0
VERTEX
  5
115a
  8
Layer_0
  10
887.77881
  20
483.48645
  0
VERTEX
  5
115b
  8
Layer_0
  10
887.51709
  20
482.81018
  0
VERTEX
  5
115c
  8
Layer_0
  10
887.22522
  20
482.14795
  0
VERTEX
  5
115d
  8
Layer_0
  10
886.90369
  20
481.50085
  0
VERTEX
  5
115e
  8
Layer_0
  10
886.55328
  20
480.86975
  0
VERTEX
  5
115f
  8
Layer_0
  10
886.1745
  20
480.25568
  0
VERTEX
  5
1160
  8
Layer_0
  10
885.76807
  20
479.65955
  0
VERTEX
  5
1161
  8
Layer_0
  10
885.33453
  20
479.08237
  0
VERTEX
  5
1162
  8
Layer_0
  10
884.87457
  20
478.52509
  0
VERTEX
  5
1163
  8
Layer_0
  10
884.38879
  20
477.98865
  0
VERTEX
  5
1164
  8
Layer_0
  10
883.87781
  20
477.47406
  0
VERTEX
  5
1165
  8
Layer_0
  10
883.34229
  20
476.9823
  0
VERTEX
  5
1166
  8
Layer_0
  10
882.78284
  20
476.51431
  0
VERTEX
  5
1167
  8
Layer_0
  10
882.20007
  20
476.07101
  0
SEQEND
  0
POLYLINE
  5
1169
  8
Layer_0
  62
0
  66
1
  10
0
  20
0
  30
0
  0
VERTEX
  5
1169
  8
Layer_0
  10
887.01611
  20
527.15356
  0
VERTEX
  5
116a
  8
Layer_0
  10
888.78076
  20
528.31396
  0
VERTEX
  5
116b
  8
Layer_0
  10
890.56335
  20
529.44482
  0
VERTEX
  5
116c
  8
Layer_0
  10
892.36346
  20
530.54596
  0
VERTEX
  5
116d
  8
Layer_0
  10
894.18073
  20
531.61719
  0
VERTEX
  5
116e
  8
Layer_0
  10
896.01477
  20
532.6582
  0
VERTEX
  5
116f
  8
Layer_0
  10
897.86523
  20
533.66895
  0
VERTEX
  5
1170
  8
Layer_0
  10
899.73169
  20
534.64917
  0
VERTEX
  5
1171
  8
Layer_0
  10
901.61383
  20
535.59875
  0
VERTEX
  5
1172
  8
Layer_0
  10
903.51123
  20
536.51746
  0
VERTEX
  5
1173
  8
Layer_0
  10
905.42346
  20
537.40503
  0
VERTEX
  5
1174
  8
Layer_0
  10
907.35022
  20
538.26135
  0
VERTEX
  5
1175
  8
Layer_0
  10
909.29114
  20
539.0863
  0
VERTEX
  5
1176
  8
Layer_0
  10
911.24573
  20
539.87952
  0
VERTEX
  5
1177
  8
Layer_0
  10
913.21375
  20
540.64099
  0
VERTEX
  5
1178
  8
Layer_0
  10
915.1947
  20
541.37048
  0
VERTEX
  5
1179
  8
Layer_0
  10
917.18835
  20
542.06775
  0
VERTEX
  5
117a
  8
Layer_0
  10
924.57489
  20
546.55011
  0
VERTEX
  5
117b
  8
Layer_0
  10
924.02875
  20
547.09595
  0
VERTEX
  5
117c
  8
Layer_0
  10
923.46509
  20
547.62109
  0
VERTEX
  5
117d
  8
Layer_0
  10
922.8844
  20
548.12531
  0
VERTEX
  5
117e
  8
Layer_0
  10
922.28735
  20
548.60822
  0
VERTEX
  5
117f
  8
Layer_0
  10
921.67456
  20
549.06946
  0
VERTEX
  5
1180
  8
Layer_0
  10
921.04663
  20
549.50861
  0
VERTEX
  5
1181
  8
Layer_0
  10
920.40417
  20
549.92542
  0
VERTEX
  5
1182
  8
Layer_0
  10
919.7478
  20
550.31946
  0
VERTEX
  5
1183
  8
Layer_0
  10
919.07813
  20
550.69043
  0
VERTEX
  5
1184
  8
Layer_0
  10
918.39569
  20
551.03802
  0
VERTEX
  5
1185
  8
Layer_0
  10
917.70117
  20
551.36182
  0
VERTEX
  5
1186
  8
Layer_0
  10
916.99524
  20
551.66144
  0
VERTEX
  5
1187
  8
Layer_0
  10
916.27832
  20
551.93658
  0
VERTEX
  5
1188
  8
Layer_0
  10
915.55115
  20
552.18689
  0
VERTEX
  5
1189
  8
Layer_0
  10
914.81433
  20
552.41205
  0
VERTEX
  5
118a
  8
Layer_0
  10
914.06848
  20
552.61163
  0
VERTEX
  5
118b
  8
Layer_0
  10
909.57446
  20
557.02087
  0
VERTEX
  5
118c
  8
Layer_0
  10
905.14734
  20
561.49585
  0
VERTEX
  5
118d
  8
Layer_0
  10
900.78784
  20
566.03564
  0
VERTEX
  5
118e
  8
Layer_0
  10
896.49658
  20
570.63971
  0
VERTEX
  5
118f
  8
Layer_0
  10
892.27435
  20
575.30713
  0
VERTEX
  5
1190
  8
Layer_0
  10
888.12189
  20
580.03711
  0
VERTEX
  5
1191
  8
Layer_0
  10
884.03986
  20
584.82892
  0
VERTEX
  5
1192
  8
Layer_0
  10
880.02899
  20
589.68176
  0
SEQEND
  0
POLYLINE
  5
1194
  8
Layer_0
  62
0
  66
1
  10
0
  20
0
  30
0
  0
VERTEX
  5
1194
  8
Layer_0
  10
891.29102
  20
517.66406
  0
VERTEX
  5
1195
  8
Layer_0
  10
892.93347
  20
518.69287
  0
VERTEX
  5
1196
  8
Layer_0
  10
894.59656
  20
519.68475
  0
VERTEX
  5
1197
  8
Layer_0
  10
896.2796
  20
520.63959
  0
VERTEX
  5
1198
  8
Layer_0
  10
897.98199
  20
521.55713
  0
VERTEX
  5
1199
  8
Layer_0
  10
899.70313
  20
522.43701
  0
VERTEX
  5
119a
  8
Layer_0
  10
901.44232
  20
523.27905
  0
VERTEX
  5
119b
  8
Layer_0
  10
903.19897
  20
524.08289
  0
VERTEX
  5
119c
  8
Layer_0
  10
904.97247
  20
524.84839
  0
VERTEX
  5
119d
  8
Layer_0
  10
906.76215
  20
525.5752
  0
VERTEX
  5
119e
  8
Layer_0
  10
908.56738
  20
526.26312
  0
VERTEX
  5
119f
  8
Layer_0
  10
910.38757
  20
526.9118
  0
VERTEX
  5
11a0
  8
Layer_0
  10
912.22205
  20
527.52112
  0
VERTEX
  5
11a1
  8
Layer_0
  10
914.07019
  20
528.09064
  0
VERTEX
  5
11a2
  8
Layer_0
  10
915.93134
  20
528.62018
  0
VERTEX
  5
11a3
  8
Layer_0
  10
917.80493
  20
529.10944
  0
VERTEX
  5
11a4
  8
Layer_0
  10
919.69025
  20
529.55823
  0
VERTEX
  5
11a5
  8
Layer_0
  10
924.46307
  20
518.57544
  0
SEQEND
  0
POLYLINE
  5
11a7
  8
Layer_0
  62
0
  66
1
  10
0
  20
0
  30
0
  0
VERTEX
  5
11a7
  8
Layer_0
  10
927.16083
  20
552.61163
  0
VERTEX
  5
11a8
  8
Layer_0
  10
926.79645
  20
552.23999
  0
VERTEX
  5
11a9
  8
Layer_0
  10
926.45801
  20
551.8493
  0
VERTEX
  5
11aa
  8
Layer_0
  10
926.146
  20
551.44086
  0
VERTEX
  5
11ab
  8
Layer_0
  10
925.86078
  20
551.01605
  0
VERTEX
  5
11ac
  8
Layer_0
  10
925.60291
  20
550.57623
  0
VERTEX
  5
11ad
  8
Layer_0
  10
925.37274
  20
550.12268
  0
VERTEX
  5
11ae
  8
Layer_0
  10
925.17078
  20
549.65692
  0
VERTEX
  5
11af
  8
Layer_0
  10
924.99738
  20
549.18018
  0
VERTEX
  5
11b0
  8
Layer_0
  10
924.85315
  20
548.69385
  0
VERTEX
  5
11b1
  8
Layer_0
  10
924.7384
  20
548.19928
  0
VERTEX
  5
11b2
  8
Layer_0
  10
924.65356
  20
547.69781
  0
VERTEX
  5
11b3
  8
Layer_0
  10
924.59924
  20
547.19086
  0
VERTEX
  5
11b4
  8
Layer_0
  10
924.57574
  20
546.67975
  0
VERTEX
  5
11b5
  8
Layer_0
  10
924.58356
  20
546.16577
  0
VERTEX
  5
11b6
  8
Layer_0
  10
924.62317
  20
545.65039
  0
VERTEX
  5
11b7
  8
Layer_0
  10
924.69495
  20
545.13495
  0
VERTEX
  5
11b8
  8
Layer_0
  10
924.79846
  20
544.62488
  0
VERTEX
  5
11b9
  8
Layer_0
  10
924.93237
  20
544.12567
  0
VERTEX
  5
11ba
  8
Layer_0
  10
925.09576
  20
543.63837
  0
VERTEX
  5
11bb
  8
Layer_0
  10
925.28772
  20
543.16406
  0
VERTEX
  5
11bc
  8
Layer_0
  10
925.50739
  20
542.70398
  0
VERTEX
  5
11bd
  8
Layer_0
  10
925.75397
  20
542.25916
  0
VERTEX
  5
11be
  8
Layer_0
  10
926.02649
  20
541.83081
  0
VERTEX
  5
11bf
  8
Layer_0
  10
926.32416
  20
541.42004
  0
VERTEX
  5
11c0
  8
Layer_0
  10
926.64606
  20
541.02795
  0
VERTEX
  5
11c1
  8
Layer_0
  10
926.99133
  20
540.6557
  0
VERTEX
  5
11c2
  8
Layer_0
  10
927.35907
  20
540.30444
  0
VERTEX
  5
11c3
  8
Layer_0
  10
927.74841
  20
539.97528
  0
VERTEX
  5
11c4
  8
Layer_0
  10
928.15857
  20
539.66937
  0
VERTEX
  5
11c5
  8
Layer_0
  10
928.58856
  20
539.38782
  0
VERTEX
  5
11c6
  8
Layer_0
  10
929.0376
  20
539.13171
  0
VERTEX
  5
11c7
  8
Layer_0
  10
929.5047
  20
538.90228
  0
SEQEND
  0
POLYLINE
  5
11c9
  8
Layer_0
  62
0
  66
1
  10
0
  20
0
  30
0
  0
VERTEX
  5
11c9
  8
Layer_0
  10
870.85315
  20
576.54681
  0
VERTEX
  5
11ca
  8
Layer_0
  10
871.37793
  20
576.76343
  0
VERTEX
  5
11cb
  8
Layer_0
  10
871.88519
  20
577.01404
  0
VERTEX
  5
11cc
  8
Layer_0
  10
872.37329
  20
577.29761
  0
VERTEX
  5
11cd
  8
Layer_0
  10
872.84076
  20
577.61298
  0
VERTEX
  5
11ce
  8
Layer_0
  10
873.28601
  20
577.95898
  0
VERTEX
  5
11cf
  8
Layer_0
  10
873.70746
  20
578.33459
  0
VERTEX
  5
11d0
  8
Layer_0
  10
874.10358
  20
578.73865
  0
VERTEX
  5
11d1
  8
Layer_0
  10
874.47278
  20
579.16992
  0
SEQEND
  0
POLYLINE
  5
11d3
  8
Layer_0
  62
0
  66
1
  10
0
  20
0
  30
0
  0
VERTEX
  5
11d3
  8
Layer_0
  10
897.01495
  20
533.20947
  0
VERTEX
  5
11d4
  8
Layer_0
  10
896.19269
  20
534.77344
  0
VERTEX
  5
11d5
  8
Layer_0
  10
895.39734
  20
536.35034
  0
VERTEX
  5
11d6
  8
Layer_0
  10
894.62915
  20
537.9397
  0
VERTEX
  5
11d7
  8
Layer_0
  10
893.88806
  20
539.54126
  0
VERTEX
  5
11d8
  8
Layer_0
  10
893.17432
  20
541.15466
  0
VERTEX
  5
11d9
  8
Layer_0
  10
892.4881
  20
542.77954
  0
VERTEX
  5
11da
  8
Layer_0
  10
891.82947
  20
544.41553
  0
VERTEX
  5
11db
  8
Layer_0
  10
891.19855
  20
546.06226
  0
VERTEX
  5
11dc
  8
Layer_0
  10
890.59552
  20
547.71936
  0
VERTEX
  5
11dd
  8
Layer_0
  10
890.02051
  20
549.3866
  0
VERTEX
  5
11de
  8
Layer_0
  10
889.47357
  20
551.06348
  0
VERTEX
  5
11df
  8
Layer_0
  10
888.95496
  20
552.74976
  0
VERTEX
  5
11e0
  8
Layer_0
  10
888.46466
  20
554.44495
  0
VERTEX
  5
11e1
  8
Layer_0
  10
888.00293
  20
556.1488
  0
VERTEX
  5
11e2
  8
Layer_0
  10
887.56982
  20
557.86102
  0
VERTEX
  5
11e3
  8
Layer_0
  10
887.16559
  20
559.58112
  0
VERTEX
  5
11e4
  8
Layer_0
  10
886.75946
  20
561.2251
  0
VERTEX
  5
11e5
  8
Layer_0
  10
886.28918
  20
562.84973
  0
VERTEX
  5
11e6
  8
Layer_0
  10
885.75549
  20
564.45337
  0
VERTEX
  5
11e7
  8
Layer_0
  10
885.15918
  20
566.03406
  0
VERTEX
  5
11e8
  8
Layer_0
  10
884.50092
  20
567.58997
  0
VERTEX
  5
11e9
  8
Layer_0
  10
883.78137
  20
569.1192
  0
VERTEX
  5
11ea
  8
Layer_0
  10
883.00146
  20
570.62006
  0
VERTEX
  5
11eb
  8
Layer_0
  10
882.16174
  20
572.09058
  0
VERTEX
  5
11ec
  8
Layer_0
  10
881.39471
  20
573.45636
  0
VERTEX
  5
11ed
  8
Layer_0
  10
880.70367
  20
574.85834
  0
VERTEX
  5
11ee
  8
Layer_0
  10
880.08966
  20
576.29333
  0
VERTEX
  5
11ef
  8
Layer_0
  10
879.55383
  20
577.75806
  0
VERTEX
  5
11f0
  8
Layer_0
  10
879.09717
  20
579.24939
  0
VERTEX
  5
11f1
  8
Layer_0
  10
878.72089
  20
580.76416
  0
VERTEX
  5
11f2
  8
Layer_0
  10
878.4259
  20
582.29913
  0
VERTEX
  5
11f3
  8
Layer_0
  10
878.21338
  20
583.85107
  0
SEQEND
  0
POLYLINE
  5
11f5
  8
Layer_0
  62
0
  66
1
  10
0
  20
0
  30
0
  0
VERTEX
  5
11f5
  8
Layer_0
  10
935.23779
  20
516.80676
  0
VERTEX
  5
11f6
  8
Layer_0
  10
937.41663
  20
526.39362
  0
SEQEND
  0
ENDSEC
  0
EOF
