  0
SECTION
  2
HEADER
  9
$ACADVER
  1
AC1015
  9
$ACADMAINTVER
 70
     6
  9
$DWGCODEPAGE
  3
ANSI_1252
  9
$INSBASE
 10
0.0
 20
0.0
 30
0.0
  9
$EXTMIN
 10
1.000000E+20
 20
1.000000E+20
 30
1.000000E+20
  9
$EXTMAX
 10
-1.000000E+20
 20
-1.000000E+20
 30
-1.000000E+20
  9
$LIMMIN
 10
0.0
 20
0.0
  9
$LIMMAX
 10
420.0
 20
297.0
  9
$ORTHOMODE
 70
     0
  9
$REGENMODE
 70
     1
  9
$FILLMODE
 70
     1
  9
$QTEXTMODE
 70
     0
  9
$MIRRTEXT
 70
     1
  9
$LTSCALE
 40
1.0
  9
$ATTMODE
 70
     1
  9
$TEXTSIZE
 40
2.5
  9
$TRACEWID
 40
1.0
  9
$TEXTSTYLE
  7
Standard
  9
$CLAYER
  8
0
  9
$CELTYPE
  6
ByLayer
  9
$CECOLOR
 62
   256
  9
$CELTSCALE
 40
1.0
  9
$DISPSILH
 70
     0
  9
$DIMSCALE
 40
1.0
  9
$DIMASZ
 40
2.5
  9
$DIMEXO
 40
0.625
  9
$DIMDLI
 40
3.75
  9
$DIMRND
 40
0.0
  9
$DIMDLE
 40
0.0
  9
$DIMEXE
 40
1.25
  9
$DIMTP
 40
0.0
  9
$DIMTM
 40
0.0
  9
$DIMTXT
 40
2.5
  9
$DIMCEN
 40
2.5
  9
$DIMTSZ
 40
0.0
  9
$DIMTOL
 70
     0
  9
$DIMLIM
 70
     0
  9
$DIMTIH
 70
     0
  9
$DIMTOH
 70
     0
  9
$DIMSE1
 70
     0
  9
$DIMSE2
 70
     0
  9
$DIMTAD
 70
     1
  9
$DIMZIN
 70
     8
  9
$DIMBLK
  1

  9
$DIMASO
 70
     1
  9
$DIMSHO
 70
     1
  9
$DIMPOST
  1

  9
$DIMAPOST
  1

  9
$DIMALT
 70
     0
  9
$DIMALTD
 70
     3
  9
$DIMALTF
 40
0.03937
  9
$DIMLFAC
 40
1.0
  9
$DIMTOFL
 70
     1
  9
$DIMTVP
 40
0.0
  9
$DIMTIX
 70
     0
  9
$DIMSOXD
 70
     0
  9
$DIMSAH
 70
     0
  9
$DIMBLK1
  1

  9
$DIMBLK2
  1

  9
$DIMSTYLE
  2
ISO-25
  9
$DIMCLRD
 70
     0
  9
$DIMCLRE
 70
     0
  9
$DIMCLRT
 70
     0
  9
$DIMTFAC
 40
1.0
  9
$DIMGAP
 40
0.625
  9
$DIMJUST
 70
     0
  9
$DIMSD1
 70
     0
  9
$DIMSD2
 70
     0
  9
$DIMTOLJ
 70
     0
  9
$DIMTZIN
 70
     8
  9
$DIMALTZ
 70
     0
  9
$DIMALTTZ
 70
     0
  9
$DIMUPT
 70
     0
  9
$DIMDEC
 70
     2
  9
$DIMTDEC
 70
     2
  9
$DIMALTU
 70
     2
  9
$DIMALTTD
 70
     3
  9
$DIMTXSTY
  7
Standard
  9
$DIMAUNIT
 70
     0
  9
$DIMADEC
 70
     0
  9
$DIMALTRND
 40
0.0
  9
$DIMAZIN
 70
     0
  9
$DIMDSEP
 70
    44
  9
$DIMATFIT
 70
     3
  9
$DIMFRAC
 70
     0
  9
$DIMLDRBLK
  1

  9
$DIMLUNIT
 70
     2
  9
$DIMLWD
 70
    -2
  9
$DIMLWE
 70
    -2
  9
$DIMTMOVE
 70
     0
  9
$LUNITS
 70
     2
  9
$LUPREC
 70
     4
  9
$SKETCHINC
 40
1.0
  9
$FILLETRAD
 40
10.0
  9
$AUNITS
 70
     0
  9
$AUPREC
 70
     0
  9
$MENU
  1
.
  9
$ELEVATION
 40
0.0
  9
$PELEVATION
 40
0.0
  9
$THICKNESS
 40
0.0
  9
$LIMCHECK
 70
     0
  9
$CHAMFERA
 40
10.0
  9
$CHAMFERB
 40
10.0
  9
$CHAMFERC
 40
20.0
  9
$CHAMFERD
 40
0.0
  9
$SKPOLY
 70
     0
  9
$TDCREATE
 40
2455219.931701562
  9
$TDUCREATE
 40
2455219.390034896
  9
$TDUPDATE
 40
2455219.931701574
  9
$TDUUPDATE
 40
2455219.390034908
  9
$TDINDWG
 40
0.0000000116
  9
$TDUSRTIMER
 40
0.0000000116
  9
$USRTIMER
 70
     1
  9
$ANGBASE
 50
0.0
  9
$ANGDIR
 70
     0
  9
$PDMODE
 70
     3
  9
$PDSIZE
 40
-0.7
  9
$PLINEWID
 40
0.0
  9
$SPLFRAME
 70
     0
  9
$SPLINETYPE
 70
     6
  9
$SPLINESEGS
 70
     8
  9
$HANDSEED
  5
3F
  9
$SURFTAB1
 70
     6
  9
$SURFTAB2
 70
     6
  9
$SURFTYPE
 70
     6
  9
$SURFU
 70
     6
  9
$SURFV
 70
     6
  9
$UCSBASE
  2

  9
$UCSNAME
  2

  9
$UCSORG
 10
0.0
 20
0.0
 30
0.0
  9
$UCSXDIR
 10
1.0
 20
0.0
 30
0.0
  9
$UCSYDIR
 10
0.0
 20
1.0
 30
0.0
  9
$UCSORTHOREF
  2

  9
$UCSORTHOVIEW
 70
     0
  9
$UCSORGTOP
 10
0.0
 20
0.0
 30
0.0
  9
$UCSORGBOTTOM
 10
0.0
 20
0.0
 30
0.0
  9
$UCSORGLEFT
 10
0.0
 20
0.0
 30
0.0
  9
$UCSORGRIGHT
 10
0.0
 20
0.0
 30
0.0
  9
$UCSORGFRONT
 10
0.0
 20
0.0
 30
0.0
  9
$UCSORGBACK
 10
0.0
 20
0.0
 30
0.0
  9
$PUCSBASE
  2

  9
$PUCSNAME
  2

  9
$PUCSORG
 10
0.0
 20
0.0
 30
0.0
  9
$PUCSXDIR
 10
1.0
 20
0.0
 30
0.0
  9
$PUCSYDIR
 10
0.0
 20
1.0
 30
0.0
  9
$PUCSORTHOREF
  2

  9
$PUCSORTHOVIEW
 70
     0
  9
$PUCSORGTOP
 10
0.0
 20
0.0
 30
0.0
  9
$PUCSORGBOTTOM
 10
0.0
 20
0.0
 30
0.0
  9
$PUCSORGLEFT
 10
0.0
 20
0.0
 30
0.0
  9
$PUCSORGRIGHT
 10
0.0
 20
0.0
 30
0.0
  9
$PUCSORGFRONT
 10
0.0
 20
0.0
 30
0.0
  9
$PUCSORGBACK
 10
0.0
 20
0.0
 30
0.0
  9
$USERI1
 70
     0
  9
$USERI2
 70
     0
  9
$USERI3
 70
     0
  9
$USERI4
 70
     0
  9
$USERI5
 70
     0
  9
$USERR1
 40
0.0
  9
$USERR2
 40
0.0
  9
$USERR3
 40
0.0
  9
$USERR4
 40
0.0
  9
$USERR5
 40
0.0
  9
$WORLDVIEW
 70
     1
  9
$SHADEDGE
 70
     3
  9
$SHADEDIF
 70
    70
  9
$TILEMODE
 70
     1
  9
$MAXACTVP
 70
    64
  9
$PINSBASE
 10
0.0
 20
0.0
 30
0.0
  9
$PLIMCHECK
 70
     0
  9
$PEXTMIN
 10
1.000000E+20
 20
1.000000E+20
 30
1.000000E+20
  9
$PEXTMAX
 10
-1.000000E+20
 20
-1.000000E+20
 30
-1.000000E+20
  9
$PLIMMIN
 10
0.0
 20
0.0
  9
$PLIMMAX
 10
420.0
 20
297.0
  9
$UNITMODE
 70
     0
  9
$VISRETAIN
 70
     1
  9
$PLINEGEN
 70
     0
  9
$PSLTSCALE
 70
     1
  9
$TREEDEPTH
 70
  3020
  9
$CMLSTYLE
  2
Standard
  9
$CMLJUST
 70
     1
  9
$CMLSCALE
 40
1.0
  9
$PROXYGRAPHICS
 70
     1
  9
$MEASUREMENT
 70
     1
  9
$CELWEIGHT
370
    -1
  9
$ENDCAPS
280
     0
  9
$JOINSTYLE
280
     0
  9
$LWDISPLAY
290
     0
  9
$INSUNITS
 70
     4
  9
$HYPERLINKBASE
  1

  9
$STYLESHEET
  1

  9
$XEDIT
290
     1
  9
$CEPSNTYPE
380
     0
  9
$PSTYLEMODE
290
     1
  9
$FINGERPRINTGUID
  2
{FAEB1C30-E019-11D5-929B-00C0DF256EC4}
  9
$VERSIONGUID
  2
{FAEB1C32-E019-11D5-929B-00C0DF256EC4}
  9
$EXTNAMES
290
     1
  9
$PSVPSCALE
 40
0.0
  9
$OLESTARTUP
290
     0
  0
ENDSEC
  0
SECTION
  2
CLASSES
  0
CLASS
  1
ACDBDICTIONARYWDFLT
  2
AcDbDictionaryWithDefault
  3
ObjectDBX Classes
 90
        0
280
     0
281
     0
  0
CLASS
  1
ACDBPLACEHOLDER
  2
AcDbPlaceHolder
  3
ObjectDBX Classes
 90
        0
280
     0
281
     0
  0
CLASS
  1
LAYOUT
  2
AcDbLayout
  3
ObjectDBX Classes
 90
        0
280
     0
281
     0
  0
ENDSEC
  0
SECTION
  2
TABLES
  0
TABLE
  2
VPORT
  5
8
330
0
100
AcDbSymbolTable
 70
     2
  0
VPORT
  5
29
330
8
100
AcDbSymbolTableRecord
100
AcDbViewportTableRecord
  2
*Active
 70
     0
 10
0.0
 20
0.0
 11
1.0
 21
1.0
 12
50.0
 22
50.0
 13
0.0
 23
0.0
 14
10.0
 24
10.0
 15
10.0
 25
10.0
 16
0.0
 26
0.0
 36
1.0
 17
0.0
 27
0.0
 37
0.0
 40
103.921569
 41
1.0
 42
50.0
 43
0.0
 44
0.0
 50
0.0
 51
0.0
 71
     0
 72
   100
 73
     1
 74
     3
 75
     0
 76
     0
 77
     0
 78
     0
281
     0
 65
     1
110
0.0
120
0.0
130
0.0
111
1.0
121
0.0
131
0.0
112
0.0
122
1.0
132
0.0
 79
     0
146
0.0
  0
ENDTAB
  0
TABLE
  2
LTYPE
  5
5
330
0
100
AcDbSymbolTable
 70
     1
  0
LTYPE
  5
14
330
5
100
AcDbSymbolTableRecord
100
AcDbLinetypeTableRecord
  2
ByBlock
 70
     0
  3

 72
    65
 73
     0
 40
0.0
  0
LTYPE
  5
15
330
5
100
AcDbSymbolTableRecord
100
AcDbLinetypeTableRecord
  2
ByLayer
 70
     0
  3

 72
    65
 73
     0
 40
0.0
  0
LTYPE
  5
16
330
5
100
AcDbSymbolTableRecord
100
AcDbLinetypeTableRecord
  2
Continuous
 70
     0
  3

 72
    65
 73
     0
 40
0.0
  0
ENDTAB
  0
TABLE
  2
LAYER
  5
2
330
0
100
AcDbSymbolTable
 70
     1
  0
LAYER
  5
10
330
2
100
AcDbSymbolTableRecord
100
AcDbLayerTableRecord
  2
0
 70
     0
 62
     7
  6
Continuous
370
    -3
390
F
  0
ENDTAB
  0
TABLE
  2
STYLE
  5
3
330
0
100
AcDbSymbolTable
 70
     1
  0
STYLE
  5
11
330
3
100
AcDbSymbolTableRecord
100
AcDbTextStyleTableRecord
  2
Standard
 70
     0
 40
1.0
 41
1.0
 50
0.0
 71
     0
 42
2.5
  3
RomanS
  4

  0
ENDTAB
  0
TABLE
  2
VIEW
  5
6
330
0
100
AcDbSymbolTable
 70
     0
  0
ENDTAB
  0
TABLE
  2
UCS
  5
7
330
0
100
AcDbSymbolTable
 70
     0
  0
ENDTAB
  0
TABLE
  2
APPID
  5
9
330
0
100
AcDbSymbolTable
 70
     1
  0
APPID
  5
12
330
9
100
AcDbSymbolTableRecord
100
AcDbRegAppTableRecord
  2
ACAD
 70
     0
  0
ENDTAB
  0
TABLE
  2
DIMSTYLE
  5
A
330
0
100
AcDbSymbolTable
 70
     1
100
AcDbDimStyleTable
  0
DIMSTYLE
105
27
330
A
100
AcDbSymbolTableRecord
100
AcDbDimStyleTableRecord
  2
ISO-25
 70
     0
 41
2.5
 42
0.625
 44
1.25
 73
     0
 74
     0
 77
     1
 78
     8
 79
     2
140
2.5
141
2.5
146
0.0
147
0.625
271
     2
272
     0
273
     0
274
     0
278
    44
283
     0
289
     0
340
11
  0
ENDTAB
  0
TABLE
  2
BLOCK_RECORD
  5
1
330
0
100
AcDbSymbolTable
 70
     1
  0
BLOCK_RECORD
  5
1F
330
1
100
AcDbSymbolTableRecord
100
AcDbBlockTableRecord
  2
*Model_Space
340
22
  0
BLOCK_RECORD
  5
1B
330
1
100
AcDbSymbolTableRecord
100
AcDbBlockTableRecord
  2
*Paper_Space
340
1E
  0
BLOCK_RECORD
  5
23
330
1
100
AcDbSymbolTableRecord
100
AcDbBlockTableRecord
  2
*Paper_Space0
340
26
  0
ENDTAB
  0
ENDSEC
  0
SECTION
  2
BLOCKS
  0
BLOCK
  5
20
330
1F
100
AcDbEntity
  8
0
100
AcDbBlockBegin
  2
*Model_Space
 70
     0
 71
     0
 10
0.0
 20
0.0
 30
0.0
  3
*Model_Space
  1

  0
ENDBLK
  5
21
330
1F
100
AcDbEntity
  8
0
100
AcDbBlockEnd
  0
BLOCK
  5
1C
330
1B
100
AcDbEntity
 67
     1
  8
0
100
AcDbBlockBegin
  2
*Paper_Space
 70
     0
 71
     0
 10
0.0
 20
0.0
 30
0.0
  3
*Paper_Space
  1

  0
ENDBLK
  5
1D
330
1B
100
AcDbEntity
 67
     1
  8
0
100
AcDbBlockEnd
  0
BLOCK
  5
24
330
23
100
AcDbEntity
  8
0
100
AcDbBlockBegin
  2
*Paper_Space0
 70
     0
 71
     0
 10
0.0
 20
0.0
 30
0.0
  3
*Paper_Space0
  1

  0
ENDBLK
  5
25
330
23
100
AcDbEntity
  8
0
100
AcDbBlockEnd
  0
ENDSEC
  0
SECTION
  2
ENTITIES
  0
LWPOLYLINE
  5
2A
330
1F
100
AcDbEntity
  8
0
100
AcDbPolyline
 90
       21
 70
   128
 43
0.0
 10
163.968701
 20
31.651638
 10
182.600983
 20
31.661034
 10
182.577675
 20
51.268205
 10
185.587631
 20
51.271135
 10
185.610939
 20
31.664594
 10
220.539053
 20
31.707964
 10
220.514565
 20
51.315126
 10
223.524227
 20
51.319164
 10
223.549009
 20
31.711996
 10
230.26601
 20
31.719682
 10
230.236517
 20
59.548853
 10
223.525569
 20
59.548853
 10
223.525569
 20
72.509021
 10
220.841816
 20
72.509021
 42
0.322779
 10
220.462363
 20
72.235572
 42
-0.204756
 10
207.147569
 20
57.232152
 42
-0.181682
 10
194.595444
 20
56.046395
 42
-0.212568
 10
186.045749
 20
65.110159
 10
141.062491
 20
65.127991
 42
0.512134
 10
134.281205
 20
55.732501
 42
0.292466
 10
163.968701
 20
31.651638
  0
LWPOLYLINE
  5
2B
330
1F
100
AcDbEntity
  8
0
100
AcDbPolyline
 90
       34
 70
   128
 43
0.0
 10
261.467314
 20
152.953336
 42
-0.49268
 10
256.854327
 20
158.716383
 10
259.834104
 20
174.813747
 10
262.81406
 20
190.911065
 42
-0.309879
 10
273.357392
 20
199.604985
 42
-0.051188
 10
274.945931
 20
192.902259
 10
269.743269
 20
183.047683
 10
266.283294
 20
173.50125
 10
266.335017
 20
173.658908
 42
0.438468
 10
267.243686
 20
171.674242
 42
0.438566
 10
269.148944
 20
172.748023
 10
276.017169
 20
187.979731
 42
-0.448598
 10
279.191053
 20
186.96114
 10
281.628234
 20
181.425269
 10
321.576524
 20
184.210428
 10
331.422696
 20
192.77075
 42
-0.544484
 10
335.094613
 20
192.046214
 10
334.339816
 20
189.913305
 10
328.01012
 20
176.638289
 42
0.416299
 10
328.647492
 20
174.614205
 42
0.416291
 10
330.662109
 20
175.256513
 10
337.716945
 20
188.914152
 10
340.116391
 20
195.694513
 42
-0.079949
 10
343.453459
 20
198.93151
 42
-0.375803
 10
346.201564
 20
183.839341
 42
-0.027527
 10
345.372124
 20
182.465542
 42
-0.070096
 10
341.770846
 20
178.170162
 10
327.908576
 20
159.649572
 42
-0.379149
 10
318.269891
 20
156.071374
 10
321.869929
 20
162.401463
 10
316.502059
 20
173.832367
 10
280.456167
 20
171.319279
 10
263.944233
 20
159.535332
 10
261.467314
 20
152.953336
  0
LWPOLYLINE
  5
2C
330
1F
100
AcDbEntity
  8
0
100
AcDbPolyline
 90
      416
 70
   128
 43
0.0
 10
257.405703
 20
25.350217
 10
273.788154
 20
25.350217
 10
273.788154
 20
41.152177
 42
-1.0
 10
276.798111
 20
41.152177
 10
276.798111
 20
25.350217
 10
293.180561
 20
25.350217
 10
293.209348
 20
25.404481
 10
293.292524
 20
25.563832
 10
293.425317
 20
25.823113
 10
293.602955
 20
26.177163
 10
293.820662
 20
26.620824
 10
294.073668
 20
27.148938
 10
294.357197
 20
27.756344
 10
294.666477
 20
28.437883
 10
294.996736
 20
29.188398
 10
295.343198
 20
30.002728
 10
295.701093
 20
30.875715
 10
296.065645
 20
31.8022
 10
296.432082
 20
32.777023
 10
296.795631
 20
33.795026
 10
297.151519
 20
34.85105
 10
297.494972
 20
35.939935
 10
297.821217
 20
37.056523
 10
298.125481
 20
38.195654
 10
298.402991
 20
39.35217
 10
298.648973
 20
40.520911
 10
298.860396
 20
41.699724
 10
299.037823
 20
42.87905
 10
299.183756
 20
44.052296
 10
299.3007
 20
45.212871
 10
299.391159
 20
46.354182
 10
299.457636
 20
47.469637
 10
299.502635
 20
48.552643
 10
299.52866
 20
49.596608
 10
299.538215
 20
50.59494
 10
299.533803
 20
51.541046
 10
299.517929
 20
52.428334
 10
299.493095
 20
53.250212
 10
299.461807
 20
54.000088
 10
299.426566
 20
54.671368
 10
299.389878
 20
55.257462
 10
299.354246
 20
55.751775
 10
299.322174
 20
56.147717
 10
299.296165
 20
56.438694
 10
299.278724
 20
56.618115
 10
299.272354
 20
56.679387
 10
299.272354
 20
56.897301
 10
299.272351
 20
56.931649
 10
299.272329
 20
56.969426
 10
299.272271
 20
57.01079
 10
299.272158
 20
57.055901
 10
299.271971
 20
57.104918
 10
299.271693
 20
57.158002
 10
299.271304
 20
57.215311
 10
299.270787
 20
57.277006
 10
299.270122
 20
57.343244
 10
299.269293
 20
57.414187
 10
299.26828
 20
57.489993
 10
299.267064
 20
57.570822
 10
299.265629
 20
57.656834
 10
299.263954
 20
57.748187
 10
299.262023
 20
57.845042
 10
299.259816
 20
57.947557
 10
299.257315
 20
58.055893
 10
299.254502
 20
58.170208
 10
299.251358
 20
58.290663
 10
299.247865
 20
58.417417
 10
299.243954
 20
58.550542
 10
299.239355
 20
58.68977
 10
299.233745
 20
58.834744
 10
299.226803
 20
58.985109
 10
299.218207
 20
59.140507
 10
299.207636
 20
59.300585
 10
299.194768
 20
59.464984
 10
299.179282
 20
59.63335
 10
299.160855
 20
59.805327
 10
299.139167
 20
59.980558
 10
299.113896
 20
60.158688
 10
299.08472
 20
60.33936
 10
299.051317
 20
60.52222
 10
299.013366
 20
60.706909
 10
298.970546
 20
60.893074
 10
298.922535
 20
61.080358
 10
298.869011
 20
61.268404
 10
298.809653
 20
61.456858
 10
298.744139
 20
61.645362
 10
298.672147
 20
61.833562
 10
298.593476
 20
62.02113
 10
298.508402
 20
62.207859
 10
298.417324
 20
62.393571
 10
298.320638
 20
62.578089
 10
298.21874
 20
62.761233
 10
298.112028
 20
62.942826
 10
298.0009
 20
63.122691
 10
297.885751
 20
63.300648
 10
297.766979
 20
63.47652
 10
297.644981
 20
63.650129
 10
297.520155
 20
63.821297
 10
297.392896
 20
63.989846
 10
297.263602
 20
64.155598
 10
297.13267
 20
64.318375
 10
297.000497
 20
64.477998
 10
296.86748
 20
64.634291
 10
296.734016
 20
64.787074
 10
296.600502
 20
64.93617
 10
296.467335
 20
65.081401
 10
296.334912
 20
65.222588
 10
296.203596
 20
65.359586
 10
296.073611
 20
65.492371
 10
295.945147
 20
65.620953
 10
295.818396
 20
65.74534
 10
295.693546
 20
65.865542
 10
295.570789
 20
65.981567
 10
295.450314
 20
66.093424
 10
295.332312
 20
66.201122
 10
295.216973
 20
66.304671
 10
295.104488
 20
66.404078
 10
294.995046
 20
66.499354
 10
294.888838
 20
66.590506
 10
294.786054
 20
66.677544
 10
294.686884
 20
66.760476
 10
294.591519
 20
66.839312
 10
294.500149
 20
66.914061
 10
294.412964
 20
66.98473
 10
294.330155
 20
67.051331
 10
294.251911
 20
67.11387
 10
294.178423
 20
67.172358
 10
294.109817
 20
67.226828
 10
294.045964
 20
67.277417
 10
293.98667
 20
67.324287
 10
293.931743
 20
67.367601
 10
293.880988
 20
67.40752
 10
293.834213
 20
67.444206
 10
293.791224
 20
67.477821
 10
293.751827
 20
67.508528
 10
293.71583
 20
67.536489
 10
293.68304
 20
67.561865
 10
293.653261
 20
67.584819
 10
293.626302
 20
67.605512
 10
293.60197
 20
67.624107
 10
293.580069
 20
67.640767
 10
293.560408
 20
67.655652
 10
293.542794
 20
67.668924
 10
293.527031
 20
67.680747
 10
293.512928
 20
67.691282
 10
293.500291
 20
67.700692
 10
293.416977
 20
67.762587
 10
293.416977
 20
46.075521
 42
-1.0
 10
290.407019
 20
46.075521
 10
290.407019
 20
69.639501
 10
289.639417
 20
70.038721
 10
289.518598
 20
70.101517
 10
289.386742
 20
70.169816
 10
289.244321
 20
70.24313
 10
289.091813
 20
70.320975
 10
288.929692
 20
70.402864
 10
288.758434
 20
70.48831
 10
288.578514
 20
70.576829
 10
288.390407
 20
70.667933
 10
288.194588
 20
70.761137
 10
287.991534
 20
70.855955
 10
287.78172
 20
70.9519
 10
287.56562
 20
71.048487
 10
287.34371
 20
71.145229
 10
287.116465
 20
71.241641
 10
286.884361
 20
71.337236
 10
286.647874
 20
71.431529
 10
286.407478
 20
71.524032
 10
286.163648
 20
71.614261
 10
285.916861
 20
71.701729
 10
285.667591
 20
71.785949
 10
285.416258
 20
71.86653
 10
285.163058
 20
71.943452
 10
284.90813
 20
72.016789
 10
284.651613
 20
72.086614
 10
284.393648
 20
72.153001
 10
284.134374
 20
72.216025
 10
283.87393
 20
72.27576
 10
283.612457
 20
72.332278
 10
283.350093
 20
72.385655
 10
283.08698
 20
72.435963
 10
282.823255
 20
72.483277
 10
282.559059
 20
72.527671
 10
282.294532
 20
72.569219
 10
282.029813
 20
72.607994
 10
281.765041
 20
72.644071
 10
281.500357
 20
72.677523
 10
281.2359
 20
72.708424
 10
280.97181
 20
72.736848
 10
280.708225
 20
72.76287
 10
280.445287
 20
72.786562
 10
280.183211
 20
72.808005
 10
279.922518
 20
72.827306
 10
279.663805
 20
72.844577
 10
279.40767
 20
72.859931
 10
279.154711
 20
72.873482
 10
278.905525
 20
72.88534
 10
278.66071
 20
72.89562
 10
278.420862
 20
72.904435
 10
278.186581
 20
72.911896
 10
277.958462
 20
72.918116
 10
277.737104
 20
72.923209
 10
277.523104
 20
72.927287
 10
277.31706
 20
72.930464
 10
277.119569
 20
72.93285
 10
276.931228
 20
72.934561
 10
276.752636
 20
72.935707
 10
276.584389
 20
72.936402
 10
276.427086
 20
72.936759
 10
276.281323
 20
72.936891
 10
275.298654
 20
72.93691
 10
274.315993
 20
72.936891
 10
274.170231
 20
72.936759
 10
274.012929
 20
72.936402
 10
273.844683
 20
72.935707
 10
273.666092
 20
72.934561
 10
273.477753
 20
72.93285
 10
273.280263
 20
72.930464
 10
273.074221
 20
72.927288
 10
272.860223
 20
72.923209
 10
272.638866
 20
72.918116
 10
272.410749
 20
72.911896
 10
272.176469
 20
72.904435
 10
271.936624
 20
72.895621
 10
271.69181
 20
72.885341
 10
271.442626
 20
72.873483
 10
271.189669
 20
72.859933
 10
270.933537
 20
72.844579
 10
270.674826
 20
72.827308
 10
270.414135
 20
72.808007
 10
270.15206
 20
72.786564
 10
269.889124
 20
72.762872
 10
269.625542
 20
72.736851
 10
269.361454
 20
72.708427
 10
269.096999
 20
72.677527
 10
268.832317
 20
72.644075
 10
268.567547
 20
72.607999
 10
268.30283
 20
72.569225
 10
268.038305
 20
72.527678
 10
267.774111
 20
72.483284
 10
267.510388
 20
72.435971
 10
267.247277
 20
72.385663
 10
266.984915
 20
72.332287
 10
266.723444
 20
72.27577
 10
266.463002
 20
72.216037
 10
266.20373
 20
72.153014
 10
265.945766
 20
72.086627
 10
265.689252
 20
72.016803
 10
265.434325
 20
71.943468
 10
265.181126
 20
71.866547
 10
264.929795
 20
71.785968
 10
264.680527
 20
71.701748
 10
264.433741
 20
71.614282
 10
264.189913
 20
71.524055
 10
263.949519
 20
71.431553
 10
263.713033
 20
71.337262
 10
263.48093
 20
71.241668
 10
263.253687
 20
71.145258
 10
263.031778
 20
71.048517
 10
262.81568
 20
70.951932
 10
262.605866
 20
70.855988
 10
262.402813
 20
70.761172
 10
262.206996
 20
70.66797
 10
262.01889
 20
70.576867
 10
261.838971
 20
70.48835
 10
261.667713
 20
70.402905
 10
261.505593
 20
70.321018
 10
261.353085
 20
70.243174
 10
261.210666
 20
70.169861
 10
261.07881
 20
70.101564
 10
260.957992
 20
70.038769
 10
260.190393
 20
69.639555
 10
260.190393
 20
46.075521
 42
-1.0
 10
257.180436
 20
46.075521
 10
257.180436
 20
67.762664
 10
257.097114
 20
67.700765
 10
257.084476
 20
67.691355
 10
257.070372
 20
67.680819
 10
257.054608
 20
67.668995
 10
257.036992
 20
67.655722
 10
257.01733
 20
67.640836
 10
256.995428
 20
67.624176
 10
256.971094
 20
67.60558
 10
256.944134
 20
67.584885
 10
256.914354
 20
67.561931
 10
256.881561
 20
67.536553
 10
256.845563
 20
67.508592
 10
256.806164
 20
67.477884
 10
256.763174
 20
67.444267
 10
256.716397
 20
67.40758
 10
256.66564
 20
67.36766
 10
256.610711
 20
67.324345
 10
256.551415
 20
67.277474
 10
256.48756
 20
67.226884
 10
256.418953
 20
67.172413
 10
256.345463
 20
67.113924
 10
256.267217
 20
67.051384
 10
256.184405
 20
66.984782
 10
256.097219
 20
66.914112
 10
256.005847
 20
66.839362
 10
255.91048
 20
66.760525
 10
255.811308
 20
66.677591
 10
255.708522
 20
66.590553
 10
255.602312
 20
66.499399
 10
255.492868
 20
66.404123
 10
255.380381
 20
66.304714
 10
255.26504
 20
66.201165
 10
255.147037
 20
66.093465
 10
255.02656
 20
65.981607
 10
254.903801
 20
65.865581
 10
254.778949
 20
65.745378
 10
254.652196
 20
65.62099
 10
254.523731
 20
65.492407
 10
254.393744
 20
65.35962
 10
254.262426
 20
65.222621
 10
254.130001
 20
65.081432
 10
253.996833
 20
64.9362
 10
253.863317
 20
64.787103
 10
253.729852
 20
64.634318
 10
253.596833
 20
64.478024
 10
253.464659
 20
64.318399
 10
253.333725
 20
64.155621
 10
253.20443
 20
63.989867
 10
253.07717
 20
63.821317
 10
252.952342
 20
63.650147
 10
252.830343
 20
63.476537
 10
252.71157
 20
63.300663
 10
252.59642
 20
63.122705
 10
252.48529
 20
62.942839
 10
252.378577
 20
62.761244
 10
252.276679
 20
62.578099
 10
252.179991
 20
62.39358
 10
252.088912
 20
62.207867
 10
252.003838
 20
62.021137
 10
251.925166
 20
61.833568
 10
251.853174
 20
61.645367
 10
251.787659
 20
61.456862
 10
251.7283
 20
61.268408
 10
251.674775
 20
61.080361
 10
251.626764
 20
60.893077
 10
251.583943
 20
60.706911
 10
251.545992
 20
60.522221
 10
251.51259
 20
60.339362
 10
251.483413
 20
60.158689
 10
251.458142
 20
59.980559
 10
251.436454
 20
59.805327
 10
251.418027
 20
59.633351
 10
251.40254
 20
59.464984
 10
251.389672
 20
59.300585
 10
251.379101
 20
59.140507
 10
251.370505
 20
58.985109
 10
251.363563
 20
58.834744
 10
251.357953
 20
58.68977
 10
251.353354
 20
58.550542
 10
251.349443
 20
58.417417
 10
251.34595
 20
58.290663
 10
251.342807
 20
58.170208
 10
251.339993
 20
58.055893
 10
251.337493
 20
57.947557
 10
251.335285
 20
57.845042
 10
251.333354
 20
57.748187
 10
251.331679
 20
57.656834
 10
251.330244
 20
57.570822
 10
251.329029
 20
57.489993
 10
251.328015
 20
57.414187
 10
251.327186
 20
57.343244
 10
251.326522
 20
57.277006
 10
251.326004
 20
57.215311
 10
251.325615
 20
57.158002
 10
251.325337
 20
57.104918
 10
251.32515
 20
57.055901
 10
251.325037
 20
57.01079
 10
251.324979
 20
56.969426
 10
251.324957
 20
56.931649
 10
251.324954
 20
56.897301
 10
251.319432
 20
56.679387
 10
251.30754
 20
56.618115
 10
251.290099
 20
56.438694
 10
251.26409
 20
56.147717
 10
251.232018
 20
55.751775
 10
251.196386
 20
55.257462
 10
251.159698
 20
54.671368
 10
251.124458
 20
54.000088
 10
251.093169
 20
53.250212
 10
251.068336
 20
52.428334
 10
251.052461
 20
51.541046
 10
251.048049
 20
50.59494
 10
251.057604
 20
49.596608
 10
251.083629
 20
48.552643
 10
251.128629
 20
47.469637
 10
251.195106
 20
46.354182
 10
251.285564
 20
45.212871
 10
251.402509
 20
44.052296
 10
251.548442
 20
42.87905
 10
251.725868
 20
41.699724
 10
251.937291
 20
40.520911
 10
252.183274
 20
39.35217
 10
252.460783
 20
38.195654
 10
252.765048
 20
37.056523
 10
253.091293
 20
35.939935
 10
253.434746
 20
34.85105
 10
253.790633
 20
33.795026
 10
254.154182
 20
32.777023
 10
254.52062
 20
31.8022
 10
254.885172
 20
30.875715
 10
255.243066
 20
30.002728
 10
255.589529
 20
29.188398
 10
255.919787
 20
28.437883
 10
256.229067
 20
27.756344
 10
256.512597
 20
27.148938
 10
256.765602
 20
26.620824
 10
256.98331
 20
26.177163
 10
257.160947
 20
25.823113
 10
257.293741
 20
25.563832
 10
257.376917
 20
25.404481
 10
257.405703
 20
25.350217
  0
LWPOLYLINE
  5
2D
330
1F
100
AcDbEntity
  8
0
100
AcDbPolyline
 90
       26
 70
   128
 43
0.0
 10
25.982203
 20
21.00792
 42
0.46973
 10
49.879216
 20
24.059169
 42
0.088896
 10
60.796031
 20
46.699075
 42
-0.394746
 10
63.397849
 20
48.279629
 10
127.122017
 20
34.700177
 10
127.122017
 20
56.179144
 10
73.46041
 20
56.179144
 10
73.46041
 20
59.229144
 10
127.122017
 20
59.229144
 10
127.122017
 20
80.708111
 10
63.397849
 20
67.128659
 42
-0.394746
 10
60.796031
 20
68.709213
 42
0.088896
 10
49.879216
 20
91.349118
 42
0.46973
 10
25.982203
 20
94.400367
 42
0.076974
 10
21.220141
 20
88.658393
 42
0.084364
 10
18.56172
 20
82.111328
 42
0.168647
 10
19.18049
 20
66.263873
 42
0.056714
 10
20.591226
 20
63.300102
 42
0.054951
 10
23.172811
 20
59.957962
 42
-0.219814
 10
24.239568
 20
57.704144
 42
-0.219814
 10
23.172811
 20
55.450326
 42
0.054951
 10
20.591226
 20
52.108186
 42
0.056714
 10
19.18049
 20
49.144415
 42
0.168647
 10
18.56172
 20
33.29696
 42
0.084364
 10
21.220141
 20
26.749895
 42
0.076974
 10
25.982203
 20
21.00792
  0
LWPOLYLINE
  5
2E
330
1F
100
AcDbEntity
  8
0
100
AcDbPolyline
 90
        5
 70
   128
 43
0.0
 10
229.212745
 20
155.025646
 42
0.414214
 10
234.78674
 20
149.451651
 42
0.414214
 10
240.360735
 20
155.025646
 42
0.414214
 10
234.78674
 20
160.59964
 42
0.414214
 10
229.212745
 20
155.025646
  0
LWPOLYLINE
  5
2F
330
1F
100
AcDbEntity
  8
0
100
AcDbPolyline
 90
        5
 70
   128
 43
0.0
 10
325.145334
 20
69.398323
 42
0.675572
 10
329.005728
 20
78.993379
 42
0.193623
 10
325.145583
 20
80.546133
 42
0.41423
 10
319.57132
 20
74.972273
 42
0.414213
 10
325.145334
 20
69.398323
  0
LWPOLYLINE
  5
30
330
1F
100
AcDbEntity
  8
0
100
AcDbPolyline
 90
        5
 70
   128
 43
0.0
 10
337.64734
 20
74.971306
 42
-0.414214
 10
325.14734
 20
62.471306
 42
-0.414214
 10
312.64734
 20
74.971306
 42
-0.414214
 10
325.14734
 20
87.471306
 42
-0.414214
 10
337.64734
 20
74.971306
  0
LWPOLYLINE
  5
31
330
1F
100
AcDbEntity
  8
0
100
AcDbPolyline
 90
        5
 70
   128
 43
0.0
 10
331.32143
 20
37.135643
 42
0.675572
 10
335.181825
 20
46.730698
 42
0.193623
 10
331.32168
 20
48.283453
 42
0.41423
 10
325.747417
 20
42.709593
 42
0.414213
 10
331.32143
 20
37.135643
  0
LWPOLYLINE
  5
32
330
1F
100
AcDbEntity
  8
0
100
AcDbPolyline
 90
        5
 70
   128
 43
0.0
 10
343.823437
 20
42.708626
 42
-0.414214
 10
331.323437
 20
30.208626
 42
-0.414214
 10
318.823437
 20
42.708626
 42
-0.414214
 10
331.323437
 20
55.208626
 42
-0.414214
 10
343.823437
 20
42.708626
  0
LWPOLYLINE
  5
33
330
1F
100
AcDbEntity
  8
0
100
AcDbPolyline
 90
       53
 70
   128
 43
0.0
 10
53.933036
 20
134.964067
 10
63.933036
 20
134.964067
 10
63.929404
 20
131.497501
 42
0.414227
 10
65.042351
 20
130.380763
 10
74.407283
 20
130.371648
 10
74.432912
 20
156.011318
 10
77.442902
 20
156.008842
 10
77.417278
 20
130.368056
 10
115.855023
 20
130.329756
 42
0.351775
 10
122.67642
 20
137.402077
 10
98.181737
 20
137.426266
 10
98.185324
 20
140.436261
 10
137.024419
 20
140.397321
 42
0.05749
 10
149.812883
 20
141.934328
 42
0.048524
 10
185.641959
 20
152.500563
 10
191.100024
 20
148.370297
 42
0.786681
 10
200.951755
 20
139.834809
 42
0.786681
 10
196.098239
 20
151.932517
 10
195.226846
 20
154.941769
 10
203.951764
 20
157.163946
 42
0.16123
 10
211.971093
 20
161.570457
 42
0.045297
 10
214.381555
 20
164.309983
 42
0.056731
 10
217.702575
 20
169.289987
 10
160.899123
 20
169.347382
 10
160.901604
 20
172.357372
 10
218.872068
 20
172.298808
 10
218.879361
 20
179.734623
 42
0.33589
 10
200.632953
 20
205.639054
 42
0.393798
 10
182.194912
 20
194.698638
 42
-0.173291
 10
171.64591
 20
180.874181
 10
115.910927
 20
184.92994
 10
115.878554
 20
153.59592
 42
-0.414015
 10
114.37351
 20
152.09199
 42
-0.414699
 10
112.868565
 20
153.599336
 10
112.875467
 20
160.844532
 10
84.894667
 20
160.872421
 10
77.340968
 20
176.810752
 10
76.110849
 20
176.811983
 10
75.194646
 20
170.33981
 10
72.214369
 20
170.761698
 10
73.071278
 20
176.815024
 10
30.06262
 20
176.84805
 42
0.255328
 10
21.672582
 20
170.958924
 10
18.329246
 20
170.96314
 42
0.414338
 10
16.096802
 20
168.735373
 10
16.095135
 20
167.453155
 10
21.66917
 20
167.447245
 10
21.666681
 20
164.437255
 10
16.092607
 20
164.443165
 10
16.090892
 20
163.16128
 42
0.414235
 10
18.318827
 20
160.929791
 10
22.232072
 20
160.926127
 42
0.277258
 10
53.933036
 20
134.964067
  0
LWPOLYLINE
  5
34
330
1F
100
AcDbEntity
  8
0
100
AcDbPolyline
 90
       21
 70
   128
 43
0.0
 10
154.676849
 20
84.150601
 10
173.309132
 20
84.159997
 10
173.285823
 20
103.767168
 10
176.295779
 20
103.770098
 10
176.319088
 20
84.163557
 10
211.247202
 20
84.206927
 10
211.222713
 20
103.814089
 10
214.232375
 20
103.818127
 10
214.257157
 20
84.210959
 10
220.974158
 20
84.218645
 10
220.944665
 20
112.047815
 10
214.233717
 20
112.047815
 10
214.233717
 20
125.007984
 10
211.549964
 20
125.007984
 42
0.322779
 10
211.170511
 20
124.734535
 42
-0.204756
 10
197.855717
 20
109.731115
 42
-0.181682
 10
185.303592
 20
108.545358
 42
-0.212568
 10
176.753897
 20
117.609122
 10
131.770639
 20
117.626954
 42
0.512134
 10
124.989353
 20
108.231464
 42
0.292466
 10
154.676849
 20
84.150601
  0
LWPOLYLINE
  5
35
330
1F
100
AcDbEntity
  8
0
100
AcDbPolyline
 90
       89
 70
   128
 43
0.0
 10
67.678807
 20
90.574854
 10
67.678807
 20
96.959108
 10
67.687499
 20
96.969059
 10
67.713146
 20
96.997932
 10
67.7551
 20
97.044258
 10
67.812716
 20
97.106567
 10
67.885348
 20
97.18339
 10
67.97235
 20
97.273257
 10
68.073076
 20
97.374699
 10
68.186881
 20
97.486247
 10
68.313118
 20
97.606431
 10
68.451141
 20
97.733781
 10
68.600305
 20
97.866829
 10
68.759963
 20
98.004105
 10
68.92947
 20
98.144139
 10
69.10818
 20
98.285462
 10
69.295446
 20
98.426605
 10
69.490623
 20
98.566098
 10
69.693065
 20
98.702472
 10
69.902125
 20
98.834257
 10
70.117159
 20
98.959983
 10
70.33752
 20
99.078183
 10
70.546674
 20
99.180377
 10
70.758442
 20
99.275027
 10
70.971379
 20
99.362382
 10
71.184044
 20
99.442691
 10
71.394995
 20
99.516203
 10
71.602789
 20
99.583167
 10
71.805983
 20
99.643833
 10
72.003137
 20
99.698449
 10
72.192806
 20
99.747264
 10
72.37355
 20
99.790528
 10
72.543925
 20
99.82849
 10
72.702489
 20
99.861398
 10
72.8478
 20
99.889501
 10
72.978416
 20
99.91305
 10
73.092895
 20
99.932292
 10
73.189793
 20
99.947477
 10
73.267669
 20
99.958854
 10
73.325081
 20
99.966672
 10
73.360586
 20
99.97118
 10
73.372741
 20
99.972628
 42
-1.0
 10
93.484873
 20
99.972628
 10
93.497029
 20
99.97118
 10
93.532533
 20
99.966672
 10
93.589945
 20
99.958854
 10
93.667821
 20
99.947477
 10
93.764719
 20
99.932292
 10
93.879198
 20
99.91305
 10
94.009814
 20
99.889501
 10
94.155125
 20
99.861398
 10
94.313689
 20
99.82849
 10
94.484065
 20
99.790528
 10
94.664808
 20
99.747264
 10
94.854478
 20
99.698449
 10
95.051631
 20
99.643833
 10
95.254826
 20
99.583167
 10
95.462619
 20
99.516203
 10
95.67357
 20
99.442691
 10
95.886235
 20
99.362382
 10
96.099173
 20
99.275027
 10
96.31094
 20
99.180377
 10
96.520095
 20
99.078183
 10
96.740455
 20
98.959983
 10
96.955489
 20
98.834257
 10
97.16455
 20
98.702472
 10
97.366991
 20
98.566098
 10
97.562168
 20
98.426605
 10
97.749434
 20
98.285462
 10
97.928144
 20
98.144139
 10
98.097651
 20
98.004105
 10
98.257309
 20
97.866829
 10
98.406473
 20
97.733781
 10
98.544496
 20
97.606431
 10
98.670733
 20
97.486247
 10
98.784538
 20
97.374699
 10
98.885264
 20
97.273257
 10
98.972266
 20
97.18339
 10
99.044899
 20
97.106567
 10
99.102515
 20
97.044258
 10
99.144469
 20
96.997932
 10
99.170115
 20
96.969059
 10
99.178807
 20
96.959108
 10
99.178807
 20
90.574854
 10
84.933786
 20
90.574854
 10
84.933786
 20
95.915742
 42
1.0
 10
81.923829
 20
95.915742
 10
81.923829
 20
90.574854
 10
67.678807
 20
90.574854
  0
LWPOLYLINE
  5
36
330
1F
100
AcDbEntity
  8
0
100
AcDbPolyline
 90
       52
 70
   128
 43
0.0
 10
301.917404
 20
123.140799
 10
309.720997
 20
123.140799
 10
310.166917
 20
120.911202
 10
312.151252
 20
120.911145
 10
312.568786
 20
120.937984
 10
312.967916
 20
121.016598
 10
313.348314
 20
121.144257
 10
313.709648
 20
121.318234
 10
314.05159
 20
121.535799
 10
314.37381
 20
121.794223
 10
314.675978
 20
122.090779
 10
314.957765
 20
122.422736
 10
315.218841
 20
122.787368
 10
315.458876
 20
123.181944
 10
315.67754
 20
123.603736
 10
315.874505
 20
124.050016
 10
316.04944
 20
124.518055
 10
316.202016
 20
125.005124
 10
316.331903
 20
125.508494
 10
316.438772
 20
126.025437
 10
316.522292
 20
126.553225
 10
316.582135
 20
127.089127
 10
316.617971
 20
127.630416
 10
316.629469
 20
128.174364
 10
316.616497
 20
128.716399
 10
316.579353
 20
129.255659
 10
316.518365
 20
129.789438
 10
316.433861
 20
130.315031
 10
316.326169
 20
130.829732
 10
316.195618
 20
131.330836
 10
316.042534
 20
131.815638
 10
315.867246
 20
132.281431
 10
315.670083
 20
132.725512
 10
315.451371
 20
133.145173
 10
315.211439
 20
133.537711
 10
314.950615
 20
133.90042
 10
314.669227
 20
134.230594
 10
314.367602
 20
134.525528
 10
314.046069
 20
134.782516
 10
313.704956
 20
134.998853
 10
313.34459
 20
135.171835
 10
312.9653
 20
135.298755
 10
312.567413
 20
135.376907
 10
312.151258
 20
135.403588
 10
310.166917
 20
135.403588
 10
309.720997
 20
133.17399
 10
301.917404
 20
133.17399
 10
301.917404
 20
129.662374
 10
309.720997
 20
129.662374
 42
-1.0
 10
309.720997
 20
126.652416
 10
301.917404
 20
126.652416
 10
301.917404
 20
123.140799
  0
LWPOLYLINE
  5
37
330
1F
100
AcDbEntity
  8
0
100
AcDbPolyline
 90
       18
 70
   128
 43
0.0
 10
272.957533
 20
83.800146
 10
272.065695
 20
83.800259
 10
272.065687
 20
88.259455
 10
264.262095
 20
88.259441
 10
264.262089
 20
91.771072
 10
272.065679
 20
91.771072
 42
1.0
 10
272.065679
 20
94.781029
 10
264.262083
 20
94.781029
 10
264.262077
 20
98.292631
 10
267.896321
 20
98.292638
 10
272.06567
 20
98.292646
 10
272.065662
 20
102.740694
 10
272.946365
 20
102.740695
 42
-0.233887
 10
289.370067
 20
94.769881
 10
281.000761
 20
94.769881
 42
1.0
 10
281.000761
 20
91.759924
 10
289.354592
 20
91.759924
 42
-0.236337
 10
272.957533
 20
83.800146
  0
LWPOLYLINE
  5
38
330
1F
100
AcDbEntity
  8
0
100
AcDbPolyline
 90
       15
 70
   128
 43
0.0
 10
267.90716
 20
116.053024
 10
267.907148
 20
120.46773
 10
270.907152
 20
120.423241
 10
270.907146
 20
124.023836
 10
277.279021
 20
124.023836
 42
1.0
 10
277.279021
 20
127.033793
 10
270.907141
 20
127.033793
 10
270.907134
 20
130.623241
 10
267.907139
 20
130.584326
 10
267.907127
 20
134.993458
 10
268.78783
 20
134.993459
 42
-0.23641
 10
285.331359
 20
126.866537
 42
-0.3334
 10
285.331129
 20
124.190655
 42
-0.239235
 10
268.798997
 20
116.05291
 10
267.90716
 20
116.053024
  0
LWPOLYLINE
  5
39
330
1F
100
AcDbEntity
  8
0
100
AcDbPolyline
 90
       52
 70
   128
 43
0.0
 10
313.021813
 20
96.338368
 10
313.439347
 20
96.365207
 10
313.838478
 20
96.443821
 10
314.218875
 20
96.57148
 10
314.58021
 20
96.745457
 10
314.922152
 20
96.963022
 10
315.244372
 20
97.221446
 10
315.54654
 20
97.518002
 10
315.828327
 20
97.849959
 10
316.089402
 20
98.214591
 10
316.329437
 20
98.609167
 10
316.548102
 20
99.030959
 10
316.745066
 20
99.477239
 10
316.920002
 20
99.945278
 10
317.072578
 20
100.432347
 10
317.202465
 20
100.935717
 10
317.309333
 20
101.45266
 10
317.392854
 20
101.980448
 10
317.452697
 20
102.51635
 10
317.488532
 20
103.057639
 10
317.500031
 20
103.601587
 10
317.487058
 20
104.143622
 10
317.449914
 20
104.682882
 10
317.388926
 20
105.216661
 10
317.304422
 20
105.742254
 10
317.196731
 20
106.256955
 10
317.066179
 20
106.758059
 10
316.913095
 20
107.242861
 10
316.737808
 20
107.708654
 10
316.540644
 20
108.152735
 10
316.321932
 20
108.572396
 10
316.082001
 20
108.964934
 10
315.821177
 20
109.327643
 10
315.539788
 20
109.657817
 10
315.238164
 20
109.952751
 10
314.916631
 20
110.209739
 10
314.575517
 20
110.426076
 10
314.215152
 20
110.599058
 10
313.835862
 20
110.725978
 10
313.437975
 20
110.80413
 10
313.02182
 20
110.830811
 10
311.037478
 20
110.830811
 10
310.591559
 20
108.601213
 10
302.787966
 20
108.601213
 10
302.787966
 20
105.089597
 10
310.591559
 20
105.089597
 42
-1.0
 10
310.591559
 20
102.079639
 10
302.787966
 20
102.079639
 10
302.787966
 20
98.568023
 10
310.591559
 20
98.568023
 10
311.037478
 20
96.338425
 10
313.021813
 20
96.338368
  0
LWPOLYLINE
  5
3A
330
1F
100
AcDbEntity
  8
0
100
AcDbPolyline
 90
      329
 70
   128
 43
0.0
 10
231.203106
 20
143.022397
 42
0.270261
 10
229.373931
 20
146.613166
 42
-0.561103
 10
229.77208
 20
163.681359
 42
0.320861
 10
231.68302
 20
167.920647
 10
231.464455
 20
169.016969
 10
231.431883
 20
169.180449
 10
231.396479
 20
169.358304
 10
231.358243
 20
169.55062
 10
231.317174
 20
169.757482
 10
231.273274
 20
169.978974
 10
231.226542
 20
170.21518
 10
231.176979
 20
170.466186
 10
231.124584
 20
170.732075
 10
231.069358
 20
171.012933
 10
231.0113
 20
171.308843
 10
230.950411
 20
171.619892
 10
230.886691
 20
171.946162
 10
230.820141
 20
172.287739
 10
230.750759
 20
172.644708
 10
230.678547
 20
173.017152
 10
230.603503
 20
173.405157
 10
230.52563
 20
173.808807
 10
230.444926
 20
174.228187
 10
230.361392
 20
174.663382
 10
230.275079
 20
175.114557
 10
230.186252
 20
175.582211
 10
230.095224
 20
176.066923
 10
230.00231
 20
176.569271
 10
229.907825
 20
177.089835
 10
229.812083
 20
177.629195
 10
229.7154
 20
178.187929
 10
229.618091
 20
178.766618
 10
229.520469
 20
179.36584
 10
229.42285
 20
179.986174
 10
229.325549
 20
180.6282
 10
229.22888
 20
181.292498
 10
229.133159
 20
181.979646
 10
229.038699
 20
182.690224
 10
228.945816
 20
183.42481
 10
228.854824
 20
184.183985
 10
228.766039
 20
184.968328
 10
228.679775
 20
185.778418
 10
228.596347
 20
186.614834
 10
228.516069
 20
187.478156
 10
228.439457
 20
188.368137
 10
228.367826
 20
189.281235
 10
228.30269
 20
190.21308
 10
228.245567
 20
191.159302
 10
228.19797
 20
192.115534
 10
228.161416
 20
193.077405
 10
228.137419
 20
194.040548
 10
228.127496
 20
195.000594
 10
228.133161
 20
195.953172
 10
228.15593
 20
196.893915
 10
228.197318
 20
197.818453
 10
228.258841
 20
198.722418
 10
228.342014
 20
199.60144
 10
228.448352
 20
200.451151
 10
228.579371
 20
201.267181
 10
228.736587
 20
202.045162
 10
228.921514
 20
202.780725
 10
229.135668
 20
203.469501
 10
229.380564
 20
204.10712
 10
229.657718
 20
204.689215
 10
229.967842
 20
205.212321
 10
230.308437
 20
205.676603
 10
230.676199
 20
206.083128
 10
231.067825
 20
206.432965
 10
231.480013
 20
206.727184
 10
231.90946
 20
206.966852
 10
232.352862
 20
207.153039
 10
232.806918
 20
207.286814
 10
233.268324
 20
207.369244
 10
233.733776
 20
207.4014
 10
234.199974
 20
207.38435
 10
234.663612
 20
207.319163
 10
235.12139
 20
207.206907
 10
235.570003
 20
207.048651
 10
236.006148
 20
206.845464
 10
236.426524
 20
206.598415
 10
236.827827
 20
206.308573
 10
237.206754
 20
205.977006
 10
237.560002
 20
205.604783
 10
237.884269
 20
205.192974
 10
238.177063
 20
204.742889
 10
238.439141
 20
204.256815
 10
238.672072
 20
203.73728
 10
238.877423
 20
203.186812
 10
239.056763
 20
202.607941
 10
239.211661
 20
202.003195
 10
239.343684
 20
201.375102
 10
239.454401
 20
200.726191
 10
239.545381
 20
200.058991
 10
239.618192
 20
199.376031
 10
239.674402
 20
198.679838
 10
239.71558
 20
197.972943
 10
239.743294
 20
197.257872
 10
239.759112
 20
196.537155
 10
239.764603
 20
195.813321
 10
239.761335
 20
195.088898
 10
239.750877
 20
194.366415
 10
239.734796
 20
193.6484
 10
239.714662
 20
192.937382
 10
239.692043
 20
192.235889
 10
239.668254
 20
191.545956
 10
239.643603
 20
190.867639
 10
239.618144
 20
190.200498
 10
239.591933
 20
189.544095
 10
239.565023
 20
188.89799
 10
239.53747
 20
188.261745
 10
239.509328
 20
187.634921
 10
239.480653
 20
187.017079
 10
239.451498
 20
186.40778
 10
239.421919
 20
185.806585
 10
239.39197
 20
185.213056
 10
239.361707
 20
184.626753
 10
239.331182
 20
184.047237
 10
239.300453
 20
183.47407
 10
239.269572
 20
182.906813
 10
239.238596
 20
182.345027
 10
239.207578
 20
181.788273
 10
239.176573
 20
181.236111
 10
239.145636
 20
180.688104
 10
239.114823
 20
180.143812
 10
239.084185
 20
179.602999
 10
239.053769
 20
179.066235
 10
239.023619
 20
178.534294
 10
238.99378
 20
178.007949
 10
238.964295
 20
177.487973
 10
238.93521
 20
176.975139
 10
238.906569
 20
176.470221
 10
238.878415
 20
175.973992
 10
238.850794
 20
175.487225
 10
238.823749
 20
175.010693
 10
238.797325
 20
174.545169
 10
238.771566
 20
174.091427
 10
238.746518
 20
173.65024
 10
238.722223
 20
173.222381
 10
238.698726
 20
172.808623
 10
238.676072
 20
172.409739
 10
238.654305
 20
172.026503
 10
238.633469
 20
171.659688
 10
238.613609
 20
171.310067
 10
238.594769
 20
170.978413
 10
238.576981
 20
170.665271
 10
238.560223
 20
170.37027
 10
238.54446
 20
170.09281
 10
238.529661
 20
169.832292
 10
238.515789
 20
169.588117
 10
238.502812
 20
169.359684
 10
238.490694
 20
169.146395
 10
238.479403
 20
168.947649
 10
238.468904
 20
168.762849
 10
238.459163
 20
168.591393
 10
238.450146
 20
168.432682
 10
238.441818
 20
168.286118
 10
238.434147
 20
168.151099
 10
238.427098
 20
168.027028
 10
238.420636
 20
167.913304
 10
238.414728
 20
167.809328
 10
238.40934
 20
167.714501
 10
238.404437
 20
167.628222
 10
238.399986
 20
167.549893
 10
238.395953
 20
167.478914
 10
238.370381
 20
167.028886
 42
0.270261
 10
240.19738
 20
163.439519
 42
-0.560909
 10
239.806178
 20
146.3727
 42
0.320861
 10
237.890468
 20
142.130636
 10
238.109032
 20
141.034314
 10
238.141604
 20
140.870835
 10
238.177009
 20
140.692979
 10
238.215245
 20
140.500663
 10
238.256313
 20
140.293801
 10
238.300213
 20
140.072309
 10
238.346945
 20
139.836103
 10
238.396509
 20
139.585097
 10
238.448904
 20
139.319208
 10
238.50413
 20
139.03835
 10
238.562187
 20
138.74244
 10
238.623076
 20
138.431392
 10
238.686796
 20
138.105121
 10
238.753347
 20
137.763544
 10
238.822729
 20
137.406576
 10
238.894941
 20
137.034131
 10
238.969984
 20
136.646126
 10
239.047858
 20
136.242476
 10
239.128562
 20
135.823096
 10
239.212096
 20
135.387902
 10
239.298408
 20
134.936726
 10
239.387236
 20
134.469072
 10
239.478264
 20
133.984361
 10
239.571178
 20
133.482012
 10
239.665663
 20
132.961448
 10
239.761404
 20
132.422088
 10
239.858087
 20
131.863354
 10
239.955397
 20
131.284665
 10
240.053019
 20
130.685444
 10
240.150637
 20
130.065109
 10
240.247939
 20
129.423083
 10
240.344607
 20
128.758785
 10
240.440329
 20
128.071637
 10
240.534789
 20
127.36106
 10
240.627672
 20
126.626473
 10
240.718663
 20
125.867298
 10
240.807448
 20
125.082955
 10
240.893713
 20
124.272865
 10
240.977141
 20
123.436449
 10
241.057418
 20
122.573128
 10
241.134031
 20
121.683146
 10
241.205662
 20
120.770048
 10
241.270797
 20
119.838204
 10
241.327921
 20
118.891981
 10
241.375517
 20
117.935749
 10
241.412072
 20
116.973878
 10
241.436068
 20
116.010735
 10
241.445992
 20
115.05069
 10
241.440327
 20
114.098111
 10
241.417558
 20
113.157368
 10
241.37617
 20
112.23283
 10
241.314647
 20
111.328865
 10
241.231474
 20
110.449843
 10
241.125135
 20
109.600132
 10
240.994116
 20
108.784102
 10
240.836901
 20
108.006121
 10
240.651974
 20
107.270558
 10
240.43782
 20
106.581782
 10
240.192924
 20
105.944163
 10
239.915769
 20
105.362069
 10
239.605645
 20
104.838962
 10
239.265051
 20
104.37468
 10
238.897289
 20
103.968155
 10
238.505663
 20
103.618318
 10
238.093475
 20
103.3241
 10
237.664028
 20
103.084431
 10
237.220625
 20
102.898244
 10
236.76657
 20
102.76447
 10
236.305164
 20
102.682039
 10
235.839711
 20
102.649883
 10
235.373514
 20
102.666933
 10
234.909875
 20
102.73212
 10
234.452098
 20
102.844376
 10
234.003485
 20
103.002632
 10
233.567339
 20
103.205819
 10
233.146963
 20
103.452868
 10
232.745661
 20
103.74271
 10
232.366733
 20
104.074277
 10
232.013485
 20
104.4465
 10
231.689218
 20
104.858309
 10
231.396424
 20
105.308394
 10
231.134346
 20
105.794468
 10
230.901416
 20
106.314003
 10
230.696065
 20
106.864471
 10
230.516725
 20
107.443342
 10
230.361827
 20
108.048088
 10
230.229804
 20
108.676181
 10
230.119086
 20
109.325092
 10
230.028106
 20
109.992292
 10
229.955295
 20
110.675252
 10
229.899085
 20
111.371445
 10
229.857908
 20
112.078341
 10
229.830194
 20
112.793411
 10
229.814375
 20
113.514128
 10
229.808884
 20
114.237962
 10
229.812152
 20
114.962385
 10
229.822611
 20
115.684869
 10
229.838691
 20
116.402884
 10
229.858825
 20
117.113902
 10
229.881445
 20
117.815394
 10
229.905234
 20
118.505327
 10
229.929885
 20
119.183644
 10
229.955344
 20
119.850785
 10
229.981555
 20
120.507188
 10
230.008465
 20
121.153293
 10
230.036018
 20
121.789538
 10
230.064159
 20
122.416362
 10
230.092835
 20
123.034204
 10
230.121989
 20
123.643503
 10
230.151568
 20
124.244698
 10
230.181517
 20
124.838227
 10
230.211781
 20
125.42453
 10
230.242305
 20
126.004046
 10
230.273035
 20
126.577213
 10
230.303915
 20
127.14447
 10
230.334892
 20
127.706256
 10
230.36591
 20
128.263011
 10
230.396915
 20
128.815172
 10
230.427851
 20
129.363179
 10
230.458665
 20
129.907471
 10
230.489303
 20
130.448284
 10
230.519719
 20
130.985048
 10
230.549869
 20
131.516989
 10
230.579708
 20
132.043335
 10
230.609192
 20
132.563311
 10
230.638277
 20
133.076144
 10
230.666919
 20
133.581062
 10
230.695073
 20
134.077291
 10
230.722694
 20
134.564058
 10
230.749739
 20
135.04059
 10
230.776163
 20
135.506114
 10
230.801921
 20
135.959856
 10
230.82697
 20
136.401043
 10
230.851265
 20
136.828902
 10
230.874762
 20
137.24266
 10
230.897416
 20
137.641544
 10
230.919183
 20
138.02478
 10
230.940018
 20
138.391595
 10
230.959878
 20
138.741216
 10
230.978718
 20
139.07287
 10
230.996507
 20
139.386012
 10
231.013265
 20
139.681013
 10
231.029027
 20
139.958473
 10
231.043827
 20
140.218991
 10
231.057698
 20
140.463167
 10
231.070676
 20
140.691599
 10
231.082793
 20
140.904888
 10
231.094084
 20
141.103634
 10
231.104584
 20
141.288435
 10
231.114325
 20
141.459891
 10
231.123342
 20
141.618601
 10
231.131669
 20
141.765166
 10
231.139341
 20
141.900184
 10
231.14639
 20
142.024255
 10
231.152852
 20
142.137979
 10
231.15876
 20
142.241955
 10
231.164148
 20
142.336782
 10
231.16905
 20
142.423061
 10
231.173501
 20
142.50139
 10
231.177535
 20
142.572369
 10
231.203106
 20
143.022397
  0
LWPOLYLINE
  5
3B
330
1F
100
AcDbEntity
  8
0
100
AcDbPolyline
 90
       34
 70
   128
 43
0.0
 10
267.274722
 20
204.058521
 42
-0.49268
 10
262.661734
 20
209.821568
 10
265.641511
 20
225.918932
 10
268.621468
 20
242.01625
 42
-0.309879
 10
279.164799
 20
250.71017
 42
-0.051188
 10
280.753339
 20
244.007445
 10
275.550676
 20
234.152869
 10
272.090702
 20
224.606435
 10
272.142424
 20
224.764093
 42
0.438468
 10
273.051093
 20
222.779427
 42
0.438566
 10
274.956351
 20
223.853208
 10
281.824576
 20
239.084916
 42
-0.448598
 10
284.99846
 20
238.066326
 10
287.435641
 20
232.530454
 10
327.383931
 20
235.315613
 10
337.230103
 20
243.875935
 42
-0.544484
 10
340.902021
 20
243.1514
 10
340.147223
 20
241.018491
 10
333.817527
 20
227.743474
 42
0.416299
 10
334.4549
 20
225.71939
 42
0.416291
 10
336.469516
 20
226.361698
 10
343.524353
 20
240.019337
 10
345.923798
 20
246.799698
 42
-0.079949
 10
349.260867
 20
250.036695
 42
-0.375803
 10
352.008971
 20
234.944526
 42
-0.027527
 10
351.179531
 20
233.570727
 42
-0.070096
 10
347.578253
 20
229.275347
 10
333.715984
 20
210.754757
 42
-0.379149
 10
324.077298
 20
207.176559
 10
327.677336
 20
213.506648
 10
322.309466
 20
224.937552
 10
286.263575
 20
222.424464
 10
269.751641
 20
210.640517
 10
267.274722
 20
204.058521
  0
LWPOLYLINE
  5
3C
330
1F
100
AcDbEntity
  8
0
100
AcDbPolyline
 90
       57
 70
   128
 43
0.0
 10
249.251966
 20
272.3669
 42
0.383838
 10
252.201567
 20
270.027541
 10
260.283407
 20
269.972478
 10
261.159924
 20
267.736444
 10
267.469241
 20
267.692844
 42
0.414187
 10
273.081933
 20
273.227997
 10
273.14417
 20
282.325261
 10
293.879007
 20
300.384533
 42
0.086768
 10
302.728304
 20
298.461485
 42
0.085956
 10
311.525299
 20
300.229156
 10
331.893257
 20
281.918861
 10
331.830531
 20
272.823239
 42
0.414341
 10
337.366964
 20
267.209885
 10
343.686443
 20
267.166316
 10
344.593782
 20
269.389424
 10
352.664523
 20
269.333544
 42
0.383838
 10
355.646164
 20
271.631928
 10
355.654672
 20
272.914434
 10
347.071869
 20
272.972838
 42
-0.416615
 10
345.576471
 20
274.499404
 42
-0.412003
 10
347.09155
 20
275.982756
 10
355.675433
 20
275.924345
 10
355.684497
 20
277.205365
 42
0.384049
 10
352.7357
 20
279.5454
 10
344.664474
 20
279.600479
 10
343.787956
 20
281.836513
 10
341.925825
 20
281.849761
 10
324.759377
 20
303.671568
 42
0.047791
 10
328.030186
 20
331.698218
 42
0.079465
 10
321.88575
 20
337.918422
 10
321.772842
 20
321.462742
 42
-0.412199
 10
320.267465
 20
319.967626
 42
-0.416237
 10
318.76193
 20
321.483656
 10
318.835062
 20
332.044808
 10
304.465385
 20
332.044808
 10
304.392954
 20
321.582279
 42
-0.414214
 10
302.876878
 20
320.088454
 42
-0.414214
 10
301.383053
 20
321.604531
 10
301.455331
 20
332.044808
 10
287.096382
 20
332.044808
 10
287.025045
 20
321.702399
 42
-0.441979
 10
285.509708
 20
320.207824
 42
-0.414397
 10
284.015139
 20
321.724104
 10
284.12853
 20
338.179919
 42
0.079525
 10
277.88786
 20
332.044808
 42
0.047791
 10
280.781957
 20
303.975737
 10
263.111601
 20
282.394362
 10
261.261438
 20
282.40664
 10
260.354098
 20
280.183533
 10
252.27148
 20
280.239406
 42
0.384049
 10
249.290635
 20
277.940333
 10
249.282001
 20
276.65931
 10
257.864866
 20
276.599133
 42
-0.414463
 10
259.360275
 20
275.083341
 42
-0.414376
 10
257.843814
 20
273.589224
 10
249.261177
 20
273.649399
 10
249.251966
 20
272.3669
  0
LWPOLYLINE
  5
3D
330
1F
100
AcDbEntity
  8
0
100
AcDbPolyline
 90
       24
 70
   128
 43
0.0
 10
41.381483
 20
220.1868
 42
-0.987968
 10
40.785891
 20
269.985279
 42
-0.010608
 10
41.833786
 20
270.007404
 10
50.499064
 20
269.136358
 42
-0.385201
 10
51.398892
 20
268.153733
 10
51.396079
 20
246.850652
 42
0.999577
 10
54.406036
 20
246.851458
 10
54.408916
 20
267.637896
 42
-0.443834
 10
55.508934
 20
268.632758
 10
111.729807
 20
262.978005
 42
-0.399659
 10
112.842139
 20
261.916068
 42
0.948777
 10
148.593351
 20
261.921645
 42
-0.399347
 10
149.707912
 20
262.981045
 10
205.931846
 20
268.632758
 42
-0.443834
 10
207.031864
 20
267.637896
 10
207.034744
 20
246.851458
 42
0.999577
 10
210.044701
 20
246.850652
 10
210.041888
 20
268.153733
 42
-0.385201
 10
210.941716
 20
269.136358
 10
219.606994
 20
270.007404
 42
-0.010608
 10
220.654889
 20
269.985279
 42
-0.987968
 10
220.059297
 20
220.1868
 10
130.72039
 20
211.206321
 10
41.381483
 20
220.1868
  0
LWPOLYLINE
  5
3E
330
1F
100
AcDbEntity
  8
0
100
AcDbPolyline
 90
       35
 70
   128
 43
0.0
 10
51.528952
 20
309.321203
 42
1.0
 10
54.538909
 20
309.321672
 10
54.535307
 20
331.213473
 10
83.809733
 20
331.216525
 42
-0.397405
 10
108.706788
 20
306.986324
 42
0.402896
 10
109.822025
 20
305.916253
 10
109.866524
 20
305.916148
 42
0.414214
 10
110.981149
 20
307.031121
 10
110.979563
 20
317.222069
 10
146.764611
 20
317.222069
 10
146.766196
 20
307.03669
 42
0.414214
 10
147.881169
 20
305.922065
 10
147.90369
 20
305.922068
 42
0.402537
 10
149.017659
 20
306.992635
 42
-0.397405
 10
173.907788
 20
331.230721
 10
205.166748
 20
331.236918
 10
205.170545
 20
309.345117
 42
1.0
 10
208.180502
 20
309.345585
 10
208.1769
 20
331.237387
 10
217.574466
 20
331.23885
 42
-0.012413
 10
218.800742
 20
331.216737
 42
-0.414214
 10
243.09061
 20
305.70835
 10
243.09061
 20
305.70835
 42
-0.414214
 10
217.582212
 20
281.418484
 10
175.810698
 20
281.411982
 10
130.38264
 20
281.404911
 10
130.379029
 20
304.605152
 42
0.999577
 10
127.369073
 20
304.60341
 10
127.372683
 20
281.404443
 10
93.285475
 20
281.399137
 10
40.886583
 20
281.390982
 42
-0.414214
 10
16.585563
 20
306.910523
 42
-0.414214
 10
42.105109
 20
331.211538
 10
51.525156
 20
331.213004
 10
51.528952
 20
309.321203
  0
ENDSEC
  0
SECTION
  2
OBJECTS
  0
DICTIONARY
  5
C
330
0
100
AcDbDictionary
281
     1
  3
ACAD_GROUP
350
D
  3
ACAD_LAYOUT
350
1A
  3
ACAD_MLINESTYLE
350
17
  3
ACAD_PLOTSETTINGS
350
19
  3
ACAD_PLOTSTYLENAME
350
E
  0
DICTIONARY
  5
D
102
{ACAD_REACTORS
330
C
102
}
330
C
100
AcDbDictionary
281
     1
  0
DICTIONARY
  5
1A
102
{ACAD_REACTORS
330
C
102
}
330
C
100
AcDbDictionary
281
     1
  3
Layout1
350
1E
  3
Layout2
350
26
  3
Model
350
22
  0
DICTIONARY
  5
17
102
{ACAD_REACTORS
330
C
102
}
330
C
100
AcDbDictionary
281
     1
  3
Standard
350
18
  0
DICTIONARY
  5
19
102
{ACAD_REACTORS
330
C
102
}
330
C
100
AcDbDictionary
281
     1
  0
ACDBDICTIONARYWDFLT
  5
E
102
{ACAD_REACTORS
330
C
102
}
330
C
100
AcDbDictionary
281
     1
  3
Normal
350
F
100
AcDbDictionaryWithDefault
340
F
  0
LAYOUT
  5
1E
102
{ACAD_REACTORS
330
1A
102
}
330
1A
100
AcDbPlotSettings
  1

  2

  4

  6

 40
0.0
 41
0.0
 42
0.0
 43
0.0
 44
0.0
 45
0.0
 46
0.0
 47
0.0
 48
0.0
 49
0.0
140
0.0
141
0.0
142
1.0
143
1.0
 70
   688
 72
     0
 73
     0
 74
     5
  7

 75
    16
147
1.0
148
0.0
149
0.0
100
AcDbLayout
  1
Layout1
 70
     1
 71
     1
 10
0.0
 20
0.0
 11
420.0
 21
297.0
 12
0.0
 22
0.0
 32
0.0
 14
1.000000E+20
 24
1.000000E+20
 34
1.000000E+20
 15
-1.000000E+20
 25
-1.000000E+20
 35
-1.000000E+20
146
0.0
 13
0.0
 23
0.0
 33
0.0
 16
1.0
 26
0.0
 36
0.0
 17
0.0
 27
1.0
 37
0.0
 76
     0
330
1B
  0
LAYOUT
  5
26
102
{ACAD_REACTORS
330
1A
102
}
330
1A
100
AcDbPlotSettings
  1

  2

  4

  6

 40
0.0
 41
0.0
 42
0.0
 43
0.0
 44
0.0
 45
0.0
 46
0.0
 47
0.0
 48
0.0
 49
0.0
140
0.0
141
0.0
142
1.0
143
1.0
 70
   688
 72
     0
 73
     0
 74
     5
  7

 75
    16
147
1.0
148
0.0
149
0.0
100
AcDbLayout
  1
Layout2
 70
     1
 71
     2
 10
0.0
 20
0.0
 11
0.0
 21
0.0
 12
0.0
 22
0.0
 32
0.0
 14
0.0
 24
0.0
 34
0.0
 15
0.0
 25
0.0
 35
0.0
146
0.0
 13
0.0
 23
0.0
 33
0.0
 16
1.0
 26
0.0
 36
0.0
 17
0.0
 27
1.0
 37
0.0
 76
     0
330
23
  0
LAYOUT
  5
22
102
{ACAD_REACTORS
330
1A
102
}
330
1A
100
AcDbPlotSettings
  1

  2

  4

  6

 40
0.0
 41
0.0
 42
0.0
 43
0.0
 44
0.0
 45
0.0
 46
0.0
 47
0.0
 48
0.0
 49
0.0
140
0.0
141
0.0
142
1.0
143
1.0
 70
  1712
 72
     0
 73
     0
 74
     0
  7

 75
     0
147
1.0
148
0.0
149
0.0
100
AcDbLayout
  1
Model
 70
     1
 71
     0
 10
0.0
 20
0.0
 11
0.0
 21
0.0
 12
0.0
 22
0.0
 32
0.0
 14
0.0
 24
0.0
 34
0.0
 15
0.0
 25
0.0
 35
0.0
146
0.0
 13
0.0
 23
0.0
 33
0.0
 16
1.0
 26
0.0
 36
0.0
 17
0.0
 27
1.0
 37
0.0
 76
     0
330
1F
  0
MLINESTYLE
  5
18
102
{ACAD_REACTORS
330
17
102
}
330
17
100
AcDbMlineStyle
  2
Standard
 70
     0
  3

 62
   256
 51
90.0
 52
90.0
 71
     2
 49
1.0
 62
   256
  6
BYLAYER
 49
-1.0
 62
   256
  6
BYLAYER
  0
ACDBPLACEHOLDER
  5
F
102
{ACAD_REACTORS
330
E
102
}
330
E
  0
ENDSEC
  0
EOF
