  0
SECTION
  2
HEADER
  9
$ACADVER
  1
AC1006
  0
ENDSEC
  0
SECTION
  2
TABLES
  0
TABLE
  2
LTYPE
 70
    25
  0
LTYPE
  2
CONTINUOUS
 70
    64
  3
Solid line
 72
    64
 73
     0
 40
0.000000
  0
LTYPE
  2
DASHDOT
 70
    64
  3
__ . __ . __ . __ . __ . __ . __ . __ . __ . __
 72
    65
 73
     4
 40
1.000000
 49
0.500000
 49
-0.250000
 49
0.000000
 49
-0.250000
  0
LTYPE
  2
DASHED
 70
    64
  3
__ __ __ __ __ __ __ __ __ __ __ __ __ __ __ __
 72
    65
 73
     2
 40
0.750000
 49
0.500000
 49
-0.250000
  0
LTYPE
  2
DIVIDE
 70
    64
  3
____ . . ____ . . ____ . . ____ . . ____ . . __
 72
    65
 73
     6
 40
1.250000
 49
0.500000
 49
-0.250000
 49
0.000000
 49
-0.250000
 49
0.000000
 49
-0.250000
  0
LTYPE
  2
DOT
 70
    64
  3
. . . . . . . . . . . . . . . . . . . . . . . . 
 72
    65
 73
     2
 40
0.250000
 49
0.000000
 49
-0.250000
  0
ENDTAB
  0
ENDSEC
  0
SECTION
  2
ENTITIES
  0
LINE
  8
0
 62
     7
  6
CONTINUOUS
 10
8.010396
 20
9.362801
 30
-0.000000
 11
8.010396
 21
14.159801
 31
-0.000000
  0
LINE
  8
0
 62
     7
  6
CONTINUOUS
 10
8.010396
 20
14.159801
 30
-0.000000
 11
8.410146
 21
14.322301
 31
-0.000000
  0
LINE
  8
0
 62
     7
  6
CONTINUOUS
 10
8.410146
 20
14.322301
 30
-0.000000
 11
8.410146
 21
9.525301
 31
-0.000000
  0
LINE
  8
0
 62
     7
  6
CONTINUOUS
 10
8.410146
 20
9.525301
 30
-0.000000
 11
8.010396
 21
9.362801
 31
-0.000000
  0
LINE
  8
0
 62
     7
  6
CONTINUOUS
 10
7.246646
 20
14.025085
 30
-0.000000
 11
7.246646
 21
9.033085
 31
-0.000000
  0
LINE
  8
0
 62
     7
  6
CONTINUOUS
 10
6.840396
 20
13.730801
 30
-0.000000
 11
7.246646
 21
14.025085
 31
-0.000000
  0
LINE
  8
0
 62
     7
  6
CONTINUOUS
 10
6.840396
 20
11.553301
 30
-0.000000
 11
6.840396
 21
13.730801
 31
-0.000000
  0
LINE
  8
0
 62
     7
  6
CONTINUOUS
 10
5.904396
 20
11.124301
 30
-0.000000
 11
6.840396
 21
11.553301
 31
-0.000000
  0
LINE
  8
0
 62
     7
  6
CONTINUOUS
 10
5.904396
 20
13.301801
 30
-0.000000
 11
5.904396
 21
11.124301
 31
-0.000000
  0
LINE
  8
0
 62
     7
  6
CONTINUOUS
 10
5.498146
 20
13.035934
 30
-0.000000
 11
5.904396
 21
13.301801
 31
-0.000000
  0
LINE
  8
0
 62
     7
  6
CONTINUOUS
 10
5.498146
 20
7.887934
 30
-0.000000
 11
5.498146
 21
13.035934
 31
-0.000000
  0
LINE
  8
0
 62
     7
  6
CONTINUOUS
 10
5.904396
 20
8.192801
 30
-0.000000
 11
5.498146
 21
7.887934
 31
-0.000000
  0
LINE
  8
0
 62
     7
  6
CONTINUOUS
 10
5.904396
 20
10.565301
 30
-0.000000
 11
5.904396
 21
8.192801
 31
-0.000000
  0
LINE
  8
0
 62
     7
  6
CONTINUOUS
 10
6.840396
 20
10.955301
 30
-0.000000
 11
5.904396
 21
10.565301
 31
-0.000000
  0
LINE
  8
0
 62
     7
  6
CONTINUOUS
 10
6.840396
 20
8.777801
 30
-0.000000
 11
6.840396
 21
10.955301
 31
-0.000000
  0
LINE
  8
0
 62
     7
  6
CONTINUOUS
 10
7.246646
 20
9.033085
 30
-0.000000
 11
6.840396
 21
8.777801
 31
-0.000000
  0
LINE
  8
0
 62
     7
  6
CONTINUOUS
 10
7.308396
 20
6.749801
 30
-0.000000
 11
7.308396
 21
8.075801
 31
-0.000000
  0
LINE
  8
0
 62
     7
  6
CONTINUOUS
 10
10.155396
 20
3.863801
 30
-0.000000
 11
7.308396
 21
6.749801
 31
-0.000000
  0
LINE
  8
0
 62
     7
  6
CONTINUOUS
 10
14.523396
 20
3.863801
 30
-0.000000
 11
10.155396
 21
3.863801
 31
-0.000000
  0
LINE
  8
0
 62
     7
  6
CONTINUOUS
 10
17.370396
 20
6.710801
 30
-0.000000
 11
14.523396
 21
3.863801
 31
-0.000000
  0
LINE
  8
0
 62
     7
  6
CONTINUOUS
 10
17.370396
 20
8.114801
 30
-0.000000
 11
17.370396
 21
6.710801
 31
-0.000000
  0
LINE
  8
0
 62
     7
  6
CONTINUOUS
 10
15.069396
 20
9.011801
 30
-0.000000
 11
17.370396
 21
8.114801
 31
-0.000000
  0
LINE
  8
0
 62
     7
  6
CONTINUOUS
 10
15.069396
 20
7.763801
 30
-0.000000
 11
15.069396
 21
9.011801
 31
-0.000000
  0
ARC
  8
0
 62
     7
  6
CONTINUOUS
 10
12.369962
 20
9.321549
 30
-0.000000
 40
3.116652
 50
209.163356
 51
330.012258
  0
LINE
  8
0
 62
     7
  6
CONTINUOUS
 10
9.648396
 20
9.011801
 30
-0.000000
 11
9.648396
 21
7.802801
 31
-0.000000
  0
LINE
  8
0
 62
     7
  6
CONTINUOUS
 10
7.308396
 20
8.075801
 30
-0.000000
 11
9.648396
 21
9.011801
 31
-0.000000
  0
LINE
  8
0
 62
     7
  6
CONTINUOUS
 10
6.879396
 20
7.880801
 30
-0.000000
 11
6.879396
 21
6.515801
 31
-0.000000
  0
LINE
  8
0
 62
     7
  6
CONTINUOUS
 10
6.879396
 20
6.515801
 30
-0.000000
 11
9.960396
 21
3.434801
 31
-0.000000
  0
LINE
  8
0
 62
     7
  6
CONTINUOUS
 10
9.960396
 20
3.434801
 30
-0.000000
 11
14.718396
 21
3.434801
 31
-0.000000
  0
LINE
  8
0
 62
     7
  6
CONTINUOUS
 10
14.718396
 20
3.434801
 30
-0.000000
 11
17.799396
 21
6.515801
 31
-0.000000
  0
LINE
  8
0
 62
     7
  6
CONTINUOUS
 10
17.799396
 20
6.515801
 30
-0.000000
 11
17.799396
 21
7.919801
 31
-0.000000
  0
LINE
  8
0
 62
     7
  6
CONTINUOUS
 10
18.969396
 20
7.178801
 30
-0.000000
 11
17.799396
 21
7.919801
 31
-0.000000
  0
LINE
  8
0
 62
     7
  6
CONTINUOUS
 10
18.969396
 20
7.178801
 30
-0.000000
 11
18.969396
 21
6.632801
 31
-0.000000
  0
LINE
  8
0
 62
     7
  6
CONTINUOUS
 10
18.345396
 20
7.022801
 30
-0.000000
 11
18.969396
 21
6.632801
 31
-0.000000
  0
LINE
  8
0
 62
     7
  6
CONTINUOUS
 10
18.345396
 20
7.022801
 30
-0.000000
 11
18.345396
 21
6.281801
 31
-0.000000
  0
LINE
  8
0
 62
     7
  6
CONTINUOUS
 10
18.345396
 20
6.281801
 30
-0.000000
 11
14.796396
 21
2.927801
 31
-0.000000
  0
LINE
  8
0
 62
     7
  6
CONTINUOUS
 10
14.796396
 20
2.927801
 30
-0.000000
 11
9.882396
 21
2.927801
 31
-0.000000
  0
LINE
  8
0
 62
     7
  6
CONTINUOUS
 10
9.882396
 20
2.927801
 30
-0.000000
 11
6.333396
 21
6.281801
 31
-0.000000
  0
LINE
  8
0
 62
     7
  6
CONTINUOUS
 10
6.333396
 20
6.281801
 30
-0.000000
 11
6.333396
 21
7.022801
 31
-0.000000
  0
LINE
  8
0
 62
     7
  6
CONTINUOUS
 10
5.475396
 20
6.437801
 30
-0.000000
 11
6.333396
 21
7.022801
 31
-0.000000
  0
LINE
  8
0
 62
     7
  6
CONTINUOUS
 10
5.475396
 20
6.437801
 30
-0.000000
 11
5.475396
 21
6.983801
 31
-0.000000
  0
LINE
  8
0
 62
     7
  6
CONTINUOUS
 10
5.475396
 20
6.983801
 30
-0.000000
 11
6.879396
 21
7.880801
 31
-0.000000
  0
LINE
  8
0
 62
     7
  6
CONTINUOUS
 10
4.695396
 20
8.970574
 30
-0.000000
 11
4.695396
 21
6.164801
 31
-0.000000
  0
ARC
  8
0
 62
     7
  6
CONTINUOUS
 10
3.017900
 20
6.990844
 30
-0.000000
 40
1.869850
 50
301.509885
 51
333.783157
  0
ARC
  8
0
 62
     7
  6
CONTINUOUS
 10
3.537013
 20
6.144056
 30
-0.000000
 40
0.876609
 50
227.109741
 51
301.509885
  0
LINE
  8
0
 62
     7
  6
CONTINUOUS
 10
2.940396
 20
5.501801
 30
-0.000000
 11
2.940396
 21
8.229574
 31
-0.000000
  0
LINE
  8
0
 62
     7
  6
CONTINUOUS
 10
2.940396
 20
8.229574
 30
-0.000000
 11
3.681396
 21
8.542440
 31
-0.000000
  0
LINE
  8
0
 62
     7
  6
CONTINUOUS
 10
3.681396
 20
6.164801
 30
-0.000000
 11
3.681396
 21
8.542440
 31
-0.000000
  0
LINE
  8
0
 62
     7
  6
CONTINUOUS
 10
3.681396
 20
6.164801
 30
-0.000000
 11
3.993396
 21
6.359801
 31
-0.000000
  0
LINE
  8
0
 62
     7
  6
CONTINUOUS
 10
3.993396
 20
8.674174
 30
-0.000000
 11
3.993396
 21
6.359801
 31
-0.000000
  0
LINE
  8
0
 62
     7
  6
CONTINUOUS
 10
4.695396
 20
8.970574
 30
-0.000000
 11
3.993396
 21
8.674174
 31
-0.000000
  0
LINE
  8
0
 62
     7
  6
CONTINUOUS
 10
4.695396
 20
9.283778
 30
-0.000000
 11
4.695396
 21
12.170801
 31
-0.000000
  0
ARC
  8
0
 62
     7
  6
CONTINUOUS
 10
4.046526
 20
11.274981
 30
-0.000000
 40
1.106131
 50
54.083057
 51
180.000000
  0
LINE
  8
0
 62
     7
  6
CONTINUOUS
 10
2.940396
 20
8.542778
 30
-0.000000
 11
2.940396
 21
11.274981
 31
-0.000000
  0
LINE
  8
0
 62
     7
  6
CONTINUOUS
 10
3.681396
 20
8.855645
 30
-0.000000
 11
2.940396
 21
8.542778
 31
-0.000000
  0
LINE
  8
0
 62
     7
  6
CONTINUOUS
 10
3.681396
 20
8.855645
 30
-0.000000
 11
3.681396
 21
11.273801
 31
-0.000000
  0
LINE
  8
0
 62
     7
  6
CONTINUOUS
 10
3.681396
 20
11.273801
 30
-0.000000
 11
3.993396
 21
11.468801
 31
-0.000000
  0
LINE
  8
0
 62
     7
  6
CONTINUOUS
 10
3.993396
 20
11.468801
 30
-0.000000
 11
3.993396
 21
8.987378
 31
-0.000000
  0
LINE
  8
0
 62
     7
  6
CONTINUOUS
 10
4.695396
 20
9.283778
 30
-0.000000
 11
3.993396
 21
8.987378
 31
-0.000000
  0
ARC
  8
0
 62
     7
  6
CONTINUOUS
 10
9.975193
 20
2.861064
 30
-0.000000
 40
12.091755
 50
104.834360
 51
127.882057
  0
LINE
  8
0
 62
     7
  6
CONTINUOUS
 10
6.879396
 20
17.123801
 30
-0.000000
 11
6.879396
 21
14.549801
 31
-0.000000
  0
LINE
  8
0
 62
     7
  6
CONTINUOUS
 10
9.960396
 20
20.204801
 30
-0.000000
 11
6.879396
 21
17.123801
 31
-0.000000
  0
LINE
  8
0
 62
     7
  6
CONTINUOUS
 10
14.757396
 20
20.204801
 30
-0.000000
 11
9.960396
 21
20.204801
 31
-0.000000
  0
LINE
  8
0
 62
     7
  6
CONTINUOUS
 10
17.799396
 20
17.123801
 30
-0.000000
 11
14.757396
 21
20.204801
 31
-0.000000
  0
LINE
  8
0
 62
     7
  6
CONTINUOUS
 10
17.799396
 20
14.627801
 30
-0.000000
 11
17.799396
 21
17.123801
 31
-0.000000
  0
LINE
  8
0
 62
     7
  6
CONTINUOUS
 10
17.799396
 20
14.627801
 30
-0.000000
 11
21.348396
 21
12.989801
 31
-0.000000
  0
LINE
  8
0
 62
     7
  6
CONTINUOUS
 10
21.348396
 20
13.613801
 30
-0.000000
 11
21.348396
 21
12.989801
 31
-0.000000
  0
LINE
  8
0
 62
     7
  6
CONTINUOUS
 10
18.345396
 20
14.978801
 30
-0.000000
 11
21.348396
 21
13.613801
 31
-0.000000
  0
LINE
  8
0
 62
     7
  6
CONTINUOUS
 10
18.345396
 20
17.357801
 30
-0.000000
 11
18.345396
 21
14.978801
 31
-0.000000
  0
LINE
  8
0
 62
     7
  6
CONTINUOUS
 10
14.796396
 20
20.711801
 30
-0.000000
 11
18.345396
 21
17.357801
 31
-0.000000
  0
LINE
  8
0
 62
     7
  6
CONTINUOUS
 10
9.882396
 20
20.711801
 30
-0.000000
 11
14.796396
 21
20.711801
 31
-0.000000
  0
LINE
  8
0
 62
     7
  6
CONTINUOUS
 10
6.333396
 20
17.357801
 30
-0.000000
 11
9.882396
 21
20.711801
 31
-0.000000
  0
LINE
  8
0
 62
     7
  6
CONTINUOUS
 10
6.333396
 20
14.978801
 30
-0.000000
 11
6.333396
 21
17.357801
 31
-0.000000
  0
ARC
  8
0
 62
     7
  6
CONTINUOUS
 10
10.788678
 20
1.691043
 30
0.000000
 40
14.014780
 50
108.535904
 51
126.003040
  0
LINE
  8
0
 62
     7
  6
CONTINUOUS
 10
2.550396
 20
12.404801
 30
-0.000000
 11
2.550396
 21
13.028801
 31
-0.000000
  0
LINE
  8
0
 62
     7
  6
CONTINUOUS
 10
7.308396
 20
14.666801
 30
-0.000000
 11
7.308396
 21
16.889801
 31
-0.000000
  0
LINE
  8
0
 62
     7
  6
CONTINUOUS
 10
7.308396
 20
16.889801
 30
-0.000000
 11
10.155396
 21
19.775801
 31
-0.000000
  0
LINE
  8
0
 62
     7
  6
CONTINUOUS
 10
10.155396
 20
19.775801
 30
-0.000000
 11
14.523396
 21
19.775801
 31
-0.000000
  0
LINE
  8
0
 62
     7
  6
CONTINUOUS
 10
14.523396
 20
19.775801
 30
-0.000000
 11
17.370396
 21
17.006801
 31
-0.000000
  0
LINE
  8
0
 62
     7
  6
CONTINUOUS
 10
17.370396
 20
17.006801
 30
-0.000000
 11
17.370396
 21
14.744801
 31
-0.000000
  0
LINE
  8
0
 62
     7
  6
CONTINUOUS
 10
15.069396
 20
15.290801
 30
-0.000000
 11
17.370396
 21
14.744801
 31
-0.000000
  0
ARC
  8
0
 62
     7
  6
CONTINUOUS
 10
12.358896
 20
14.713189
 30
-0.000000
 40
2.771362
 50
12.029871
 51
167.970129
  0
LINE
  8
0
 62
     7
  6
CONTINUOUS
 10
7.308396
 20
14.666801
 30
-0.000000
 11
9.648396
 21
15.290801
 31
-0.000000
  0
ARC
  8
0
 62
     7
  6
CONTINUOUS
 10
9.765536
 20
13.729932
 30
-0.000000
 40
0.866563
 50
54.203478
 51
144.121216
  0
LINE
  8
0
 62
     7
  6
CONTINUOUS
 10
10.272396
 20
14.432801
 30
-0.000000
 11
10.272396
 21
12.378138
 31
-0.000000
  0
LINE
  8
0
 62
     7
  6
CONTINUOUS
 10
9.804396
 20
12.319845
 30
-0.000000
 11
10.272396
 21
12.378138
 31
-0.000000
  0
LINE
  8
0
 62
     7
  6
CONTINUOUS
 10
9.804396
 20
13.950089
 30
-0.000000
 11
9.804396
 21
12.319845
 31
-0.000000
  0
LINE
  8
0
 62
     7
  6
CONTINUOUS
 10
9.609396
 20
13.925801
 30
-0.000000
 11
9.804396
 21
13.950089
 31
-0.000000
  0
LINE
  8
0
 62
     7
  6
CONTINUOUS
 10
9.609396
 20
12.295557
 30
-0.000000
 11
9.609396
 21
13.925801
 31
-0.000000
  0
LINE
  8
0
 62
     7
  6
CONTINUOUS
 10
9.609396
 20
12.295557
 30
-0.000000
 11
9.063396
 21
12.227549
 31
-0.000000
  0
LINE
  8
0
 62
     7
  6
CONTINUOUS
 10
9.063396
 20
12.227549
 30
-0.000000
 11
9.063396
 21
14.237801
 31
-0.000000
  0
LINE
  8
0
 62
     7
  6
CONTINUOUS
 10
10.584396
 20
15.407801
 30
-0.000000
 11
10.038396
 21
15.329801
 31
-0.000000
  0
ARC
  8
0
 62
     7
  6
CONTINUOUS
 10
12.339396
 20
14.396051
 30
-0.000000
 40
2.025750
 50
29.963265
 51
150.036735
  0
LINE
  8
0
 62
     7
  6
CONTINUOUS
 10
14.679396
 20
15.329801
 30
-0.000000
 11
14.094396
 21
15.407801
 31
-0.000000
  0
ARC
  8
0
 62
     7
  6
CONTINUOUS
 10
12.358896
 20
14.618826
 30
-0.000000
 40
2.426974
 50
17.034460
 51
162.965540
  0
ARC
  8
0
 62
     7
  6
CONTINUOUS
 10
12.342723
 20
14.715965
 30
-0.000000
 40
1.020578
 50
17.202506
 51
180.000000
  0
LINE
  8
0
 62
     7
  6
CONTINUOUS
 10
13.317646
 20
13.730801
 30
-0.000000
 11
13.317646
 21
15.017801
 31
-0.000000
  0
LINE
  8
0
 62
     7
  6
CONTINUOUS
 10
13.317646
 20
13.730801
 30
-0.000000
 11
12.882146
 21
13.730801
 31
-0.000000
  0
LINE
  8
0
 62
     7
  6
CONTINUOUS
 10
12.882146
 20
13.730801
 30
-0.000000
 11
12.882146
 21
14.939801
 31
-0.000000
  0
ARC
  8
0
 62
     7
  6
CONTINUOUS
 10
12.319896
 20
14.577746
 30
-0.000000
 40
0.668737
 50
32.779081
 51
147.220919
  0
LINE
  8
0
 62
     7
  6
CONTINUOUS
 10
11.757646
 20
14.939801
 30
-0.000000
 11
11.757646
 21
12.287801
 31
-0.000000
  0
ARC
  8
0
 62
     7
  6
CONTINUOUS
 10
12.479249
 20
13.031209
 30
-0.000000
 40
1.036035
 50
225.852740
 51
272.717623
  0
ARC
  8
0
 62
     7
  6
CONTINUOUS
 10
12.571789
 20
11.081646
 30
-0.000000
 40
0.915724
 50
39.474286
 51
92.717623
  0
LINE
  8
0
 62
     7
  6
CONTINUOUS
 10
13.278646
 20
8.309801
 30
-0.000000
 11
13.278646
 21
11.663801
 31
-0.000000
  0
ARC
  8
0
 62
     7
  6
CONTINUOUS
 10
12.319896
 20
9.123318
 30
-0.000000
 40
1.257383
 50
220.315222
 51
319.684778
  0
LINE
  8
0
 62
     7
  6
CONTINUOUS
 10
11.361146
 20
8.309801
 30
-0.000000
 11
11.361146
 21
9.986801
 31
-0.000000
  0
LINE
  8
0
 62
     7
  6
CONTINUOUS
 10
11.361146
 20
9.986801
 30
-0.000000
 11
11.481396
 21
9.986801
 31
-0.000000
  0
LINE
  8
0
 62
     7
  6
CONTINUOUS
 10
11.481396
 20
9.986801
 30
-0.000000
 11
11.520396
 21
10.025801
 31
-0.000000
  0
LINE
  8
0
 62
     7
  6
CONTINUOUS
 10
11.520396
 20
10.025801
 30
-0.000000
 11
11.796646
 21
10.025801
 31
-0.000000
  0
LINE
  8
0
 62
     7
  6
CONTINUOUS
 10
11.796646
 20
10.025801
 30
-0.000000
 11
11.796646
 21
8.348801
 31
-0.000000
  0
ARC
  8
0
 62
     7
  6
CONTINUOUS
 10
12.290492
 20
9.157306
 30
-0.000000
 40
0.947399
 50
238.582836
 51
305.685682
  0
LINE
  8
0
 62
     7
  6
CONTINUOUS
 10
12.843146
 20
8.387801
 30
-0.000000
 11
12.843146
 21
11.468801
 31
-0.000000
  0
ARC
  8
0
 62
     7
  6
CONTINUOUS
 10
12.245655
 20
10.963705
 30
-0.000000
 40
0.782379
 50
40.209862
 51
98.350694
  0
ARC
  8
0
 62
     7
  6
CONTINUOUS
 10
12.015954
 20
12.528555
 30
-0.000000
 40
0.799239
 50
209.763065
 51
278.350694
  0
LINE
  8
0
 62
     7
  6
CONTINUOUS
 10
11.322146
 20
12.131801
 30
-0.000000
 11
11.322146
 21
14.715965
 31
-0.000000
  0
LINE
  8
0
 62
     7
  6
CONTINUOUS
 10
13.821396
 20
14.510801
 30
-0.000000
 11
13.821396
 21
14.868301
 31
-0.000000
  0
LINE
  8
0
 62
     7
  6
CONTINUOUS
 10
14.364146
 20
14.393801
 30
-0.000000
 11
13.821396
 21
14.510801
 31
-0.000000
  0
LINE
  8
0
 62
     7
  6
CONTINUOUS
 10
14.364146
 20
9.752801
 30
-0.000000
 11
14.364146
 21
14.393801
 31
-0.000000
  0
LINE
  8
0
 62
     7
  6
CONTINUOUS
 10
14.760646
 20
9.715426
 30
-0.000000
 11
14.364146
 21
9.752801
 31
-0.000000
  0
LINE
  8
0
 62
     7
  6
CONTINUOUS
 10
14.760646
 20
14.317426
 30
-0.000000
 11
14.760646
 21
9.715426
 31
-0.000000
  0
LINE
  8
0
 62
     7
  6
CONTINUOUS
 10
14.760646
 20
14.317426
 30
-0.000000
 11
15.147396
 21
14.237801
 31
-0.000000
  0
LINE
  8
0
 62
     7
  6
CONTINUOUS
 10
15.147396
 20
14.595301
 30
-0.000000
 11
15.147396
 21
14.237801
 31
-0.000000
  0
LINE
  8
0
 62
     7
  6
CONTINUOUS
 10
13.821396
 20
14.868301
 30
-0.000000
 11
15.147396
 21
14.595301
 31
-0.000000
  0
LINE
  8
0
 62
     7
  6
CONTINUOUS
 10
15.608896
 20
12.890843
 30
-0.000000
 11
15.608896
 21
13.613801
 31
-0.000000
  0
LINE
  8
0
 62
     7
  6
CONTINUOUS
 10
15.966396
 20
12.838030
 30
-0.000000
 11
15.608896
 21
12.890843
 31
-0.000000
  0
LINE
  8
0
 62
     7
  6
CONTINUOUS
 10
15.966396
 20
12.838030
 30
-0.000000
 11
15.966396
 21
13.574801
 31
-0.000000
  0
ARC
  8
0
 62
     7
  6
CONTINUOUS
 10
16.408701
 20
13.436332
 30
-0.000000
 40
0.463473
 50
9.831503
 51
162.616672
  0
LINE
  8
0
 62
     7
  6
CONTINUOUS
 10
16.902396
 20
13.301801
 30
-0.000000
 11
16.865368
 21
13.515471
 31
-0.000000
  0
LINE
  8
0
 62
     7
  6
CONTINUOUS
 10
16.902396
 20
13.301801
 30
-0.000000
 11
16.902396
 21
12.584530
 31
-0.000000
  0
LINE
  8
0
 62
     7
  6
CONTINUOUS
 10
16.902396
 20
12.584530
 30
-0.000000
 11
17.259896
 21
12.531718
 31
-0.000000
  0
LINE
  8
0
 62
     7
  6
CONTINUOUS
 10
17.259896
 20
13.262801
 30
-0.000000
 11
17.259896
 21
12.531718
 31
-0.000000
  0
LINE
  8
0
 62
     7
  6
CONTINUOUS
 10
17.220896
 20
13.574801
 30
-0.000000
 11
17.259896
 21
13.262801
 31
-0.000000
  0
ARC
  8
0
 62
     7
  6
CONTINUOUS
 10
16.412331
 20
13.488270
 30
-0.000000
 40
0.813182
 50
6.108398
 51
171.119766
  0
LINE
  8
0
 62
     7
  6
CONTINUOUS
 10
16.278396
 20
11.595551
 30
-0.000000
 11
16.278396
 21
13.623551
 31
-0.000000
  0
LINE
  8
0
 62
     7
  6
CONTINUOUS
 10
16.512396
 20
11.507801
 30
-0.000000
 11
16.278396
 21
11.595551
 31
-0.000000
  0
LINE
  8
0
 62
     7
  6
CONTINUOUS
 10
16.512396
 20
13.535801
 30
-0.000000
 11
16.512396
 21
11.507801
 31
-0.000000
  0
LINE
  8
0
 62
     7
  6
CONTINUOUS
 10
16.278396
 20
13.623551
 30
-0.000000
 11
16.512396
 21
13.535801
 31
-0.000000
  0
LINE
  8
0
 62
     7
  6
CONTINUOUS
 10
15.608896
 20
9.596801
 30
-0.000000
 11
15.608896
 21
12.554134
 31
-0.000000
  0
LINE
  8
0
 62
     7
  6
CONTINUOUS
 10
15.966396
 20
9.518801
 30
-0.000000
 11
15.608896
 21
9.596801
 31
-0.000000
  0
LINE
  8
0
 62
     7
  6
CONTINUOUS
 10
15.966396
 20
10.952051
 30
-0.000000
 11
15.966396
 21
9.518801
 31
-0.000000
  0
LINE
  8
0
 62
     7
  6
CONTINUOUS
 10
16.902396
 20
10.601051
 30
-0.000000
 11
15.966396
 21
10.952051
 31
-0.000000
  0
LINE
  8
0
 62
     7
  6
CONTINUOUS
 10
16.902396
 20
9.167801
 30
-0.000000
 11
16.902396
 21
10.601051
 31
-0.000000
  0
LINE
  8
0
 62
     7
  6
CONTINUOUS
 10
17.259896
 20
9.050801
 30
-0.000000
 11
16.902396
 21
9.167801
 31
-0.000000
  0
LINE
  8
0
 62
     7
  6
CONTINUOUS
 10
17.259896
 20
12.195009
 30
-0.000000
 11
17.259896
 21
9.050801
 31
-0.000000
  0
LINE
  8
0
 62
     7
  6
CONTINUOUS
 10
16.902396
 20
12.247822
 30
-0.000000
 11
17.259896
 21
12.195009
 31
-0.000000
  0
LINE
  8
0
 62
     7
  6
CONTINUOUS
 10
16.902396
 20
12.247822
 30
-0.000000
 11
16.902396
 21
11.039801
 31
-0.000000
  0
LINE
  8
0
 62
     7
  6
CONTINUOUS
 10
16.902396
 20
11.039801
 30
-0.000000
 11
15.966396
 21
11.390801
 31
-0.000000
  0
LINE
  8
0
 62
     7
  6
CONTINUOUS
 10
15.966396
 20
11.390801
 30
-0.000000
 11
15.966396
 21
12.501322
 31
-0.000000
  0
LINE
  8
0
 62
     7
  6
CONTINUOUS
 10
15.966396
 20
12.501322
 30
-0.000000
 11
15.608896
 21
12.554134
 31
-0.000000
  0
LINE
  8
0
 62
     7
  6
CONTINUOUS
 10
17.565396
 20
13.613801
 30
-0.000000
 11
17.565396
 21
14.010301
 31
-0.000000
  0
LINE
  8
0
 62
     7
  6
CONTINUOUS
 10
17.565396
 20
14.010301
 30
-0.000000
 11
18.969396
 21
13.464301
 31
-0.000000
  0
LINE
  8
0
 62
     7
  6
CONTINUOUS
 10
18.969396
 20
13.464301
 30
-0.000000
 11
18.969396
 21
13.106801
 31
-0.000000
  0
LINE
  8
0
 62
     7
  6
CONTINUOUS
 10
18.969396
 20
13.106801
 30
-0.000000
 11
18.465646
 21
13.301801
 31
-0.000000
  0
LINE
  8
0
 62
     7
  6
CONTINUOUS
 10
18.465646
 20
13.301801
 30
-0.000000
 11
18.465646
 21
8.465801
 31
-0.000000
  0
LINE
  8
0
 62
     7
  6
CONTINUOUS
 10
18.465646
 20
8.465801
 30
-0.000000
 11
18.030146
 21
8.543801
 31
-0.000000
  0
LINE
  8
0
 62
     7
  6
CONTINUOUS
 10
18.030146
 20
8.543801
 30
-0.000000
 11
18.030146
 21
13.418801
 31
-0.000000
  0
LINE
  8
0
 62
     7
  6
CONTINUOUS
 10
18.030146
 20
13.418801
 30
-0.000000
 11
17.565396
 21
13.613801
 31
-0.000000
  0
LINE
  8
0
 62
     7
  6
CONTINUOUS
 10
19.668146
 20
6.593801
 30
-0.000000
 11
19.668146
 21
12.999551
 31
-0.000000
  0
LINE
  8
0
 62
     7
  6
CONTINUOUS
 10
19.668146
 20
6.593801
 30
-0.000000
 11
20.972335
 21
5.767814
 31
-0.000000
  0
LINE
  8
0
 62
     7
  6
CONTINUOUS
 10
20.972335
 20
5.767814
 30
-0.000000
 11
20.972335
 21
6.255314
 31
-0.000000
  0
LINE
  8
0
 62
     7
  6
CONTINUOUS
 10
20.972335
 20
6.255314
 30
-0.000000
 11
20.106896
 21
6.795301
 31
-0.000000
  0
LINE
  8
0
 62
     7
  6
CONTINUOUS
 10
20.106896
 20
9.398551
 30
-0.000000
 11
20.106896
 21
6.795301
 31
-0.000000
  0
LINE
  8
0
 62
     7
  6
CONTINUOUS
 10
20.958396
 20
8.735551
 30
-0.000000
 11
20.106896
 21
9.398551
 31
-0.000000
  0
LINE
  8
0
 62
     7
  6
CONTINUOUS
 10
20.958396
 20
9.294551
 30
-0.000000
 11
20.958396
 21
8.735551
 31
-0.000000
  0
LINE
  8
0
 62
     7
  6
CONTINUOUS
 10
20.106896
 20
9.915301
 30
-0.000000
 11
20.958396
 21
9.294551
 31
-0.000000
  0
LINE
  8
0
 62
     7
  6
CONTINUOUS
 10
20.106896
 20
12.362551
 30
-0.000000
 11
20.106896
 21
9.915301
 31
-0.000000
  0
LINE
  8
0
 62
     7
  6
CONTINUOUS
 10
20.958396
 20
11.936801
 30
-0.000000
 11
20.106896
 21
12.362551
 31
-0.000000
  0
LINE
  8
0
 62
     7
  6
CONTINUOUS
 10
20.958396
 20
12.414551
 30
-0.000000
 11
20.958396
 21
11.936801
 31
-0.000000
  0
LINE
  8
0
 62
     7
  6
CONTINUOUS
 10
19.668146
 20
12.999551
 30
-0.000000
 11
20.958396
 21
12.414551
 31
-0.000000
  0
LINE
  8
0
 62
     7
  6
CONTINUOUS
 10
14.679396
 20
9.089801
 30
-0.000000
 11
14.679396
 21
8.270801
 31
-0.000000
  0
ARC
  8
0
 62
     7
  6
CONTINUOUS
 10
12.358896
 20
8.981775
 30
-0.000000
 40
2.426974
 50
197.034460
 51
342.965540
  0
LINE
  8
0
 62
     7
  6
CONTINUOUS
 10
10.038396
 20
8.270801
 30
-0.000000
 11
10.038396
 21
9.089801
 31
-0.000000
  0
LINE
  8
0
 62
     7
  6
CONTINUOUS
 10
10.038396
 20
9.089801
 30
-0.000000
 11
10.545396
 21
9.245801
 31
-0.000000
  0
LINE
  8
0
 62
     7
  6
CONTINUOUS
 10
10.545396
 20
9.245801
 30
-0.000000
 11
10.545396
 21
8.114801
 31
-0.000000
  0
ARC
  8
0
 62
     7
  6
CONTINUOUS
 10
12.300396
 20
9.292113
 30
-0.000000
 40
2.113313
 50
213.855026
 51
326.144974
  0
LINE
  8
0
 62
     7
  6
CONTINUOUS
 10
14.055396
 20
8.114801
 30
-0.000000
 11
14.055396
 21
9.206801
 31
-0.000000
  0
LINE
  8
0
 62
     7
  6
CONTINUOUS
 10
14.679396
 20
9.089801
 30
-0.000000
 11
14.055396
 21
9.206801
 31
-0.000000
  0
ARC
  8
0
 62
     7
  6
CONTINUOUS
 10
9.583998
 20
10.598010
 30
-0.000000
 40
0.895162
 50
234.438764
 51
320.265995
  0
LINE
  8
0
 62
     7
  6
CONTINUOUS
 10
9.063396
 20
9.869801
 30
-0.000000
 11
9.063396
 21
11.900037
 31
-0.000000
  0
LINE
  8
0
 62
     7
  6
CONTINUOUS
 10
9.063396
 20
11.900037
 30
-0.000000
 11
9.609396
 21
11.968045
 31
-0.000000
  0
LINE
  8
0
 62
     7
  6
CONTINUOUS
 10
9.609396
 20
10.337801
 30
-0.000000
 11
9.609396
 21
11.968045
 31
-0.000000
  0
LINE
  8
0
 62
     7
  6
CONTINUOUS
 10
9.609396
 20
10.337801
 30
-0.000000
 11
9.804396
 21
10.362089
 31
-0.000000
  0
LINE
  8
0
 62
     7
  6
CONTINUOUS
 10
9.804396
 20
11.992334
 30
-0.000000
 11
9.804396
 21
10.362089
 31
-0.000000
  0
LINE
  8
0
 62
     7
  6
CONTINUOUS
 10
9.804396
 20
11.992334
 30
-0.000000
 11
10.272396
 21
12.050626
 31
-0.000000
  0
LINE
  8
0
 62
     7
  6
CONTINUOUS
 10
10.272396
 20
12.050626
 30
-0.000000
 11
10.272396
 21
10.025801
 31
-0.000000
  0
LINE
  8
0
 62
     7
  6
CONTINUOUS
 10
1.711389
 20
1.804373
 30
-0.000000
 11
1.711389
 21
21.304373
 31
-0.000000
  0
LINE
  8
0
 62
     7
  6
CONTINUOUS
 10
1.711389
 20
21.304373
 30
-0.000000
 11
22.181208
 21
21.304373
 31
-0.000000
  0
LINE
  8
0
 62
     7
  6
CONTINUOUS
 10
22.181208
 20
21.304373
 30
-0.000000
 11
22.181208
 21
1.804373
 31
-0.000000
  0
LINE
  8
0
 62
     7
  6
CONTINUOUS
 10
22.181208
 20
1.804373
 30
-0.000000
 11
1.711389
 21
1.804373
 31
-0.000000
  0
ENDSEC
  0
EOF
