  0
SECTION
  2
HEADER
  9
$ACADVER
  1
AC1015
  9
$ACADMAINTVER
 70
     6
  9
$DWGCODEPAGE
  3
DOS850
  9
$INSBASE
 10
0.0
 20
0.0
 30
0.0
  9
$EXTMIN
 10
0.0
 20
0.0
 30
0.0
  9
$EXTMAX
 10
420.0
 20
297.0
 30
0.0
  9
$LIMMIN
 10
0.0
 20
0.0
  9
$LIMMAX
 10
420.0
 20
297.0
  9
$ORTHOMODE
 70
     0
  9
$REGENMODE
 70
     1
  9
$FILLMODE
 70
     1
  9
$QTEXTMODE
 70
     0
  9
$MIRRTEXT
 70
     1
  9
$LTSCALE
 40
25.4
  9
$ATTMODE
 70
     1
  9
$TEXTSIZE
 40
3.5
  9
$TRACEWID
 40
0.05
  9
$TEXTSTYLE
  7
Standard
  9
$CLAYER
  8
0
  9
$CELTYPE
  6
Continuous
  9
$CECOLOR
 62
   256
  9
$CELTSCALE
 40
1.0
  9
$DISPSILH
 70
     0
  9
$DIMSCALE
 40
1.0
  9
$DIMASZ
 40
5.0
  9
$DIMEXO
 40
3.0
  9
$DIMDLI
 40
0.38
  9
$DIMRND
 40
0.0
  9
$DIMDLE
 40
0.0
  9
$DIMEXE
 40
2.0
  9
$DIMTP
 40
0.0
  9
$DIMTM
 40
0.0
  9
$DIMTXT
 40
3.5
  9
$DIMCEN
 40
4.0
  9
$DIMTSZ
 40
0.0
  9
$DIMTOL
 70
     0
  9
$DIMLIM
 70
     0
  9
$DIMTIH
 70
     1
  9
$DIMTOH
 70
     1
  9
$DIMSE1
 70
     0
  9
$DIMSE2
 70
     0
  9
$DIMTAD
 70
     0
  9
$DIMZIN
 70
     0
  9
$DIMBLK
  1

  9
$DIMASO
 70
     1
  9
$DIMSHO
 70
     1
  9
$DIMPOST
  1

  9
$DIMAPOST
  1

  9
$DIMALT
 70
     0
  9
$DIMALTD
 70
     2
  9
$DIMALTF
 40
25.4
  9
$DIMLFAC
 40
1.0
  9
$DIMTOFL
 70
     0
  9
$DIMTVP
 40
0.0
  9
$DIMTIX
 70
     0
  9
$DIMSOXD
 70
     0
  9
$DIMSAH
 70
     0
  9
$DIMBLK1
  1

  9
$DIMBLK2
  1

  9
$DIMSTYLE
  2
Standard
  9
$DIMCLRD
 70
     0
  9
$DIMCLRE
 70
     0
  9
$DIMCLRT
 70
     0
  9
$DIMTFAC
 40
1.0
  9
$DIMGAP
 40
1.0
  9
$DIMJUST
 70
     0
  9
$DIMSD1
 70
     0
  9
$DIMSD2
 70
     0
  9
$DIMTOLJ
 70
     1
  9
$DIMTZIN
 70
     0
  9
$DIMALTZ
 70
     0
  9
$DIMALTTZ
 70
     0
  9
$DIMUPT
 70
     0
  9
$DIMDEC
 70
     4
  9
$DIMTDEC
 70
     4
  9
$DIMALTU
 70
     2
  9
$DIMALTTD
 70
     2
  9
$DIMTXSTY
  7
Standard
  9
$DIMAUNIT
 70
     0
  9
$DIMADEC
 70
     0
  9
$DIMALTRND
 40
0.0
  9
$DIMAZIN
 70
     0
  9
$DIMDSEP
 70
     0
  9
$DIMATFIT
 70
     3
  9
$DIMFRAC
 70
     0
  9
$DIMLDRBLK
  1

  9
$DIMLUNIT
 70
     2
  9
$DIMLWD
 70
     0
  9
$DIMLWE
 70
     0
  9
$DIMTMOVE
 70
     0
  9
$LUNITS
 70
     2
  9
$LUPREC
 70
     4
  9
$SKETCHINC
 40
0.1
  9
$FILLETRAD
 40
0.0
  9
$AUNITS
 70
     0
  9
$AUPREC
 70
     0
  9
$MENU
  1
acad
  9
$ELEVATION
 40
0.0
  9
$PELEVATION
 40
0.0
  9
$THICKNESS
 40
0.0
  9
$LIMCHECK
 70
     0
  9
$CHAMFERA
 40
0.0
  9
$CHAMFERB
 40
0.0
  9
$CHAMFERC
 40
0.0
  9
$CHAMFERD
 40
0.0
  9
$SKPOLY
 70
     0
  9
$TDCREATE
 40
0.000000000
  9
$TDUCREATE
 40
0.000000000
  9
$TDUPDATE
 40
0.000000000
  9
$TDUUPDATE
 40
0.000000000
  9
$TDINDWG
 40
0.0000000000
  9
$TDUSRTIMER
 40
0.0000000000
  9
$USRTIMER
 70
     1
  9
$ANGBASE
 50
0.0
  9
$ANGDIR
 70
     0
  9
$PDMODE
 70
     0
  9
$PDSIZE
 40
0.0
  9
$PLINEWID
 40
0.0
  9
$SPLFRAME
 70
     0
  9
$SPLINETYPE
 70
     6
  9
$SPLINESEGS
 70
     8
  9
$HANDSEED
  5
6BE
  9
$SURFTAB1
 70
     6
  9
$SURFTAB2
 70
     6
  9
$SURFTYPE
 70
     6
  9
$SURFU
 70
     6
  9
$SURFV
 70
     6
  9
$UCSBASE
  2

  9
$UCSNAME
  2

  9
$UCSORG
 10
0.0
 20
0.0
 30
0.0
  9
$UCSXDIR
 10
1.0
 20
0.0
 30
0.0
  9
$UCSYDIR
 10
0.0
 20
1.0
 30
0.0
  9
$UCSORTHOREF
  2

  9
$UCSORTHOVIEW
 70
     0
  9
$UCSORGTOP
 10
0.0
 20
0.0
 30
0.0
  9
$UCSORGBOTTOM
 10
0.0
 20
0.0
 30
0.0
  9
$UCSORGLEFT
 10
0.0
 20
0.0
 30
0.0
  9
$UCSORGRIGHT
 10
0.0
 20
0.0
 30
0.0
  9
$UCSORGFRONT
 10
0.0
 20
0.0
 30
0.0
  9
$UCSORGBACK
 10
0.0
 20
0.0
 30
0.0
  9
$PUCSBASE
  2

  9
$PUCSNAME
  2

  9
$PUCSORG
 10
0.0
 20
0.0
 30
0.0
  9
$PUCSXDIR
 10
1.0
 20
0.0
 30
0.0
  9
$PUCSYDIR
 10
0.0
 20
1.0
 30
0.0
  9
$PUCSORTHOREF
  2

  9
$PUCSORTHOVIEW
 70
     0
  9
$PUCSORGTOP
 10
0.0
 20
0.0
 30
0.0
  9
$PUCSORGBOTTOM
 10
0.0
 20
0.0
 30
0.0
  9
$PUCSORGLEFT
 10
0.0
 20
0.0
 30
0.0
  9
$PUCSORGRIGHT
 10
0.0
 20
0.0
 30
0.0
  9
$PUCSORGFRONT
 10
0.0
 20
0.0
 30
0.0
  9
$PUCSORGBACK
 10
0.0
 20
0.0
 30
0.0
  9
$USERI1
 70
     0
  9
$USERI2
 70
     0
  9
$USERI3
 70
     0
  9
$USERI4
 70
     0
  9
$USERI5
 70
     0
  9
$USERR1
 40
0.0
  9
$USERR2
 40
0.0
  9
$USERR3
 40
0.0
  9
$USERR4
 40
0.0
  9
$USERR5
 40
0.0
  9
$WORLDVIEW
 70
     1
  9
$SHADEDGE
 70
     3
  9
$SHADEDIF
 70
    70
  9
$TILEMODE
 70
     1
  9
$MAXACTVP
 70
    16
  9
$PINSBASE
 10
0.0
 20
0.0
 30
0.0
  9
$PLIMCHECK
 70
     0
  9
$PEXTMIN
 10
1.000000E+20
 20
1.000000E+20
 30
1.000000E+20
  9
$PEXTMAX
 10
-1.000000E+20
 20
-1.000000E+20
 30
-1.000000E+20
  9
$PLIMMIN
 10
0.0
 20
0.0
  9
$PLIMMAX
 10
420.0
 20
297.0
  9
$UNITMODE
 70
     0
  9
$VISRETAIN
 70
     0
  9
$PLINEGEN
 70
     1
  9
$PSLTSCALE
 70
     0
  9
$TREEDEPTH
 70
  3020
  9
$CMLSTYLE
  2
Standard
  9
$CMLJUST
 70
     0
  9
$CMLSCALE
 40
1.0
  9
$PROXYGRAPHICS
 70
     0
  9
$MEASUREMENT
 70
     0
  9
$CELWEIGHT
370
     0
  9
$ENDCAPS
280
     0
  9
$JOINSTYLE
280
     0
  9
$LWDISPLAY
290
     0
  9
$INSUNITS
 70
     0
  9
$HYPERLINKBASE
  1

  9
$XEDIT
290
     1
  9
$CEPSNTYPE
380
     0
  9
$PSTYLEMODE
290
     0
  9
$FINGERPRINTGUID
  2

  9
$VERSIONGUID
  2

  9
$EXTNAMES
290
     1
  9
$PSVPSCALE
 40
0.0
  0
ENDSEC
  0
SECTION
  2
CLASSES
  0
CLASS
  1
LWPOLYLINE
  2
AcDbPolyline
  3
"AutoCAD"
 90
        0
280
     0
281
     1
  0
CLASS
  1
IMAGE
  2
AcDbRasterImage
  3
ISM
 90
      127
280
     0
281
     1
  0
CLASS
  1
OLE2FRAME
  2
AcDbOle2Frame
  3
""
 90
        0
280
     0
281
     1
  0
CLASS
  1
HATCH
  2
AcDbHatch
  3
"ACAD_SEDONA"
 90
        0
280
     0
281
     1
  0
CLASS
  1
DICTIONARYVAR
  2
AcDbDictionaryVar
  3
"AutoCAD"
 90
        0
280
     0
281
     0
  0
CLASS
  1
RASTERVARIABLES
  2
AcDbRasterVariables
  3
ISM
 90
        0
280
     0
281
     0
  0
CLASS
  1
IMAGEDEF
  2
AcDbRasterImageDef
  3
ISM
 90
        0
280
     0
281
     0
  0
CLASS
  1
IMAGEDEF_REACTOR
  2
AcDbRasterImageDefReactor
  3
ISM
 90
        1
280
     0
281
     0
  0
CLASS
  1
IDBUFFER
  2
AcDbIdBuffer
  3
"Acad"
 90
        0
280
     0
281
     0
  0
CLASS
  1
SPATIAL_FILTER
  2
AcDbSpatialFilter
  3
"Acad"
 90
        0
280
     0
281
     0
  0
CLASS
  1
XRECORD
  2
AcDbXrecord
  3
"<Built In>"
 90
        0
280
     0
281
     0
  0
CLASS
  1
SORTENTSTABLE
  2
AcDbSortentsTable
  3
"AutoCAD"
 90
        0
280
     0
281
     0
  0
CLASS
  1
LAYER_INDEX
  2
AcDbLayerIndex
  3
"Acad"
 90
        0
280
     0
281
     0
  0
CLASS
  1
SPATIAL_INDEX
  2
AcDbSpatialIndex
  3
"Acad"
 90
        0
280
     0
281
     0
  0
CLASS
  1
OBJECT_PTR
  2
CAseDLPNTableRecord
  3
"ASE-LPNTableRecord"
 90
        1
280
     0
281
     0
  0
CLASS
  1
LAYOUT
  2
AcDbLayout
  3
"AutoCAD 2000"
 90
        1
280
     0
281
     0
  0
CLASS
  1
PLOTSETTINGS
  2
AcDbPlotSettings
  3
"AutoCAD 2000"
 90
        1
280
     0
281
     0
  0
CLASS
  1
ACDBDICTIONARYWDFLT
  2
AcDbDictionaryWithDefault
  3
"AutoCAD 2000"
 90
        1
280
     0
281
     0
  0
CLASS
  1
ACDBPLACEHOLDER
  2
AcDbPlaceHolder
  3
"AutoCAD 2000"
 90
        1
280
     0
281
     0
  0
CLASS
  1
VBA_PROJECT
  2
AcDbVbaProject
  3
"acadvba"
 90
        1
280
     0
281
     0
  0
CLASS
  1
WIPEOUT
  2
AcDbWipeout
  3
WipeOut|AutoCAD Express Tool|expresstools@autodesk.com
 90
      127
280
     0
281
     1
  0
CLASS
  1
WIPEOUTVARIABLES
  2
AcDbWipeoutVariables
  3
WipeOut|AutoCAD Express Tool|expresstools@autodesk.com
 90
        0
280
     0
281
     0
  0
CLASS
  1
RTEXT
  2
RText
  3
RText|AutoCAD Express Tool|expresstools@autodesk.com
 90
        0
280
     0
281
     1
  0
CLASS
  1
ARCALIGNEDTEXT
  2
AcDbArcAlignedText
  3
ATEXT|AutoCAD Express Tool|expresstools@autodesk.com
 90
        0
280
     0
281
     1
  0
ENDSEC
  0
SECTION
  2
TABLES
  0
TABLE
  2
VPORT
  5
7
100
AcDbSymbolTable
 70
     1
  0
VPORT
  5
15
100
AcDbSymbolTableRecord
100
AcDbViewportTableRecord
  2
*ACTIVE
 70
     0
 10
0.0
 20
0.0
 11
1.0
 21
1.0
 12
6.591288
 22
4.579184
 13
0.0
 23
0.0
 14
1.0
 24
1.0
 15
0.0
 25
0.0
 16
0.0
 26
0.0
 36
1.0
 17
0.0
 27
0.0
 37
0.0
 40
9.158369
 41
0.688564
 42
50.0
 43
0.0
 44
0.0
 50
0.0
 51
0.0
 71
     0
 72
   100
 73
     1
 74
     1
 75
     0
 76
     0
 77
     0
 78
     0
281
     0
 65
     0
110
0.0
120
0.0
130
0.0
111
1.0
121
0.0
131
0.0
112
0.0
122
1.0
132
0.0
345
0
346
0
 79
     0
146
0.0
  0
ENDTAB
  0
TABLE
  2
LTYPE
  5
4
100
AcDbSymbolTable
 70
     7
  0
LTYPE
  5
11
100
AcDbSymbolTableRecord
100
AcDbLinetypeTableRecord
  2
ByBlock
 70
    64
  3

 72
    65
 73
     0
 40
0.0
  0
LTYPE
  5
12
100
AcDbSymbolTableRecord
100
AcDbLinetypeTableRecord
  2
ByLayer
 70
    64
  3

 72
    65
 73
     0
 40
0.0
  0
LTYPE
  5
13
100
AcDbSymbolTableRecord
100
AcDbLinetypeTableRecord
  2
Continuous
 70
    64
  3
Solid line
 72
    65
 73
     0
 40
0.0
  0
LTYPE
  5
24
100
AcDbSymbolTableRecord
100
AcDbLinetypeTableRecord
  2
HIDDEN
 70
    64
  3
_ _ _ _ _ _ _ _ _ _ _ _ _ _ _ _ _ _ _ _ _ _ _ _
 72
    65
 73
     2
 40
0.1875
 49
0.125
 74
     0
 49
-0.0625
 74
     0
  0
LTYPE
  5
25
100
AcDbSymbolTableRecord
100
AcDbLinetypeTableRecord
  2
DOTTED
 70
    64
  3
...............................................
 72
    65
 73
     2
 40
0.125
 49
0.0
 74
     0
 49
-0.125
 74
     0
  0
LTYPE
  5
26
100
AcDbSymbolTableRecord
100
AcDbLinetypeTableRecord
  2
CENTER
 70
    64
  3
____ _ ____ _ ____ _ ____ _ ____ _ ____ _ ____ 
 72
    65
 73
     4
 40
1.125
 49
0.75
 74
     0
 49
-0.125
 74
     0
 49
0.125
 74
     0
 49
-0.125
 74
     0
  0
LTYPE
  5
27
100
AcDbSymbolTableRecord
100
AcDbLinetypeTableRecord
  2
PHANTOM
 70
    64
  3
______  __  __  ______  __  __  ______  __  __ 
 72
    65
 73
     6
 40
1.25
 49
0.625
 74
     0
 49
-0.125
 74
     0
 49
0.125
 74
     0
 49
-0.125
 74
     0
 49
0.125
 74
     0
 49
-0.125
 74
     0
  0
ENDTAB
  0
TABLE
  2
LAYER
  5
2
100
AcDbSymbolTable
 70
     2
  0
LAYER
  5
14
100
AcDbSymbolTableRecord
100
AcDbLayerTableRecord
  2
0
 70
     0
 62
     7
  6
Continuous
290
     1
370
    -3
390
1D
  0
LAYER
  5
28
100
AcDbSymbolTableRecord
100
AcDbLayerTableRecord
  2
TEXT
 70
     0
 62
     8
  6
Continuous
290
     1
370
    -3
390
1F
  0
ENDTAB
  0
TABLE
  2
STYLE
  5
3
100
AcDbSymbolTable
 70
     1
  0
STYLE
  5
17
100
AcDbSymbolTableRecord
100
AcDbTextStyleTableRecord
  2
Standard
 70
     0
 40
0.0
 41
1.0
 50
0.0
 71
     0
 42
0.0
  3
txt
  4

  0
ENDTAB
  0
TABLE
  2
VIEW
  5
5
100
AcDbSymbolTable
 70
     0
  0
ENDTAB
  0
TABLE
  2
UCS
  5
6
100
AcDbSymbolTable
 70
     0
  0
ENDTAB
  0
TABLE
  2
APPID
  5
8
100
AcDbSymbolTable
 70
     1
  0
APPID
  5
16
100
AcDbSymbolTableRecord
100
AcDbRegAppTableRecord
  2
ACAD
 70
     0
  0
ENDTAB
  0
TABLE
  2
DIMSTYLE
  5
9
100
AcDbSymbolTable
 70
     1
100
AcDbDimStyleTable
 71
     0
  0
DIMSTYLE
105
18
100
AcDbSymbolTableRecord
100
AcDbDimStyleTableRecord
  2
Standard
 70
     0
  3

  4

 40
1.0
 41
0.18
 42
0.0625
 43
0.38
 44
0.18
 45
0.0
 46
0.0
 47
0.0
 48
0.0
 71
     0
 72
     0
 73
     1
 74
     1
 75
     0
 76
     0
 77
     0
 78
     0
 79
     0
140
0.18
141
0.09
142
0.0
143
25.4
144
1.0
145
0.0
146
1.0
147
0.09
148
0.0
170
     0
171
     2
172
     0
173
     0
174
     0
175
     0
176
     0
177
     0
178
     0
179
     0
271
     4
272
     4
273
     2
274
     2
275
     0
276
     0
277
     2
278
    46
279
     0
280
     0
281
     0
282
     0
283
     1
284
     0
285
     0
286
     0
288
     0
340
17
341
0
342
0
343
0
344
0
371
    -2
372
    -2
  0
ENDTAB
  0
TABLE
  2
BLOCK_RECORD
  5
1
100
AcDbSymbolTable
 70
     3
  0
BLOCK_RECORD
  5
A
100
AcDbSymbolTableRecord
100
AcDbBlockTableRecord
  2
*MODEL_SPACE
340
20
  0
BLOCK_RECORD
  5
B
100
AcDbSymbolTableRecord
100
AcDbBlockTableRecord
  2
*PAPER_SPACE
340
21
  0
BLOCK_RECORD
  5
29
100
AcDbSymbolTableRecord
100
AcDbBlockTableRecord
  2
*B0
340
0
  0
BLOCK_RECORD
  5
2C
100
AcDbSymbolTableRecord
100
AcDbBlockTableRecord
  2
*B1
340
0
  0
BLOCK_RECORD
  5
42
100
AcDbSymbolTableRecord
100
AcDbBlockTableRecord
  2
*B2
340
0
  0
ENDTAB
  0
ENDSEC
  0
SECTION
  2
BLOCKS
  0
BLOCK
  5
D
100
AcDbEntity
  8
0
100
AcDbBlockBegin
  2
*MODEL_SPACE
 70
     0
 10
0.0
 20
0.0
 30
0.0
  3
*MODEL_SPACE
  1

  0
ENDBLK
  5
E
100
AcDbEntity
  8
0
100
AcDbBlockEnd
  0
BLOCK
  5
F
100
AcDbEntity
 67
     1
  8
0
100
AcDbBlockBegin
  2
*PAPER_SPACE
 70
     0
 10
0.0
 20
0.0
 30
0.0
  3
*PAPER_SPACE
  1

  0
ENDBLK
  5
10
100
AcDbEntity
 67
     1
  8
0
100
AcDbBlockEnd
  0
BLOCK
  5
2A
100
AcDbEntity
  8
0
100
AcDbBlockBegin
  2
*B0
 70
     0
 10
0.0
 20
0.0
 30
0.0
  3
*B0
  1

  0
ENDBLK
  5
2B
100
AcDbEntity
  8
0
100
AcDbBlockEnd
  0
BLOCK
  5
2D
100
AcDbEntity
  8
0
100
AcDbBlockBegin
  2
*B1
 70
     0
 10
0.0
 20
0.0
 30
0.0
  3
*B1
  1

  0
ARC
  5
2E
100
AcDbEntity
  8
0
  6
Continuous
 62
   192
100
AcDbCircle
 10
216.0
 20
4.0
 30
0.0
 40
2.0
100
AcDbArc
 50
-180.0
 51
-90.0
  0
ARC
  5
2F
100
AcDbEntity
  8
0
  6
Continuous
 62
   192
100
AcDbCircle
 10
216.0
 20
4.0
 30
0.0
 40
2.0
100
AcDbArc
 50
-270.0
 51
-180.0
  0
ARC
  5
30
100
AcDbEntity
  8
0
  6
Continuous
 62
   192
100
AcDbCircle
 10
216.0
 20
4.0
 30
0.0
 40
2.0
100
AcDbArc
 50
0.0
 51
90.0
  0
ARC
  5
31
100
AcDbEntity
  8
0
  6
Continuous
 62
   192
100
AcDbCircle
 10
216.0
 20
4.0
 30
0.0
 40
2.0
100
AcDbArc
 50
-90.0
 51
0.0
  0
ARC
  5
32
100
AcDbEntity
  8
0
  6
Continuous
 62
   192
100
AcDbCircle
 10
10.0
 20
12.0
 30
0.0
 40
1.5
100
AcDbArc
 50
0.0
 51
90.0
  0
ARC
  5
33
100
AcDbEntity
  8
0
  6
Continuous
 62
   192
100
AcDbCircle
 10
10.0
 20
12.0
 30
0.0
 40
1.5
100
AcDbArc
 50
-90.0
 51
0.0
  0
ARC
  5
34
100
AcDbEntity
  8
0
  6
Continuous
 62
   192
100
AcDbCircle
 10
10.0
 20
12.0
 30
0.0
 40
1.5
100
AcDbArc
 50
-180.0
 51
-90.0
  0
ARC
  5
35
100
AcDbEntity
  8
0
  6
Continuous
 62
   192
100
AcDbCircle
 10
10.0
 20
12.0
 30
0.0
 40
1.5
100
AcDbArc
 50
-270.0
 51
-180.0
  0
ARC
  5
36
100
AcDbEntity
  8
0
  6
Continuous
 62
   192
100
AcDbCircle
 10
10.0
 20
82.0
 30
0.0
 40
1.5
100
AcDbArc
 50
0.0
 51
90.0
  0
ARC
  5
37
100
AcDbEntity
  8
0
  6
Continuous
 62
   192
100
AcDbCircle
 10
10.0
 20
82.0
 30
0.0
 40
1.5
100
AcDbArc
 50
-90.0
 51
0.0
  0
ARC
  5
38
100
AcDbEntity
  8
0
  6
Continuous
 62
   192
100
AcDbCircle
 10
10.0
 20
82.0
 30
0.0
 40
1.5
100
AcDbArc
 50
-180.0
 51
-90.0
  0
ARC
  5
39
100
AcDbEntity
  8
0
  6
Continuous
 62
   192
100
AcDbCircle
 10
10.0
 20
82.0
 30
0.0
 40
1.5
100
AcDbArc
 50
-270.0
 51
-180.0
  0
LINE
  5
3A
100
AcDbEntity
  8
0
  6
Continuous
 62
   192
100
AcDbLine
 10
1.0
 20
5.751721
 30
0.0
 11
1.0
 21
4.954295
 31
0.0
  0
LINE
  5
3B
100
AcDbEntity
  8
0
  6
Continuous
 62
   192
100
AcDbLine
 10
1.0
 20
5.751721
 30
0.0
 11
1.0
 21
85.632997
 31
0.0
  0
CIRCLE
  5
3C
100
AcDbEntity
  8
0
  6
Continuous
 62
   192
100
AcDbCircle
 10
170.0
 20
89.5
 30
0.0
 40
1.5
  0
ARC
  5
3D
100
AcDbEntity
  8
0
  6
Continuous
 62
   192
100
AcDbCircle
 10
5.954295
 20
4.954295
 30
0.0
 40
4.954295
100
AcDbArc
 50
-180.0
 51
-90.0
  0
ARC
  5
3E
100
AcDbEntity
  8
0
  6
Continuous
 62
   192
100
AcDbCircle
 10
9.367003
 20
85.632997
 30
0.0
 40
8.367003
100
AcDbArc
 50
-270.0
 51
-180.0
  0
CIRCLE
  5
3F
100
AcDbEntity
  8
0
  6
Continuous
 62
   192
100
AcDbCircle
 10
200.4
 20
89.5
 30
0.0
 40
1.5
  0
ENDBLK
  5
40
100
AcDbEntity
  8
0
100
AcDbBlockEnd
  0
BLOCK
  5
43
100
AcDbEntity
  8
0
100
AcDbBlockBegin
  2
*B2
 70
     0
 10
0.0
 20
0.0
 30
0.0
  3
*B2
  1

  0
LINE
  5
44
100
AcDbEntity
  8
0
  6
Continuous
 62
   212
100
AcDbLine
 10
221.0
 20
166.0
 30
0.0
 11
224.0
 21
166.0
 31
0.0
  0
ARC
  5
45
100
AcDbEntity
  8
0
  6
Continuous
 62
   212
100
AcDbCircle
 10
176.871149
 20
66.714745
 30
0.0
 40
2.0
100
AcDbArc
 50
-90.833179
 51
-0.833179
  0
ARC
  5
46
100
AcDbEntity
  8
0
  6
Continuous
 62
   212
100
AcDbCircle
 10
216.0
 20
197.0
 30
0.0
 40
2.0
100
AcDbArc
 50
-180.0
 51
-90.0
  0
LINE
  5
47
100
AcDbEntity
  8
0
  6
Continuous
 62
   212
100
AcDbLine
 10
108.813189
 20
190.222902
 30
0.0
 11
108.813189
 21
121.777098
 31
0.0
  0
LINE
  5
48
100
AcDbEntity
  8
0
  6
Continuous
 62
   212
100
AcDbLine
 10
151.904742
 20
75.321405
 30
0.0
 11
152.12314
 21
75.288067
 31
0.0
  0
LINE
  5
49
100
AcDbEntity
  8
0
  6
Continuous
 62
   212
100
AcDbLine
 10
152.348012
 20
75.276709
 30
0.0
 11
152.573001
 21
75.288067
 31
0.0
  0
ARC
  5
4A
100
AcDbEntity
  8
0
  6
Continuous
 62
   212
100
AcDbCircle
 10
133.625459
 20
121.777098
 30
0.0
 40
0.81227
100
AcDbArc
 50
-180.0
 51
0.0
  0
ARC
  5
4B
100
AcDbEntity
  8
0
  6
Continuous
 62
   212
100
AcDbCircle
 10
121.625459
 20
121.777098
 30
0.0
 40
0.81227
100
AcDbArc
 50
-180.0
 51
0.0
  0
ARC
  5
4C
100
AcDbEntity
  8
0
  6
Continuous
 62
   212
100
AcDbCircle
 10
176.871149
 20
66.714745
 30
0.0
 40
2.0
100
AcDbArc
 50
-270.833179
 51
-180.833179
  0
ARC
  5
4D
100
AcDbEntity
  8
0
  6
Continuous
 62
   212
100
AcDbCircle
 10
169.625459
 20
190.222902
 30
0.0
 40
0.81227
100
AcDbArc
 50
-270.0
 51
-180.0
  0
ARC
  5
4E
100
AcDbEntity
  8
0
  6
Continuous
 62
   212
100
AcDbCircle
 10
157.625459
 20
121.777098
 30
0.0
 40
0.81227
100
AcDbArc
 50
-180.0
 51
0.0
  0
LINE
  5
4F
100
AcDbEntity
  8
0
  6
Continuous
 62
   212
100
AcDbLine
 10
122.43773
 20
121.777098
 30
0.0
 11
122.43773
 21
190.222902
 31
0.0
  0
ARC
  5
50
100
AcDbEntity
  8
0
  6
Continuous
 62
   212
100
AcDbCircle
 10
169.625459
 20
190.222902
 30
0.0
 40
0.81227
100
AcDbArc
 50
-359.999982
 51
-269.999982
  0
LINE
  5
51
100
AcDbEntity
  8
0
  6
Continuous
 62
   212
100
AcDbLine
 10
224.0
 20
186.0
 30
0.0
 11
221.0
 21
186.0
 31
0.0
  0
LINE
  5
52
100
AcDbEntity
  8
0
  6
Continuous
 62
   212
100
AcDbLine
 10
152.573001
 20
75.288067
 30
0.0
 11
152.791485
 21
75.321405
 31
0.0
  0
ARC
  5
53
100
AcDbEntity
  8
0
  6
Continuous
 62
   212
100
AcDbCircle
 10
216.0
 20
88.0
 30
0.0
 40
2.0
100
AcDbArc
 50
-180.0
 51
-90.0
  0
ARC
  5
54
100
AcDbEntity
  8
0
  6
Continuous
 62
   212
100
AcDbCircle
 10
133.625459
 20
190.222902
 30
0.0
 40
0.81227
100
AcDbArc
 50
-270.0
 51
-180.0
  0
LINE
  5
55
100
AcDbEntity
  8
0
  6
Continuous
 62
   212
100
AcDbLine
 10
168.813189
 20
190.222902
 30
0.0
 11
168.813189
 21
121.777098
 31
0.0
  0
LINE
  5
56
100
AcDbEntity
  8
0
  6
Continuous
 62
   212
100
AcDbLine
 10
224.0
 20
146.0
 30
0.0
 11
221.0
 21
146.0
 31
0.0
  0
LINE
  5
57
100
AcDbEntity
  8
0
  6
Continuous
 62
   212
100
AcDbLine
 10
221.0
 20
146.0
 30
0.0
 11
221.0
 21
126.0
 31
0.0
  0
ARC
  5
58
100
AcDbEntity
  8
0
  6
Continuous
 62
   212
100
AcDbCircle
 10
216.0
 20
88.0
 30
0.0
 40
2.0
100
AcDbArc
 50
-270.0
 51
-180.0
  0
ARC
  5
59
100
AcDbEntity
  8
0
  6
Continuous
 62
   212
100
AcDbCircle
 10
216.0
 20
88.0
 30
0.0
 40
2.0
100
AcDbArc
 50
0.0
 51
90.0
  0
LINE
  5
5A
100
AcDbEntity
  8
0
  6
Continuous
 62
   212
100
AcDbLine
 10
80.43773
 20
206.0
 30
0.0
 11
60.43773
 21
206.0
 31
0.0
  0
LINE
  5
5B
100
AcDbEntity
  8
0
  6
Continuous
 62
   212
100
AcDbLine
 10
150.948667
 20
75.77907
 30
0.0
 11
151.118066
 21
75.652426
 31
0.0
  0
ARC
  5
5C
100
AcDbEntity
  8
0
  6
Continuous
 62
   212
100
AcDbCircle
 10
176.871149
 20
66.714745
 30
0.0
 40
2.0
100
AcDbArc
 50
-180.833179
 51
-90.833179
  0
ARC
  5
5D
100
AcDbEntity
  8
0
  6
Continuous
 62
   212
100
AcDbCircle
 10
97.625459
 20
190.222902
 30
0.0
 40
0.81227
100
AcDbArc
 50
-359.999982
 51
-269.999982
  0
ARC
  5
5E
100
AcDbEntity
  8
0
  6
Continuous
 62
   212
100
AcDbCircle
 10
97.625459
 20
190.222902
 30
0.0
 40
0.81227
100
AcDbArc
 50
-270.0
 51
-180.0
  0
LINE
  5
5F
100
AcDbEntity
  8
0
  6
Continuous
 62
   212
100
AcDbLine
 10
96.813189
 20
190.222902
 30
0.0
 11
96.813189
 21
121.777098
 31
0.0
  0
ARC
  5
60
100
AcDbEntity
  8
0
  6
Continuous
 62
   212
100
AcDbCircle
 10
85.625459
 20
121.777098
 30
0.0
 40
0.81227
100
AcDbArc
 50
-180.0
 51
0.0
  0
ARC
  5
61
100
AcDbEntity
  8
0
  6
Continuous
 62
   212
100
AcDbCircle
 10
109.625459
 20
121.777098
 30
0.0
 40
0.81227
100
AcDbArc
 50
-180.0
 51
0.0
  0
ARC
  5
62
100
AcDbEntity
  8
0
  6
Continuous
 62
   212
100
AcDbCircle
 10
121.625459
 20
190.222902
 30
0.0
 40
0.81227
100
AcDbArc
 50
-270.0
 51
-180.0
  0
ARC
  5
63
100
AcDbEntity
  8
0
  6
Continuous
 62
   212
100
AcDbCircle
 10
216.0
 20
113.0
 30
0.0
 40
2.0
100
AcDbArc
 50
-180.0
 51
-90.0
  0
ARC
  5
64
100
AcDbEntity
  8
0
  6
Continuous
 62
   212
100
AcDbCircle
 10
216.0
 20
88.0
 30
0.0
 40
2.0
100
AcDbArc
 50
-90.0
 51
0.0
  0
LINE
  5
65
100
AcDbEntity
  8
0
  6
Continuous
 62
   212
100
AcDbLine
 10
151.299481
 20
75.542231
 30
0.0
 11
151.491804
 21
75.449592
 31
0.0
  0
ARC
  5
66
100
AcDbEntity
  8
0
  6
Continuous
 62
   212
100
AcDbCircle
 10
109.625459
 20
190.222902
 30
0.0
 40
0.81227
100
AcDbArc
 50
-359.999982
 51
-269.999982
  0
LINE
  5
67
100
AcDbEntity
  8
0
  6
Continuous
 62
   212
100
AcDbLine
 10
152.12314
 20
75.288067
 30
0.0
 11
152.348012
 21
75.276709
 31
0.0
  0
LINE
  5
68
100
AcDbEntity
  8
0
  6
Continuous
 62
   212
100
AcDbLine
 10
152.791485
 20
75.321405
 30
0.0
 11
153.002359
 21
75.375615
 31
0.0
  0
LINE
  5
69
100
AcDbEntity
  8
0
  6
Continuous
 62
   212
100
AcDbLine
 10
153.002359
 20
75.375615
 30
0.0
 11
153.204518
 21
75.449592
 31
0.0
  0
ARC
  5
6A
100
AcDbEntity
  8
0
  6
Continuous
 62
   212
100
AcDbCircle
 10
109.625459
 20
190.222902
 30
0.0
 40
0.81227
100
AcDbArc
 50
-270.0
 51
-180.0
  0
ARC
  5
6B
100
AcDbEntity
  8
0
  6
Continuous
 62
   212
100
AcDbCircle
 10
209.86766
 20
66.234885
 30
0.0
 40
2.0
100
AcDbArc
 50
-180.833179
 51
-90.833179
  0
LINE
  5
6C
100
AcDbEntity
  8
0
  6
Continuous
 62
   212
100
AcDbLine
 10
134.437729
 20
121.777098
 30
0.0
 11
134.437729
 21
190.222902
 31
0.0
  0
ARC
  5
6D
100
AcDbEntity
  8
0
  6
Continuous
 62
   212
100
AcDbCircle
 10
216.0
 20
113.0
 30
0.0
 40
2.0
100
AcDbArc
 50
-90.0
 51
0.0
  0
LINE
  5
6E
100
AcDbEntity
  8
0
  6
Continuous
 62
   212
100
AcDbLine
 10
160.43773
 20
109.0
 30
0.0
 11
160.43773
 21
106.0
 31
0.0
  0
LINE
  5
6F
100
AcDbEntity
  8
0
  6
Continuous
 62
   212
100
AcDbLine
 10
170.437729
 20
121.777098
 30
0.0
 11
170.437729
 21
190.222902
 31
0.0
  0
LINE
  5
70
100
AcDbEntity
  8
0
  6
Continuous
 62
   212
100
AcDbLine
 10
151.491804
 20
75.449592
 30
0.0
 11
151.693927
 21
75.375615
 31
0.0
  0
ARC
  5
71
100
AcDbEntity
  8
0
  6
Continuous
 62
   212
100
AcDbCircle
 10
209.86766
 20
66.234885
 30
0.0
 40
2.0
100
AcDbArc
 50
-0.833179
 51
89.166821
  0
ARC
  5
72
100
AcDbEntity
  8
0
  6
Continuous
 62
   212
100
AcDbCircle
 10
209.86766
 20
66.234885
 30
0.0
 40
2.0
100
AcDbArc
 50
-90.833179
 51
-0.833179
  0
LINE
  5
73
100
AcDbEntity
  8
0
  6
Continuous
 62
   212
100
AcDbLine
 10
221.0
 20
126.0
 30
0.0
 11
224.0
 21
126.0
 31
0.0
  0
ARC
  5
74
100
AcDbEntity
  8
0
  6
Continuous
 62
   212
100
AcDbCircle
 10
216.0
 20
113.0
 30
0.0
 40
2.0
100
AcDbArc
 50
-270.0
 51
-180.0
  0
ARC
  5
75
100
AcDbEntity
  8
0
  6
Continuous
 62
   212
100
AcDbCircle
 10
216.0
 20
113.0
 30
0.0
 40
2.0
100
AcDbArc
 50
0.0
 51
90.0
  0
LINE
  5
76
100
AcDbEntity
  8
0
  6
Continuous
 62
   212
100
AcDbLine
 10
144.813189
 20
190.222902
 30
0.0
 11
144.813189
 21
121.777098
 31
0.0
  0
LINE
  5
77
100
AcDbEntity
  8
0
  6
Continuous
 62
   212
100
AcDbLine
 10
140.43773
 20
206.0
 30
0.0
 11
140.43773
 21
203.0
 31
0.0
  0
LINE
  5
78
100
AcDbEntity
  8
0
  6
Continuous
 62
   212
100
AcDbLine
 10
160.43773
 20
106.0
 30
0.0
 11
140.43773
 21
106.0
 31
0.0
  0
ARC
  5
79
100
AcDbEntity
  8
0
  6
Continuous
 62
   212
100
AcDbCircle
 10
157.625459
 20
190.222902
 30
0.0
 40
0.81227
100
AcDbArc
 50
-359.999982
 51
-269.999982
  0
ARC
  5
7A
100
AcDbEntity
  8
0
  6
Continuous
 62
   212
100
AcDbCircle
 10
169.625459
 20
121.777098
 30
0.0
 40
0.81227
100
AcDbArc
 50
-180.0
 51
0.0
  0
LINE
  5
7B
100
AcDbEntity
  8
0
  6
Continuous
 62
   212
100
AcDbLine
 10
151.118066
 20
75.652426
 30
0.0
 11
151.299481
 21
75.542231
 31
0.0
  0
LINE
  5
7C
100
AcDbEntity
  8
0
  6
Continuous
 62
   212
100
AcDbLine
 10
80.43773
 20
203.0
 30
0.0
 11
80.43773
 21
206.0
 31
0.0
  0
ARC
  5
7D
100
AcDbEntity
  8
0
  6
Continuous
 62
   212
100
AcDbCircle
 10
145.625459
 20
190.222902
 30
0.0
 40
0.81227
100
AcDbArc
 50
-270.0
 51
-180.0
  0
ARC
  5
7E
100
AcDbEntity
  8
0
  6
Continuous
 62
   212
100
AcDbCircle
 10
216.0
 20
197.0
 30
0.0
 40
2.0
100
AcDbArc
 50
-270.0
 51
-180.0
  0
LINE
  5
7F
100
AcDbEntity
  8
0
  6
Continuous
 62
   212
100
AcDbLine
 10
158.437729
 20
121.777098
 30
0.0
 11
158.437729
 21
190.222902
 31
0.0
  0
LINE
  5
80
100
AcDbEntity
  8
0
  6
Continuous
 62
   212
100
AcDbLine
 10
60.43773
 20
206.0
 30
0.0
 11
60.43773
 21
203.0
 31
0.0
  0
ARC
  5
81
100
AcDbEntity
  8
0
  6
Continuous
 62
   212
100
AcDbCircle
 10
145.625459
 20
190.222902
 30
0.0
 40
0.81227
100
AcDbArc
 50
-359.999982
 51
-269.999982
  0
LINE
  5
82
100
AcDbEntity
  8
0
  6
Continuous
 62
   212
100
AcDbLine
 10
140.43773
 20
106.0
 30
0.0
 11
140.43773
 21
109.0
 31
0.0
  0
LINE
  5
83
100
AcDbEntity
  8
0
  6
Continuous
 62
   212
100
AcDbLine
 10
160.43773
 20
206.0
 30
0.0
 11
140.43773
 21
206.0
 31
0.0
  0
LINE
  5
84
100
AcDbEntity
  8
0
  6
Continuous
 62
   212
100
AcDbLine
 10
146.437729
 20
121.777098
 30
0.0
 11
146.437729
 21
190.222902
 31
0.0
  0
ARC
  5
85
100
AcDbEntity
  8
0
  6
Continuous
 62
   212
100
AcDbCircle
 10
157.625459
 20
190.222902
 30
0.0
 40
0.81227
100
AcDbArc
 50
-270.0
 51
-180.0
  0
ARC
  5
86
100
AcDbEntity
  8
0
  6
Continuous
 62
   212
100
AcDbCircle
 10
216.0
 20
197.0
 30
0.0
 40
2.0
100
AcDbArc
 50
0.0
 51
90.0
  0
ARC
  5
87
100
AcDbEntity
  8
0
  6
Continuous
 62
   212
100
AcDbCircle
 10
145.625459
 20
121.777098
 30
0.0
 40
0.81227
100
AcDbArc
 50
-180.0
 51
0.0
  0
LINE
  5
88
100
AcDbEntity
  8
0
  6
Continuous
 62
   212
100
AcDbLine
 10
140.43773
 20
203.0
 30
0.0
 11
160.43773
 21
203.0
 31
0.0
  0
LINE
  5
89
100
AcDbEntity
  8
0
  6
Continuous
 62
   212
100
AcDbLine
 10
156.813189
 20
190.222902
 30
0.0
 11
156.813189
 21
121.777098
 31
0.0
  0
LINE
  5
8A
100
AcDbEntity
  8
0
  6
Continuous
 62
   212
100
AcDbLine
 10
160.43773
 20
203.0
 30
0.0
 11
160.43773
 21
206.0
 31
0.0
  0
ARC
  5
8B
100
AcDbEntity
  8
0
  6
Continuous
 62
   212
100
AcDbCircle
 10
216.0
 20
197.0
 30
0.0
 40
2.0
100
AcDbArc
 50
-90.0
 51
0.0
  0
ARC
  5
8C
100
AcDbEntity
  8
0
  6
Continuous
 62
   212
100
AcDbCircle
 10
133.625459
 20
190.222902
 30
0.0
 40
0.81227
100
AcDbArc
 50
-359.999982
 51
-269.999982
  0
LINE
  5
8D
100
AcDbEntity
  8
0
  6
Continuous
 62
   212
100
AcDbLine
 10
140.43773
 20
109.0
 30
0.0
 11
160.43773
 21
109.0
 31
0.0
  0
LINE
  5
8E
100
AcDbEntity
  8
0
  6
Continuous
 62
   212
100
AcDbLine
 10
110.43773
 20
121.777098
 30
0.0
 11
110.43773
 21
190.222902
 31
0.0
  0
ARC
  5
8F
100
AcDbEntity
  8
0
  6
Continuous
 62
   212
100
AcDbCircle
 10
176.871149
 20
66.714745
 30
0.0
 40
2.0
100
AcDbArc
 50
-0.833179
 51
89.166821
  0
LINE
  5
90
100
AcDbEntity
  8
0
  6
Continuous
 62
   212
100
AcDbLine
 10
60.43773
 20
203.0
 30
0.0
 11
80.43773
 21
203.0
 31
0.0
  0
LINE
  5
91
100
AcDbEntity
  8
0
  6
Continuous
 62
   212
100
AcDbLine
 10
221.0
 20
186.0
 30
0.0
 11
221.0
 21
166.0
 31
0.0
  0
LINE
  5
92
100
AcDbEntity
  8
0
  6
Continuous
 62
   212
100
AcDbLine
 10
132.813189
 20
190.222902
 30
0.0
 11
132.813189
 21
121.777098
 31
0.0
  0
LINE
  5
93
100
AcDbEntity
  8
0
  6
Continuous
 62
   212
100
AcDbLine
 10
224.0
 20
126.0
 30
0.0
 11
224.0
 21
146.0
 31
0.0
  0
LINE
  5
94
100
AcDbEntity
  8
0
  6
Continuous
 62
   212
100
AcDbLine
 10
120.813189
 20
190.222902
 30
0.0
 11
120.813189
 21
121.777098
 31
0.0
  0
LINE
  5
95
100
AcDbEntity
  8
0
  6
Continuous
 62
   212
100
AcDbLine
 10
224.0
 20
166.0
 30
0.0
 11
224.0
 21
186.0
 31
0.0
  0
LINE
  5
96
100
AcDbEntity
  8
0
  6
Continuous
 62
   212
100
AcDbLine
 10
151.693927
 20
75.375615
 30
0.0
 11
151.904742
 21
75.321405
 31
0.0
  0
ARC
  5
97
100
AcDbEntity
  8
0
  6
Continuous
 62
   212
100
AcDbCircle
 10
121.625459
 20
190.222902
 30
0.0
 40
0.81227
100
AcDbArc
 50
-359.999982
 51
-269.999982
  0
ARC
  5
98
100
AcDbEntity
  8
0
  6
Continuous
 62
   212
100
AcDbCircle
 10
209.86766
 20
66.234885
 30
0.0
 40
2.0
100
AcDbArc
 50
-270.833179
 51
-180.833179
  0
LINE
  5
99
100
AcDbEntity
  8
0
  6
Continuous
 62
   212
100
AcDbLine
 10
153.204518
 20
75.449592
 30
0.0
 11
153.396856
 21
75.542231
 31
0.0
  0
LINE
  5
9A
100
AcDbEntity
  8
0
  6
Continuous
 62
   212
100
AcDbLine
 10
153.396856
 20
75.542231
 30
0.0
 11
153.578269
 21
75.652426
 31
0.0
  0
LINE
  5
9B
100
AcDbEntity
  8
0
  6
Continuous
 62
   212
100
AcDbLine
 10
153.578269
 20
75.652426
 30
0.0
 11
153.74765
 21
75.77907
 31
0.0
  0
LINE
  5
9C
100
AcDbEntity
  8
0
  6
Continuous
 62
   212
100
AcDbLine
 10
153.74765
 20
75.77907
 30
0.0
 11
153.903895
 21
75.921058
 31
0.0
  0
LINE
  5
9D
100
AcDbEntity
  8
0
  6
Continuous
 62
   212
100
AcDbLine
 10
153.903895
 20
75.921058
 30
0.0
 11
154.045897
 21
76.077284
 31
0.0
  0
LINE
  5
9E
100
AcDbEntity
  8
0
  6
Continuous
 62
   212
100
AcDbLine
 10
154.045897
 20
76.077284
 30
0.0
 11
154.172552
 21
76.246642
 31
0.0
  0
LINE
  5
9F
100
AcDbEntity
  8
0
  6
Continuous
 62
   212
100
AcDbLine
 10
154.172552
 20
76.246642
 30
0.0
 11
154.282754
 21
76.428025
 31
0.0
  0
LINE
  5
A0
100
AcDbEntity
  8
0
  6
Continuous
 62
   212
100
AcDbLine
 10
154.282754
 20
76.428025
 30
0.0
 11
154.375399
 21
76.62033
 31
0.0
  0
LINE
  5
A1
100
AcDbEntity
  8
0
  6
Continuous
 62
   212
100
AcDbLine
 10
154.375399
 20
76.62033
 30
0.0
 11
154.449379
 21
76.822448
 31
0.0
  0
LINE
  5
A2
100
AcDbEntity
  8
0
  6
Continuous
 62
   212
100
AcDbLine
 10
154.449379
 20
76.822448
 30
0.0
 11
154.503591
 21
77.033275
 31
0.0
  0
LINE
  5
A3
100
AcDbEntity
  8
0
  6
Continuous
 62
   212
100
AcDbLine
 10
154.503591
 20
77.033275
 30
0.0
 11
154.536929
 21
77.251705
 31
0.0
  0
LINE
  5
A4
100
AcDbEntity
  8
0
  6
Continuous
 62
   212
100
AcDbLine
 10
154.536929
 20
77.251705
 30
0.0
 11
154.548287
 21
77.476632
 31
0.0
  0
LINE
  5
A5
100
AcDbEntity
  8
0
  6
Continuous
 62
   212
100
AcDbLine
 10
154.548287
 20
77.476632
 30
0.0
 11
154.536929
 21
77.70162
 31
0.0
  0
LINE
  5
A6
100
AcDbEntity
  8
0
  6
Continuous
 62
   212
100
AcDbLine
 10
154.536929
 20
77.70162
 30
0.0
 11
154.503591
 21
77.920104
 31
0.0
  0
LINE
  5
A7
100
AcDbEntity
  8
0
  6
Continuous
 62
   212
100
AcDbLine
 10
154.503591
 20
77.920104
 30
0.0
 11
154.449379
 21
78.130978
 31
0.0
  0
LINE
  5
A8
100
AcDbEntity
  8
0
  6
Continuous
 62
   212
100
AcDbLine
 10
154.449379
 20
78.130978
 30
0.0
 11
154.375399
 21
78.333137
 31
0.0
  0
LINE
  5
A9
100
AcDbEntity
  8
0
  6
Continuous
 62
   212
100
AcDbLine
 10
154.375399
 20
78.333137
 30
0.0
 11
154.282754
 21
78.525476
 31
0.0
  0
LINE
  5
AA
100
AcDbEntity
  8
0
  6
Continuous
 62
   212
100
AcDbLine
 10
154.282754
 20
78.525476
 30
0.0
 11
154.172552
 21
78.706888
 31
0.0
  0
LINE
  5
AB
100
AcDbEntity
  8
0
  6
Continuous
 62
   212
100
AcDbLine
 10
154.172552
 20
78.706888
 30
0.0
 11
154.045897
 21
78.876269
 31
0.0
  0
LINE
  5
AC
100
AcDbEntity
  8
0
  6
Continuous
 62
   212
100
AcDbLine
 10
154.045897
 20
78.876269
 30
0.0
 11
153.903895
 21
79.032514
 31
0.0
  0
LINE
  5
AD
100
AcDbEntity
  8
0
  6
Continuous
 62
   212
100
AcDbLine
 10
153.903895
 20
79.032514
 30
0.0
 11
153.74765
 21
79.174516
 31
0.0
  0
LINE
  5
AE
100
AcDbEntity
  8
0
  6
Continuous
 62
   212
100
AcDbLine
 10
153.74765
 20
79.174516
 30
0.0
 11
153.578269
 21
79.301171
 31
0.0
  0
LINE
  5
AF
100
AcDbEntity
  8
0
  6
Continuous
 62
   212
100
AcDbLine
 10
153.578269
 20
79.301171
 30
0.0
 11
153.396856
 21
79.411374
 31
0.0
  0
LINE
  5
B0
100
AcDbEntity
  8
0
  6
Continuous
 62
   212
100
AcDbLine
 10
153.396856
 20
79.411374
 30
0.0
 11
153.204518
 21
79.504018
 31
0.0
  0
LINE
  5
B1
100
AcDbEntity
  8
0
  6
Continuous
 62
   212
100
AcDbLine
 10
153.204518
 20
79.504018
 30
0.0
 11
153.002359
 21
79.577999
 31
0.0
  0
LINE
  5
B2
100
AcDbEntity
  8
0
  6
Continuous
 62
   212
100
AcDbLine
 10
153.002359
 20
79.577999
 30
0.0
 11
152.791485
 21
79.632211
 31
0.0
  0
LINE
  5
B3
100
AcDbEntity
  8
0
  6
Continuous
 62
   212
100
AcDbLine
 10
152.791485
 20
79.632211
 30
0.0
 11
152.573001
 21
79.665548
 31
0.0
  0
LINE
  5
B4
100
AcDbEntity
  8
0
  6
Continuous
 62
   212
100
AcDbLine
 10
152.573001
 20
79.665548
 30
0.0
 11
152.348012
 21
79.676907
 31
0.0
  0
LINE
  5
B5
100
AcDbEntity
  8
0
  6
Continuous
 62
   212
100
AcDbLine
 10
152.348012
 20
79.676907
 30
0.0
 11
152.12314
 21
79.665548
 31
0.0
  0
LINE
  5
B6
100
AcDbEntity
  8
0
  6
Continuous
 62
   212
100
AcDbLine
 10
152.12314
 20
79.665548
 30
0.0
 11
151.904742
 21
79.632211
 31
0.0
  0
LINE
  5
B7
100
AcDbEntity
  8
0
  6
Continuous
 62
   212
100
AcDbLine
 10
151.904742
 20
79.632211
 30
0.0
 11
151.693927
 21
79.577999
 31
0.0
  0
LINE
  5
B8
100
AcDbEntity
  8
0
  6
Continuous
 62
   212
100
AcDbLine
 10
151.693927
 20
79.577999
 30
0.0
 11
151.491804
 21
79.504018
 31
0.0
  0
LINE
  5
B9
100
AcDbEntity
  8
0
  6
Continuous
 62
   212
100
AcDbLine
 10
151.491804
 20
79.504018
 30
0.0
 11
151.299481
 21
79.411374
 31
0.0
  0
LINE
  5
BA
100
AcDbEntity
  8
0
  6
Continuous
 62
   212
100
AcDbLine
 10
151.299481
 20
79.411374
 30
0.0
 11
151.118066
 21
79.301171
 31
0.0
  0
LINE
  5
BB
100
AcDbEntity
  8
0
  6
Continuous
 62
   212
100
AcDbLine
 10
151.118066
 20
79.301171
 30
0.0
 11
150.948667
 21
79.174516
 31
0.0
  0
LINE
  5
BC
100
AcDbEntity
  8
0
  6
Continuous
 62
   212
100
AcDbLine
 10
150.948667
 20
79.174516
 30
0.0
 11
150.792395
 21
79.032514
 31
0.0
  0
LINE
  5
BD
100
AcDbEntity
  8
0
  6
Continuous
 62
   212
100
AcDbLine
 10
150.792395
 20
79.032514
 30
0.0
 11
150.650355
 21
78.876269
 31
0.0
  0
LINE
  5
BE
100
AcDbEntity
  8
0
  6
Continuous
 62
   212
100
AcDbLine
 10
150.650355
 20
78.876269
 30
0.0
 11
150.523658
 21
78.706888
 31
0.0
  0
LINE
  5
BF
100
AcDbEntity
  8
0
  6
Continuous
 62
   212
100
AcDbLine
 10
150.523658
 20
78.706888
 30
0.0
 11
150.413412
 21
78.525476
 31
0.0
  0
LINE
  5
C0
100
AcDbEntity
  8
0
  6
Continuous
 62
   212
100
AcDbLine
 10
150.413412
 20
78.525476
 30
0.0
 11
150.320725
 21
78.333137
 31
0.0
  0
LINE
  5
C1
100
AcDbEntity
  8
0
  6
Continuous
 62
   212
100
AcDbLine
 10
150.320725
 20
78.333137
 30
0.0
 11
150.246706
 21
78.130978
 31
0.0
  0
LINE
  5
C2
100
AcDbEntity
  8
0
  6
Continuous
 62
   212
100
AcDbLine
 10
150.246706
 20
78.130978
 30
0.0
 11
150.192462
 21
77.920104
 31
0.0
  0
LINE
  5
C3
100
AcDbEntity
  8
0
  6
Continuous
 62
   212
100
AcDbLine
 10
150.192462
 20
77.920104
 30
0.0
 11
150.159103
 21
77.70162
 31
0.0
  0
LINE
  5
C4
100
AcDbEntity
  8
0
  6
Continuous
 62
   212
100
AcDbLine
 10
150.159103
 20
77.70162
 30
0.0
 11
150.147737
 21
77.476632
 31
0.0
  0
LINE
  5
C5
100
AcDbEntity
  8
0
  6
Continuous
 62
   212
100
AcDbLine
 10
150.147737
 20
77.476632
 30
0.0
 11
150.159103
 21
77.251705
 31
0.0
  0
LINE
  5
C6
100
AcDbEntity
  8
0
  6
Continuous
 62
   212
100
AcDbLine
 10
150.159103
 20
77.251705
 30
0.0
 11
150.192462
 21
77.033275
 31
0.0
  0
LINE
  5
C7
100
AcDbEntity
  8
0
  6
Continuous
 62
   212
100
AcDbLine
 10
150.192462
 20
77.033275
 30
0.0
 11
150.246706
 21
76.822448
 31
0.0
  0
LINE
  5
C8
100
AcDbEntity
  8
0
  6
Continuous
 62
   212
100
AcDbLine
 10
150.246706
 20
76.822448
 30
0.0
 11
150.320725
 21
76.62033
 31
0.0
  0
LINE
  5
C9
100
AcDbEntity
  8
0
  6
Continuous
 62
   212
100
AcDbLine
 10
150.320725
 20
76.62033
 30
0.0
 11
150.413412
 21
76.428025
 31
0.0
  0
LINE
  5
CA
100
AcDbEntity
  8
0
  6
Continuous
 62
   212
100
AcDbLine
 10
150.413412
 20
76.428025
 30
0.0
 11
150.523658
 21
76.246642
 31
0.0
  0
LINE
  5
CB
100
AcDbEntity
  8
0
  6
Continuous
 62
   212
100
AcDbLine
 10
150.523658
 20
76.246642
 30
0.0
 11
150.650355
 21
76.077284
 31
0.0
  0
LINE
  5
CC
100
AcDbEntity
  8
0
  6
Continuous
 62
   212
100
AcDbLine
 10
150.650355
 20
76.077284
 30
0.0
 11
150.792395
 21
75.921058
 31
0.0
  0
LINE
  5
CD
100
AcDbEntity
  8
0
  6
Continuous
 62
   212
100
AcDbLine
 10
150.792395
 20
75.921058
 30
0.0
 11
150.948667
 21
75.77907
 31
0.0
  0
LINE
  5
CE
100
AcDbEntity
  8
0
  6
Continuous
 62
   212
100
AcDbLine
 10
86.43773
 20
121.777098
 30
0.0
 11
86.43773
 21
190.222902
 31
0.0
  0
ARC
  5
CF
100
AcDbEntity
  8
0
  6
Continuous
 62
   212
100
AcDbCircle
 10
85.625459
 20
190.222902
 30
0.0
 40
0.81227
100
AcDbArc
 50
-359.999982
 51
-269.999982
  0
ARC
  5
D0
100
AcDbEntity
  8
0
  6
Continuous
 62
   212
100
AcDbCircle
 10
85.625459
 20
190.222902
 30
0.0
 40
0.81227
100
AcDbArc
 50
-270.0
 51
-180.0
  0
ARC
  5
D1
100
AcDbEntity
  8
0
  6
Continuous
 62
   212
100
AcDbCircle
 10
97.625459
 20
121.777098
 30
0.0
 40
0.81227
100
AcDbArc
 50
-180.0
 51
0.0
  0
LINE
  5
D2
100
AcDbEntity
  8
0
  6
Continuous
 62
   212
100
AcDbLine
 10
98.43773
 20
121.777098
 30
0.0
 11
98.43773
 21
190.222902
 31
0.0
  0
ARC
  5
D3
100
AcDbEntity
  8
0
  6
Continuous
 62
   212
100
AcDbCircle
 10
209.227847
 20
22.239538
 30
0.0
 40
2.0
100
AcDbArc
 50
-0.833179
 51
89.166821
  0
ARC
  5
D4
100
AcDbEntity
  8
0
  6
Continuous
 62
   212
100
AcDbCircle
 10
209.227847
 20
22.239538
 30
0.0
 40
2.0
100
AcDbArc
 50
-270.833179
 51
-180.833179
  0
LINE
  5
D5
100
AcDbEntity
  8
0
  6
Continuous
 62
   212
100
AcDbLine
 10
84.813189
 20
190.222902
 30
0.0
 11
84.813189
 21
121.777098
 31
0.0
  0
ARC
  5
D6
100
AcDbEntity
  8
0
  6
Continuous
 62
   212
100
AcDbCircle
 10
73.625459
 20
190.222902
 30
0.0
 40
0.81227
100
AcDbArc
 50
-270.0
 51
-180.0
  0
LINE
  5
D7
100
AcDbEntity
  8
0
  6
Continuous
 62
   212
100
AcDbLine
 10
72.813189
 20
190.222902
 30
0.0
 11
72.813189
 21
121.777098
 31
0.0
  0
ARC
  5
D8
100
AcDbEntity
  8
0
  6
Continuous
 62
   212
100
AcDbCircle
 10
176.231336
 20
22.719397
 30
0.0
 40
2.0
100
AcDbArc
 50
-90.833179
 51
-0.833179
  0
ARC
  5
D9
100
AcDbEntity
  8
0
  6
Continuous
 62
   212
100
AcDbCircle
 10
209.227847
 20
22.239538
 30
0.0
 40
2.0
100
AcDbArc
 50
-180.833179
 51
-90.833179
  0
ARC
  5
DA
100
AcDbEntity
  8
0
  6
Continuous
 62
   212
100
AcDbCircle
 10
209.227847
 20
22.239538
 30
0.0
 40
2.0
100
AcDbArc
 50
-90.833179
 51
-0.833179
  0
ARC
  5
DB
100
AcDbEntity
  8
0
  6
Continuous
 62
   212
100
AcDbCircle
 10
176.231336
 20
22.719397
 30
0.0
 40
2.0
100
AcDbArc
 50
-270.833179
 51
-180.833179
  0
ARC
  5
DC
100
AcDbEntity
  8
0
  6
Continuous
 62
   212
100
AcDbCircle
 10
176.231336
 20
22.719397
 30
0.0
 40
2.0
100
AcDbArc
 50
-180.833179
 51
-90.833179
  0
ARC
  5
DD
100
AcDbEntity
  8
0
  6
Continuous
 62
   212
100
AcDbCircle
 10
73.625459
 20
121.777098
 30
0.0
 40
0.81227
100
AcDbArc
 50
-180.0
 51
0.0
  0
LINE
  5
DE
100
AcDbEntity
  8
0
  6
Continuous
 62
   212
100
AcDbLine
 10
74.43773
 20
121.777098
 30
0.0
 11
74.43773
 21
190.222902
 31
0.0
  0
ARC
  5
DF
100
AcDbEntity
  8
0
  6
Continuous
 62
   212
100
AcDbCircle
 10
73.625459
 20
190.222902
 30
0.0
 40
0.81227
100
AcDbArc
 50
-359.999982
 51
-269.999982
  0
ARC
  5
E0
100
AcDbEntity
  8
0
  6
Continuous
 62
   212
100
AcDbCircle
 10
61.625459
 20
190.222902
 30
0.0
 40
0.81227
100
AcDbArc
 50
-270.0
 51
-180.0
  0
LINE
  5
E1
100
AcDbEntity
  8
0
  6
Continuous
 62
   212
100
AcDbLine
 10
60.813189
 20
190.222902
 30
0.0
 11
60.813189
 21
121.777098
 31
0.0
  0
LINE
  5
E2
100
AcDbEntity
  8
0
  6
Continuous
 62
   212
100
AcDbLine
 10
102.461751
 20
77.12015
 30
0.0
 11
102.625122
 21
76.971753
 31
0.0
  0
ARC
  5
E3
100
AcDbEntity
  8
0
  6
Continuous
 62
   212
100
AcDbCircle
 10
176.231336
 20
22.719397
 30
0.0
 40
2.0
100
AcDbArc
 50
-0.833179
 51
89.166821
  0
LINE
  5
E4
100
AcDbEntity
  8
0
  6
Continuous
 62
   212
100
AcDbLine
 10
102.802223
 20
76.839407
 30
0.0
 11
102.991897
 21
76.724264
 31
0.0
  0
LINE
  5
E5
100
AcDbEntity
  8
0
  6
Continuous
 62
   212
100
AcDbLine
 10
102.991897
 20
76.724264
 30
0.0
 11
103.192987
 21
76.627473
 31
0.0
  0
LINE
  5
E6
100
AcDbEntity
  8
0
  6
Continuous
 62
   212
100
AcDbLine
 10
103.192987
 20
76.627473
 30
0.0
 11
103.404336
 21
76.550188
 31
0.0
  0
ARC
  5
E7
100
AcDbEntity
  8
0
  6
Continuous
 62
   212
100
AcDbCircle
 10
61.625459
 20
121.777098
 30
0.0
 40
0.81227
100
AcDbArc
 50
-180.0
 51
0.0
  0
LINE
  5
E8
100
AcDbEntity
  8
0
  6
Continuous
 62
   212
100
AcDbLine
 10
62.43773
 20
121.777098
 30
0.0
 11
62.43773
 21
190.222902
 31
0.0
  0
ARC
  5
E9
100
AcDbEntity
  8
0
  6
Continuous
 62
   212
100
AcDbCircle
 10
61.625459
 20
190.222902
 30
0.0
 40
0.81227
100
AcDbArc
 50
-359.999982
 51
-269.999982
  0
ARC
  5
EA
100
AcDbEntity
  8
0
  6
Continuous
 62
   212
100
AcDbCircle
 10
6.0
 20
197.0
 30
0.0
 40
2.0
100
AcDbArc
 50
0.0
 51
90.0
  0
ARC
  5
EB
100
AcDbEntity
  8
0
  6
Continuous
 62
   212
100
AcDbCircle
 10
6.0
 20
197.0
 30
0.0
 40
2.0
100
AcDbArc
 50
-270.0
 51
-180.0
  0
ARC
  5
EC
100
AcDbEntity
  8
0
  6
Continuous
 62
   212
100
AcDbCircle
 10
49.625459
 20
121.777098
 30
0.0
 40
0.81227
100
AcDbArc
 50
-180.0
 51
0.0
  0
LINE
  5
ED
100
AcDbEntity
  8
0
  6
Continuous
 62
   212
100
AcDbLine
 10
102.625122
 20
76.971753
 30
0.0
 11
102.802223
 21
76.839407
 31
0.0
  0
LINE
  5
EE
100
AcDbEntity
  8
0
  6
Continuous
 62
   212
100
AcDbLine
 10
103.404336
 20
76.550188
 30
0.0
 11
103.624787
 21
76.493558
 31
0.0
  0
LINE
  5
EF
100
AcDbEntity
  8
0
  6
Continuous
 62
   212
100
AcDbLine
 10
103.624787
 20
76.493558
 30
0.0
 11
103.853182
 21
76.458736
 31
0.0
  0
LINE
  5
F0
100
AcDbEntity
  8
0
  6
Continuous
 62
   212
100
AcDbLine
 10
103.853182
 20
76.458736
 30
0.0
 11
104.088365
 21
76.446873
 31
0.0
  0
LINE
  5
F1
100
AcDbEntity
  8
0
  6
Continuous
 62
   212
100
AcDbLine
 10
104.088365
 20
76.446873
 30
0.0
 11
104.323548
 21
76.458736
 31
0.0
  0
LINE
  5
F2
100
AcDbEntity
  8
0
  6
Continuous
 62
   212
100
AcDbLine
 10
104.323548
 20
76.458736
 30
0.0
 11
104.551943
 21
76.493558
 31
0.0
  0
LINE
  5
F3
100
AcDbEntity
  8
0
  6
Continuous
 62
   212
100
AcDbLine
 10
104.551943
 20
76.493558
 30
0.0
 11
104.772394
 21
76.550188
 31
0.0
  0
LINE
  5
F4
100
AcDbEntity
  8
0
  6
Continuous
 62
   212
100
AcDbLine
 10
104.772394
 20
76.550188
 30
0.0
 11
104.983743
 21
76.627473
 31
0.0
  0
LINE
  5
F5
100
AcDbEntity
  8
0
  6
Continuous
 62
   212
100
AcDbLine
 10
104.983743
 20
76.627473
 30
0.0
 11
105.184833
 21
76.724264
 31
0.0
  0
LINE
  5
F6
100
AcDbEntity
  8
0
  6
Continuous
 62
   212
100
AcDbLine
 10
105.184833
 20
76.724264
 30
0.0
 11
105.374507
 21
76.839407
 31
0.0
  0
LINE
  5
F7
100
AcDbEntity
  8
0
  6
Continuous
 62
   212
100
AcDbLine
 10
105.374507
 20
76.839407
 30
0.0
 11
105.551608
 21
76.971753
 31
0.0
  0
LINE
  5
F8
100
AcDbEntity
  8
0
  6
Continuous
 62
   212
100
AcDbLine
 10
105.551608
 20
76.971753
 30
0.0
 11
105.714979
 21
77.12015
 31
0.0
  0
LINE
  5
F9
100
AcDbEntity
  8
0
  6
Continuous
 62
   212
100
AcDbLine
 10
105.714979
 20
77.12015
 30
0.0
 11
105.863464
 21
77.283445
 31
0.0
  0
LINE
  5
FA
100
AcDbEntity
  8
0
  6
Continuous
 62
   212
100
AcDbLine
 10
105.863464
 20
77.283445
 30
0.0
 11
105.995904
 21
77.460489
 31
0.0
  0
LINE
  5
FB
100
AcDbEntity
  8
0
  6
Continuous
 62
   212
100
AcDbLine
 10
105.995904
 20
77.460489
 30
0.0
 11
106.111143
 21
77.65013
 31
0.0
  0
LINE
  5
FC
100
AcDbEntity
  8
0
  6
Continuous
 62
   212
100
AcDbLine
 10
106.111143
 20
77.65013
 30
0.0
 11
106.208025
 21
77.851215
 31
0.0
  0
LINE
  5
FD
100
AcDbEntity
  8
0
  6
Continuous
 62
   212
100
AcDbLine
 10
106.208025
 20
77.851215
 30
0.0
 11
106.285391
 21
78.062595
 31
0.0
  0
LINE
  5
FE
100
AcDbEntity
  8
0
  6
Continuous
 62
   212
100
AcDbLine
 10
106.285391
 20
78.062595
 30
0.0
 11
106.342085
 21
78.283117
 31
0.0
  0
LINE
  5
FF
100
AcDbEntity
  8
0
  6
Continuous
 62
   212
100
AcDbLine
 10
106.342085
 20
78.283117
 30
0.0
 11
106.37695
 21
78.511631
 31
0.0
  0
LINE
  5
100
100
AcDbEntity
  8
0
  6
Continuous
 62
   212
100
AcDbLine
 10
106.37695
 20
78.511631
 30
0.0
 11
106.388829
 21
78.746984
 31
0.0
  0
LINE
  5
101
100
AcDbEntity
  8
0
  6
Continuous
 62
   212
100
AcDbLine
 10
106.388829
 20
78.746984
 30
0.0
 11
106.37695
 21
78.982043
 31
0.0
  0
LINE
  5
102
100
AcDbEntity
  8
0
  6
Continuous
 62
   212
100
AcDbLine
 10
106.37695
 20
78.982043
 30
0.0
 11
106.342085
 21
79.21033
 31
0.0
  0
LINE
  5
103
100
AcDbEntity
  8
0
  6
Continuous
 62
   212
100
AcDbLine
 10
106.342085
 20
79.21033
 30
0.0
 11
106.285391
 21
79.430686
 31
0.0
  0
LINE
  5
104
100
AcDbEntity
  8
0
  6
Continuous
 62
   212
100
AcDbLine
 10
106.285391
 20
79.430686
 30
0.0
 11
106.208025
 21
79.641954
 31
0.0
  0
LINE
  5
105
100
AcDbEntity
  8
0
  6
Continuous
 62
   212
100
AcDbLine
 10
106.208025
 20
79.641954
 30
0.0
 11
106.111143
 21
79.842976
 31
0.0
  0
LINE
  5
106
100
AcDbEntity
  8
0
  6
Continuous
 62
   212
100
AcDbLine
 10
106.111143
 20
79.842976
 30
0.0
 11
105.995904
 21
80.032593
 31
0.0
  0
LINE
  5
107
100
AcDbEntity
  8
0
  6
Continuous
 62
   212
100
AcDbLine
 10
105.995904
 20
80.032593
 30
0.0
 11
105.863464
 21
80.209647
 31
0.0
  0
LINE
  5
108
100
AcDbEntity
  8
0
  6
Continuous
 62
   212
100
AcDbLine
 10
105.863464
 20
80.209647
 30
0.0
 11
105.714979
 21
80.372981
 31
0.0
  0
LINE
  5
109
100
AcDbEntity
  8
0
  6
Continuous
 62
   212
100
AcDbLine
 10
105.714979
 20
80.372981
 30
0.0
 11
105.551608
 21
80.521436
 31
0.0
  0
LINE
  5
10A
100
AcDbEntity
  8
0
  6
Continuous
 62
   212
100
AcDbLine
 10
105.551608
 20
80.521436
 30
0.0
 11
105.374507
 21
80.653855
 31
0.0
  0
LINE
  5
10B
100
AcDbEntity
  8
0
  6
Continuous
 62
   212
100
AcDbLine
 10
105.374507
 20
80.653855
 30
0.0
 11
105.184833
 21
80.769079
 31
0.0
  0
LINE
  5
10C
100
AcDbEntity
  8
0
  6
Continuous
 62
   212
100
AcDbLine
 10
105.184833
 20
80.769079
 30
0.0
 11
104.983743
 21
80.86595
 31
0.0
  0
LINE
  5
10D
100
AcDbEntity
  8
0
  6
Continuous
 62
   212
100
AcDbLine
 10
104.983743
 20
80.86595
 30
0.0
 11
104.772394
 21
80.943309
 31
0.0
  0
LINE
  5
10E
100
AcDbEntity
  8
0
  6
Continuous
 62
   212
100
AcDbLine
 10
104.772394
 20
80.943309
 30
0.0
 11
104.551943
 21
81.0
 31
0.0
  0
LINE
  5
10F
100
AcDbEntity
  8
0
  6
Continuous
 62
   212
100
AcDbLine
 10
104.551943
 20
81.0
 30
0.0
 11
104.323548
 21
81.034864
 31
0.0
  0
LINE
  5
110
100
AcDbEntity
  8
0
  6
Continuous
 62
   212
100
AcDbLine
 10
104.323548
 20
81.034864
 30
0.0
 11
104.088365
 21
81.046743
 31
0.0
  0
LINE
  5
111
100
AcDbEntity
  8
0
  6
Continuous
 62
   212
100
AcDbLine
 10
104.088365
 20
81.046743
 30
0.0
 11
103.853182
 21
81.034864
 31
0.0
  0
LINE
  5
112
100
AcDbEntity
  8
0
  6
Continuous
 62
   212
100
AcDbLine
 10
103.853182
 20
81.034864
 30
0.0
 11
103.624787
 21
81.0
 31
0.0
  0
LINE
  5
113
100
AcDbEntity
  8
0
  6
Continuous
 62
   212
100
AcDbLine
 10
103.624787
 20
81.0
 30
0.0
 11
103.404336
 21
80.943309
 31
0.0
  0
LINE
  5
114
100
AcDbEntity
  8
0
  6
Continuous
 62
   212
100
AcDbLine
 10
103.404336
 20
80.943309
 30
0.0
 11
103.192987
 21
80.86595
 31
0.0
  0
LINE
  5
115
100
AcDbEntity
  8
0
  6
Continuous
 62
   212
100
AcDbLine
 10
103.192987
 20
80.86595
 30
0.0
 11
102.991897
 21
80.769079
 31
0.0
  0
LINE
  5
116
100
AcDbEntity
  8
0
  6
Continuous
 62
   212
100
AcDbLine
 10
102.991897
 20
80.769079
 30
0.0
 11
102.802223
 21
80.653855
 31
0.0
  0
LINE
  5
117
100
AcDbEntity
  8
0
  6
Continuous
 62
   212
100
AcDbLine
 10
102.802223
 20
80.653855
 30
0.0
 11
102.625122
 21
80.521436
 31
0.0
  0
LINE
  5
118
100
AcDbEntity
  8
0
  6
Continuous
 62
   212
100
AcDbLine
 10
102.625122
 20
80.521436
 30
0.0
 11
102.461751
 21
80.372981
 31
0.0
  0
LINE
  5
119
100
AcDbEntity
  8
0
  6
Continuous
 62
   212
100
AcDbLine
 10
102.461751
 20
80.372981
 30
0.0
 11
102.313266
 21
80.209647
 31
0.0
  0
LINE
  5
11A
100
AcDbEntity
  8
0
  6
Continuous
 62
   212
100
AcDbLine
 10
102.313266
 20
80.209647
 30
0.0
 11
102.180826
 21
80.032593
 31
0.0
  0
LINE
  5
11B
100
AcDbEntity
  8
0
  6
Continuous
 62
   212
100
AcDbLine
 10
102.180826
 20
80.032593
 30
0.0
 11
102.065587
 21
79.842976
 31
0.0
  0
LINE
  5
11C
100
AcDbEntity
  8
0
  6
Continuous
 62
   212
100
AcDbLine
 10
102.065587
 20
79.842976
 30
0.0
 11
101.968705
 21
79.641954
 31
0.0
  0
LINE
  5
11D
100
AcDbEntity
  8
0
  6
Continuous
 62
   212
100
AcDbLine
 10
101.968705
 20
79.641954
 30
0.0
 11
101.891339
 21
79.430686
 31
0.0
  0
LINE
  5
11E
100
AcDbEntity
  8
0
  6
Continuous
 62
   212
100
AcDbLine
 10
101.891339
 20
79.430686
 30
0.0
 11
101.834645
 21
79.21033
 31
0.0
  0
LINE
  5
11F
100
AcDbEntity
  8
0
  6
Continuous
 62
   212
100
AcDbLine
 10
101.834645
 20
79.21033
 30
0.0
 11
101.79978
 21
78.982043
 31
0.0
  0
LINE
  5
120
100
AcDbEntity
  8
0
  6
Continuous
 62
   212
100
AcDbLine
 10
101.79978
 20
78.982043
 30
0.0
 11
101.787901
 21
78.746984
 31
0.0
  0
LINE
  5
121
100
AcDbEntity
  8
0
  6
Continuous
 62
   212
100
AcDbLine
 10
101.787901
 20
78.746984
 30
0.0
 11
101.79978
 21
78.511631
 31
0.0
  0
LINE
  5
122
100
AcDbEntity
  8
0
  6
Continuous
 62
   212
100
AcDbLine
 10
101.79978
 20
78.511631
 30
0.0
 11
101.834645
 21
78.283117
 31
0.0
  0
LINE
  5
123
100
AcDbEntity
  8
0
  6
Continuous
 62
   212
100
AcDbLine
 10
101.834645
 20
78.283117
 30
0.0
 11
101.891339
 21
78.062595
 31
0.0
  0
LINE
  5
124
100
AcDbEntity
  8
0
  6
Continuous
 62
   212
100
AcDbLine
 10
101.891339
 20
78.062595
 30
0.0
 11
101.968705
 21
77.851215
 31
0.0
  0
LINE
  5
125
100
AcDbEntity
  8
0
  6
Continuous
 62
   212
100
AcDbLine
 10
101.968705
 20
77.851215
 30
0.0
 11
102.065587
 21
77.65013
 31
0.0
  0
LINE
  5
126
100
AcDbEntity
  8
0
  6
Continuous
 62
   212
100
AcDbLine
 10
102.065587
 20
77.65013
 30
0.0
 11
102.180826
 21
77.460489
 31
0.0
  0
LINE
  5
127
100
AcDbEntity
  8
0
  6
Continuous
 62
   212
100
AcDbLine
 10
102.180826
 20
77.460489
 30
0.0
 11
102.313266
 21
77.283445
 31
0.0
  0
LINE
  5
128
100
AcDbEntity
  8
0
  6
Continuous
 62
   212
100
AcDbLine
 10
102.313266
 20
77.283445
 30
0.0
 11
102.461751
 21
77.12015
 31
0.0
  0
ARC
  5
129
100
AcDbEntity
  8
0
  6
Continuous
 62
   212
100
AcDbCircle
 10
49.625459
 20
190.222902
 30
0.0
 40
0.81227
100
AcDbArc
 50
-359.999982
 51
-269.999982
  0
ARC
  5
12A
100
AcDbEntity
  8
0
  6
Continuous
 62
   212
100
AcDbCircle
 10
49.625459
 20
190.222902
 30
0.0
 40
0.81227
100
AcDbArc
 50
-270.0
 51
-180.0
  0
ARC
  5
12B
100
AcDbEntity
  8
0
  6
Continuous
 62
   212
100
AcDbCircle
 10
6.0
 20
197.0
 30
0.0
 40
2.0
100
AcDbArc
 50
-180.0
 51
-90.0
  0
ARC
  5
12C
100
AcDbEntity
  8
0
  6
Continuous
 62
   212
100
AcDbCircle
 10
6.0
 20
197.0
 30
0.0
 40
2.0
100
AcDbArc
 50
-90.0
 51
0.0
  0
ARC
  5
12D
100
AcDbEntity
  8
0
  6
Continuous
 62
   212
100
AcDbCircle
 10
161.153479
 20
73.153479
 30
0.0
 40
0.846521
100
AcDbArc
 50
0.0
 51
90.0
  0
LINE
  5
12E
100
AcDbEntity
  8
0
  6
Continuous
 62
   212
100
AcDbLine
 10
161.153479
 20
74.0
 30
0.0
 11
159.846521
 21
74.0
 31
0.0
  0
ARC
  5
12F
100
AcDbEntity
  8
0
  6
Continuous
 62
   212
100
AcDbCircle
 10
159.846521
 20
73.153479
 30
0.0
 40
0.846521
100
AcDbArc
 50
-270.0
 51
-180.0
  0
LINE
  5
130
100
AcDbEntity
  8
0
  6
Continuous
 62
   212
100
AcDbLine
 10
50.43773
 20
121.777098
 30
0.0
 11
50.43773
 21
190.222902
 31
0.0
  0
LINE
  5
131
100
AcDbEntity
  8
0
  6
Continuous
 62
   212
100
AcDbLine
 10
48.813189
 20
190.222902
 30
0.0
 11
48.813189
 21
121.777098
 31
0.0
  0
LINE
  5
132
100
AcDbEntity
  8
0
  6
Continuous
 62
   212
100
AcDbLine
 10
60.43773
 20
109.0
 30
0.0
 11
60.43773
 21
106.0
 31
0.0
  0
LINE
  5
133
100
AcDbEntity
  8
0
  6
Continuous
 62
   212
100
AcDbLine
 10
136.212987
 20
24.557269
 30
0.0
 11
136.424336
 21
24.479926
 31
0.0
  0
LINE
  5
134
100
AcDbEntity
  8
0
  6
Continuous
 62
   212
100
AcDbLine
 10
159.846521
 20
20.0
 30
0.0
 11
161.153479
 21
20.0
 31
0.0
  0
ARC
  5
135
100
AcDbEntity
  8
0
  6
Continuous
 62
   212
100
AcDbCircle
 10
161.153479
 20
20.846521
 30
0.0
 40
0.846521
100
AcDbArc
 50
-90.0
 51
0.0
  0
LINE
  5
136
100
AcDbEntity
  8
0
  6
Continuous
 62
   212
100
AcDbLine
 10
162.0
 20
20.846521
 30
0.0
 11
162.0
 21
73.153479
 31
0.0
  0
LINE
  5
137
100
AcDbEntity
  8
0
  6
Continuous
 62
   212
100
AcDbLine
 10
159.0
 20
73.153479
 30
0.0
 11
159.0
 21
20.846521
 31
0.0
  0
ARC
  5
138
100
AcDbEntity
  8
0
  6
Continuous
 62
   212
100
AcDbCircle
 10
159.846521
 20
20.846521
 30
0.0
 40
0.846521
100
AcDbArc
 50
-180.0
 51
-90.0
  0
LINE
  5
139
100
AcDbEntity
  8
0
  6
Continuous
 62
   212
100
AcDbLine
 10
136.424336
 20
24.479926
 30
0.0
 11
136.644787
 21
24.423249
 31
0.0
  0
LINE
  5
13A
100
AcDbEntity
  8
0
  6
Continuous
 62
   212
100
AcDbLine
 10
136.644787
 20
24.423249
 30
0.0
 11
136.873182
 21
24.388395
 31
0.0
  0
LINE
  5
13B
100
AcDbEntity
  8
0
  6
Continuous
 62
   212
100
AcDbLine
 10
136.873182
 20
24.388395
 30
0.0
 11
137.108365
 21
24.37652
 31
0.0
  0
LINE
  5
13C
100
AcDbEntity
  8
0
  6
Continuous
 62
   212
100
AcDbLine
 10
137.108365
 20
24.37652
 30
0.0
 11
137.343548
 21
24.388395
 31
0.0
  0
LINE
  5
13D
100
AcDbEntity
  8
0
  6
Continuous
 62
   212
100
AcDbLine
 10
60.43773
 20
106.0
 30
0.0
 11
80.43773
 21
106.0
 31
0.0
  0
LINE
  5
13E
100
AcDbEntity
  8
0
  6
Continuous
 62
   212
100
AcDbLine
 10
80.43773
 20
106.0
 30
0.0
 11
80.43773
 21
109.0
 31
0.0
  0
LINE
  5
13F
100
AcDbEntity
  8
0
  6
Continuous
 62
   212
100
AcDbLine
 10
80.43773
 20
109.0
 30
0.0
 11
60.43773
 21
109.0
 31
0.0
  0
LINE
  5
140
100
AcDbEntity
  8
0
  6
Continuous
 62
   212
100
AcDbLine
 10
-0.124541
 20
186.0
 30
0.0
 11
-0.124541
 21
166.0
 31
0.0
  0
LINE
  5
141
100
AcDbEntity
  8
0
  6
Continuous
 62
   212
100
AcDbLine
 10
-0.124541
 20
166.0
 30
0.0
 11
-3.124541
 21
166.0
 31
0.0
  0
LINE
  5
142
100
AcDbEntity
  8
0
  6
Continuous
 62
   212
100
AcDbLine
 10
67.289569
 20
71.312266
 30
0.0
 11
67.17439
 21
71.501912
 31
0.0
  0
LINE
  5
143
100
AcDbEntity
  8
0
  6
Continuous
 62
   212
100
AcDbLine
 10
135.822223
 20
24.769334
 30
0.0
 11
136.011897
 21
24.654124
 31
0.0
  0
LINE
  5
144
100
AcDbEntity
  8
0
  6
Continuous
 62
   212
100
AcDbLine
 10
136.011897
 20
24.654124
 30
0.0
 11
136.212987
 21
24.557269
 31
0.0
  0
LINE
  5
145
100
AcDbEntity
  8
0
  6
Continuous
 62
   212
100
AcDbLine
 10
137.343548
 20
24.388395
 30
0.0
 11
137.571943
 21
24.423249
 31
0.0
  0
LINE
  5
146
100
AcDbEntity
  8
0
  6
Continuous
 62
   212
100
AcDbLine
 10
137.571943
 20
24.423249
 30
0.0
 11
137.792394
 21
24.479926
 31
0.0
  0
LINE
  5
147
100
AcDbEntity
  8
0
  6
Continuous
 62
   212
100
AcDbLine
 10
137.792394
 20
24.479926
 30
0.0
 11
138.003743
 21
24.557269
 31
0.0
  0
LINE
  5
148
100
AcDbEntity
  8
0
  6
Continuous
 62
   212
100
AcDbLine
 10
138.003743
 20
24.557269
 30
0.0
 11
138.204833
 21
24.654124
 31
0.0
  0
LINE
  5
149
100
AcDbEntity
  8
0
  6
Continuous
 62
   212
100
AcDbLine
 10
138.204833
 20
24.654124
 30
0.0
 11
138.394507
 21
24.769334
 31
0.0
  0
LINE
  5
14A
100
AcDbEntity
  8
0
  6
Continuous
 62
   212
100
AcDbLine
 10
138.394507
 20
24.769334
 30
0.0
 11
138.571608
 21
24.901742
 31
0.0
  0
LINE
  5
14B
100
AcDbEntity
  8
0
  6
Continuous
 62
   212
100
AcDbLine
 10
138.571608
 20
24.901742
 30
0.0
 11
138.734979
 21
25.050194
 31
0.0
  0
LINE
  5
14C
100
AcDbEntity
  8
0
  6
Continuous
 62
   212
100
AcDbLine
 10
138.734979
 20
25.050194
 30
0.0
 11
138.883464
 21
25.213532
 31
0.0
  0
LINE
  5
14D
100
AcDbEntity
  8
0
  6
Continuous
 62
   212
100
AcDbLine
 10
138.883464
 20
25.213532
 30
0.0
 11
139.015904
 21
25.390602
 31
0.0
  0
LINE
  5
14E
100
AcDbEntity
  8
0
  6
Continuous
 62
   212
100
AcDbLine
 10
139.015904
 20
25.390602
 30
0.0
 11
139.131143
 21
25.580246
 31
0.0
  0
LINE
  5
14F
100
AcDbEntity
  8
0
  6
Continuous
 62
   212
100
AcDbLine
 10
139.131143
 20
25.580246
 30
0.0
 11
139.228025
 21
25.781309
 31
0.0
  0
LINE
  5
150
100
AcDbEntity
  8
0
  6
Continuous
 62
   212
100
AcDbLine
 10
139.228025
 20
25.781309
 30
0.0
 11
139.305391
 21
25.992635
 31
0.0
  0
LINE
  5
151
100
AcDbEntity
  8
0
  6
Continuous
 62
   212
100
AcDbLine
 10
139.305391
 20
25.992635
 30
0.0
 11
139.362085
 21
26.213068
 31
0.0
  0
LINE
  5
152
100
AcDbEntity
  8
0
  6
Continuous
 62
   212
100
AcDbLine
 10
139.362085
 20
26.213068
 30
0.0
 11
139.39695
 21
26.441453
 31
0.0
  0
LINE
  5
153
100
AcDbEntity
  8
0
  6
Continuous
 62
   212
100
AcDbLine
 10
139.39695
 20
26.441453
 30
0.0
 11
139.408829
 21
26.676632
 31
0.0
  0
LINE
  5
154
100
AcDbEntity
  8
0
  6
Continuous
 62
   212
100
AcDbLine
 10
139.408829
 20
26.676632
 30
0.0
 11
139.39695
 21
26.911807
 31
0.0
  0
LINE
  5
155
100
AcDbEntity
  8
0
  6
Continuous
 62
   212
100
AcDbLine
 10
139.39695
 20
26.911807
 30
0.0
 11
139.362085
 21
27.140179
 31
0.0
  0
LINE
  5
156
100
AcDbEntity
  8
0
  6
Continuous
 62
   212
100
AcDbLine
 10
139.362085
 20
27.140179
 30
0.0
 11
139.305391
 21
27.360595
 31
0.0
  0
LINE
  5
157
100
AcDbEntity
  8
0
  6
Continuous
 62
   212
100
AcDbLine
 10
139.305391
 20
27.360595
 30
0.0
 11
139.228025
 21
27.571899
 31
0.0
  0
LINE
  5
158
100
AcDbEntity
  8
0
  6
Continuous
 62
   212
100
AcDbLine
 10
139.228025
 20
27.571899
 30
0.0
 11
139.131143
 21
27.772935
 31
0.0
  0
LINE
  5
159
100
AcDbEntity
  8
0
  6
Continuous
 62
   212
100
AcDbLine
 10
139.131143
 20
27.772935
 30
0.0
 11
139.015904
 21
27.96255
 31
0.0
  0
LINE
  5
15A
100
AcDbEntity
  8
0
  6
Continuous
 62
   212
100
AcDbLine
 10
139.015904
 20
27.96255
 30
0.0
 11
138.883464
 21
28.139587
 31
0.0
  0
LINE
  5
15B
100
AcDbEntity
  8
0
  6
Continuous
 62
   212
100
AcDbLine
 10
138.883464
 20
28.139587
 30
0.0
 11
138.734979
 21
28.302893
 31
0.0
  0
LINE
  5
15C
100
AcDbEntity
  8
0
  6
Continuous
 62
   212
100
AcDbLine
 10
138.734979
 20
28.302893
 30
0.0
 11
138.571608
 21
28.451312
 31
0.0
  0
LINE
  5
15D
100
AcDbEntity
  8
0
  6
Continuous
 62
   212
100
AcDbLine
 10
138.571608
 20
28.451312
 30
0.0
 11
138.394507
 21
28.583688
 31
0.0
  0
LINE
  5
15E
100
AcDbEntity
  8
0
  6
Continuous
 62
   212
100
AcDbLine
 10
138.394507
 20
28.583688
 30
0.0
 11
138.204833
 21
28.698868
 31
0.0
  0
LINE
  5
15F
100
AcDbEntity
  8
0
  6
Continuous
 62
   212
100
AcDbLine
 10
138.204833
 20
28.698868
 30
0.0
 11
138.003743
 21
28.795696
 31
0.0
  0
LINE
  5
160
100
AcDbEntity
  8
0
  6
Continuous
 62
   212
100
AcDbLine
 10
138.003743
 20
28.795696
 30
0.0
 11
137.792394
 21
28.873017
 31
0.0
  0
LINE
  5
161
100
AcDbEntity
  8
0
  6
Continuous
 62
   212
100
AcDbLine
 10
137.792394
 20
28.873017
 30
0.0
 11
137.571943
 21
28.929676
 31
0.0
  0
LINE
  5
162
100
AcDbEntity
  8
0
  6
Continuous
 62
   212
100
AcDbLine
 10
137.571943
 20
28.929676
 30
0.0
 11
137.343548
 21
28.964519
 31
0.0
  0
LINE
  5
163
100
AcDbEntity
  8
0
  6
Continuous
 62
   212
100
AcDbLine
 10
137.343548
 20
28.964519
 30
0.0
 11
137.108365
 21
28.97639
 31
0.0
  0
LINE
  5
164
100
AcDbEntity
  8
0
  6
Continuous
 62
   212
100
AcDbLine
 10
137.108365
 20
28.97639
 30
0.0
 11
136.873182
 21
28.964519
 31
0.0
  0
LINE
  5
165
100
AcDbEntity
  8
0
  6
Continuous
 62
   212
100
AcDbLine
 10
136.873182
 20
28.964519
 30
0.0
 11
136.644787
 21
28.929676
 31
0.0
  0
LINE
  5
166
100
AcDbEntity
  8
0
  6
Continuous
 62
   212
100
AcDbLine
 10
136.644787
 20
28.929676
 30
0.0
 11
136.424336
 21
28.873017
 31
0.0
  0
LINE
  5
167
100
AcDbEntity
  8
0
  6
Continuous
 62
   212
100
AcDbLine
 10
136.424336
 20
28.873017
 30
0.0
 11
136.212987
 21
28.795696
 31
0.0
  0
LINE
  5
168
100
AcDbEntity
  8
0
  6
Continuous
 62
   212
100
AcDbLine
 10
136.212987
 20
28.795696
 30
0.0
 11
136.011897
 21
28.698868
 31
0.0
  0
LINE
  5
169
100
AcDbEntity
  8
0
  6
Continuous
 62
   212
100
AcDbLine
 10
136.011897
 20
28.698868
 30
0.0
 11
135.822223
 21
28.583688
 31
0.0
  0
LINE
  5
16A
100
AcDbEntity
  8
0
  6
Continuous
 62
   212
100
AcDbLine
 10
135.822223
 20
28.583688
 30
0.0
 11
135.645122
 21
28.451312
 31
0.0
  0
LINE
  5
16B
100
AcDbEntity
  8
0
  6
Continuous
 62
   212
100
AcDbLine
 10
135.645122
 20
28.451312
 30
0.0
 11
135.481751
 21
28.302893
 31
0.0
  0
LINE
  5
16C
100
AcDbEntity
  8
0
  6
Continuous
 62
   212
100
AcDbLine
 10
135.481751
 20
28.302893
 30
0.0
 11
135.333266
 21
28.139587
 31
0.0
  0
LINE
  5
16D
100
AcDbEntity
  8
0
  6
Continuous
 62
   212
100
AcDbLine
 10
135.333266
 20
28.139587
 30
0.0
 11
135.200826
 21
27.96255
 31
0.0
  0
LINE
  5
16E
100
AcDbEntity
  8
0
  6
Continuous
 62
   212
100
AcDbLine
 10
135.200826
 20
27.96255
 30
0.0
 11
135.085587
 21
27.772935
 31
0.0
  0
LINE
  5
16F
100
AcDbEntity
  8
0
  6
Continuous
 62
   212
100
AcDbLine
 10
135.085587
 20
27.772935
 30
0.0
 11
134.988705
 21
27.571899
 31
0.0
  0
LINE
  5
170
100
AcDbEntity
  8
0
  6
Continuous
 62
   212
100
AcDbLine
 10
134.988705
 20
27.571899
 30
0.0
 11
134.911339
 21
27.360595
 31
0.0
  0
LINE
  5
171
100
AcDbEntity
  8
0
  6
Continuous
 62
   212
100
AcDbLine
 10
134.911339
 20
27.360595
 30
0.0
 11
134.854645
 21
27.140179
 31
0.0
  0
LINE
  5
172
100
AcDbEntity
  8
0
  6
Continuous
 62
   212
100
AcDbLine
 10
134.854645
 20
27.140179
 30
0.0
 11
134.81978
 21
26.911807
 31
0.0
  0
LINE
  5
173
100
AcDbEntity
  8
0
  6
Continuous
 62
   212
100
AcDbLine
 10
134.81978
 20
26.911807
 30
0.0
 11
134.807901
 21
26.676632
 31
0.0
  0
LINE
  5
174
100
AcDbEntity
  8
0
  6
Continuous
 62
   212
100
AcDbLine
 10
134.807901
 20
26.676632
 30
0.0
 11
134.81978
 21
26.441453
 31
0.0
  0
LINE
  5
175
100
AcDbEntity
  8
0
  6
Continuous
 62
   212
100
AcDbLine
 10
134.81978
 20
26.441453
 30
0.0
 11
134.854645
 21
26.213068
 31
0.0
  0
LINE
  5
176
100
AcDbEntity
  8
0
  6
Continuous
 62
   212
100
AcDbLine
 10
134.854645
 20
26.213068
 30
0.0
 11
134.911339
 21
25.992635
 31
0.0
  0
LINE
  5
177
100
AcDbEntity
  8
0
  6
Continuous
 62
   212
100
AcDbLine
 10
134.911339
 20
25.992635
 30
0.0
 11
134.988705
 21
25.781309
 31
0.0
  0
LINE
  5
178
100
AcDbEntity
  8
0
  6
Continuous
 62
   212
100
AcDbLine
 10
134.988705
 20
25.781309
 30
0.0
 11
135.085587
 21
25.580246
 31
0.0
  0
LINE
  5
179
100
AcDbEntity
  8
0
  6
Continuous
 62
   212
100
AcDbLine
 10
135.085587
 20
25.580246
 30
0.0
 11
135.200826
 21
25.390602
 31
0.0
  0
LINE
  5
17A
100
AcDbEntity
  8
0
  6
Continuous
 62
   212
100
AcDbLine
 10
135.200826
 20
25.390602
 30
0.0
 11
135.333266
 21
25.213532
 31
0.0
  0
LINE
  5
17B
100
AcDbEntity
  8
0
  6
Continuous
 62
   212
100
AcDbLine
 10
135.333266
 20
25.213532
 30
0.0
 11
135.481751
 21
25.050194
 31
0.0
  0
LINE
  5
17C
100
AcDbEntity
  8
0
  6
Continuous
 62
   212
100
AcDbLine
 10
135.481751
 20
25.050194
 30
0.0
 11
135.645122
 21
24.901742
 31
0.0
  0
LINE
  5
17D
100
AcDbEntity
  8
0
  6
Continuous
 62
   212
100
AcDbLine
 10
135.645122
 20
24.901742
 30
0.0
 11
135.822223
 21
24.769334
 31
0.0
  0
LINE
  5
17E
100
AcDbEntity
  8
0
  6
Continuous
 62
   212
100
AcDbLine
 10
67.17439
 20
71.501912
 30
0.0
 11
67.077562
 21
71.702967
 31
0.0
  0
LINE
  5
17F
100
AcDbEntity
  8
0
  6
Continuous
 62
   212
100
AcDbLine
 10
67.077562
 20
71.702967
 30
0.0
 11
67.000241
 21
71.914276
 31
0.0
  0
LINE
  5
180
100
AcDbEntity
  8
0
  6
Continuous
 62
   212
100
AcDbLine
 10
67.000241
 20
71.914276
 30
0.0
 11
66.943581
 21
72.134679
 31
0.0
  0
LINE
  5
181
100
AcDbEntity
  8
0
  6
Continuous
 62
   212
100
AcDbLine
 10
-3.124541
 20
166.0
 30
0.0
 11
-3.124541
 21
186.0
 31
0.0
  0
LINE
  5
182
100
AcDbEntity
  8
0
  6
Continuous
 62
   212
100
AcDbLine
 10
-3.124541
 20
186.0
 30
0.0
 11
-0.124541
 21
186.0
 31
0.0
  0
LINE
  5
183
100
AcDbEntity
  8
0
  6
Continuous
 62
   212
100
AcDbLine
 10
66.23187
 20
63.799587
 30
0.0
 11
66.159923
 21
63.895806
 31
0.0
  0
LINE
  5
184
100
AcDbEntity
  8
0
  6
Continuous
 62
   212
100
AcDbLine
 10
66.159923
 20
63.895806
 30
0.0
 11
66.097322
 21
63.998859
 31
0.0
  0
LINE
  5
185
100
AcDbEntity
  8
0
  6
Continuous
 62
   212
100
AcDbLine
 10
66.097322
 20
63.998859
 30
0.0
 11
66.044695
 21
64.108119
 31
0.0
  0
LINE
  5
186
100
AcDbEntity
  8
0
  6
Continuous
 62
   212
100
AcDbLine
 10
66.044695
 20
64.108119
 30
0.0
 11
66.002669
 21
64.222958
 31
0.0
  0
LINE
  5
187
100
AcDbEntity
  8
0
  6
Continuous
 62
   212
100
AcDbLine
 10
67.570365
 20
70.971835
 30
0.0
 11
67.421946
 21
71.135188
 31
0.0
  0
LINE
  5
188
100
AcDbEntity
  8
0
  6
Continuous
 62
   212
100
AcDbLine
 10
67.421946
 20
71.135188
 30
0.0
 11
67.289569
 21
71.312266
 31
0.0
  0
LINE
  5
189
100
AcDbEntity
  8
0
  6
Continuous
 62
   212
100
AcDbLine
 10
66.943581
 20
72.134679
 30
0.0
 11
66.908739
 21
72.36302
 31
0.0
  0
LINE
  5
18A
100
AcDbEntity
  8
0
  6
Continuous
 62
   212
100
AcDbLine
 10
66.908739
 20
72.36302
 30
0.0
 11
66.896868
 21
72.598141
 31
0.0
  0
LINE
  5
18B
100
AcDbEntity
  8
0
  6
Continuous
 62
   212
100
AcDbLine
 10
66.896868
 20
72.598141
 30
0.0
 11
66.908739
 21
72.83332
 31
0.0
  0
LINE
  5
18C
100
AcDbEntity
  8
0
  6
Continuous
 62
   212
100
AcDbLine
 10
66.908739
 20
72.83332
 30
0.0
 11
66.943581
 21
73.061704
 31
0.0
  0
LINE
  5
18D
100
AcDbEntity
  8
0
  6
Continuous
 62
   212
100
AcDbLine
 10
66.943581
 20
73.061704
 30
0.0
 11
67.000241
 21
73.282137
 31
0.0
  0
LINE
  5
18E
100
AcDbEntity
  8
0
  6
Continuous
 62
   212
100
AcDbLine
 10
67.000241
 20
73.282137
 30
0.0
 11
67.077562
 21
73.493463
 31
0.0
  0
LINE
  5
18F
100
AcDbEntity
  8
0
  6
Continuous
 62
   212
100
AcDbLine
 10
67.077562
 20
73.493463
 30
0.0
 11
67.17439
 21
73.694527
 31
0.0
  0
LINE
  5
190
100
AcDbEntity
  8
0
  6
Continuous
 62
   212
100
AcDbLine
 10
67.17439
 20
73.694527
 30
0.0
 11
67.289569
 21
73.884171
 31
0.0
  0
LINE
  5
191
100
AcDbEntity
  8
0
  6
Continuous
 62
   212
100
AcDbLine
 10
67.289569
 20
73.884171
 30
0.0
 11
67.421946
 21
74.06124
 31
0.0
  0
LINE
  5
192
100
AcDbEntity
  8
0
  6
Continuous
 62
   212
100
AcDbLine
 10
67.421946
 20
74.06124
 30
0.0
 11
67.570365
 21
74.224579
 31
0.0
  0
LINE
  5
193
100
AcDbEntity
  8
0
  6
Continuous
 62
   212
100
AcDbLine
 10
67.570365
 20
74.224579
 30
0.0
 11
67.73367
 21
74.37303
 31
0.0
  0
LINE
  5
194
100
AcDbEntity
  8
0
  6
Continuous
 62
   212
100
AcDbLine
 10
67.73367
 20
74.37303
 30
0.0
 11
67.910708
 21
74.505439
 31
0.0
  0
LINE
  5
195
100
AcDbEntity
  8
0
  6
Continuous
 62
   212
100
AcDbLine
 10
67.910708
 20
74.505439
 30
0.0
 11
68.100322
 21
74.620648
 31
0.0
  0
LINE
  5
196
100
AcDbEntity
  8
0
  6
Continuous
 62
   212
100
AcDbLine
 10
68.100322
 20
74.620648
 30
0.0
 11
68.301359
 21
74.717503
 31
0.0
  0
LINE
  5
197
100
AcDbEntity
  8
0
  6
Continuous
 62
   212
100
AcDbLine
 10
68.301359
 20
74.717503
 30
0.0
 11
68.512663
 21
74.794847
 31
0.0
  0
LINE
  5
198
100
AcDbEntity
  8
0
  6
Continuous
 62
   212
100
AcDbLine
 10
68.512663
 20
74.794847
 30
0.0
 11
68.733078
 21
74.851523
 31
0.0
  0
LINE
  5
199
100
AcDbEntity
  8
0
  6
Continuous
 62
   212
100
AcDbLine
 10
68.733078
 20
74.851523
 30
0.0
 11
68.961451
 21
74.886377
 31
0.0
  0
LINE
  5
19A
100
AcDbEntity
  8
0
  6
Continuous
 62
   212
100
AcDbLine
 10
68.961451
 20
74.886377
 30
0.0
 11
69.196626
 21
74.898252
 31
0.0
  0
LINE
  5
19B
100
AcDbEntity
  8
0
  6
Continuous
 62
   212
100
AcDbLine
 10
69.196626
 20
74.898252
 30
0.0
 11
69.431747
 21
74.886377
 31
0.0
  0
LINE
  5
19C
100
AcDbEntity
  8
0
  6
Continuous
 62
   212
100
AcDbLine
 10
69.431747
 20
74.886377
 30
0.0
 11
69.660088
 21
74.851523
 31
0.0
  0
LINE
  5
19D
100
AcDbEntity
  8
0
  6
Continuous
 62
   212
100
AcDbLine
 10
69.660088
 20
74.851523
 30
0.0
 11
69.880491
 21
74.794847
 31
0.0
  0
LINE
  5
19E
100
AcDbEntity
  8
0
  6
Continuous
 62
   212
100
AcDbLine
 10
69.880491
 20
74.794847
 30
0.0
 11
70.0918
 21
74.717503
 31
0.0
  0
LINE
  5
19F
100
AcDbEntity
  8
0
  6
Continuous
 62
   212
100
AcDbLine
 10
70.0918
 20
74.717503
 30
0.0
 11
70.292856
 21
74.620648
 31
0.0
  0
LINE
  5
1A0
100
AcDbEntity
  8
0
  6
Continuous
 62
   212
100
AcDbLine
 10
70.292856
 20
74.620648
 30
0.0
 11
70.482501
 21
74.505439
 31
0.0
  0
LINE
  5
1A1
100
AcDbEntity
  8
0
  6
Continuous
 62
   212
100
AcDbLine
 10
70.482501
 20
74.505439
 30
0.0
 11
70.659579
 21
74.37303
 31
0.0
  0
LINE
  5
1A2
100
AcDbEntity
  8
0
  6
Continuous
 62
   212
100
AcDbLine
 10
70.659579
 20
74.37303
 30
0.0
 11
70.822932
 21
74.224579
 31
0.0
  0
LINE
  5
1A3
100
AcDbEntity
  8
0
  6
Continuous
 62
   212
100
AcDbLine
 10
70.822932
 20
74.224579
 30
0.0
 11
70.971402
 21
74.06124
 31
0.0
  0
LINE
  5
1A4
100
AcDbEntity
  8
0
  6
Continuous
 62
   212
100
AcDbLine
 10
70.971402
 20
74.06124
 30
0.0
 11
71.103831
 21
73.884171
 31
0.0
  0
LINE
  5
1A5
100
AcDbEntity
  8
0
  6
Continuous
 62
   212
100
AcDbLine
 10
71.103831
 20
73.884171
 30
0.0
 11
71.219063
 21
73.694527
 31
0.0
  0
LINE
  5
1A6
100
AcDbEntity
  8
0
  6
Continuous
 62
   212
100
AcDbLine
 10
71.219063
 20
73.694527
 30
0.0
 11
71.315939
 21
73.493463
 31
0.0
  0
LINE
  5
1A7
100
AcDbEntity
  8
0
  6
Continuous
 62
   212
100
AcDbLine
 10
71.315939
 20
73.493463
 30
0.0
 11
71.393302
 21
73.282137
 31
0.0
  0
LINE
  5
1A8
100
AcDbEntity
  8
0
  6
Continuous
 62
   212
100
AcDbLine
 10
71.393302
 20
73.282137
 30
0.0
 11
71.449994
 21
73.061704
 31
0.0
  0
LINE
  5
1A9
100
AcDbEntity
  8
0
  6
Continuous
 62
   212
100
AcDbLine
 10
71.449994
 20
73.061704
 30
0.0
 11
71.484859
 21
72.83332
 31
0.0
  0
LINE
  5
1AA
100
AcDbEntity
  8
0
  6
Continuous
 62
   212
100
AcDbLine
 10
71.484859
 20
72.83332
 30
0.0
 11
71.496737
 21
72.598141
 31
0.0
  0
LINE
  5
1AB
100
AcDbEntity
  8
0
  6
Continuous
 62
   212
100
AcDbLine
 10
71.496737
 20
72.598141
 30
0.0
 11
71.484859
 21
72.36302
 31
0.0
  0
LINE
  5
1AC
100
AcDbEntity
  8
0
  6
Continuous
 62
   212
100
AcDbLine
 10
71.484859
 20
72.36302
 30
0.0
 11
71.449994
 21
72.134679
 31
0.0
  0
LINE
  5
1AD
100
AcDbEntity
  8
0
  6
Continuous
 62
   212
100
AcDbLine
 10
71.449994
 20
72.134679
 30
0.0
 11
71.393302
 21
71.914276
 31
0.0
  0
LINE
  5
1AE
100
AcDbEntity
  8
0
  6
Continuous
 62
   212
100
AcDbLine
 10
71.393302
 20
71.914276
 30
0.0
 11
71.315939
 21
71.702967
 31
0.0
  0
LINE
  5
1AF
100
AcDbEntity
  8
0
  6
Continuous
 62
   212
100
AcDbLine
 10
71.315939
 20
71.702967
 30
0.0
 11
71.219063
 21
71.501912
 31
0.0
  0
LINE
  5
1B0
100
AcDbEntity
  8
0
  6
Continuous
 62
   212
100
AcDbLine
 10
71.219063
 20
71.501912
 30
0.0
 11
71.103831
 21
71.312266
 31
0.0
  0
LINE
  5
1B1
100
AcDbEntity
  8
0
  6
Continuous
 62
   212
100
AcDbLine
 10
71.103831
 20
71.312266
 30
0.0
 11
70.971402
 21
71.135188
 31
0.0
  0
LINE
  5
1B2
100
AcDbEntity
  8
0
  6
Continuous
 62
   212
100
AcDbLine
 10
70.971402
 20
71.135188
 30
0.0
 11
70.822932
 21
70.971835
 31
0.0
  0
LINE
  5
1B3
100
AcDbEntity
  8
0
  6
Continuous
 62
   212
100
AcDbLine
 10
70.822932
 20
70.971835
 30
0.0
 11
70.659579
 21
70.823365
 31
0.0
  0
LINE
  5
1B4
100
AcDbEntity
  8
0
  6
Continuous
 62
   212
100
AcDbLine
 10
70.659579
 20
70.823365
 30
0.0
 11
70.482501
 21
70.690936
 31
0.0
  0
LINE
  5
1B5
100
AcDbEntity
  8
0
  6
Continuous
 62
   212
100
AcDbLine
 10
70.482501
 20
70.690936
 30
0.0
 11
70.292856
 21
70.575704
 31
0.0
  0
LINE
  5
1B6
100
AcDbEntity
  8
0
  6
Continuous
 62
   212
100
AcDbLine
 10
70.292856
 20
70.575704
 30
0.0
 11
70.0918
 21
70.478828
 31
0.0
  0
LINE
  5
1B7
100
AcDbEntity
  8
0
  6
Continuous
 62
   212
100
AcDbLine
 10
70.0918
 20
70.478828
 30
0.0
 11
69.880491
 21
70.401465
 31
0.0
  0
LINE
  5
1B8
100
AcDbEntity
  8
0
  6
Continuous
 62
   212
100
AcDbLine
 10
69.880491
 20
70.401465
 30
0.0
 11
69.660088
 21
70.344773
 31
0.0
  0
LINE
  5
1B9
100
AcDbEntity
  8
0
  6
Continuous
 62
   212
100
AcDbLine
 10
69.660088
 20
70.344773
 30
0.0
 11
69.431747
 21
70.309908
 31
0.0
  0
LINE
  5
1BA
100
AcDbEntity
  8
0
  6
Continuous
 62
   212
100
AcDbLine
 10
69.431747
 20
70.309908
 30
0.0
 11
69.196626
 21
70.29803
 31
0.0
  0
LINE
  5
1BB
100
AcDbEntity
  8
0
  6
Continuous
 62
   212
100
AcDbLine
 10
69.196626
 20
70.29803
 30
0.0
 11
68.961451
 21
70.309908
 31
0.0
  0
LINE
  5
1BC
100
AcDbEntity
  8
0
  6
Continuous
 62
   212
100
AcDbLine
 10
68.961451
 20
70.309908
 30
0.0
 11
68.733078
 21
70.344773
 31
0.0
  0
LINE
  5
1BD
100
AcDbEntity
  8
0
  6
Continuous
 62
   212
100
AcDbLine
 10
68.733078
 20
70.344773
 30
0.0
 11
68.512663
 21
70.401465
 31
0.0
  0
LINE
  5
1BE
100
AcDbEntity
  8
0
  6
Continuous
 62
   212
100
AcDbLine
 10
68.512663
 20
70.401465
 30
0.0
 11
68.301359
 21
70.478828
 31
0.0
  0
LINE
  5
1BF
100
AcDbEntity
  8
0
  6
Continuous
 62
   212
100
AcDbLine
 10
68.301359
 20
70.478828
 30
0.0
 11
68.100322
 21
70.575704
 31
0.0
  0
LINE
  5
1C0
100
AcDbEntity
  8
0
  6
Continuous
 62
   212
100
AcDbLine
 10
68.100322
 20
70.575704
 30
0.0
 11
67.910708
 21
70.690936
 31
0.0
  0
LINE
  5
1C1
100
AcDbEntity
  8
0
  6
Continuous
 62
   212
100
AcDbLine
 10
67.910708
 20
70.690936
 30
0.0
 11
67.73367
 21
70.823365
 31
0.0
  0
LINE
  5
1C2
100
AcDbEntity
  8
0
  6
Continuous
 62
   212
100
AcDbLine
 10
67.73367
 20
70.823365
 30
0.0
 11
67.570365
 21
70.971835
 31
0.0
  0
LINE
  5
1C3
100
AcDbEntity
  8
0
  6
Continuous
 62
   212
100
AcDbLine
 10
108.071897
 20
24.654124
 30
0.0
 11
108.272987
 21
24.557269
 31
0.0
  0
LINE
  5
1C4
100
AcDbEntity
  8
0
  6
Continuous
 62
   212
100
AcDbLine
 10
108.272987
 20
24.557269
 30
0.0
 11
108.484336
 21
24.479926
 31
0.0
  0
LINE
  5
1C5
100
AcDbEntity
  8
0
  6
Continuous
 62
   212
100
AcDbLine
 10
108.484336
 20
24.479926
 30
0.0
 11
108.704787
 21
24.423249
 31
0.0
  0
LINE
  5
1C6
100
AcDbEntity
  8
0
  6
Continuous
 62
   212
100
AcDbLine
 10
108.704787
 20
24.423249
 30
0.0
 11
108.933182
 21
24.388395
 31
0.0
  0
LINE
  5
1C7
100
AcDbEntity
  8
0
  6
Continuous
 62
   212
100
AcDbLine
 10
66.401292
 20
63.630165
 30
0.0
 11
66.312536
 21
63.710831
 31
0.0
  0
LINE
  5
1C8
100
AcDbEntity
  8
0
  6
Continuous
 62
   212
100
AcDbLine
 10
66.312536
 20
63.710831
 30
0.0
 11
66.23187
 21
63.799587
 31
0.0
  0
LINE
  5
1C9
100
AcDbEntity
  8
0
  6
Continuous
 62
   212
100
AcDbLine
 10
66.002669
 20
64.222958
 30
0.0
 11
65.971874
 21
64.342749
 31
0.0
  0
LINE
  5
1CA
100
AcDbEntity
  8
0
  6
Continuous
 62
   212
100
AcDbLine
 10
65.971874
 20
64.342749
 30
0.0
 11
65.952937
 21
64.466862
 31
0.0
  0
LINE
  5
1CB
100
AcDbEntity
  8
0
  6
Continuous
 62
   212
100
AcDbLine
 10
65.952937
 20
64.466862
 30
0.0
 11
65.946485
 21
64.594671
 31
0.0
  0
LINE
  5
1CC
100
AcDbEntity
  8
0
  6
Continuous
 62
   212
100
AcDbLine
 10
65.946485
 20
64.594671
 30
0.0
 11
65.946485
 21
66.094683
 31
0.0
  0
LINE
  5
1CD
100
AcDbEntity
  8
0
  6
Continuous
 62
   212
100
AcDbLine
 10
65.946485
 20
66.094683
 30
0.0
 11
65.952937
 21
66.222492
 31
0.0
  0
LINE
  5
1CE
100
AcDbEntity
  8
0
  6
Continuous
 62
   212
100
AcDbLine
 10
65.952937
 20
66.222492
 30
0.0
 11
65.971874
 21
66.346605
 31
0.0
  0
LINE
  5
1CF
100
AcDbEntity
  8
0
  6
Continuous
 62
   212
100
AcDbLine
 10
65.971874
 20
66.346605
 30
0.0
 11
66.002669
 21
66.466396
 31
0.0
  0
LINE
  5
1D0
100
AcDbEntity
  8
0
  6
Continuous
 62
   212
100
AcDbLine
 10
66.002669
 20
66.466396
 30
0.0
 11
66.044695
 21
66.581235
 31
0.0
  0
LINE
  5
1D1
100
AcDbEntity
  8
0
  6
Continuous
 62
   212
100
AcDbLine
 10
66.044695
 20
66.581235
 30
0.0
 11
66.097322
 21
66.690495
 31
0.0
  0
LINE
  5
1D2
100
AcDbEntity
  8
0
  6
Continuous
 62
   212
100
AcDbLine
 10
66.097322
 20
66.690495
 30
0.0
 11
66.159923
 21
66.793548
 31
0.0
  0
LINE
  5
1D3
100
AcDbEntity
  8
0
  6
Continuous
 62
   212
100
AcDbLine
 10
66.159923
 20
66.793548
 30
0.0
 11
66.23187
 21
66.889767
 31
0.0
  0
LINE
  5
1D4
100
AcDbEntity
  8
0
  6
Continuous
 62
   212
100
AcDbLine
 10
66.23187
 20
66.889767
 30
0.0
 11
66.312536
 21
66.978523
 31
0.0
  0
LINE
  5
1D5
100
AcDbEntity
  8
0
  6
Continuous
 62
   212
100
AcDbLine
 10
66.312536
 20
66.978523
 30
0.0
 11
66.401292
 21
67.059189
 31
0.0
  0
LINE
  5
1D6
100
AcDbEntity
  8
0
  6
Continuous
 62
   212
100
AcDbLine
 10
66.401292
 20
67.059189
 30
0.0
 11
66.49751
 21
67.131136
 31
0.0
  0
LINE
  5
1D7
100
AcDbEntity
  8
0
  6
Continuous
 62
   212
100
AcDbLine
 10
66.49751
 20
67.131136
 30
0.0
 11
66.600564
 21
67.193737
 31
0.0
  0
LINE
  5
1D8
100
AcDbEntity
  8
0
  6
Continuous
 62
   212
100
AcDbLine
 10
66.600564
 20
67.193737
 30
0.0
 11
66.709824
 21
67.246364
 31
0.0
  0
LINE
  5
1D9
100
AcDbEntity
  8
0
  6
Continuous
 62
   212
100
AcDbLine
 10
66.709824
 20
67.246364
 30
0.0
 11
66.824663
 21
67.288389
 31
0.0
  0
LINE
  5
1DA
100
AcDbEntity
  8
0
  6
Continuous
 62
   212
100
AcDbLine
 10
66.824663
 20
67.288389
 30
0.0
 11
66.944454
 21
67.319185
 31
0.0
  0
LINE
  5
1DB
100
AcDbEntity
  8
0
  6
Continuous
 62
   212
100
AcDbLine
 10
66.944454
 20
67.319185
 30
0.0
 11
67.068567
 21
67.338122
 31
0.0
  0
LINE
  5
1DC
100
AcDbEntity
  8
0
  6
Continuous
 62
   212
100
AcDbLine
 10
67.068567
 20
67.338122
 30
0.0
 11
67.196376
 21
67.344574
 31
0.0
  0
LINE
  5
1DD
100
AcDbEntity
  8
0
  6
Continuous
 62
   212
100
AcDbLine
 10
67.196376
 20
67.344574
 30
0.0
 11
79.696351
 21
67.344574
 31
0.0
  0
LINE
  5
1DE
100
AcDbEntity
  8
0
  6
Continuous
 62
   212
100
AcDbLine
 10
79.696351
 20
67.344574
 30
0.0
 11
79.82416
 21
67.338122
 31
0.0
  0
LINE
  5
1DF
100
AcDbEntity
  8
0
  6
Continuous
 62
   212
100
AcDbLine
 10
79.82416
 20
67.338122
 30
0.0
 11
79.948274
 21
67.319185
 31
0.0
  0
LINE
  5
1E0
100
AcDbEntity
  8
0
  6
Continuous
 62
   212
100
AcDbLine
 10
79.948274
 20
67.319185
 30
0.0
 11
80.068064
 21
67.288389
 31
0.0
  0
LINE
  5
1E1
100
AcDbEntity
  8
0
  6
Continuous
 62
   212
100
AcDbLine
 10
80.068064
 20
67.288389
 30
0.0
 11
80.182903
 21
67.246364
 31
0.0
  0
LINE
  5
1E2
100
AcDbEntity
  8
0
  6
Continuous
 62
   212
100
AcDbLine
 10
80.182903
 20
67.246364
 30
0.0
 11
80.292164
 21
67.193737
 31
0.0
  0
LINE
  5
1E3
100
AcDbEntity
  8
0
  6
Continuous
 62
   212
100
AcDbLine
 10
80.292164
 20
67.193737
 30
0.0
 11
80.395217
 21
67.131136
 31
0.0
  0
LINE
  5
1E4
100
AcDbEntity
  8
0
  6
Continuous
 62
   212
100
AcDbLine
 10
80.395217
 20
67.131136
 30
0.0
 11
80.491436
 21
67.059189
 31
0.0
  0
LINE
  5
1E5
100
AcDbEntity
  8
0
  6
Continuous
 62
   212
100
AcDbLine
 10
80.491436
 20
67.059189
 30
0.0
 11
80.580192
 21
66.978523
 31
0.0
  0
LINE
  5
1E6
100
AcDbEntity
  8
0
  6
Continuous
 62
   212
100
AcDbLine
 10
80.580192
 20
66.978523
 30
0.0
 11
80.660857
 21
66.889767
 31
0.0
  0
LINE
  5
1E7
100
AcDbEntity
  8
0
  6
Continuous
 62
   212
100
AcDbLine
 10
80.660857
 20
66.889767
 30
0.0
 11
80.732805
 21
66.793548
 31
0.0
  0
LINE
  5
1E8
100
AcDbEntity
  8
0
  6
Continuous
 62
   212
100
AcDbLine
 10
80.732805
 20
66.793548
 30
0.0
 11
80.795406
 21
66.690495
 31
0.0
  0
LINE
  5
1E9
100
AcDbEntity
  8
0
  6
Continuous
 62
   212
100
AcDbLine
 10
80.795406
 20
66.690495
 30
0.0
 11
80.848033
 21
66.581235
 31
0.0
  0
LINE
  5
1EA
100
AcDbEntity
  8
0
  6
Continuous
 62
   212
100
AcDbLine
 10
80.848033
 20
66.581235
 30
0.0
 11
80.890058
 21
66.466396
 31
0.0
  0
LINE
  5
1EB
100
AcDbEntity
  8
0
  6
Continuous
 62
   212
100
AcDbLine
 10
80.890058
 20
66.466396
 30
0.0
 11
80.920853
 21
66.346605
 31
0.0
  0
LINE
  5
1EC
100
AcDbEntity
  8
0
  6
Continuous
 62
   212
100
AcDbLine
 10
80.920853
 20
66.346605
 30
0.0
 11
80.939791
 21
66.222492
 31
0.0
  0
LINE
  5
1ED
100
AcDbEntity
  8
0
  6
Continuous
 62
   212
100
AcDbLine
 10
80.939791
 20
66.222492
 30
0.0
 11
80.946243
 21
66.094683
 31
0.0
  0
LINE
  5
1EE
100
AcDbEntity
  8
0
  6
Continuous
 62
   212
100
AcDbLine
 10
80.946243
 20
66.094683
 30
0.0
 11
80.946243
 21
64.594671
 31
0.0
  0
LINE
  5
1EF
100
AcDbEntity
  8
0
  6
Continuous
 62
   212
100
AcDbLine
 10
80.946243
 20
64.594671
 30
0.0
 11
80.939791
 21
64.466862
 31
0.0
  0
LINE
  5
1F0
100
AcDbEntity
  8
0
  6
Continuous
 62
   212
100
AcDbLine
 10
80.939791
 20
64.466862
 30
0.0
 11
80.920853
 21
64.342749
 31
0.0
  0
LINE
  5
1F1
100
AcDbEntity
  8
0
  6
Continuous
 62
   212
100
AcDbLine
 10
80.920853
 20
64.342749
 30
0.0
 11
80.890058
 21
64.222958
 31
0.0
  0
LINE
  5
1F2
100
AcDbEntity
  8
0
  6
Continuous
 62
   212
100
AcDbLine
 10
80.890058
 20
64.222958
 30
0.0
 11
80.848033
 21
64.108119
 31
0.0
  0
LINE
  5
1F3
100
AcDbEntity
  8
0
  6
Continuous
 62
   212
100
AcDbLine
 10
80.848033
 20
64.108119
 30
0.0
 11
80.795406
 21
63.998859
 31
0.0
  0
LINE
  5
1F4
100
AcDbEntity
  8
0
  6
Continuous
 62
   212
100
AcDbLine
 10
80.795406
 20
63.998859
 30
0.0
 11
80.732805
 21
63.895806
 31
0.0
  0
LINE
  5
1F5
100
AcDbEntity
  8
0
  6
Continuous
 62
   212
100
AcDbLine
 10
80.732805
 20
63.895806
 30
0.0
 11
80.660857
 21
63.799587
 31
0.0
  0
LINE
  5
1F6
100
AcDbEntity
  8
0
  6
Continuous
 62
   212
100
AcDbLine
 10
80.660857
 20
63.799587
 30
0.0
 11
80.580192
 21
63.710831
 31
0.0
  0
LINE
  5
1F7
100
AcDbEntity
  8
0
  6
Continuous
 62
   212
100
AcDbLine
 10
80.580192
 20
63.710831
 30
0.0
 11
80.491436
 21
63.630165
 31
0.0
  0
LINE
  5
1F8
100
AcDbEntity
  8
0
  6
Continuous
 62
   212
100
AcDbLine
 10
80.491436
 20
63.630165
 30
0.0
 11
80.395217
 21
63.558218
 31
0.0
  0
LINE
  5
1F9
100
AcDbEntity
  8
0
  6
Continuous
 62
   212
100
AcDbLine
 10
80.395217
 20
63.558218
 30
0.0
 11
80.292164
 21
63.495617
 31
0.0
  0
LINE
  5
1FA
100
AcDbEntity
  8
0
  6
Continuous
 62
   212
100
AcDbLine
 10
80.292164
 20
63.495617
 30
0.0
 11
80.182903
 21
63.44299
 31
0.0
  0
LINE
  5
1FB
100
AcDbEntity
  8
0
  6
Continuous
 62
   212
100
AcDbLine
 10
80.182903
 20
63.44299
 30
0.0
 11
80.068064
 21
63.400965
 31
0.0
  0
LINE
  5
1FC
100
AcDbEntity
  8
0
  6
Continuous
 62
   212
100
AcDbLine
 10
80.068064
 20
63.400965
 30
0.0
 11
79.948274
 21
63.370169
 31
0.0
  0
LINE
  5
1FD
100
AcDbEntity
  8
0
  6
Continuous
 62
   212
100
AcDbLine
 10
79.948274
 20
63.370169
 30
0.0
 11
79.82416
 21
63.351232
 31
0.0
  0
LINE
  5
1FE
100
AcDbEntity
  8
0
  6
Continuous
 62
   212
100
AcDbLine
 10
79.82416
 20
63.351232
 30
0.0
 11
79.696351
 21
63.34478
 31
0.0
  0
LINE
  5
1FF
100
AcDbEntity
  8
0
  6
Continuous
 62
   212
100
AcDbLine
 10
79.696351
 20
63.34478
 30
0.0
 11
67.196376
 21
63.34478
 31
0.0
  0
LINE
  5
200
100
AcDbEntity
  8
0
  6
Continuous
 62
   212
100
AcDbLine
 10
67.196376
 20
63.34478
 30
0.0
 11
67.068567
 21
63.351232
 31
0.0
  0
LINE
  5
201
100
AcDbEntity
  8
0
  6
Continuous
 62
   212
100
AcDbLine
 10
67.068567
 20
63.351232
 30
0.0
 11
66.944454
 21
63.370169
 31
0.0
  0
LINE
  5
202
100
AcDbEntity
  8
0
  6
Continuous
 62
   212
100
AcDbLine
 10
66.944454
 20
63.370169
 30
0.0
 11
66.824663
 21
63.400965
 31
0.0
  0
LINE
  5
203
100
AcDbEntity
  8
0
  6
Continuous
 62
   212
100
AcDbLine
 10
66.824663
 20
63.400965
 30
0.0
 11
66.709824
 21
63.44299
 31
0.0
  0
LINE
  5
204
100
AcDbEntity
  8
0
  6
Continuous
 62
   212
100
AcDbLine
 10
66.709824
 20
63.44299
 30
0.0
 11
66.600564
 21
63.495617
 31
0.0
  0
LINE
  5
205
100
AcDbEntity
  8
0
  6
Continuous
 62
   212
100
AcDbLine
 10
66.600564
 20
63.495617
 30
0.0
 11
66.49751
 21
63.558218
 31
0.0
  0
LINE
  5
206
100
AcDbEntity
  8
0
  6
Continuous
 62
   212
100
AcDbLine
 10
66.49751
 20
63.558218
 30
0.0
 11
66.401292
 21
63.630165
 31
0.0
  0
LINE
  5
207
100
AcDbEntity
  8
0
  6
Continuous
 62
   212
100
AcDbLine
 10
36.660051
 20
79.39545
 30
0.0
 11
36.59742
 21
79.498503
 31
0.0
  0
LINE
  5
208
100
AcDbEntity
  8
0
  6
Continuous
 62
   212
100
AcDbLine
 10
36.59742
 20
79.498503
 30
0.0
 11
36.544766
 21
79.607764
 31
0.0
  0
LINE
  5
209
100
AcDbEntity
  8
0
  6
Continuous
 62
   212
100
AcDbLine
 10
36.544766
 20
79.607764
 30
0.0
 11
36.502719
 21
79.722603
 31
0.0
  0
LINE
  5
20A
100
AcDbEntity
  8
0
  6
Continuous
 62
   212
100
AcDbLine
 10
107.705122
 20
24.901742
 30
0.0
 11
107.882223
 21
24.769334
 31
0.0
  0
LINE
  5
20B
100
AcDbEntity
  8
0
  6
Continuous
 62
   212
100
AcDbLine
 10
107.882223
 20
24.769334
 30
0.0
 11
108.071897
 21
24.654124
 31
0.0
  0
LINE
  5
20C
100
AcDbEntity
  8
0
  6
Continuous
 62
   212
100
AcDbLine
 10
108.933182
 20
24.388395
 30
0.0
 11
109.168365
 21
24.37652
 31
0.0
  0
LINE
  5
20D
100
AcDbEntity
  8
0
  6
Continuous
 62
   212
100
AcDbLine
 10
109.168365
 20
24.37652
 30
0.0
 11
109.403548
 21
24.388395
 31
0.0
  0
LINE
  5
20E
100
AcDbEntity
  8
0
  6
Continuous
 62
   212
100
AcDbLine
 10
109.403548
 20
24.388395
 30
0.0
 11
109.631943
 21
24.423249
 31
0.0
  0
LINE
  5
20F
100
AcDbEntity
  8
0
  6
Continuous
 62
   212
100
AcDbLine
 10
109.631943
 20
24.423249
 30
0.0
 11
109.852394
 21
24.479926
 31
0.0
  0
LINE
  5
210
100
AcDbEntity
  8
0
  6
Continuous
 62
   212
100
AcDbLine
 10
109.852394
 20
24.479926
 30
0.0
 11
110.063743
 21
24.557269
 31
0.0
  0
LINE
  5
211
100
AcDbEntity
  8
0
  6
Continuous
 62
   212
100
AcDbLine
 10
110.063743
 20
24.557269
 30
0.0
 11
110.264833
 21
24.654124
 31
0.0
  0
LINE
  5
212
100
AcDbEntity
  8
0
  6
Continuous
 62
   212
100
AcDbLine
 10
110.264833
 20
24.654124
 30
0.0
 11
110.454507
 21
24.769334
 31
0.0
  0
LINE
  5
213
100
AcDbEntity
  8
0
  6
Continuous
 62
   212
100
AcDbLine
 10
110.454507
 20
24.769334
 30
0.0
 11
110.631608
 21
24.901742
 31
0.0
  0
LINE
  5
214
100
AcDbEntity
  8
0
  6
Continuous
 62
   212
100
AcDbLine
 10
110.631608
 20
24.901742
 30
0.0
 11
110.794979
 21
25.050194
 31
0.0
  0
LINE
  5
215
100
AcDbEntity
  8
0
  6
Continuous
 62
   212
100
AcDbLine
 10
110.794979
 20
25.050194
 30
0.0
 11
110.943464
 21
25.213532
 31
0.0
  0
LINE
  5
216
100
AcDbEntity
  8
0
  6
Continuous
 62
   212
100
AcDbLine
 10
110.943464
 20
25.213532
 30
0.0
 11
111.075904
 21
25.390602
 31
0.0
  0
LINE
  5
217
100
AcDbEntity
  8
0
  6
Continuous
 62
   212
100
AcDbLine
 10
111.075904
 20
25.390602
 30
0.0
 11
111.191143
 21
25.580246
 31
0.0
  0
LINE
  5
218
100
AcDbEntity
  8
0
  6
Continuous
 62
   212
100
AcDbLine
 10
111.191143
 20
25.580246
 30
0.0
 11
111.288025
 21
25.781309
 31
0.0
  0
LINE
  5
219
100
AcDbEntity
  8
0
  6
Continuous
 62
   212
100
AcDbLine
 10
111.288025
 20
25.781309
 30
0.0
 11
111.365391
 21
25.992635
 31
0.0
  0
LINE
  5
21A
100
AcDbEntity
  8
0
  6
Continuous
 62
   212
100
AcDbLine
 10
111.365391
 20
25.992635
 30
0.0
 11
111.422085
 21
26.213068
 31
0.0
  0
LINE
  5
21B
100
AcDbEntity
  8
0
  6
Continuous
 62
   212
100
AcDbLine
 10
111.422085
 20
26.213068
 30
0.0
 11
111.45695
 21
26.441453
 31
0.0
  0
LINE
  5
21C
100
AcDbEntity
  8
0
  6
Continuous
 62
   212
100
AcDbLine
 10
111.45695
 20
26.441453
 30
0.0
 11
111.468829
 21
26.676632
 31
0.0
  0
LINE
  5
21D
100
AcDbEntity
  8
0
  6
Continuous
 62
   212
100
AcDbLine
 10
111.468829
 20
26.676632
 30
0.0
 11
111.45695
 21
26.911807
 31
0.0
  0
LINE
  5
21E
100
AcDbEntity
  8
0
  6
Continuous
 62
   212
100
AcDbLine
 10
111.45695
 20
26.911807
 30
0.0
 11
111.422085
 21
27.140179
 31
0.0
  0
LINE
  5
21F
100
AcDbEntity
  8
0
  6
Continuous
 62
   212
100
AcDbLine
 10
111.422085
 20
27.140179
 30
0.0
 11
111.365391
 21
27.360595
 31
0.0
  0
LINE
  5
220
100
AcDbEntity
  8
0
  6
Continuous
 62
   212
100
AcDbLine
 10
111.365391
 20
27.360595
 30
0.0
 11
111.288025
 21
27.571899
 31
0.0
  0
LINE
  5
221
100
AcDbEntity
  8
0
  6
Continuous
 62
   212
100
AcDbLine
 10
111.288025
 20
27.571899
 30
0.0
 11
111.191143
 21
27.772935
 31
0.0
  0
LINE
  5
222
100
AcDbEntity
  8
0
  6
Continuous
 62
   212
100
AcDbLine
 10
111.191143
 20
27.772935
 30
0.0
 11
111.075904
 21
27.96255
 31
0.0
  0
LINE
  5
223
100
AcDbEntity
  8
0
  6
Continuous
 62
   212
100
AcDbLine
 10
111.075904
 20
27.96255
 30
0.0
 11
110.943464
 21
28.139587
 31
0.0
  0
LINE
  5
224
100
AcDbEntity
  8
0
  6
Continuous
 62
   212
100
AcDbLine
 10
110.943464
 20
28.139587
 30
0.0
 11
110.794979
 21
28.302893
 31
0.0
  0
LINE
  5
225
100
AcDbEntity
  8
0
  6
Continuous
 62
   212
100
AcDbLine
 10
110.794979
 20
28.302893
 30
0.0
 11
110.631608
 21
28.451312
 31
0.0
  0
LINE
  5
226
100
AcDbEntity
  8
0
  6
Continuous
 62
   212
100
AcDbLine
 10
110.631608
 20
28.451312
 30
0.0
 11
110.454507
 21
28.583688
 31
0.0
  0
LINE
  5
227
100
AcDbEntity
  8
0
  6
Continuous
 62
   212
100
AcDbLine
 10
110.454507
 20
28.583688
 30
0.0
 11
110.264833
 21
28.698868
 31
0.0
  0
LINE
  5
228
100
AcDbEntity
  8
0
  6
Continuous
 62
   212
100
AcDbLine
 10
110.264833
 20
28.698868
 30
0.0
 11
110.063743
 21
28.795696
 31
0.0
  0
LINE
  5
229
100
AcDbEntity
  8
0
  6
Continuous
 62
   212
100
AcDbLine
 10
110.063743
 20
28.795696
 30
0.0
 11
109.852394
 21
28.873017
 31
0.0
  0
LINE
  5
22A
100
AcDbEntity
  8
0
  6
Continuous
 62
   212
100
AcDbLine
 10
109.852394
 20
28.873017
 30
0.0
 11
109.631943
 21
28.929676
 31
0.0
  0
LINE
  5
22B
100
AcDbEntity
  8
0
  6
Continuous
 62
   212
100
AcDbLine
 10
109.631943
 20
28.929676
 30
0.0
 11
109.403548
 21
28.964519
 31
0.0
  0
LINE
  5
22C
100
AcDbEntity
  8
0
  6
Continuous
 62
   212
100
AcDbLine
 10
109.403548
 20
28.964519
 30
0.0
 11
109.168365
 21
28.97639
 31
0.0
  0
LINE
  5
22D
100
AcDbEntity
  8
0
  6
Continuous
 62
   212
100
AcDbLine
 10
109.168365
 20
28.97639
 30
0.0
 11
108.933182
 21
28.964519
 31
0.0
  0
LINE
  5
22E
100
AcDbEntity
  8
0
  6
Continuous
 62
   212
100
AcDbLine
 10
108.933182
 20
28.964519
 30
0.0
 11
108.704787
 21
28.929676
 31
0.0
  0
LINE
  5
22F
100
AcDbEntity
  8
0
  6
Continuous
 62
   212
100
AcDbLine
 10
108.704787
 20
28.929676
 30
0.0
 11
108.484336
 21
28.873017
 31
0.0
  0
LINE
  5
230
100
AcDbEntity
  8
0
  6
Continuous
 62
   212
100
AcDbLine
 10
108.484336
 20
28.873017
 30
0.0
 11
108.272987
 21
28.795696
 31
0.0
  0
LINE
  5
231
100
AcDbEntity
  8
0
  6
Continuous
 62
   212
100
AcDbLine
 10
108.272987
 20
28.795696
 30
0.0
 11
108.071897
 21
28.698868
 31
0.0
  0
LINE
  5
232
100
AcDbEntity
  8
0
  6
Continuous
 62
   212
100
AcDbLine
 10
108.071897
 20
28.698868
 30
0.0
 11
107.882223
 21
28.583688
 31
0.0
  0
LINE
  5
233
100
AcDbEntity
  8
0
  6
Continuous
 62
   212
100
AcDbLine
 10
107.882223
 20
28.583688
 30
0.0
 11
107.705122
 21
28.451312
 31
0.0
  0
LINE
  5
234
100
AcDbEntity
  8
0
  6
Continuous
 62
   212
100
AcDbLine
 10
107.705122
 20
28.451312
 30
0.0
 11
107.541751
 21
28.302893
 31
0.0
  0
LINE
  5
235
100
AcDbEntity
  8
0
  6
Continuous
 62
   212
100
AcDbLine
 10
107.541751
 20
28.302893
 30
0.0
 11
107.393266
 21
28.139587
 31
0.0
  0
LINE
  5
236
100
AcDbEntity
  8
0
  6
Continuous
 62
   212
100
AcDbLine
 10
107.393266
 20
28.139587
 30
0.0
 11
107.260826
 21
27.96255
 31
0.0
  0
LINE
  5
237
100
AcDbEntity
  8
0
  6
Continuous
 62
   212
100
AcDbLine
 10
107.260826
 20
27.96255
 30
0.0
 11
107.145587
 21
27.772935
 31
0.0
  0
LINE
  5
238
100
AcDbEntity
  8
0
  6
Continuous
 62
   212
100
AcDbLine
 10
107.145587
 20
27.772935
 30
0.0
 11
107.048705
 21
27.571899
 31
0.0
  0
LINE
  5
239
100
AcDbEntity
  8
0
  6
Continuous
 62
   212
100
AcDbLine
 10
107.048705
 20
27.571899
 30
0.0
 11
106.971339
 21
27.360595
 31
0.0
  0
LINE
  5
23A
100
AcDbEntity
  8
0
  6
Continuous
 62
   212
100
AcDbLine
 10
106.971339
 20
27.360595
 30
0.0
 11
106.914645
 21
27.140179
 31
0.0
  0
LINE
  5
23B
100
AcDbEntity
  8
0
  6
Continuous
 62
   212
100
AcDbLine
 10
106.914645
 20
27.140179
 30
0.0
 11
106.87978
 21
26.911807
 31
0.0
  0
LINE
  5
23C
100
AcDbEntity
  8
0
  6
Continuous
 62
   212
100
AcDbLine
 10
106.87978
 20
26.911807
 30
0.0
 11
106.867901
 21
26.676632
 31
0.0
  0
LINE
  5
23D
100
AcDbEntity
  8
0
  6
Continuous
 62
   212
100
AcDbLine
 10
106.867901
 20
26.676632
 30
0.0
 11
106.87978
 21
26.441453
 31
0.0
  0
LINE
  5
23E
100
AcDbEntity
  8
0
  6
Continuous
 62
   212
100
AcDbLine
 10
106.87978
 20
26.441453
 30
0.0
 11
106.914645
 21
26.213068
 31
0.0
  0
LINE
  5
23F
100
AcDbEntity
  8
0
  6
Continuous
 62
   212
100
AcDbLine
 10
106.914645
 20
26.213068
 30
0.0
 11
106.971339
 21
25.992635
 31
0.0
  0
LINE
  5
240
100
AcDbEntity
  8
0
  6
Continuous
 62
   212
100
AcDbLine
 10
106.971339
 20
25.992635
 30
0.0
 11
107.048705
 21
25.781309
 31
0.0
  0
LINE
  5
241
100
AcDbEntity
  8
0
  6
Continuous
 62
   212
100
AcDbLine
 10
107.048705
 20
25.781309
 30
0.0
 11
107.145587
 21
25.580246
 31
0.0
  0
LINE
  5
242
100
AcDbEntity
  8
0
  6
Continuous
 62
   212
100
AcDbLine
 10
107.145587
 20
25.580246
 30
0.0
 11
107.260826
 21
25.390602
 31
0.0
  0
LINE
  5
243
100
AcDbEntity
  8
0
  6
Continuous
 62
   212
100
AcDbLine
 10
107.260826
 20
25.390602
 30
0.0
 11
107.393266
 21
25.213532
 31
0.0
  0
LINE
  5
244
100
AcDbEntity
  8
0
  6
Continuous
 62
   212
100
AcDbLine
 10
107.393266
 20
25.213532
 30
0.0
 11
107.541751
 21
25.050194
 31
0.0
  0
LINE
  5
245
100
AcDbEntity
  8
0
  6
Continuous
 62
   212
100
AcDbLine
 10
107.541751
 20
25.050194
 30
0.0
 11
107.705122
 21
24.901742
 31
0.0
  0
LINE
  5
246
100
AcDbEntity
  8
0
  6
Continuous
 62
   212
100
AcDbLine
 10
49.600908
 20
63.495617
 30
0.0
 11
49.710168
 21
63.44299
 31
0.0
  0
LINE
  5
247
100
AcDbEntity
  8
0
  6
Continuous
 62
   212
100
AcDbLine
 10
49.710168
 20
63.44299
 30
0.0
 11
49.825008
 21
63.400965
 31
0.0
  0
LINE
  5
248
100
AcDbEntity
  8
0
  6
Continuous
 62
   212
100
AcDbLine
 10
49.825008
 20
63.400965
 30
0.0
 11
49.944798
 21
63.370169
 31
0.0
  0
LINE
  5
249
100
AcDbEntity
  8
0
  6
Continuous
 62
   212
100
AcDbLine
 10
36.812729
 20
79.210475
 30
0.0
 11
36.73203
 21
79.299231
 31
0.0
  0
LINE
  5
24A
100
AcDbEntity
  8
0
  6
Continuous
 62
   212
100
AcDbLine
 10
36.73203
 20
79.299231
 30
0.0
 11
36.660051
 21
79.39545
 31
0.0
  0
LINE
  5
24B
100
AcDbEntity
  8
0
  6
Continuous
 62
   212
100
AcDbLine
 10
36.502719
 20
79.722603
 30
0.0
 11
36.471906
 21
79.842393
 31
0.0
  0
LINE
  5
24C
100
AcDbEntity
  8
0
  6
Continuous
 62
   212
100
AcDbLine
 10
36.471906
 20
79.842393
 30
0.0
 11
36.452957
 21
79.966507
 31
0.0
  0
LINE
  5
24D
100
AcDbEntity
  8
0
  6
Continuous
 62
   212
100
AcDbLine
 10
36.452957
 20
79.966507
 30
0.0
 11
36.446501
 21
80.094316
 31
0.0
  0
LINE
  5
24E
100
AcDbEntity
  8
0
  6
Continuous
 62
   212
100
AcDbLine
 10
36.446501
 20
80.094316
 30
0.0
 11
36.446501
 21
81.594327
 31
0.0
  0
LINE
  5
24F
100
AcDbEntity
  8
0
  6
Continuous
 62
   212
100
AcDbLine
 10
36.446501
 20
81.594327
 30
0.0
 11
36.452957
 21
81.722136
 31
0.0
  0
LINE
  5
250
100
AcDbEntity
  8
0
  6
Continuous
 62
   212
100
AcDbLine
 10
36.452957
 20
81.722136
 30
0.0
 11
36.471906
 21
81.84625
 31
0.0
  0
LINE
  5
251
100
AcDbEntity
  8
0
  6
Continuous
 62
   212
100
AcDbLine
 10
36.471906
 20
81.84625
 30
0.0
 11
36.502719
 21
81.96604
 31
0.0
  0
LINE
  5
252
100
AcDbEntity
  8
0
  6
Continuous
 62
   212
100
AcDbLine
 10
36.502719
 20
81.96604
 30
0.0
 11
36.544766
 21
82.080879
 31
0.0
  0
LINE
  5
253
100
AcDbEntity
  8
0
  6
Continuous
 62
   212
100
AcDbLine
 10
36.544766
 20
82.080879
 30
0.0
 11
36.59742
 21
82.190139
 31
0.0
  0
LINE
  5
254
100
AcDbEntity
  8
0
  6
Continuous
 62
   212
100
AcDbLine
 10
36.59742
 20
82.190139
 30
0.0
 11
36.660051
 21
82.293193
 31
0.0
  0
LINE
  5
255
100
AcDbEntity
  8
0
  6
Continuous
 62
   212
100
AcDbLine
 10
36.660051
 20
82.293193
 30
0.0
 11
36.73203
 21
82.389412
 31
0.0
  0
LINE
  5
256
100
AcDbEntity
  8
0
  6
Continuous
 62
   212
100
AcDbLine
 10
36.73203
 20
82.389412
 30
0.0
 11
36.812729
 21
82.478168
 31
0.0
  0
LINE
  5
257
100
AcDbEntity
  8
0
  6
Continuous
 62
   212
100
AcDbLine
 10
36.812729
 20
82.478168
 30
0.0
 11
36.901518
 21
82.558833
 31
0.0
  0
LINE
  5
258
100
AcDbEntity
  8
0
  6
Continuous
 62
   212
100
AcDbLine
 10
36.901518
 20
82.558833
 30
0.0
 11
36.997768
 21
82.630781
 31
0.0
  0
LINE
  5
259
100
AcDbEntity
  8
0
  6
Continuous
 62
   212
100
AcDbLine
 10
36.997768
 20
82.630781
 30
0.0
 11
37.100851
 21
82.693382
 31
0.0
  0
LINE
  5
25A
100
AcDbEntity
  8
0
  6
Continuous
 62
   212
100
AcDbLine
 10
37.100851
 20
82.693382
 30
0.0
 11
37.210138
 21
82.746009
 31
0.0
  0
LINE
  5
25B
100
AcDbEntity
  8
0
  6
Continuous
 62
   212
100
AcDbLine
 10
37.210138
 20
82.746009
 30
0.0
 11
37.325
 21
82.788034
 31
0.0
  0
LINE
  5
25C
100
AcDbEntity
  8
0
  6
Continuous
 62
   212
100
AcDbLine
 10
37.325
 20
82.788034
 30
0.0
 11
37.444808
 21
82.818829
 31
0.0
  0
LINE
  5
25D
100
AcDbEntity
  8
0
  6
Continuous
 62
   212
100
AcDbLine
 10
37.444808
 20
82.818829
 30
0.0
 11
37.568933
 21
82.837767
 31
0.0
  0
LINE
  5
25E
100
AcDbEntity
  8
0
  6
Continuous
 62
   212
100
AcDbLine
 10
37.568933
 20
82.837767
 30
0.0
 11
37.696746
 21
82.844219
 31
0.0
  0
LINE
  5
25F
100
AcDbEntity
  8
0
  6
Continuous
 62
   212
100
AcDbLine
 10
37.696746
 20
82.844219
 30
0.0
 11
45.196448
 21
82.844219
 31
0.0
  0
LINE
  5
260
100
AcDbEntity
  8
0
  6
Continuous
 62
   212
100
AcDbLine
 10
45.196448
 20
82.844219
 30
0.0
 11
45.324261
 21
82.837767
 31
0.0
  0
LINE
  5
261
100
AcDbEntity
  8
0
  6
Continuous
 62
   212
100
AcDbLine
 10
45.324261
 20
82.837767
 30
0.0
 11
45.448386
 21
82.818829
 31
0.0
  0
LINE
  5
262
100
AcDbEntity
  8
0
  6
Continuous
 62
   212
100
AcDbLine
 10
45.448386
 20
82.818829
 30
0.0
 11
45.568194
 21
82.788034
 31
0.0
  0
LINE
  5
263
100
AcDbEntity
  8
0
  6
Continuous
 62
   212
100
AcDbLine
 10
45.568194
 20
82.788034
 30
0.0
 11
45.683056
 21
82.746009
 31
0.0
  0
LINE
  5
264
100
AcDbEntity
  8
0
  6
Continuous
 62
   212
100
AcDbLine
 10
45.683056
 20
82.746009
 30
0.0
 11
45.792343
 21
82.693382
 31
0.0
  0
LINE
  5
265
100
AcDbEntity
  8
0
  6
Continuous
 62
   212
100
AcDbLine
 10
45.792343
 20
82.693382
 30
0.0
 11
45.895426
 21
82.630781
 31
0.0
  0
LINE
  5
266
100
AcDbEntity
  8
0
  6
Continuous
 62
   212
100
AcDbLine
 10
45.895426
 20
82.630781
 30
0.0
 11
45.991676
 21
82.558833
 31
0.0
  0
LINE
  5
267
100
AcDbEntity
  8
0
  6
Continuous
 62
   212
100
AcDbLine
 10
45.991676
 20
82.558833
 30
0.0
 11
46.080465
 21
82.478168
 31
0.0
  0
LINE
  5
268
100
AcDbEntity
  8
0
  6
Continuous
 62
   212
100
AcDbLine
 10
46.080465
 20
82.478168
 30
0.0
 11
46.161164
 21
82.389412
 31
0.0
  0
LINE
  5
269
100
AcDbEntity
  8
0
  6
Continuous
 62
   212
100
AcDbLine
 10
46.161164
 20
82.389412
 30
0.0
 11
46.233143
 21
82.293193
 31
0.0
  0
LINE
  5
26A
100
AcDbEntity
  8
0
  6
Continuous
 62
   212
100
AcDbLine
 10
46.233143
 20
82.293193
 30
0.0
 11
46.295774
 21
82.190139
 31
0.0
  0
LINE
  5
26B
100
AcDbEntity
  8
0
  6
Continuous
 62
   212
100
AcDbLine
 10
46.295774
 20
82.190139
 30
0.0
 11
46.348428
 21
82.080879
 31
0.0
  0
LINE
  5
26C
100
AcDbEntity
  8
0
  6
Continuous
 62
   212
100
AcDbLine
 10
46.348428
 20
82.080879
 30
0.0
 11
46.390475
 21
81.96604
 31
0.0
  0
LINE
  5
26D
100
AcDbEntity
  8
0
  6
Continuous
 62
   212
100
AcDbLine
 10
46.390475
 20
81.96604
 30
0.0
 11
46.421288
 21
81.84625
 31
0.0
  0
LINE
  5
26E
100
AcDbEntity
  8
0
  6
Continuous
 62
   212
100
AcDbLine
 10
46.421288
 20
81.84625
 30
0.0
 11
46.440237
 21
81.722136
 31
0.0
  0
LINE
  5
26F
100
AcDbEntity
  8
0
  6
Continuous
 62
   212
100
AcDbLine
 10
46.440237
 20
81.722136
 30
0.0
 11
46.446693
 21
81.594327
 31
0.0
  0
LINE
  5
270
100
AcDbEntity
  8
0
  6
Continuous
 62
   212
100
AcDbLine
 10
46.446693
 20
81.594327
 30
0.0
 11
46.446693
 21
80.094316
 31
0.0
  0
LINE
  5
271
100
AcDbEntity
  8
0
  6
Continuous
 62
   212
100
AcDbLine
 10
46.446693
 20
80.094316
 30
0.0
 11
46.440237
 21
79.966507
 31
0.0
  0
LINE
  5
272
100
AcDbEntity
  8
0
  6
Continuous
 62
   212
100
AcDbLine
 10
46.440237
 20
79.966507
 30
0.0
 11
46.421288
 21
79.842393
 31
0.0
  0
LINE
  5
273
100
AcDbEntity
  8
0
  6
Continuous
 62
   212
100
AcDbLine
 10
46.421288
 20
79.842393
 30
0.0
 11
46.390475
 21
79.722603
 31
0.0
  0
LINE
  5
274
100
AcDbEntity
  8
0
  6
Continuous
 62
   212
100
AcDbLine
 10
46.390475
 20
79.722603
 30
0.0
 11
46.348428
 21
79.607764
 31
0.0
  0
LINE
  5
275
100
AcDbEntity
  8
0
  6
Continuous
 62
   212
100
AcDbLine
 10
46.348428
 20
79.607764
 30
0.0
 11
46.295774
 21
79.498503
 31
0.0
  0
LINE
  5
276
100
AcDbEntity
  8
0
  6
Continuous
 62
   212
100
AcDbLine
 10
46.295774
 20
79.498503
 30
0.0
 11
46.233143
 21
79.39545
 31
0.0
  0
LINE
  5
277
100
AcDbEntity
  8
0
  6
Continuous
 62
   212
100
AcDbLine
 10
46.233143
 20
79.39545
 30
0.0
 11
46.161164
 21
79.299231
 31
0.0
  0
LINE
  5
278
100
AcDbEntity
  8
0
  6
Continuous
 62
   212
100
AcDbLine
 10
46.161164
 20
79.299231
 30
0.0
 11
46.080465
 21
79.210475
 31
0.0
  0
LINE
  5
279
100
AcDbEntity
  8
0
  6
Continuous
 62
   212
100
AcDbLine
 10
46.080465
 20
79.210475
 30
0.0
 11
45.991676
 21
79.12981
 31
0.0
  0
LINE
  5
27A
100
AcDbEntity
  8
0
  6
Continuous
 62
   212
100
AcDbLine
 10
45.991676
 20
79.12981
 30
0.0
 11
45.895426
 21
79.057862
 31
0.0
  0
LINE
  5
27B
100
AcDbEntity
  8
0
  6
Continuous
 62
   212
100
AcDbLine
 10
45.895426
 20
79.057862
 30
0.0
 11
45.792343
 21
78.995261
 31
0.0
  0
LINE
  5
27C
100
AcDbEntity
  8
0
  6
Continuous
 62
   212
100
AcDbLine
 10
45.792343
 20
78.995261
 30
0.0
 11
45.683056
 21
78.942634
 31
0.0
  0
LINE
  5
27D
100
AcDbEntity
  8
0
  6
Continuous
 62
   212
100
AcDbLine
 10
45.683056
 20
78.942634
 30
0.0
 11
45.568194
 21
78.900609
 31
0.0
  0
LINE
  5
27E
100
AcDbEntity
  8
0
  6
Continuous
 62
   212
100
AcDbLine
 10
45.568194
 20
78.900609
 30
0.0
 11
45.448386
 21
78.869814
 31
0.0
  0
LINE
  5
27F
100
AcDbEntity
  8
0
  6
Continuous
 62
   212
100
AcDbLine
 10
45.448386
 20
78.869814
 30
0.0
 11
45.324261
 21
78.850876
 31
0.0
  0
LINE
  5
280
100
AcDbEntity
  8
0
  6
Continuous
 62
   212
100
AcDbLine
 10
45.324261
 20
78.850876
 30
0.0
 11
45.196448
 21
78.844424
 31
0.0
  0
LINE
  5
281
100
AcDbEntity
  8
0
  6
Continuous
 62
   212
100
AcDbLine
 10
45.196448
 20
78.844424
 30
0.0
 11
37.696746
 21
78.844424
 31
0.0
  0
LINE
  5
282
100
AcDbEntity
  8
0
  6
Continuous
 62
   212
100
AcDbLine
 10
37.696746
 20
78.844424
 30
0.0
 11
37.568933
 21
78.850876
 31
0.0
  0
LINE
  5
283
100
AcDbEntity
  8
0
  6
Continuous
 62
   212
100
AcDbLine
 10
37.568933
 20
78.850876
 30
0.0
 11
37.444808
 21
78.869814
 31
0.0
  0
LINE
  5
284
100
AcDbEntity
  8
0
  6
Continuous
 62
   212
100
AcDbLine
 10
37.444808
 20
78.869814
 30
0.0
 11
37.325
 21
78.900609
 31
0.0
  0
LINE
  5
285
100
AcDbEntity
  8
0
  6
Continuous
 62
   212
100
AcDbLine
 10
37.325
 20
78.900609
 30
0.0
 11
37.210138
 21
78.942634
 31
0.0
  0
LINE
  5
286
100
AcDbEntity
  8
0
  6
Continuous
 62
   212
100
AcDbLine
 10
37.210138
 20
78.942634
 30
0.0
 11
37.100851
 21
78.995261
 31
0.0
  0
LINE
  5
287
100
AcDbEntity
  8
0
  6
Continuous
 62
   212
100
AcDbLine
 10
37.100851
 20
78.995261
 30
0.0
 11
36.997768
 21
79.057862
 31
0.0
  0
LINE
  5
288
100
AcDbEntity
  8
0
  6
Continuous
 62
   212
100
AcDbLine
 10
36.997768
 20
79.057862
 30
0.0
 11
36.901518
 21
79.12981
 31
0.0
  0
LINE
  5
289
100
AcDbEntity
  8
0
  6
Continuous
 62
   212
100
AcDbLine
 10
36.901518
 20
79.12981
 30
0.0
 11
36.812729
 21
79.210475
 31
0.0
  0
ARC
  5
28A
100
AcDbEntity
  8
0
  6
Continuous
 62
   212
100
AcDbCircle
 10
95.153479
 20
72.153479
 30
0.0
 40
0.846521
100
AcDbArc
 50
0.0
 51
90.0
  0
LINE
  5
28B
100
AcDbEntity
  8
0
  6
Continuous
 62
   212
100
AcDbLine
 10
95.153479
 20
73.0
 30
0.0
 11
93.846521
 21
73.0
 31
0.0
  0
ARC
  5
28C
100
AcDbEntity
  8
0
  6
Continuous
 62
   212
100
AcDbCircle
 10
93.846521
 20
72.153479
 30
0.0
 40
0.846521
100
AcDbArc
 50
-270.0
 51
-180.0
  0
LINE
  5
28D
100
AcDbEntity
  8
0
  6
Continuous
 62
   212
100
AcDbLine
 10
49.401636
 20
63.630165
 30
0.0
 11
49.497855
 21
63.558218
 31
0.0
  0
LINE
  5
28E
100
AcDbEntity
  8
0
  6
Continuous
 62
   212
100
AcDbLine
 10
49.497855
 20
63.558218
 30
0.0
 11
49.600908
 21
63.495617
 31
0.0
  0
LINE
  5
28F
100
AcDbEntity
  8
0
  6
Continuous
 62
   212
100
AcDbLine
 10
49.944798
 20
63.370169
 30
0.0
 11
50.068912
 21
63.351232
 31
0.0
  0
LINE
  5
290
100
AcDbEntity
  8
0
  6
Continuous
 62
   212
100
AcDbLine
 10
50.068912
 20
63.351232
 30
0.0
 11
50.196721
 21
63.34478
 31
0.0
  0
LINE
  5
291
100
AcDbEntity
  8
0
  6
Continuous
 62
   212
100
AcDbLine
 10
50.196721
 20
63.34478
 30
0.0
 11
51.696732
 21
63.34478
 31
0.0
  0
LINE
  5
292
100
AcDbEntity
  8
0
  6
Continuous
 62
   212
100
AcDbLine
 10
51.696732
 20
63.34478
 30
0.0
 11
51.824483
 21
63.351232
 31
0.0
  0
LINE
  5
293
100
AcDbEntity
  8
0
  6
Continuous
 62
   212
100
AcDbLine
 10
51.824483
 20
63.351232
 30
0.0
 11
51.948553
 21
63.370169
 31
0.0
  0
LINE
  5
294
100
AcDbEntity
  8
0
  6
Continuous
 62
   212
100
AcDbLine
 10
51.948553
 20
63.370169
 30
0.0
 11
52.068314
 21
63.400965
 31
0.0
  0
LINE
  5
295
100
AcDbEntity
  8
0
  6
Continuous
 62
   212
100
AcDbLine
 10
52.068314
 20
63.400965
 30
0.0
 11
52.183135
 21
63.44299
 31
0.0
  0
LINE
  5
296
100
AcDbEntity
  8
0
  6
Continuous
 62
   212
100
AcDbLine
 10
52.183135
 20
63.44299
 30
0.0
 11
52.292388
 21
63.495617
 31
0.0
  0
LINE
  5
297
100
AcDbEntity
  8
0
  6
Continuous
 62
   212
100
AcDbLine
 10
52.292388
 20
63.495617
 30
0.0
 11
52.395443
 21
63.558218
 31
0.0
  0
LINE
  5
298
100
AcDbEntity
  8
0
  6
Continuous
 62
   212
100
AcDbLine
 10
52.395443
 20
63.558218
 30
0.0
 11
52.49167
 21
63.630165
 31
0.0
  0
LINE
  5
299
100
AcDbEntity
  8
0
  6
Continuous
 62
   212
100
AcDbLine
 10
52.49167
 20
63.630165
 30
0.0
 11
52.58044
 21
63.710831
 31
0.0
  0
LINE
  5
29A
100
AcDbEntity
  8
0
  6
Continuous
 62
   212
100
AcDbLine
 10
52.58044
 20
63.710831
 30
0.0
 11
52.661124
 21
63.799587
 31
0.0
  0
LINE
  5
29B
100
AcDbEntity
  8
0
  6
Continuous
 62
   212
100
AcDbLine
 10
52.661124
 20
63.799587
 30
0.0
 11
52.733092
 21
63.895806
 31
0.0
  0
LINE
  5
29C
100
AcDbEntity
  8
0
  6
Continuous
 62
   212
100
AcDbLine
 10
52.733092
 20
63.895806
 30
0.0
 11
52.795715
 21
63.998859
 31
0.0
  0
LINE
  5
29D
100
AcDbEntity
  8
0
  6
Continuous
 62
   212
100
AcDbLine
 10
52.795715
 20
63.998859
 30
0.0
 11
52.848364
 21
64.108119
 31
0.0
  0
LINE
  5
29E
100
AcDbEntity
  8
0
  6
Continuous
 62
   212
100
AcDbLine
 10
52.848364
 20
64.108119
 30
0.0
 11
52.890408
 21
64.222958
 31
0.0
  0
LINE
  5
29F
100
AcDbEntity
  8
0
  6
Continuous
 62
   212
100
AcDbLine
 10
52.890408
 20
64.222958
 30
0.0
 11
52.921219
 21
64.342749
 31
0.0
  0
LINE
  5
2A0
100
AcDbEntity
  8
0
  6
Continuous
 62
   212
100
AcDbLine
 10
52.921219
 20
64.342749
 30
0.0
 11
52.940168
 21
64.466862
 31
0.0
  0
LINE
  5
2A1
100
AcDbEntity
  8
0
  6
Continuous
 62
   212
100
AcDbLine
 10
52.940168
 20
64.466862
 30
0.0
 11
52.946623
 21
64.594671
 31
0.0
  0
LINE
  5
2A2
100
AcDbEntity
  8
0
  6
Continuous
 62
   212
100
AcDbLine
 10
52.946623
 20
64.594671
 30
0.0
 11
52.946623
 21
66.094683
 31
0.0
  0
LINE
  5
2A3
100
AcDbEntity
  8
0
  6
Continuous
 62
   212
100
AcDbLine
 10
52.946623
 20
66.094683
 30
0.0
 11
52.940168
 21
66.222492
 31
0.0
  0
LINE
  5
2A4
100
AcDbEntity
  8
0
  6
Continuous
 62
   212
100
AcDbLine
 10
52.940168
 20
66.222492
 30
0.0
 11
52.921219
 21
66.346605
 31
0.0
  0
LINE
  5
2A5
100
AcDbEntity
  8
0
  6
Continuous
 62
   212
100
AcDbLine
 10
52.921219
 20
66.346605
 30
0.0
 11
52.890408
 21
66.466396
 31
0.0
  0
LINE
  5
2A6
100
AcDbEntity
  8
0
  6
Continuous
 62
   212
100
AcDbLine
 10
52.890408
 20
66.466396
 30
0.0
 11
52.848364
 21
66.581235
 31
0.0
  0
LINE
  5
2A7
100
AcDbEntity
  8
0
  6
Continuous
 62
   212
100
AcDbLine
 10
52.848364
 20
66.581235
 30
0.0
 11
52.795715
 21
66.690495
 31
0.0
  0
LINE
  5
2A8
100
AcDbEntity
  8
0
  6
Continuous
 62
   212
100
AcDbLine
 10
52.795715
 20
66.690495
 30
0.0
 11
52.733092
 21
66.793548
 31
0.0
  0
LINE
  5
2A9
100
AcDbEntity
  8
0
  6
Continuous
 62
   212
100
AcDbLine
 10
52.733092
 20
66.793548
 30
0.0
 11
52.661124
 21
66.889767
 31
0.0
  0
LINE
  5
2AA
100
AcDbEntity
  8
0
  6
Continuous
 62
   212
100
AcDbLine
 10
52.661124
 20
66.889767
 30
0.0
 11
52.58044
 21
66.978523
 31
0.0
  0
LINE
  5
2AB
100
AcDbEntity
  8
0
  6
Continuous
 62
   212
100
AcDbLine
 10
52.58044
 20
66.978523
 30
0.0
 11
52.49167
 21
67.059189
 31
0.0
  0
LINE
  5
2AC
100
AcDbEntity
  8
0
  6
Continuous
 62
   212
100
AcDbLine
 10
52.49167
 20
67.059189
 30
0.0
 11
52.395443
 21
67.131136
 31
0.0
  0
LINE
  5
2AD
100
AcDbEntity
  8
0
  6
Continuous
 62
   212
100
AcDbLine
 10
52.395443
 20
67.131136
 30
0.0
 11
52.292388
 21
67.193737
 31
0.0
  0
LINE
  5
2AE
100
AcDbEntity
  8
0
  6
Continuous
 62
   212
100
AcDbLine
 10
52.292388
 20
67.193737
 30
0.0
 11
52.183135
 21
67.246364
 31
0.0
  0
LINE
  5
2AF
100
AcDbEntity
  8
0
  6
Continuous
 62
   212
100
AcDbLine
 10
52.183135
 20
67.246364
 30
0.0
 11
52.068314
 21
67.288389
 31
0.0
  0
LINE
  5
2B0
100
AcDbEntity
  8
0
  6
Continuous
 62
   212
100
AcDbLine
 10
52.068314
 20
67.288389
 30
0.0
 11
51.948553
 21
67.319185
 31
0.0
  0
LINE
  5
2B1
100
AcDbEntity
  8
0
  6
Continuous
 62
   212
100
AcDbLine
 10
51.948553
 20
67.319185
 30
0.0
 11
51.824483
 21
67.338122
 31
0.0
  0
LINE
  5
2B2
100
AcDbEntity
  8
0
  6
Continuous
 62
   212
100
AcDbLine
 10
51.824483
 20
67.338122
 30
0.0
 11
51.696732
 21
67.344574
 31
0.0
  0
LINE
  5
2B3
100
AcDbEntity
  8
0
  6
Continuous
 62
   212
100
AcDbLine
 10
51.696732
 20
67.344574
 30
0.0
 11
50.196721
 21
67.344574
 31
0.0
  0
LINE
  5
2B4
100
AcDbEntity
  8
0
  6
Continuous
 62
   212
100
AcDbLine
 10
50.196721
 20
67.344574
 30
0.0
 11
50.068912
 21
67.338122
 31
0.0
  0
LINE
  5
2B5
100
AcDbEntity
  8
0
  6
Continuous
 62
   212
100
AcDbLine
 10
50.068912
 20
67.338122
 30
0.0
 11
49.944798
 21
67.319185
 31
0.0
  0
LINE
  5
2B6
100
AcDbEntity
  8
0
  6
Continuous
 62
   212
100
AcDbLine
 10
49.944798
 20
67.319185
 30
0.0
 11
49.825008
 21
67.288389
 31
0.0
  0
LINE
  5
2B7
100
AcDbEntity
  8
0
  6
Continuous
 62
   212
100
AcDbLine
 10
49.825008
 20
67.288389
 30
0.0
 11
49.710168
 21
67.246364
 31
0.0
  0
LINE
  5
2B8
100
AcDbEntity
  8
0
  6
Continuous
 62
   212
100
AcDbLine
 10
49.710168
 20
67.246364
 30
0.0
 11
49.600908
 21
67.193737
 31
0.0
  0
LINE
  5
2B9
100
AcDbEntity
  8
0
  6
Continuous
 62
   212
100
AcDbLine
 10
49.600908
 20
67.193737
 30
0.0
 11
49.497855
 21
67.131136
 31
0.0
  0
LINE
  5
2BA
100
AcDbEntity
  8
0
  6
Continuous
 62
   212
100
AcDbLine
 10
49.497855
 20
67.131136
 30
0.0
 11
49.401636
 21
67.059189
 31
0.0
  0
LINE
  5
2BB
100
AcDbEntity
  8
0
  6
Continuous
 62
   212
100
AcDbLine
 10
49.401636
 20
67.059189
 30
0.0
 11
49.31288
 21
66.978523
 31
0.0
  0
LINE
  5
2BC
100
AcDbEntity
  8
0
  6
Continuous
 62
   212
100
AcDbLine
 10
49.31288
 20
66.978523
 30
0.0
 11
49.232214
 21
66.889767
 31
0.0
  0
LINE
  5
2BD
100
AcDbEntity
  8
0
  6
Continuous
 62
   212
100
AcDbLine
 10
49.232214
 20
66.889767
 30
0.0
 11
49.160267
 21
66.793548
 31
0.0
  0
LINE
  5
2BE
100
AcDbEntity
  8
0
  6
Continuous
 62
   212
100
AcDbLine
 10
49.160267
 20
66.793548
 30
0.0
 11
49.097666
 21
66.690495
 31
0.0
  0
LINE
  5
2BF
100
AcDbEntity
  8
0
  6
Continuous
 62
   212
100
AcDbLine
 10
49.097666
 20
66.690495
 30
0.0
 11
49.045039
 21
66.581235
 31
0.0
  0
LINE
  5
2C0
100
AcDbEntity
  8
0
  6
Continuous
 62
   212
100
AcDbLine
 10
49.045039
 20
66.581235
 30
0.0
 11
49.003014
 21
66.466396
 31
0.0
  0
LINE
  5
2C1
100
AcDbEntity
  8
0
  6
Continuous
 62
   212
100
AcDbLine
 10
49.003014
 20
66.466396
 30
0.0
 11
48.972219
 21
66.346605
 31
0.0
  0
LINE
  5
2C2
100
AcDbEntity
  8
0
  6
Continuous
 62
   212
100
AcDbLine
 10
48.972219
 20
66.346605
 30
0.0
 11
48.953281
 21
66.222492
 31
0.0
  0
LINE
  5
2C3
100
AcDbEntity
  8
0
  6
Continuous
 62
   212
100
AcDbLine
 10
48.953281
 20
66.222492
 30
0.0
 11
48.946829
 21
66.094683
 31
0.0
  0
LINE
  5
2C4
100
AcDbEntity
  8
0
  6
Continuous
 62
   212
100
AcDbLine
 10
48.946829
 20
66.094683
 30
0.0
 11
48.946829
 21
64.594671
 31
0.0
  0
LINE
  5
2C5
100
AcDbEntity
  8
0
  6
Continuous
 62
   212
100
AcDbLine
 10
48.946829
 20
64.594671
 30
0.0
 11
48.953281
 21
64.466862
 31
0.0
  0
LINE
  5
2C6
100
AcDbEntity
  8
0
  6
Continuous
 62
   212
100
AcDbLine
 10
48.953281
 20
64.466862
 30
0.0
 11
48.972219
 21
64.342749
 31
0.0
  0
LINE
  5
2C7
100
AcDbEntity
  8
0
  6
Continuous
 62
   212
100
AcDbLine
 10
48.972219
 20
64.342749
 30
0.0
 11
49.003014
 21
64.222958
 31
0.0
  0
LINE
  5
2C8
100
AcDbEntity
  8
0
  6
Continuous
 62
   212
100
AcDbLine
 10
49.003014
 20
64.222958
 30
0.0
 11
49.045039
 21
64.108119
 31
0.0
  0
LINE
  5
2C9
100
AcDbEntity
  8
0
  6
Continuous
 62
   212
100
AcDbLine
 10
49.045039
 20
64.108119
 30
0.0
 11
49.097666
 21
63.998859
 31
0.0
  0
LINE
  5
2CA
100
AcDbEntity
  8
0
  6
Continuous
 62
   212
100
AcDbLine
 10
49.097666
 20
63.998859
 30
0.0
 11
49.160267
 21
63.895806
 31
0.0
  0
LINE
  5
2CB
100
AcDbEntity
  8
0
  6
Continuous
 62
   212
100
AcDbLine
 10
49.160267
 20
63.895806
 30
0.0
 11
49.232214
 21
63.799587
 31
0.0
  0
LINE
  5
2CC
100
AcDbEntity
  8
0
  6
Continuous
 62
   212
100
AcDbLine
 10
49.232214
 20
63.799587
 30
0.0
 11
49.31288
 21
63.710831
 31
0.0
  0
LINE
  5
2CD
100
AcDbEntity
  8
0
  6
Continuous
 62
   212
100
AcDbLine
 10
49.31288
 20
63.710831
 30
0.0
 11
49.401636
 21
63.630165
 31
0.0
  0
LINE
  5
2CE
100
AcDbEntity
  8
0
  6
Continuous
 62
   212
100
AcDbLine
 10
67.373353
 20
44.217586
 30
0.0
 11
67.224934
 21
44.380938
 31
0.0
  0
LINE
  5
2CF
100
AcDbEntity
  8
0
  6
Continuous
 62
   212
100
AcDbLine
 10
67.224934
 20
44.380938
 30
0.0
 11
67.092557
 21
44.558016
 31
0.0
  0
LINE
  5
2D0
100
AcDbEntity
  8
0
  6
Continuous
 62
   212
100
AcDbLine
 10
67.092557
 20
44.558016
 30
0.0
 11
66.977378
 21
44.747662
 31
0.0
  0
LINE
  5
2D1
100
AcDbEntity
  8
0
  6
Continuous
 62
   212
100
AcDbLine
 10
93.846521
 20
22.0
 30
0.0
 11
95.153479
 21
22.0
 31
0.0
  0
ARC
  5
2D2
100
AcDbEntity
  8
0
  6
Continuous
 62
   212
100
AcDbCircle
 10
95.153479
 20
22.846521
 30
0.0
 40
0.846521
100
AcDbArc
 50
-90.0
 51
0.0
  0
LINE
  5
2D3
100
AcDbEntity
  8
0
  6
Continuous
 62
   212
100
AcDbLine
 10
96.0
 20
22.846521
 30
0.0
 11
96.0
 21
72.153479
 31
0.0
  0
LINE
  5
2D4
100
AcDbEntity
  8
0
  6
Continuous
 62
   212
100
AcDbLine
 10
93.0
 20
72.153479
 30
0.0
 11
93.0
 21
22.846521
 31
0.0
  0
ARC
  5
2D5
100
AcDbEntity
  8
0
  6
Continuous
 62
   212
100
AcDbCircle
 10
93.846521
 20
22.846521
 30
0.0
 40
0.846521
100
AcDbArc
 50
-180.0
 51
-90.0
  0
LINE
  5
2D6
100
AcDbEntity
  8
0
  6
Continuous
 62
   212
100
AcDbLine
 10
42.984489
 20
68.182116
 30
0.0
 11
42.887639
 21
68.38318
 31
0.0
  0
LINE
  5
2D7
100
AcDbEntity
  8
0
  6
Continuous
 62
   212
100
AcDbLine
 10
42.887639
 20
68.38318
 30
0.0
 11
42.810299
 21
68.594506
 31
0.0
  0
LINE
  5
2D8
100
AcDbEntity
  8
0
  6
Continuous
 62
   212
100
AcDbLine
 10
42.810299
 20
68.594506
 30
0.0
 11
42.753624
 21
68.814939
 31
0.0
  0
LINE
  5
2D9
100
AcDbEntity
  8
0
  6
Continuous
 62
   212
100
AcDbLine
 10
42.753624
 20
68.814939
 30
0.0
 11
42.71877
 21
69.043323
 31
0.0
  0
LINE
  5
2DA
100
AcDbEntity
  8
0
  6
Continuous
 62
   212
100
AcDbLine
 10
-3.124541
 20
126.0
 30
0.0
 11
-0.124541
 21
126.0
 31
0.0
  0
LINE
  5
2DB
100
AcDbEntity
  8
0
  6
Continuous
 62
   212
100
AcDbLine
 10
-0.124541
 20
126.0
 30
0.0
 11
-0.124541
 21
146.0
 31
0.0
  0
LINE
  5
2DC
100
AcDbEntity
  8
0
  6
Continuous
 62
   212
100
AcDbLine
 10
-0.124541
 20
146.0
 30
0.0
 11
-3.124541
 21
146.0
 31
0.0
  0
LINE
  5
2DD
100
AcDbEntity
  8
0
  6
Continuous
 62
   212
100
AcDbLine
 10
-3.124541
 20
146.0
 30
0.0
 11
-3.124541
 21
126.0
 31
0.0
  0
LINE
  5
2DE
100
AcDbEntity
  8
0
  6
Continuous
 62
   212
100
AcDbLine
 10
66.977378
 20
44.747662
 30
0.0
 11
66.88055
 21
44.948718
 31
0.0
  0
LINE
  5
2DF
100
AcDbEntity
  8
0
  6
Continuous
 62
   212
100
AcDbLine
 10
66.88055
 20
44.948718
 30
0.0
 11
66.803229
 21
45.160026
 31
0.0
  0
LINE
  5
2E0
100
AcDbEntity
  8
0
  6
Continuous
 62
   212
100
AcDbLine
 10
66.803229
 20
45.160026
 30
0.0
 11
66.746569
 21
45.38043
 31
0.0
  0
LINE
  5
2E1
100
AcDbEntity
  8
0
  6
Continuous
 62
   212
100
AcDbLine
 10
66.746569
 20
45.38043
 30
0.0
 11
66.711727
 21
45.60877
 31
0.0
  0
LINE
  5
2E2
100
AcDbEntity
  8
0
  6
Continuous
 62
   212
100
AcDbLine
 10
66.711727
 20
45.60877
 30
0.0
 11
66.699856
 21
45.843891
 31
0.0
  0
LINE
  5
2E3
100
AcDbEntity
  8
0
  6
Continuous
 62
   212
100
AcDbLine
 10
66.699856
 20
45.843891
 30
0.0
 11
66.711727
 21
46.07907
 31
0.0
  0
LINE
  5
2E4
100
AcDbEntity
  8
0
  6
Continuous
 62
   212
100
AcDbLine
 10
66.711727
 20
46.07907
 30
0.0
 11
66.746569
 21
46.307454
 31
0.0
  0
LINE
  5
2E5
100
AcDbEntity
  8
0
  6
Continuous
 62
   212
100
AcDbLine
 10
66.746569
 20
46.307454
 30
0.0
 11
66.803229
 21
46.527888
 31
0.0
  0
LINE
  5
2E6
100
AcDbEntity
  8
0
  6
Continuous
 62
   212
100
AcDbLine
 10
66.803229
 20
46.527888
 30
0.0
 11
66.88055
 21
46.739214
 31
0.0
  0
LINE
  5
2E7
100
AcDbEntity
  8
0
  6
Continuous
 62
   212
100
AcDbLine
 10
66.88055
 20
46.739214
 30
0.0
 11
66.977378
 21
46.940277
 31
0.0
  0
LINE
  5
2E8
100
AcDbEntity
  8
0
  6
Continuous
 62
   212
100
AcDbLine
 10
66.977378
 20
46.940277
 30
0.0
 11
67.092557
 21
47.129921
 31
0.0
  0
LINE
  5
2E9
100
AcDbEntity
  8
0
  6
Continuous
 62
   212
100
AcDbLine
 10
67.092557
 20
47.129921
 30
0.0
 11
67.224934
 21
47.306991
 31
0.0
  0
LINE
  5
2EA
100
AcDbEntity
  8
0
  6
Continuous
 62
   212
100
AcDbLine
 10
67.224934
 20
47.306991
 30
0.0
 11
67.373353
 21
47.470329
 31
0.0
  0
LINE
  5
2EB
100
AcDbEntity
  8
0
  6
Continuous
 62
   212
100
AcDbLine
 10
67.373353
 20
47.470329
 30
0.0
 11
67.536658
 21
47.618781
 31
0.0
  0
LINE
  5
2EC
100
AcDbEntity
  8
0
  6
Continuous
 62
   212
100
AcDbLine
 10
67.536658
 20
47.618781
 30
0.0
 11
67.713696
 21
47.751189
 31
0.0
  0
LINE
  5
2ED
100
AcDbEntity
  8
0
  6
Continuous
 62
   212
100
AcDbLine
 10
67.713696
 20
47.751189
 30
0.0
 11
67.90331
 21
47.866399
 31
0.0
  0
LINE
  5
2EE
100
AcDbEntity
  8
0
  6
Continuous
 62
   212
100
AcDbLine
 10
67.90331
 20
47.866399
 30
0.0
 11
68.104347
 21
47.963253
 31
0.0
  0
LINE
  5
2EF
100
AcDbEntity
  8
0
  6
Continuous
 62
   212
100
AcDbLine
 10
68.104347
 20
47.963253
 30
0.0
 11
68.31565
 21
48.040597
 31
0.0
  0
LINE
  5
2F0
100
AcDbEntity
  8
0
  6
Continuous
 62
   212
100
AcDbLine
 10
68.31565
 20
48.040597
 30
0.0
 11
68.536066
 21
48.097274
 31
0.0
  0
LINE
  5
2F1
100
AcDbEntity
  8
0
  6
Continuous
 62
   212
100
AcDbLine
 10
68.536066
 20
48.097274
 30
0.0
 11
68.764439
 21
48.132128
 31
0.0
  0
LINE
  5
2F2
100
AcDbEntity
  8
0
  6
Continuous
 62
   212
100
AcDbLine
 10
68.764439
 20
48.132128
 30
0.0
 11
68.999614
 21
48.144002
 31
0.0
  0
LINE
  5
2F3
100
AcDbEntity
  8
0
  6
Continuous
 62
   212
100
AcDbLine
 10
68.999614
 20
48.144002
 30
0.0
 11
69.234735
 21
48.132128
 31
0.0
  0
LINE
  5
2F4
100
AcDbEntity
  8
0
  6
Continuous
 62
   212
100
AcDbLine
 10
69.234735
 20
48.132128
 30
0.0
 11
69.463076
 21
48.097274
 31
0.0
  0
LINE
  5
2F5
100
AcDbEntity
  8
0
  6
Continuous
 62
   212
100
AcDbLine
 10
69.463076
 20
48.097274
 30
0.0
 11
69.683479
 21
48.040597
 31
0.0
  0
LINE
  5
2F6
100
AcDbEntity
  8
0
  6
Continuous
 62
   212
100
AcDbLine
 10
69.683479
 20
48.040597
 30
0.0
 11
69.894788
 21
47.963253
 31
0.0
  0
LINE
  5
2F7
100
AcDbEntity
  8
0
  6
Continuous
 62
   212
100
AcDbLine
 10
69.894788
 20
47.963253
 30
0.0
 11
70.095843
 21
47.866399
 31
0.0
  0
LINE
  5
2F8
100
AcDbEntity
  8
0
  6
Continuous
 62
   212
100
AcDbLine
 10
70.095843
 20
47.866399
 30
0.0
 11
70.285489
 21
47.751189
 31
0.0
  0
LINE
  5
2F9
100
AcDbEntity
  8
0
  6
Continuous
 62
   212
100
AcDbLine
 10
70.285489
 20
47.751189
 30
0.0
 11
70.462567
 21
47.618781
 31
0.0
  0
LINE
  5
2FA
100
AcDbEntity
  8
0
  6
Continuous
 62
   212
100
AcDbLine
 10
70.462567
 20
47.618781
 30
0.0
 11
70.62592
 21
47.470329
 31
0.0
  0
LINE
  5
2FB
100
AcDbEntity
  8
0
  6
Continuous
 62
   212
100
AcDbLine
 10
70.62592
 20
47.470329
 30
0.0
 11
70.77439
 21
47.306991
 31
0.0
  0
LINE
  5
2FC
100
AcDbEntity
  8
0
  6
Continuous
 62
   212
100
AcDbLine
 10
70.77439
 20
47.306991
 30
0.0
 11
70.906819
 21
47.129921
 31
0.0
  0
LINE
  5
2FD
100
AcDbEntity
  8
0
  6
Continuous
 62
   212
100
AcDbLine
 10
70.906819
 20
47.129921
 30
0.0
 11
71.022051
 21
46.940277
 31
0.0
  0
LINE
  5
2FE
100
AcDbEntity
  8
0
  6
Continuous
 62
   212
100
AcDbLine
 10
71.022051
 20
46.940277
 30
0.0
 11
71.118927
 21
46.739214
 31
0.0
  0
LINE
  5
2FF
100
AcDbEntity
  8
0
  6
Continuous
 62
   212
100
AcDbLine
 10
71.118927
 20
46.739214
 30
0.0
 11
71.19629
 21
46.527888
 31
0.0
  0
LINE
  5
300
100
AcDbEntity
  8
0
  6
Continuous
 62
   212
100
AcDbLine
 10
71.19629
 20
46.527888
 30
0.0
 11
71.252982
 21
46.307454
 31
0.0
  0
LINE
  5
301
100
AcDbEntity
  8
0
  6
Continuous
 62
   212
100
AcDbLine
 10
71.252982
 20
46.307454
 30
0.0
 11
71.287847
 21
46.07907
 31
0.0
  0
LINE
  5
302
100
AcDbEntity
  8
0
  6
Continuous
 62
   212
100
AcDbLine
 10
71.287847
 20
46.07907
 30
0.0
 11
71.299725
 21
45.843891
 31
0.0
  0
LINE
  5
303
100
AcDbEntity
  8
0
  6
Continuous
 62
   212
100
AcDbLine
 10
71.299725
 20
45.843891
 30
0.0
 11
71.287847
 21
45.60877
 31
0.0
  0
LINE
  5
304
100
AcDbEntity
  8
0
  6
Continuous
 62
   212
100
AcDbLine
 10
71.287847
 20
45.60877
 30
0.0
 11
71.252982
 21
45.38043
 31
0.0
  0
LINE
  5
305
100
AcDbEntity
  8
0
  6
Continuous
 62
   212
100
AcDbLine
 10
71.252982
 20
45.38043
 30
0.0
 11
71.19629
 21
45.160026
 31
0.0
  0
LINE
  5
306
100
AcDbEntity
  8
0
  6
Continuous
 62
   212
100
AcDbLine
 10
71.19629
 20
45.160026
 30
0.0
 11
71.118927
 21
44.948718
 31
0.0
  0
LINE
  5
307
100
AcDbEntity
  8
0
  6
Continuous
 62
   212
100
AcDbLine
 10
71.118927
 20
44.948718
 30
0.0
 11
71.022051
 21
44.747662
 31
0.0
  0
LINE
  5
308
100
AcDbEntity
  8
0
  6
Continuous
 62
   212
100
AcDbLine
 10
71.022051
 20
44.747662
 30
0.0
 11
70.906819
 21
44.558016
 31
0.0
  0
LINE
  5
309
100
AcDbEntity
  8
0
  6
Continuous
 62
   212
100
AcDbLine
 10
70.906819
 20
44.558016
 30
0.0
 11
70.77439
 21
44.380938
 31
0.0
  0
LINE
  5
30A
100
AcDbEntity
  8
0
  6
Continuous
 62
   212
100
AcDbLine
 10
70.77439
 20
44.380938
 30
0.0
 11
70.62592
 21
44.217586
 31
0.0
  0
LINE
  5
30B
100
AcDbEntity
  8
0
  6
Continuous
 62
   212
100
AcDbLine
 10
70.62592
 20
44.217586
 30
0.0
 11
70.462567
 21
44.069116
 31
0.0
  0
LINE
  5
30C
100
AcDbEntity
  8
0
  6
Continuous
 62
   212
100
AcDbLine
 10
70.462567
 20
44.069116
 30
0.0
 11
70.285489
 21
43.936686
 31
0.0
  0
LINE
  5
30D
100
AcDbEntity
  8
0
  6
Continuous
 62
   212
100
AcDbLine
 10
70.285489
 20
43.936686
 30
0.0
 11
70.095843
 21
43.821455
 31
0.0
  0
LINE
  5
30E
100
AcDbEntity
  8
0
  6
Continuous
 62
   212
100
AcDbLine
 10
70.095843
 20
43.821455
 30
0.0
 11
69.894788
 21
43.724579
 31
0.0
  0
LINE
  5
30F
100
AcDbEntity
  8
0
  6
Continuous
 62
   212
100
AcDbLine
 10
69.894788
 20
43.724579
 30
0.0
 11
69.683479
 21
43.647216
 31
0.0
  0
LINE
  5
310
100
AcDbEntity
  8
0
  6
Continuous
 62
   212
100
AcDbLine
 10
69.683479
 20
43.647216
 30
0.0
 11
69.463076
 21
43.590523
 31
0.0
  0
LINE
  5
311
100
AcDbEntity
  8
0
  6
Continuous
 62
   212
100
AcDbLine
 10
69.463076
 20
43.590523
 30
0.0
 11
69.234735
 21
43.555659
 31
0.0
  0
LINE
  5
312
100
AcDbEntity
  8
0
  6
Continuous
 62
   212
100
AcDbLine
 10
69.234735
 20
43.555659
 30
0.0
 11
68.999614
 21
43.54378
 31
0.0
  0
LINE
  5
313
100
AcDbEntity
  8
0
  6
Continuous
 62
   212
100
AcDbLine
 10
68.999614
 20
43.54378
 30
0.0
 11
68.764439
 21
43.555659
 31
0.0
  0
LINE
  5
314
100
AcDbEntity
  8
0
  6
Continuous
 62
   212
100
AcDbLine
 10
68.764439
 20
43.555659
 30
0.0
 11
68.536066
 21
43.590523
 31
0.0
  0
LINE
  5
315
100
AcDbEntity
  8
0
  6
Continuous
 62
   212
100
AcDbLine
 10
68.536066
 20
43.590523
 30
0.0
 11
68.31565
 21
43.647216
 31
0.0
  0
LINE
  5
316
100
AcDbEntity
  8
0
  6
Continuous
 62
   212
100
AcDbLine
 10
68.31565
 20
43.647216
 30
0.0
 11
68.104347
 21
43.724579
 31
0.0
  0
LINE
  5
317
100
AcDbEntity
  8
0
  6
Continuous
 62
   212
100
AcDbLine
 10
68.104347
 20
43.724579
 30
0.0
 11
67.90331
 21
43.821455
 31
0.0
  0
LINE
  5
318
100
AcDbEntity
  8
0
  6
Continuous
 62
   212
100
AcDbLine
 10
67.90331
 20
43.821455
 30
0.0
 11
67.713696
 21
43.936686
 31
0.0
  0
LINE
  5
319
100
AcDbEntity
  8
0
  6
Continuous
 62
   212
100
AcDbLine
 10
67.713696
 20
43.936686
 30
0.0
 11
67.536658
 21
44.069116
 31
0.0
  0
LINE
  5
31A
100
AcDbEntity
  8
0
  6
Continuous
 62
   212
100
AcDbLine
 10
67.536658
 20
44.069116
 30
0.0
 11
67.373353
 21
44.217586
 31
0.0
  0
ARC
  5
31B
100
AcDbEntity
  8
0
  6
Continuous
 62
   212
100
AcDbCircle
 10
6.0
 20
113.0
 30
0.0
 40
2.0
100
AcDbArc
 50
0.0
 51
90.0
  0
ARC
  5
31C
100
AcDbEntity
  8
0
  6
Continuous
 62
   212
100
AcDbCircle
 10
6.0
 20
113.0
 30
0.0
 40
2.0
100
AcDbArc
 50
-270.0
 51
-180.0
  0
LINE
  5
31D
100
AcDbEntity
  8
0
  6
Continuous
 62
   212
100
AcDbLine
 10
66.20428
 20
36.875916
 30
0.0
 11
66.115523
 21
36.956581
 31
0.0
  0
LINE
  5
31E
100
AcDbEntity
  8
0
  6
Continuous
 62
   212
100
AcDbLine
 10
66.115523
 20
36.956581
 30
0.0
 11
66.034858
 21
37.045337
 31
0.0
  0
LINE
  5
31F
100
AcDbEntity
  8
0
  6
Continuous
 62
   212
100
AcDbLine
 10
43.380525
 20
67.652064
 30
0.0
 11
43.232088
 21
67.815403
 31
0.0
  0
LINE
  5
320
100
AcDbEntity
  8
0
  6
Continuous
 62
   212
100
AcDbLine
 10
43.232088
 20
67.815403
 30
0.0
 11
43.09969
 21
67.992472
 31
0.0
  0
LINE
  5
321
100
AcDbEntity
  8
0
  6
Continuous
 62
   212
100
AcDbLine
 10
43.09969
 20
67.992472
 30
0.0
 11
42.984489
 21
68.182116
 31
0.0
  0
LINE
  5
322
100
AcDbEntity
  8
0
  6
Continuous
 62
   212
100
AcDbLine
 10
42.71877
 20
69.043323
 30
0.0
 11
42.706896
 21
69.278502
 31
0.0
  0
LINE
  5
323
100
AcDbEntity
  8
0
  6
Continuous
 62
   212
100
AcDbLine
 10
42.706896
 20
69.278502
 30
0.0
 11
42.71877
 21
69.513677
 31
0.0
  0
LINE
  5
324
100
AcDbEntity
  8
0
  6
Continuous
 62
   212
100
AcDbLine
 10
42.71877
 20
69.513677
 30
0.0
 11
42.753624
 21
69.74205
 31
0.0
  0
LINE
  5
325
100
AcDbEntity
  8
0
  6
Continuous
 62
   212
100
AcDbLine
 10
42.753624
 20
69.74205
 30
0.0
 11
42.810299
 21
69.962466
 31
0.0
  0
LINE
  5
326
100
AcDbEntity
  8
0
  6
Continuous
 62
   212
100
AcDbLine
 10
42.810299
 20
69.962466
 30
0.0
 11
42.887639
 21
70.173769
 31
0.0
  0
LINE
  5
327
100
AcDbEntity
  8
0
  6
Continuous
 62
   212
100
AcDbLine
 10
42.887639
 20
70.173769
 30
0.0
 11
42.984489
 21
70.374806
 31
0.0
  0
LINE
  5
328
100
AcDbEntity
  8
0
  6
Continuous
 62
   212
100
AcDbLine
 10
42.984489
 20
70.374806
 30
0.0
 11
43.09969
 21
70.56442
 31
0.0
  0
LINE
  5
329
100
AcDbEntity
  8
0
  6
Continuous
 62
   212
100
AcDbLine
 10
43.09969
 20
70.56442
 30
0.0
 11
43.232088
 21
70.741458
 31
0.0
  0
LINE
  5
32A
100
AcDbEntity
  8
0
  6
Continuous
 62
   212
100
AcDbLine
 10
43.232088
 20
70.741458
 30
0.0
 11
43.380525
 21
70.904763
 31
0.0
  0
LINE
  5
32B
100
AcDbEntity
  8
0
  6
Continuous
 62
   212
100
AcDbLine
 10
43.380525
 20
70.904763
 30
0.0
 11
43.543845
 21
71.053182
 31
0.0
  0
LINE
  5
32C
100
AcDbEntity
  8
0
  6
Continuous
 62
   212
100
AcDbLine
 10
43.543845
 20
71.053182
 30
0.0
 11
43.720891
 21
71.185559
 31
0.0
  0
LINE
  5
32D
100
AcDbEntity
  8
0
  6
Continuous
 62
   212
100
AcDbLine
 10
43.720891
 20
71.185559
 30
0.0
 11
43.910506
 21
71.300739
 31
0.0
  0
LINE
  5
32E
100
AcDbEntity
  8
0
  6
Continuous
 62
   212
100
AcDbLine
 10
43.910506
 20
71.300739
 30
0.0
 11
44.111536
 21
71.397566
 31
0.0
  0
LINE
  5
32F
100
AcDbEntity
  8
0
  6
Continuous
 62
   212
100
AcDbLine
 10
44.111536
 20
71.397566
 30
0.0
 11
44.322821
 21
71.474888
 31
0.0
  0
LINE
  5
330
100
AcDbEntity
  8
0
  6
Continuous
 62
   212
100
AcDbLine
 10
44.322821
 20
71.474888
 30
0.0
 11
44.543207
 21
71.531547
 31
0.0
  0
LINE
  5
331
100
AcDbEntity
  8
0
  6
Continuous
 62
   212
100
AcDbLine
 10
44.543207
 20
71.531547
 30
0.0
 11
44.771537
 21
71.566389
 31
0.0
  0
LINE
  5
332
100
AcDbEntity
  8
0
  6
Continuous
 62
   212
100
AcDbLine
 10
44.771537
 20
71.566389
 30
0.0
 11
45.006654
 21
71.57826
 31
0.0
  0
LINE
  5
333
100
AcDbEntity
  8
0
  6
Continuous
 62
   212
100
AcDbLine
 10
45.006654
 20
71.57826
 30
0.0
 11
45.241833
 21
71.566389
 31
0.0
  0
LINE
  5
334
100
AcDbEntity
  8
0
  6
Continuous
 62
   212
100
AcDbLine
 10
45.241833
 20
71.566389
 30
0.0
 11
45.470217
 21
71.531547
 31
0.0
  0
LINE
  5
335
100
AcDbEntity
  8
0
  6
Continuous
 62
   212
100
AcDbLine
 10
45.470217
 20
71.531547
 30
0.0
 11
45.69065
 21
71.474888
 31
0.0
  0
LINE
  5
336
100
AcDbEntity
  8
0
  6
Continuous
 62
   212
100
AcDbLine
 10
45.69065
 20
71.474888
 30
0.0
 11
45.901976
 21
71.397566
 31
0.0
  0
LINE
  5
337
100
AcDbEntity
  8
0
  6
Continuous
 62
   212
100
AcDbLine
 10
45.901976
 20
71.397566
 30
0.0
 11
46.10304
 21
71.300739
 31
0.0
  0
LINE
  5
338
100
AcDbEntity
  8
0
  6
Continuous
 62
   212
100
AcDbLine
 10
46.10304
 20
71.300739
 30
0.0
 11
46.292684
 21
71.185559
 31
0.0
  0
LINE
  5
339
100
AcDbEntity
  8
0
  6
Continuous
 62
   212
100
AcDbLine
 10
46.292684
 20
71.185559
 30
0.0
 11
46.469753
 21
71.053182
 31
0.0
  0
LINE
  5
33A
100
AcDbEntity
  8
0
  6
Continuous
 62
   212
100
AcDbLine
 10
46.469753
 20
71.053182
 30
0.0
 11
46.633092
 21
70.904763
 31
0.0
  0
LINE
  5
33B
100
AcDbEntity
  8
0
  6
Continuous
 62
   212
100
AcDbLine
 10
46.633092
 20
70.904763
 30
0.0
 11
46.781543
 21
70.741458
 31
0.0
  0
LINE
  5
33C
100
AcDbEntity
  8
0
  6
Continuous
 62
   212
100
AcDbLine
 10
46.781543
 20
70.741458
 30
0.0
 11
46.913952
 21
70.56442
 31
0.0
  0
LINE
  5
33D
100
AcDbEntity
  8
0
  6
Continuous
 62
   212
100
AcDbLine
 10
46.913952
 20
70.56442
 30
0.0
 11
47.029161
 21
70.374806
 31
0.0
  0
LINE
  5
33E
100
AcDbEntity
  8
0
  6
Continuous
 62
   212
100
AcDbLine
 10
47.029161
 20
70.374806
 30
0.0
 11
47.126016
 21
70.173769
 31
0.0
  0
LINE
  5
33F
100
AcDbEntity
  8
0
  6
Continuous
 62
   212
100
AcDbLine
 10
47.126016
 20
70.173769
 30
0.0
 11
47.20336
 21
69.962466
 31
0.0
  0
LINE
  5
340
100
AcDbEntity
  8
0
  6
Continuous
 62
   212
100
AcDbLine
 10
47.20336
 20
69.962466
 30
0.0
 11
47.260037
 21
69.74205
 31
0.0
  0
LINE
  5
341
100
AcDbEntity
  8
0
  6
Continuous
 62
   212
100
AcDbLine
 10
47.260037
 20
69.74205
 30
0.0
 11
47.29489
 21
69.513677
 31
0.0
  0
LINE
  5
342
100
AcDbEntity
  8
0
  6
Continuous
 62
   212
100
AcDbLine
 10
47.29489
 20
69.513677
 30
0.0
 11
47.306765
 21
69.278502
 31
0.0
  0
LINE
  5
343
100
AcDbEntity
  8
0
  6
Continuous
 62
   212
100
AcDbLine
 10
47.306765
 20
69.278502
 30
0.0
 11
47.29489
 21
69.043323
 31
0.0
  0
LINE
  5
344
100
AcDbEntity
  8
0
  6
Continuous
 62
   212
100
AcDbLine
 10
47.29489
 20
69.043323
 30
0.0
 11
47.260037
 21
68.814939
 31
0.0
  0
LINE
  5
345
100
AcDbEntity
  8
0
  6
Continuous
 62
   212
100
AcDbLine
 10
47.260037
 20
68.814939
 30
0.0
 11
47.20336
 21
68.594506
 31
0.0
  0
LINE
  5
346
100
AcDbEntity
  8
0
  6
Continuous
 62
   212
100
AcDbLine
 10
47.20336
 20
68.594506
 30
0.0
 11
47.126016
 21
68.38318
 31
0.0
  0
LINE
  5
347
100
AcDbEntity
  8
0
  6
Continuous
 62
   212
100
AcDbLine
 10
47.126016
 20
68.38318
 30
0.0
 11
47.029161
 21
68.182116
 31
0.0
  0
LINE
  5
348
100
AcDbEntity
  8
0
  6
Continuous
 62
   212
100
AcDbLine
 10
47.029161
 20
68.182116
 30
0.0
 11
46.913952
 21
67.992472
 31
0.0
  0
LINE
  5
349
100
AcDbEntity
  8
0
  6
Continuous
 62
   212
100
AcDbLine
 10
46.913952
 20
67.992472
 30
0.0
 11
46.781543
 21
67.815403
 31
0.0
  0
LINE
  5
34A
100
AcDbEntity
  8
0
  6
Continuous
 62
   212
100
AcDbLine
 10
46.781543
 20
67.815403
 30
0.0
 11
46.633092
 21
67.652064
 31
0.0
  0
LINE
  5
34B
100
AcDbEntity
  8
0
  6
Continuous
 62
   212
100
AcDbLine
 10
46.633092
 20
67.652064
 30
0.0
 11
46.469753
 21
67.503613
 31
0.0
  0
LINE
  5
34C
100
AcDbEntity
  8
0
  6
Continuous
 62
   212
100
AcDbLine
 10
46.469753
 20
67.503613
 30
0.0
 11
46.292684
 21
67.371204
 31
0.0
  0
LINE
  5
34D
100
AcDbEntity
  8
0
  6
Continuous
 62
   212
100
AcDbLine
 10
46.292684
 20
67.371204
 30
0.0
 11
46.10304
 21
67.255995
 31
0.0
  0
LINE
  5
34E
100
AcDbEntity
  8
0
  6
Continuous
 62
   212
100
AcDbLine
 10
46.10304
 20
67.255995
 30
0.0
 11
45.901976
 21
67.15914
 31
0.0
  0
LINE
  5
34F
100
AcDbEntity
  8
0
  6
Continuous
 62
   212
100
AcDbLine
 10
45.901976
 20
67.15914
 30
0.0
 11
45.69065
 21
67.081796
 31
0.0
  0
LINE
  5
350
100
AcDbEntity
  8
0
  6
Continuous
 62
   212
100
AcDbLine
 10
45.69065
 20
67.081796
 30
0.0
 11
45.470217
 21
67.025119
 31
0.0
  0
LINE
  5
351
100
AcDbEntity
  8
0
  6
Continuous
 62
   212
100
AcDbLine
 10
45.470217
 20
67.025119
 30
0.0
 11
45.241833
 21
66.990266
 31
0.0
  0
LINE
  5
352
100
AcDbEntity
  8
0
  6
Continuous
 62
   212
100
AcDbLine
 10
45.241833
 20
66.990266
 30
0.0
 11
45.006654
 21
66.978391
 31
0.0
  0
LINE
  5
353
100
AcDbEntity
  8
0
  6
Continuous
 62
   212
100
AcDbLine
 10
45.006654
 20
66.978391
 30
0.0
 11
44.771537
 21
66.990266
 31
0.0
  0
LINE
  5
354
100
AcDbEntity
  8
0
  6
Continuous
 62
   212
100
AcDbLine
 10
44.771537
 20
66.990266
 30
0.0
 11
44.543207
 21
67.025119
 31
0.0
  0
LINE
  5
355
100
AcDbEntity
  8
0
  6
Continuous
 62
   212
100
AcDbLine
 10
44.543207
 20
67.025119
 30
0.0
 11
44.322821
 21
67.081796
 31
0.0
  0
LINE
  5
356
100
AcDbEntity
  8
0
  6
Continuous
 62
   212
100
AcDbLine
 10
44.322821
 20
67.081796
 30
0.0
 11
44.111536
 21
67.15914
 31
0.0
  0
LINE
  5
357
100
AcDbEntity
  8
0
  6
Continuous
 62
   212
100
AcDbLine
 10
44.111536
 20
67.15914
 30
0.0
 11
43.910506
 21
67.255995
 31
0.0
  0
LINE
  5
358
100
AcDbEntity
  8
0
  6
Continuous
 62
   212
100
AcDbLine
 10
43.910506
 20
67.255995
 30
0.0
 11
43.720891
 21
67.371204
 31
0.0
  0
LINE
  5
359
100
AcDbEntity
  8
0
  6
Continuous
 62
   212
100
AcDbLine
 10
43.720891
 20
67.371204
 30
0.0
 11
43.543845
 21
67.503613
 31
0.0
  0
LINE
  5
35A
100
AcDbEntity
  8
0
  6
Continuous
 62
   212
100
AcDbLine
 10
43.543845
 20
67.503613
 30
0.0
 11
43.380525
 21
67.652064
 31
0.0
  0
LINE
  5
35B
100
AcDbEntity
  8
0
  6
Continuous
 62
   212
100
AcDbLine
 10
66.034858
 20
37.045337
 30
0.0
 11
65.962911
 21
37.141556
 31
0.0
  0
LINE
  5
35C
100
AcDbEntity
  8
0
  6
Continuous
 62
   212
100
AcDbLine
 10
65.962911
 20
37.141556
 30
0.0
 11
65.900309
 21
37.244609
 31
0.0
  0
LINE
  5
35D
100
AcDbEntity
  8
0
  6
Continuous
 62
   212
100
AcDbLine
 10
65.900309
 20
37.244609
 30
0.0
 11
65.847682
 21
37.35387
 31
0.0
  0
LINE
  5
35E
100
AcDbEntity
  8
0
  6
Continuous
 62
   212
100
AcDbLine
 10
65.847682
 20
37.35387
 30
0.0
 11
65.805657
 21
37.468709
 31
0.0
  0
ARC
  5
35F
100
AcDbEntity
  8
0
  6
Continuous
 62
   212
100
AcDbCircle
 10
6.0
 20
113.0
 30
0.0
 40
2.0
100
AcDbArc
 50
-180.0
 51
-90.0
  0
ARC
  5
360
100
AcDbEntity
  8
0
  6
Continuous
 62
   212
100
AcDbCircle
 10
6.0
 20
113.0
 30
0.0
 40
2.0
100
AcDbArc
 50
-90.0
 51
0.0
  0
LINE
  5
361
100
AcDbEntity
  8
0
  6
Continuous
 62
   212
100
AcDbLine
 10
36.545064
 20
64.108119
 30
0.0
 11
36.503039
 21
64.222958
 31
0.0
  0
LINE
  5
362
100
AcDbEntity
  8
0
  6
Continuous
 62
   212
100
AcDbLine
 10
36.503039
 20
64.222958
 30
0.0
 11
36.472244
 21
64.342749
 31
0.0
  0
LINE
  5
363
100
AcDbEntity
  8
0
  6
Continuous
 62
   212
100
AcDbLine
 10
36.472244
 20
64.342749
 30
0.0
 11
36.453306
 21
64.466862
 31
0.0
  0
LINE
  5
364
100
AcDbEntity
  8
0
  6
Continuous
 62
   212
100
AcDbLine
 10
66.403552
 20
36.741367
 30
0.0
 11
66.300498
 21
36.803968
 31
0.0
  0
LINE
  5
365
100
AcDbEntity
  8
0
  6
Continuous
 62
   212
100
AcDbLine
 10
66.300498
 20
36.803968
 30
0.0
 11
66.20428
 21
36.875916
 31
0.0
  0
LINE
  5
366
100
AcDbEntity
  8
0
  6
Continuous
 62
   212
100
AcDbLine
 10
65.805657
 20
37.468709
 30
0.0
 11
65.774862
 21
37.588499
 31
0.0
  0
LINE
  5
367
100
AcDbEntity
  8
0
  6
Continuous
 62
   212
100
AcDbLine
 10
65.774862
 20
37.588499
 30
0.0
 11
65.755925
 21
37.712613
 31
0.0
  0
LINE
  5
368
100
AcDbEntity
  8
0
  6
Continuous
 62
   212
100
AcDbLine
 10
65.755925
 20
37.712613
 30
0.0
 11
65.749472
 21
37.840422
 31
0.0
  0
LINE
  5
369
100
AcDbEntity
  8
0
  6
Continuous
 62
   212
100
AcDbLine
 10
65.749472
 20
37.840422
 30
0.0
 11
65.749472
 21
39.340433
 31
0.0
  0
LINE
  5
36A
100
AcDbEntity
  8
0
  6
Continuous
 62
   212
100
AcDbLine
 10
65.749472
 20
39.340433
 30
0.0
 11
65.755925
 21
39.468242
 31
0.0
  0
LINE
  5
36B
100
AcDbEntity
  8
0
  6
Continuous
 62
   212
100
AcDbLine
 10
65.755925
 20
39.468242
 30
0.0
 11
65.774862
 21
39.592356
 31
0.0
  0
LINE
  5
36C
100
AcDbEntity
  8
0
  6
Continuous
 62
   212
100
AcDbLine
 10
65.774862
 20
39.592356
 30
0.0
 11
65.805657
 21
39.712146
 31
0.0
  0
LINE
  5
36D
100
AcDbEntity
  8
0
  6
Continuous
 62
   212
100
AcDbLine
 10
65.805657
 20
39.712146
 30
0.0
 11
65.847682
 21
39.826985
 31
0.0
  0
LINE
  5
36E
100
AcDbEntity
  8
0
  6
Continuous
 62
   212
100
AcDbLine
 10
65.847682
 20
39.826985
 30
0.0
 11
65.900309
 21
39.936245
 31
0.0
  0
LINE
  5
36F
100
AcDbEntity
  8
0
  6
Continuous
 62
   212
100
AcDbLine
 10
65.900309
 20
39.936245
 30
0.0
 11
65.962911
 21
40.039299
 31
0.0
  0
LINE
  5
370
100
AcDbEntity
  8
0
  6
Continuous
 62
   212
100
AcDbLine
 10
65.962911
 20
40.039299
 30
0.0
 11
66.034858
 21
40.135518
 31
0.0
  0
LINE
  5
371
100
AcDbEntity
  8
0
  6
Continuous
 62
   212
100
AcDbLine
 10
66.034858
 20
40.135518
 30
0.0
 11
66.115523
 21
40.224274
 31
0.0
  0
LINE
  5
372
100
AcDbEntity
  8
0
  6
Continuous
 62
   212
100
AcDbLine
 10
66.115523
 20
40.224274
 30
0.0
 11
66.20428
 21
40.304939
 31
0.0
  0
LINE
  5
373
100
AcDbEntity
  8
0
  6
Continuous
 62
   212
100
AcDbLine
 10
66.20428
 20
40.304939
 30
0.0
 11
66.300498
 21
40.376887
 31
0.0
  0
LINE
  5
374
100
AcDbEntity
  8
0
  6
Continuous
 62
   212
100
AcDbLine
 10
66.300498
 20
40.376887
 30
0.0
 11
66.403552
 21
40.439488
 31
0.0
  0
LINE
  5
375
100
AcDbEntity
  8
0
  6
Continuous
 62
   212
100
AcDbLine
 10
66.403552
 20
40.439488
 30
0.0
 11
66.512812
 21
40.492115
 31
0.0
  0
LINE
  5
376
100
AcDbEntity
  8
0
  6
Continuous
 62
   212
100
AcDbLine
 10
66.512812
 20
40.492115
 30
0.0
 11
66.627651
 21
40.53414
 31
0.0
  0
LINE
  5
377
100
AcDbEntity
  8
0
  6
Continuous
 62
   212
100
AcDbLine
 10
66.627651
 20
40.53414
 30
0.0
 11
66.747442
 21
40.564935
 31
0.0
  0
LINE
  5
378
100
AcDbEntity
  8
0
  6
Continuous
 62
   212
100
AcDbLine
 10
66.747442
 20
40.564935
 30
0.0
 11
66.871555
 21
40.583873
 31
0.0
  0
LINE
  5
379
100
AcDbEntity
  8
0
  6
Continuous
 62
   212
100
AcDbLine
 10
66.871555
 20
40.583873
 30
0.0
 11
66.999364
 21
40.590325
 31
0.0
  0
LINE
  5
37A
100
AcDbEntity
  8
0
  6
Continuous
 62
   212
100
AcDbLine
 10
66.999364
 20
40.590325
 30
0.0
 11
79.499339
 21
40.590325
 31
0.0
  0
LINE
  5
37B
100
AcDbEntity
  8
0
  6
Continuous
 62
   212
100
AcDbLine
 10
79.499339
 20
40.590325
 30
0.0
 11
79.627148
 21
40.583873
 31
0.0
  0
LINE
  5
37C
100
AcDbEntity
  8
0
  6
Continuous
 62
   212
100
AcDbLine
 10
79.627148
 20
40.583873
 30
0.0
 11
79.751262
 21
40.564935
 31
0.0
  0
LINE
  5
37D
100
AcDbEntity
  8
0
  6
Continuous
 62
   212
100
AcDbLine
 10
79.751262
 20
40.564935
 30
0.0
 11
79.871052
 21
40.53414
 31
0.0
  0
LINE
  5
37E
100
AcDbEntity
  8
0
  6
Continuous
 62
   212
100
AcDbLine
 10
79.871052
 20
40.53414
 30
0.0
 11
79.985891
 21
40.492115
 31
0.0
  0
LINE
  5
37F
100
AcDbEntity
  8
0
  6
Continuous
 62
   212
100
AcDbLine
 10
79.985891
 20
40.492115
 30
0.0
 11
80.095152
 21
40.439488
 31
0.0
  0
LINE
  5
380
100
AcDbEntity
  8
0
  6
Continuous
 62
   212
100
AcDbLine
 10
80.095152
 20
40.439488
 30
0.0
 11
80.198205
 21
40.376887
 31
0.0
  0
LINE
  5
381
100
AcDbEntity
  8
0
  6
Continuous
 62
   212
100
AcDbLine
 10
80.198205
 20
40.376887
 30
0.0
 11
80.294424
 21
40.304939
 31
0.0
  0
LINE
  5
382
100
AcDbEntity
  8
0
  6
Continuous
 62
   212
100
AcDbLine
 10
80.294424
 20
40.304939
 30
0.0
 11
80.38318
 21
40.224274
 31
0.0
  0
LINE
  5
383
100
AcDbEntity
  8
0
  6
Continuous
 62
   212
100
AcDbLine
 10
80.38318
 20
40.224274
 30
0.0
 11
80.463845
 21
40.135518
 31
0.0
  0
LINE
  5
384
100
AcDbEntity
  8
0
  6
Continuous
 62
   212
100
AcDbLine
 10
80.463845
 20
40.135518
 30
0.0
 11
80.535793
 21
40.039299
 31
0.0
  0
LINE
  5
385
100
AcDbEntity
  8
0
  6
Continuous
 62
   212
100
AcDbLine
 10
80.535793
 20
40.039299
 30
0.0
 11
80.598394
 21
39.936245
 31
0.0
  0
LINE
  5
386
100
AcDbEntity
  8
0
  6
Continuous
 62
   212
100
AcDbLine
 10
80.598394
 20
39.936245
 30
0.0
 11
80.651021
 21
39.826985
 31
0.0
  0
LINE
  5
387
100
AcDbEntity
  8
0
  6
Continuous
 62
   212
100
AcDbLine
 10
80.651021
 20
39.826985
 30
0.0
 11
80.693046
 21
39.712146
 31
0.0
  0
LINE
  5
388
100
AcDbEntity
  8
0
  6
Continuous
 62
   212
100
AcDbLine
 10
80.693046
 20
39.712146
 30
0.0
 11
80.723841
 21
39.592356
 31
0.0
  0
LINE
  5
389
100
AcDbEntity
  8
0
  6
Continuous
 62
   212
100
AcDbLine
 10
80.723841
 20
39.592356
 30
0.0
 11
80.742779
 21
39.468242
 31
0.0
  0
LINE
  5
38A
100
AcDbEntity
  8
0
  6
Continuous
 62
   212
100
AcDbLine
 10
80.742779
 20
39.468242
 30
0.0
 11
80.749231
 21
39.340433
 31
0.0
  0
LINE
  5
38B
100
AcDbEntity
  8
0
  6
Continuous
 62
   212
100
AcDbLine
 10
80.749231
 20
39.340433
 30
0.0
 11
80.749231
 21
37.840422
 31
0.0
  0
LINE
  5
38C
100
AcDbEntity
  8
0
  6
Continuous
 62
   212
100
AcDbLine
 10
80.749231
 20
37.840422
 30
0.0
 11
80.742779
 21
37.712613
 31
0.0
  0
LINE
  5
38D
100
AcDbEntity
  8
0
  6
Continuous
 62
   212
100
AcDbLine
 10
80.742779
 20
37.712613
 30
0.0
 11
80.723841
 21
37.588499
 31
0.0
  0
LINE
  5
38E
100
AcDbEntity
  8
0
  6
Continuous
 62
   212
100
AcDbLine
 10
80.723841
 20
37.588499
 30
0.0
 11
80.693046
 21
37.468709
 31
0.0
  0
LINE
  5
38F
100
AcDbEntity
  8
0
  6
Continuous
 62
   212
100
AcDbLine
 10
80.693046
 20
37.468709
 30
0.0
 11
80.651021
 21
37.35387
 31
0.0
  0
LINE
  5
390
100
AcDbEntity
  8
0
  6
Continuous
 62
   212
100
AcDbLine
 10
80.651021
 20
37.35387
 30
0.0
 11
80.598394
 21
37.244609
 31
0.0
  0
LINE
  5
391
100
AcDbEntity
  8
0
  6
Continuous
 62
   212
100
AcDbLine
 10
80.598394
 20
37.244609
 30
0.0
 11
80.535793
 21
37.141556
 31
0.0
  0
LINE
  5
392
100
AcDbEntity
  8
0
  6
Continuous
 62
   212
100
AcDbLine
 10
80.535793
 20
37.141556
 30
0.0
 11
80.463845
 21
37.045337
 31
0.0
  0
LINE
  5
393
100
AcDbEntity
  8
0
  6
Continuous
 62
   212
100
AcDbLine
 10
80.463845
 20
37.045337
 30
0.0
 11
80.38318
 21
36.956581
 31
0.0
  0
LINE
  5
394
100
AcDbEntity
  8
0
  6
Continuous
 62
   212
100
AcDbLine
 10
80.38318
 20
36.956581
 30
0.0
 11
80.294424
 21
36.875916
 31
0.0
  0
LINE
  5
395
100
AcDbEntity
  8
0
  6
Continuous
 62
   212
100
AcDbLine
 10
80.294424
 20
36.875916
 30
0.0
 11
80.198205
 21
36.803968
 31
0.0
  0
LINE
  5
396
100
AcDbEntity
  8
0
  6
Continuous
 62
   212
100
AcDbLine
 10
80.198205
 20
36.803968
 30
0.0
 11
80.095152
 21
36.741367
 31
0.0
  0
LINE
  5
397
100
AcDbEntity
  8
0
  6
Continuous
 62
   212
100
AcDbLine
 10
80.095152
 20
36.741367
 30
0.0
 11
79.985891
 21
36.68874
 31
0.0
  0
LINE
  5
398
100
AcDbEntity
  8
0
  6
Continuous
 62
   212
100
AcDbLine
 10
79.985891
 20
36.68874
 30
0.0
 11
79.871052
 21
36.646715
 31
0.0
  0
LINE
  5
399
100
AcDbEntity
  8
0
  6
Continuous
 62
   212
100
AcDbLine
 10
79.871052
 20
36.646715
 30
0.0
 11
79.751262
 21
36.61592
 31
0.0
  0
LINE
  5
39A
100
AcDbEntity
  8
0
  6
Continuous
 62
   212
100
AcDbLine
 10
79.751262
 20
36.61592
 30
0.0
 11
79.627148
 21
36.596982
 31
0.0
  0
LINE
  5
39B
100
AcDbEntity
  8
0
  6
Continuous
 62
   212
100
AcDbLine
 10
79.627148
 20
36.596982
 30
0.0
 11
79.499339
 21
36.59053
 31
0.0
  0
LINE
  5
39C
100
AcDbEntity
  8
0
  6
Continuous
 62
   212
100
AcDbLine
 10
79.499339
 20
36.59053
 30
0.0
 11
66.999364
 21
36.59053
 31
0.0
  0
LINE
  5
39D
100
AcDbEntity
  8
0
  6
Continuous
 62
   212
100
AcDbLine
 10
66.999364
 20
36.59053
 30
0.0
 11
66.871555
 21
36.596982
 31
0.0
  0
LINE
  5
39E
100
AcDbEntity
  8
0
  6
Continuous
 62
   212
100
AcDbLine
 10
66.871555
 20
36.596982
 30
0.0
 11
66.747442
 21
36.61592
 31
0.0
  0
LINE
  5
39F
100
AcDbEntity
  8
0
  6
Continuous
 62
   212
100
AcDbLine
 10
66.747442
 20
36.61592
 30
0.0
 11
66.627651
 21
36.646715
 31
0.0
  0
LINE
  5
3A0
100
AcDbEntity
  8
0
  6
Continuous
 62
   212
100
AcDbLine
 10
66.627651
 20
36.646715
 30
0.0
 11
66.512812
 21
36.68874
 31
0.0
  0
LINE
  5
3A1
100
AcDbEntity
  8
0
  6
Continuous
 62
   212
100
AcDbLine
 10
66.512812
 20
36.68874
 30
0.0
 11
66.403552
 21
36.741367
 31
0.0
  0
LINE
  5
3A2
100
AcDbEntity
  8
0
  6
Continuous
 62
   212
100
AcDbLine
 10
45.883453
 20
52.456226
 30
0.0
 11
45.794664
 21
52.37556
 31
0.0
  0
LINE
  5
3A3
100
AcDbEntity
  8
0
  6
Continuous
 62
   212
100
AcDbLine
 10
45.794664
 20
52.37556
 30
0.0
 11
45.698414
 21
52.303613
 31
0.0
  0
LINE
  5
3A4
100
AcDbEntity
  8
0
  6
Continuous
 62
   212
100
AcDbLine
 10
45.698414
 20
52.303613
 30
0.0
 11
45.595331
 21
52.241012
 31
0.0
  0
LINE
  5
3A5
100
AcDbEntity
  8
0
  6
Continuous
 62
   212
100
AcDbLine
 10
45.595331
 20
52.241012
 30
0.0
 11
45.486044
 21
52.188385
 31
0.0
  0
LINE
  5
3A6
100
AcDbEntity
  8
0
  6
Continuous
 62
   212
100
AcDbLine
 10
36.732239
 20
63.799587
 30
0.0
 11
36.660292
 21
63.895806
 31
0.0
  0
LINE
  5
3A7
100
AcDbEntity
  8
0
  6
Continuous
 62
   212
100
AcDbLine
 10
36.660292
 20
63.895806
 30
0.0
 11
36.597691
 21
63.998859
 31
0.0
  0
LINE
  5
3A8
100
AcDbEntity
  8
0
  6
Continuous
 62
   212
100
AcDbLine
 10
36.597691
 20
63.998859
 30
0.0
 11
36.545064
 21
64.108119
 31
0.0
  0
LINE
  5
3A9
100
AcDbEntity
  8
0
  6
Continuous
 62
   212
100
AcDbLine
 10
36.453306
 20
64.466862
 30
0.0
 11
36.446854
 21
64.594671
 31
0.0
  0
LINE
  5
3AA
100
AcDbEntity
  8
0
  6
Continuous
 62
   212
100
AcDbLine
 10
36.446854
 20
64.594671
 30
0.0
 11
36.446854
 21
66.094683
 31
0.0
  0
LINE
  5
3AB
100
AcDbEntity
  8
0
  6
Continuous
 62
   212
100
AcDbLine
 10
36.446854
 20
66.094683
 30
0.0
 11
36.453306
 21
66.222492
 31
0.0
  0
LINE
  5
3AC
100
AcDbEntity
  8
0
  6
Continuous
 62
   212
100
AcDbLine
 10
36.453306
 20
66.222492
 30
0.0
 11
36.472244
 21
66.346605
 31
0.0
  0
LINE
  5
3AD
100
AcDbEntity
  8
0
  6
Continuous
 62
   212
100
AcDbLine
 10
36.472244
 20
66.346605
 30
0.0
 11
36.503039
 21
66.466396
 31
0.0
  0
LINE
  5
3AE
100
AcDbEntity
  8
0
  6
Continuous
 62
   212
100
AcDbLine
 10
36.503039
 20
66.466396
 30
0.0
 11
36.545064
 21
66.581235
 31
0.0
  0
LINE
  5
3AF
100
AcDbEntity
  8
0
  6
Continuous
 62
   212
100
AcDbLine
 10
36.545064
 20
66.581235
 30
0.0
 11
36.597691
 21
66.690495
 31
0.0
  0
LINE
  5
3B0
100
AcDbEntity
  8
0
  6
Continuous
 62
   212
100
AcDbLine
 10
36.597691
 20
66.690495
 30
0.0
 11
36.660292
 21
66.793548
 31
0.0
  0
LINE
  5
3B1
100
AcDbEntity
  8
0
  6
Continuous
 62
   212
100
AcDbLine
 10
36.660292
 20
66.793548
 30
0.0
 11
36.732239
 21
66.889767
 31
0.0
  0
LINE
  5
3B2
100
AcDbEntity
  8
0
  6
Continuous
 62
   212
100
AcDbLine
 10
36.732239
 20
66.889767
 30
0.0
 11
36.812905
 21
66.978523
 31
0.0
  0
LINE
  5
3B3
100
AcDbEntity
  8
0
  6
Continuous
 62
   212
100
AcDbLine
 10
36.812905
 20
66.978523
 30
0.0
 11
36.901661
 21
67.059189
 31
0.0
  0
LINE
  5
3B4
100
AcDbEntity
  8
0
  6
Continuous
 62
   212
100
AcDbLine
 10
36.901661
 20
67.059189
 30
0.0
 11
36.99788
 21
67.131136
 31
0.0
  0
LINE
  5
3B5
100
AcDbEntity
  8
0
  6
Continuous
 62
   212
100
AcDbLine
 10
36.99788
 20
67.131136
 30
0.0
 11
37.100933
 21
67.193737
 31
0.0
  0
LINE
  5
3B6
100
AcDbEntity
  8
0
  6
Continuous
 62
   212
100
AcDbLine
 10
37.100933
 20
67.193737
 30
0.0
 11
37.210193
 21
67.246364
 31
0.0
  0
LINE
  5
3B7
100
AcDbEntity
  8
0
  6
Continuous
 62
   212
100
AcDbLine
 10
37.210193
 20
67.246364
 30
0.0
 11
37.325033
 21
67.288389
 31
0.0
  0
LINE
  5
3B8
100
AcDbEntity
  8
0
  6
Continuous
 62
   212
100
AcDbLine
 10
37.325033
 20
67.288389
 30
0.0
 11
37.444823
 21
67.319185
 31
0.0
  0
LINE
  5
3B9
100
AcDbEntity
  8
0
  6
Continuous
 62
   212
100
AcDbLine
 10
37.444823
 20
67.319185
 30
0.0
 11
37.568937
 21
67.338122
 31
0.0
  0
LINE
  5
3BA
100
AcDbEntity
  8
0
  6
Continuous
 62
   212
100
AcDbLine
 10
37.568937
 20
67.338122
 30
0.0
 11
37.696746
 21
67.344574
 31
0.0
  0
LINE
  5
3BB
100
AcDbEntity
  8
0
  6
Continuous
 62
   212
100
AcDbLine
 10
37.696746
 20
67.344574
 30
0.0
 11
42.196779
 21
67.344574
 31
0.0
  0
LINE
  5
3BC
100
AcDbEntity
  8
0
  6
Continuous
 62
   212
100
AcDbLine
 10
42.196779
 20
67.344574
 30
0.0
 11
42.324588
 21
67.338122
 31
0.0
  0
LINE
  5
3BD
100
AcDbEntity
  8
0
  6
Continuous
 62
   212
100
AcDbLine
 10
42.324588
 20
67.338122
 30
0.0
 11
42.448702
 21
67.319185
 31
0.0
  0
LINE
  5
3BE
100
AcDbEntity
  8
0
  6
Continuous
 62
   212
100
AcDbLine
 10
42.448702
 20
67.319185
 30
0.0
 11
42.568492
 21
67.288389
 31
0.0
  0
LINE
  5
3BF
100
AcDbEntity
  8
0
  6
Continuous
 62
   212
100
AcDbLine
 10
42.568492
 20
67.288389
 30
0.0
 11
42.683331
 21
67.246364
 31
0.0
  0
LINE
  5
3C0
100
AcDbEntity
  8
0
  6
Continuous
 62
   212
100
AcDbLine
 10
42.683331
 20
67.246364
 30
0.0
 11
42.792591
 21
67.193737
 31
0.0
  0
LINE
  5
3C1
100
AcDbEntity
  8
0
  6
Continuous
 62
   212
100
AcDbLine
 10
42.792591
 20
67.193737
 30
0.0
 11
42.895645
 21
67.131136
 31
0.0
  0
LINE
  5
3C2
100
AcDbEntity
  8
0
  6
Continuous
 62
   212
100
AcDbLine
 10
42.895645
 20
67.131136
 30
0.0
 11
42.991864
 21
67.059189
 31
0.0
  0
LINE
  5
3C3
100
AcDbEntity
  8
0
  6
Continuous
 62
   212
100
AcDbLine
 10
42.991864
 20
67.059189
 30
0.0
 11
43.08062
 21
66.978523
 31
0.0
  0
LINE
  5
3C4
100
AcDbEntity
  8
0
  6
Continuous
 62
   212
100
AcDbLine
 10
43.08062
 20
66.978523
 30
0.0
 11
43.161285
 21
66.889767
 31
0.0
  0
LINE
  5
3C5
100
AcDbEntity
  8
0
  6
Continuous
 62
   212
100
AcDbLine
 10
43.161285
 20
66.889767
 30
0.0
 11
43.233233
 21
66.793548
 31
0.0
  0
LINE
  5
3C6
100
AcDbEntity
  8
0
  6
Continuous
 62
   212
100
AcDbLine
 10
43.233233
 20
66.793548
 30
0.0
 11
43.295834
 21
66.690495
 31
0.0
  0
LINE
  5
3C7
100
AcDbEntity
  8
0
  6
Continuous
 62
   212
100
AcDbLine
 10
43.295834
 20
66.690495
 30
0.0
 11
43.348461
 21
66.581235
 31
0.0
  0
LINE
  5
3C8
100
AcDbEntity
  8
0
  6
Continuous
 62
   212
100
AcDbLine
 10
43.348461
 20
66.581235
 30
0.0
 11
43.390486
 21
66.466396
 31
0.0
  0
LINE
  5
3C9
100
AcDbEntity
  8
0
  6
Continuous
 62
   212
100
AcDbLine
 10
43.390486
 20
66.466396
 30
0.0
 11
43.421281
 21
66.346605
 31
0.0
  0
LINE
  5
3CA
100
AcDbEntity
  8
0
  6
Continuous
 62
   212
100
AcDbLine
 10
43.421281
 20
66.346605
 30
0.0
 11
43.440219
 21
66.222492
 31
0.0
  0
LINE
  5
3CB
100
AcDbEntity
  8
0
  6
Continuous
 62
   212
100
AcDbLine
 10
43.440219
 20
66.222492
 30
0.0
 11
43.446671
 21
66.094683
 31
0.0
  0
LINE
  5
3CC
100
AcDbEntity
  8
0
  6
Continuous
 62
   212
100
AcDbLine
 10
43.446671
 20
66.094683
 30
0.0
 11
43.446671
 21
64.594671
 31
0.0
  0
LINE
  5
3CD
100
AcDbEntity
  8
0
  6
Continuous
 62
   212
100
AcDbLine
 10
43.446671
 20
64.594671
 30
0.0
 11
43.440219
 21
64.466862
 31
0.0
  0
LINE
  5
3CE
100
AcDbEntity
  8
0
  6
Continuous
 62
   212
100
AcDbLine
 10
43.440219
 20
64.466862
 30
0.0
 11
43.421281
 21
64.342749
 31
0.0
  0
LINE
  5
3CF
100
AcDbEntity
  8
0
  6
Continuous
 62
   212
100
AcDbLine
 10
43.421281
 20
64.342749
 30
0.0
 11
43.390486
 21
64.222958
 31
0.0
  0
LINE
  5
3D0
100
AcDbEntity
  8
0
  6
Continuous
 62
   212
100
AcDbLine
 10
43.390486
 20
64.222958
 30
0.0
 11
43.348461
 21
64.108119
 31
0.0
  0
LINE
  5
3D1
100
AcDbEntity
  8
0
  6
Continuous
 62
   212
100
AcDbLine
 10
43.348461
 20
64.108119
 30
0.0
 11
43.295834
 21
63.998859
 31
0.0
  0
LINE
  5
3D2
100
AcDbEntity
  8
0
  6
Continuous
 62
   212
100
AcDbLine
 10
43.295834
 20
63.998859
 30
0.0
 11
43.233233
 21
63.895806
 31
0.0
  0
LINE
  5
3D3
100
AcDbEntity
  8
0
  6
Continuous
 62
   212
100
AcDbLine
 10
43.233233
 20
63.895806
 30
0.0
 11
43.161285
 21
63.799587
 31
0.0
  0
LINE
  5
3D4
100
AcDbEntity
  8
0
  6
Continuous
 62
   212
100
AcDbLine
 10
43.161285
 20
63.799587
 30
0.0
 11
43.08062
 21
63.710831
 31
0.0
  0
LINE
  5
3D5
100
AcDbEntity
  8
0
  6
Continuous
 62
   212
100
AcDbLine
 10
43.08062
 20
63.710831
 30
0.0
 11
42.991864
 21
63.630165
 31
0.0
  0
LINE
  5
3D6
100
AcDbEntity
  8
0
  6
Continuous
 62
   212
100
AcDbLine
 10
42.991864
 20
63.630165
 30
0.0
 11
42.895645
 21
63.558218
 31
0.0
  0
LINE
  5
3D7
100
AcDbEntity
  8
0
  6
Continuous
 62
   212
100
AcDbLine
 10
42.895645
 20
63.558218
 30
0.0
 11
42.792591
 21
63.495617
 31
0.0
  0
LINE
  5
3D8
100
AcDbEntity
  8
0
  6
Continuous
 62
   212
100
AcDbLine
 10
42.792591
 20
63.495617
 30
0.0
 11
42.683331
 21
63.44299
 31
0.0
  0
LINE
  5
3D9
100
AcDbEntity
  8
0
  6
Continuous
 62
   212
100
AcDbLine
 10
42.683331
 20
63.44299
 30
0.0
 11
42.568492
 21
63.400965
 31
0.0
  0
LINE
  5
3DA
100
AcDbEntity
  8
0
  6
Continuous
 62
   212
100
AcDbLine
 10
42.568492
 20
63.400965
 30
0.0
 11
42.448702
 21
63.370169
 31
0.0
  0
LINE
  5
3DB
100
AcDbEntity
  8
0
  6
Continuous
 62
   212
100
AcDbLine
 10
42.448702
 20
63.370169
 30
0.0
 11
42.324588
 21
63.351232
 31
0.0
  0
LINE
  5
3DC
100
AcDbEntity
  8
0
  6
Continuous
 62
   212
100
AcDbLine
 10
42.324588
 20
63.351232
 30
0.0
 11
42.196779
 21
63.34478
 31
0.0
  0
LINE
  5
3DD
100
AcDbEntity
  8
0
  6
Continuous
 62
   212
100
AcDbLine
 10
42.196779
 20
63.34478
 30
0.0
 11
37.696746
 21
63.34478
 31
0.0
  0
LINE
  5
3DE
100
AcDbEntity
  8
0
  6
Continuous
 62
   212
100
AcDbLine
 10
37.696746
 20
63.34478
 30
0.0
 11
37.568937
 21
63.351232
 31
0.0
  0
LINE
  5
3DF
100
AcDbEntity
  8
0
  6
Continuous
 62
   212
100
AcDbLine
 10
37.568937
 20
63.351232
 30
0.0
 11
37.444823
 21
63.370169
 31
0.0
  0
LINE
  5
3E0
100
AcDbEntity
  8
0
  6
Continuous
 62
   212
100
AcDbLine
 10
37.444823
 20
63.370169
 30
0.0
 11
37.325033
 21
63.400965
 31
0.0
  0
LINE
  5
3E1
100
AcDbEntity
  8
0
  6
Continuous
 62
   212
100
AcDbLine
 10
37.325033
 20
63.400965
 30
0.0
 11
37.210193
 21
63.44299
 31
0.0
  0
LINE
  5
3E2
100
AcDbEntity
  8
0
  6
Continuous
 62
   212
100
AcDbLine
 10
37.210193
 20
63.44299
 30
0.0
 11
37.100933
 21
63.495617
 31
0.0
  0
LINE
  5
3E3
100
AcDbEntity
  8
0
  6
Continuous
 62
   212
100
AcDbLine
 10
37.100933
 20
63.495617
 30
0.0
 11
36.99788
 21
63.558218
 31
0.0
  0
LINE
  5
3E4
100
AcDbEntity
  8
0
  6
Continuous
 62
   212
100
AcDbLine
 10
36.99788
 20
63.558218
 30
0.0
 11
36.901661
 21
63.630165
 31
0.0
  0
LINE
  5
3E5
100
AcDbEntity
  8
0
  6
Continuous
 62
   212
100
AcDbLine
 10
36.901661
 20
63.630165
 30
0.0
 11
36.812905
 21
63.710831
 31
0.0
  0
LINE
  5
3E6
100
AcDbEntity
  8
0
  6
Continuous
 62
   212
100
AcDbLine
 10
36.812905
 20
63.710831
 30
0.0
 11
36.732239
 21
63.799587
 31
0.0
  0
LINE
  5
3E7
100
AcDbEntity
  8
0
  6
Continuous
 62
   212
100
AcDbLine
 10
5.62718
 20
103.0
 30
0.0
 11
215.248279
 21
103.0
 31
0.0
  0
LINE
  5
3E8
100
AcDbEntity
  8
0
  6
Continuous
 62
   212
100
AcDbLine
 10
215.248279
 20
103.0
 30
0.0
 11
216.757359
 21
103.0
 31
0.0
  0
ARC
  5
3E9
100
AcDbEntity
  8
0
  6
Continuous
 62
   212
100
AcDbCircle
 10
216.757359
 20
113.242641
 30
0.0
 40
10.242641
100
AcDbArc
 50
-90.0
 51
0.0
  0
LINE
  5
3EA
100
AcDbEntity
  8
0
  6
Continuous
 62
   212
100
AcDbLine
 10
46.036131
 20
52.6412
 30
0.0
 11
45.964152
 21
52.544982
 31
0.0
  0
LINE
  5
3EB
100
AcDbEntity
  8
0
  6
Continuous
 62
   212
100
AcDbLine
 10
45.964152
 20
52.544982
 30
0.0
 11
45.883453
 21
52.456226
 31
0.0
  0
LINE
  5
3EC
100
AcDbEntity
  8
0
  6
Continuous
 62
   212
100
AcDbLine
 10
45.486044
 20
52.188385
 30
0.0
 11
45.371182
 21
52.14636
 31
0.0
  0
LINE
  5
3ED
100
AcDbEntity
  8
0
  6
Continuous
 62
   212
100
AcDbLine
 10
45.371182
 20
52.14636
 30
0.0
 11
45.251374
 21
52.115564
 31
0.0
  0
LINE
  5
3EE
100
AcDbEntity
  8
0
  6
Continuous
 62
   212
100
AcDbLine
 10
45.251374
 20
52.115564
 30
0.0
 11
45.127249
 21
52.096627
 31
0.0
  0
LINE
  5
3EF
100
AcDbEntity
  8
0
  6
Continuous
 62
   212
100
AcDbLine
 10
45.127249
 20
52.096627
 30
0.0
 11
44.999436
 21
52.090175
 31
0.0
  0
LINE
  5
3F0
100
AcDbEntity
  8
0
  6
Continuous
 62
   212
100
AcDbLine
 10
44.999436
 20
52.090175
 30
0.0
 11
37.499734
 21
52.090175
 31
0.0
  0
LINE
  5
3F1
100
AcDbEntity
  8
0
  6
Continuous
 62
   212
100
AcDbLine
 10
37.499734
 20
52.090175
 30
0.0
 11
37.371921
 21
52.096627
 31
0.0
  0
LINE
  5
3F2
100
AcDbEntity
  8
0
  6
Continuous
 62
   212
100
AcDbLine
 10
37.371921
 20
52.096627
 30
0.0
 11
37.247796
 21
52.115564
 31
0.0
  0
LINE
  5
3F3
100
AcDbEntity
  8
0
  6
Continuous
 62
   212
100
AcDbLine
 10
37.247796
 20
52.115564
 30
0.0
 11
37.127988
 21
52.14636
 31
0.0
  0
LINE
  5
3F4
100
AcDbEntity
  8
0
  6
Continuous
 62
   212
100
AcDbLine
 10
37.127988
 20
52.14636
 30
0.0
 11
37.013126
 21
52.188385
 31
0.0
  0
LINE
  5
3F5
100
AcDbEntity
  8
0
  6
Continuous
 62
   212
100
AcDbLine
 10
37.013126
 20
52.188385
 30
0.0
 11
36.903839
 21
52.241012
 31
0.0
  0
LINE
  5
3F6
100
AcDbEntity
  8
0
  6
Continuous
 62
   212
100
AcDbLine
 10
36.903839
 20
52.241012
 30
0.0
 11
36.800756
 21
52.303613
 31
0.0
  0
LINE
  5
3F7
100
AcDbEntity
  8
0
  6
Continuous
 62
   212
100
AcDbLine
 10
36.800756
 20
52.303613
 30
0.0
 11
36.704506
 21
52.37556
 31
0.0
  0
LINE
  5
3F8
100
AcDbEntity
  8
0
  6
Continuous
 62
   212
100
AcDbLine
 10
36.704506
 20
52.37556
 30
0.0
 11
36.615717
 21
52.456226
 31
0.0
  0
LINE
  5
3F9
100
AcDbEntity
  8
0
  6
Continuous
 62
   212
100
AcDbLine
 10
36.615717
 20
52.456226
 30
0.0
 11
36.535018
 21
52.544982
 31
0.0
  0
LINE
  5
3FA
100
AcDbEntity
  8
0
  6
Continuous
 62
   212
100
AcDbLine
 10
36.535018
 20
52.544982
 30
0.0
 11
36.463039
 21
52.6412
 31
0.0
  0
LINE
  5
3FB
100
AcDbEntity
  8
0
  6
Continuous
 62
   212
100
AcDbLine
 10
36.463039
 20
52.6412
 30
0.0
 11
36.400408
 21
52.744254
 31
0.0
  0
LINE
  5
3FC
100
AcDbEntity
  8
0
  6
Continuous
 62
   212
100
AcDbLine
 10
36.400408
 20
52.744254
 30
0.0
 11
36.347754
 21
52.853514
 31
0.0
  0
LINE
  5
3FD
100
AcDbEntity
  8
0
  6
Continuous
 62
   212
100
AcDbLine
 10
36.347754
 20
52.853514
 30
0.0
 11
36.305707
 21
52.968353
 31
0.0
  0
LINE
  5
3FE
100
AcDbEntity
  8
0
  6
Continuous
 62
   212
100
AcDbLine
 10
36.305707
 20
52.968353
 30
0.0
 11
36.274894
 21
53.088144
 31
0.0
  0
LINE
  5
3FF
100
AcDbEntity
  8
0
  6
Continuous
 62
   212
100
AcDbLine
 10
36.274894
 20
53.088144
 30
0.0
 11
36.255945
 21
53.212257
 31
0.0
  0
LINE
  5
400
100
AcDbEntity
  8
0
  6
Continuous
 62
   212
100
AcDbLine
 10
36.255945
 20
53.212257
 30
0.0
 11
36.249489
 21
53.340066
 31
0.0
  0
LINE
  5
401
100
AcDbEntity
  8
0
  6
Continuous
 62
   212
100
AcDbLine
 10
36.249489
 20
53.340066
 30
0.0
 11
36.249489
 21
54.840077
 31
0.0
  0
LINE
  5
402
100
AcDbEntity
  8
0
  6
Continuous
 62
   212
100
AcDbLine
 10
36.249489
 20
54.840077
 30
0.0
 11
36.255945
 21
54.967886
 31
0.0
  0
LINE
  5
403
100
AcDbEntity
  8
0
  6
Continuous
 62
   212
100
AcDbLine
 10
36.255945
 20
54.967886
 30
0.0
 11
36.274894
 21
55.092
 31
0.0
  0
LINE
  5
404
100
AcDbEntity
  8
0
  6
Continuous
 62
   212
100
AcDbLine
 10
36.274894
 20
55.092
 30
0.0
 11
36.305707
 21
55.21179
 31
0.0
  0
LINE
  5
405
100
AcDbEntity
  8
0
  6
Continuous
 62
   212
100
AcDbLine
 10
36.305707
 20
55.21179
 30
0.0
 11
36.347754
 21
55.32663
 31
0.0
  0
LINE
  5
406
100
AcDbEntity
  8
0
  6
Continuous
 62
   212
100
AcDbLine
 10
36.347754
 20
55.32663
 30
0.0
 11
36.400408
 21
55.43589
 31
0.0
  0
LINE
  5
407
100
AcDbEntity
  8
0
  6
Continuous
 62
   212
100
AcDbLine
 10
36.400408
 20
55.43589
 30
0.0
 11
36.463039
 21
55.538943
 31
0.0
  0
LINE
  5
408
100
AcDbEntity
  8
0
  6
Continuous
 62
   212
100
AcDbLine
 10
36.463039
 20
55.538943
 30
0.0
 11
36.535018
 21
55.635162
 31
0.0
  0
LINE
  5
409
100
AcDbEntity
  8
0
  6
Continuous
 62
   212
100
AcDbLine
 10
36.535018
 20
55.635162
 30
0.0
 11
36.615717
 21
55.723918
 31
0.0
  0
LINE
  5
40A
100
AcDbEntity
  8
0
  6
Continuous
 62
   212
100
AcDbLine
 10
36.615717
 20
55.723918
 30
0.0
 11
36.704506
 21
55.804584
 31
0.0
  0
LINE
  5
40B
100
AcDbEntity
  8
0
  6
Continuous
 62
   212
100
AcDbLine
 10
36.704506
 20
55.804584
 30
0.0
 11
36.800756
 21
55.876531
 31
0.0
  0
LINE
  5
40C
100
AcDbEntity
  8
0
  6
Continuous
 62
   212
100
AcDbLine
 10
36.800756
 20
55.876531
 30
0.0
 11
36.903839
 21
55.939132
 31
0.0
  0
LINE
  5
40D
100
AcDbEntity
  8
0
  6
Continuous
 62
   212
100
AcDbLine
 10
36.903839
 20
55.939132
 30
0.0
 11
37.013126
 21
55.991759
 31
0.0
  0
LINE
  5
40E
100
AcDbEntity
  8
0
  6
Continuous
 62
   212
100
AcDbLine
 10
37.013126
 20
55.991759
 30
0.0
 11
37.127988
 21
56.033784
 31
0.0
  0
LINE
  5
40F
100
AcDbEntity
  8
0
  6
Continuous
 62
   212
100
AcDbLine
 10
37.127988
 20
56.033784
 30
0.0
 11
37.247796
 21
56.064579
 31
0.0
  0
LINE
  5
410
100
AcDbEntity
  8
0
  6
Continuous
 62
   212
100
AcDbLine
 10
37.247796
 20
56.064579
 30
0.0
 11
37.371921
 21
56.083517
 31
0.0
  0
LINE
  5
411
100
AcDbEntity
  8
0
  6
Continuous
 62
   212
100
AcDbLine
 10
37.371921
 20
56.083517
 30
0.0
 11
37.499734
 21
56.089969
 31
0.0
  0
LINE
  5
412
100
AcDbEntity
  8
0
  6
Continuous
 62
   212
100
AcDbLine
 10
37.499734
 20
56.089969
 30
0.0
 11
44.999436
 21
56.089969
 31
0.0
  0
LINE
  5
413
100
AcDbEntity
  8
0
  6
Continuous
 62
   212
100
AcDbLine
 10
44.999436
 20
56.089969
 30
0.0
 11
45.127249
 21
56.083517
 31
0.0
  0
LINE
  5
414
100
AcDbEntity
  8
0
  6
Continuous
 62
   212
100
AcDbLine
 10
45.127249
 20
56.083517
 30
0.0
 11
45.251374
 21
56.064579
 31
0.0
  0
LINE
  5
415
100
AcDbEntity
  8
0
  6
Continuous
 62
   212
100
AcDbLine
 10
45.251374
 20
56.064579
 30
0.0
 11
45.371182
 21
56.033784
 31
0.0
  0
LINE
  5
416
100
AcDbEntity
  8
0
  6
Continuous
 62
   212
100
AcDbLine
 10
45.371182
 20
56.033784
 30
0.0
 11
45.486044
 21
55.991759
 31
0.0
  0
LINE
  5
417
100
AcDbEntity
  8
0
  6
Continuous
 62
   212
100
AcDbLine
 10
45.486044
 20
55.991759
 30
0.0
 11
45.595331
 21
55.939132
 31
0.0
  0
LINE
  5
418
100
AcDbEntity
  8
0
  6
Continuous
 62
   212
100
AcDbLine
 10
45.595331
 20
55.939132
 30
0.0
 11
45.698414
 21
55.876531
 31
0.0
  0
LINE
  5
419
100
AcDbEntity
  8
0
  6
Continuous
 62
   212
100
AcDbLine
 10
45.698414
 20
55.876531
 30
0.0
 11
45.794664
 21
55.804584
 31
0.0
  0
LINE
  5
41A
100
AcDbEntity
  8
0
  6
Continuous
 62
   212
100
AcDbLine
 10
45.794664
 20
55.804584
 30
0.0
 11
45.883453
 21
55.723918
 31
0.0
  0
LINE
  5
41B
100
AcDbEntity
  8
0
  6
Continuous
 62
   212
100
AcDbLine
 10
45.883453
 20
55.723918
 30
0.0
 11
45.964152
 21
55.635162
 31
0.0
  0
LINE
  5
41C
100
AcDbEntity
  8
0
  6
Continuous
 62
   212
100
AcDbLine
 10
45.964152
 20
55.635162
 30
0.0
 11
46.036131
 21
55.538943
 31
0.0
  0
LINE
  5
41D
100
AcDbEntity
  8
0
  6
Continuous
 62
   212
100
AcDbLine
 10
46.036131
 20
55.538943
 30
0.0
 11
46.098762
 21
55.43589
 31
0.0
  0
LINE
  5
41E
100
AcDbEntity
  8
0
  6
Continuous
 62
   212
100
AcDbLine
 10
46.098762
 20
55.43589
 30
0.0
 11
46.151416
 21
55.32663
 31
0.0
  0
LINE
  5
41F
100
AcDbEntity
  8
0
  6
Continuous
 62
   212
100
AcDbLine
 10
46.151416
 20
55.32663
 30
0.0
 11
46.193463
 21
55.21179
 31
0.0
  0
LINE
  5
420
100
AcDbEntity
  8
0
  6
Continuous
 62
   212
100
AcDbLine
 10
46.193463
 20
55.21179
 30
0.0
 11
46.224276
 21
55.092
 31
0.0
  0
LINE
  5
421
100
AcDbEntity
  8
0
  6
Continuous
 62
   212
100
AcDbLine
 10
46.224276
 20
55.092
 30
0.0
 11
46.243225
 21
54.967886
 31
0.0
  0
LINE
  5
422
100
AcDbEntity
  8
0
  6
Continuous
 62
   212
100
AcDbLine
 10
46.243225
 20
54.967886
 30
0.0
 11
46.249681
 21
54.840077
 31
0.0
  0
LINE
  5
423
100
AcDbEntity
  8
0
  6
Continuous
 62
   212
100
AcDbLine
 10
46.249681
 20
54.840077
 30
0.0
 11
46.249681
 21
53.340066
 31
0.0
  0
LINE
  5
424
100
AcDbEntity
  8
0
  6
Continuous
 62
   212
100
AcDbLine
 10
46.249681
 20
53.340066
 30
0.0
 11
46.243225
 21
53.212257
 31
0.0
  0
LINE
  5
425
100
AcDbEntity
  8
0
  6
Continuous
 62
   212
100
AcDbLine
 10
46.243225
 20
53.212257
 30
0.0
 11
46.224276
 21
53.088144
 31
0.0
  0
LINE
  5
426
100
AcDbEntity
  8
0
  6
Continuous
 62
   212
100
AcDbLine
 10
46.224276
 20
53.088144
 30
0.0
 11
46.193463
 21
52.968353
 31
0.0
  0
LINE
  5
427
100
AcDbEntity
  8
0
  6
Continuous
 62
   212
100
AcDbLine
 10
46.193463
 20
52.968353
 30
0.0
 11
46.151416
 21
52.853514
 31
0.0
  0
LINE
  5
428
100
AcDbEntity
  8
0
  6
Continuous
 62
   212
100
AcDbLine
 10
46.151416
 20
52.853514
 30
0.0
 11
46.098762
 21
52.744254
 31
0.0
  0
LINE
  5
429
100
AcDbEntity
  8
0
  6
Continuous
 62
   212
100
AcDbLine
 10
46.098762
 20
52.744254
 30
0.0
 11
46.036131
 21
52.6412
 31
0.0
  0
ARC
  5
42A
100
AcDbEntity
  8
0
  6
Continuous
 62
   212
100
AcDbCircle
 10
6.0
 20
88.0
 30
0.0
 40
2.0
100
AcDbArc
 50
-270.0
 51
-180.0
  0
ARC
  5
42B
100
AcDbEntity
  8
0
  6
Continuous
 62
   212
100
AcDbCircle
 10
6.0
 20
88.0
 30
0.0
 40
2.0
100
AcDbArc
 50
-180.0
 51
-90.0
  0
LINE
  5
42C
100
AcDbEntity
  8
0
  6
Continuous
 62
   212
100
AcDbLine
 10
49.300843
 20
36.803968
 30
0.0
 11
49.403896
 21
36.741367
 31
0.0
  0
LINE
  5
42D
100
AcDbEntity
  8
0
  6
Continuous
 62
   212
100
AcDbLine
 10
49.403896
 20
36.741367
 30
0.0
 11
49.513156
 21
36.68874
 31
0.0
  0
ARC
  5
42E
100
AcDbEntity
  8
0
  6
Continuous
 62
   212
100
AcDbCircle
 10
4.1181
 20
113.242641
 30
0.0
 40
10.242641
100
AcDbArc
 50
-180.0
 51
-90.0
  0
LINE
  5
42F
100
AcDbEntity
  8
0
  6
Continuous
 62
   212
100
AcDbLine
 10
4.1181
 20
103.0
 30
0.0
 11
5.62718
 21
103.0
 31
0.0
  0
LINE
  5
430
100
AcDbEntity
  8
0
  6
Continuous
 62
   212
100
AcDbLine
 10
227.0
 20
113.242641
 30
0.0
 11
227.0
 21
114.751721
 31
0.0
  0
LINE
  5
431
100
AcDbEntity
  8
0
  6
Continuous
 62
   212
100
AcDbLine
 10
227.0
 20
114.751721
 30
0.0
 11
227.0
 21
197.248279
 31
0.0
  0
LINE
  5
432
100
AcDbEntity
  8
0
  6
Continuous
 62
   212
100
AcDbLine
 10
227.0
 20
197.248279
 30
0.0
 11
227.0
 21
198.757359
 31
0.0
  0
ARC
  5
433
100
AcDbEntity
  8
0
  6
Continuous
 62
   212
100
AcDbCircle
 10
216.757359
 20
198.757359
 30
0.0
 40
10.242641
100
AcDbArc
 50
0.0
 51
90.0
  0
LINE
  5
434
100
AcDbEntity
  8
0
  6
Continuous
 62
   212
100
AcDbLine
 10
216.757359
 20
209.0
 30
0.0
 11
215.248279
 21
209.0
 31
0.0
  0
LINE
  5
435
100
AcDbEntity
  8
0
  6
Continuous
 62
   212
100
AcDbLine
 10
215.248279
 20
209.0
 30
0.0
 11
5.62718
 21
209.0
 31
0.0
  0
LINE
  5
436
100
AcDbEntity
  8
0
  6
Continuous
 62
   212
100
AcDbLine
 10
5.62718
 20
209.0
 30
0.0
 11
4.1181
 21
209.0
 31
0.0
  0
ARC
  5
437
100
AcDbEntity
  8
0
  6
Continuous
 62
   212
100
AcDbCircle
 10
4.1181
 20
198.757359
 30
0.0
 40
10.242641
100
AcDbArc
 50
-270.0
 51
-180.0
  0
LINE
  5
438
100
AcDbEntity
  8
0
  6
Continuous
 62
   212
100
AcDbLine
 10
-6.124541
 20
198.757359
 30
0.0
 11
-6.124541
 21
197.248279
 31
0.0
  0
LINE
  5
439
100
AcDbEntity
  8
0
  6
Continuous
 62
   212
100
AcDbLine
 10
-6.124541
 20
197.248279
 30
0.0
 11
-6.124541
 21
114.751721
 31
0.0
  0
LINE
  5
43A
100
AcDbEntity
  8
0
  6
Continuous
 62
   212
100
AcDbLine
 10
-6.124541
 20
114.751721
 30
0.0
 11
-6.124541
 21
113.242641
 31
0.0
  0
LINE
  5
43B
100
AcDbEntity
  8
0
  6
Continuous
 62
   212
100
AcDbLine
 10
49.513156
 20
36.68874
 30
0.0
 11
49.627996
 21
36.646715
 31
0.0
  0
LINE
  5
43C
100
AcDbEntity
  8
0
  6
Continuous
 62
   212
100
AcDbLine
 10
49.627996
 20
36.646715
 30
0.0
 11
49.747786
 21
36.61592
 31
0.0
  0
LINE
  5
43D
100
AcDbEntity
  8
0
  6
Continuous
 62
   212
100
AcDbLine
 10
49.747786
 20
36.61592
 30
0.0
 11
49.8719
 21
36.596982
 31
0.0
  0
ARC
  5
43E
100
AcDbEntity
  8
0
  6
Continuous
 62
   212
100
AcDbCircle
 10
6.0
 20
88.0
 30
0.0
 40
2.0
100
AcDbArc
 50
-90.0
 51
0.0
  0
ARC
  5
43F
100
AcDbEntity
  8
0
  6
Continuous
 62
   212
100
AcDbCircle
 10
6.0
 20
88.0
 30
0.0
 40
2.0
100
AcDbArc
 50
0.0
 51
90.0
  0
LINE
  5
440
100
AcDbEntity
  8
0
  6
Continuous
 62
   212
100
AcDbLine
 10
42.613287
 20
41.840256
 30
0.0
 11
42.556611
 21
42.060689
 31
0.0
  0
LINE
  5
441
100
AcDbEntity
  8
0
  6
Continuous
 62
   212
100
AcDbLine
 10
42.556611
 20
42.060689
 30
0.0
 11
42.521758
 21
42.289073
 31
0.0
  0
LINE
  5
442
100
AcDbEntity
  8
0
  6
Continuous
 62
   212
100
AcDbLine
 10
42.521758
 20
42.289073
 30
0.0
 11
42.509884
 21
42.524252
 31
0.0
  0
LINE
  5
443
100
AcDbEntity
  8
0
  6
Continuous
 62
   212
100
AcDbLine
 10
42.509884
 20
42.524252
 30
0.0
 11
42.521758
 21
42.759427
 31
0.0
  0
LINE
  5
444
100
AcDbEntity
  8
0
  6
Continuous
 62
   212
100
AcDbLine
 10
49.204624
 20
36.875916
 30
0.0
 11
49.300843
 21
36.803968
 31
0.0
  0
LINE
  5
445
100
AcDbEntity
  8
0
  6
Continuous
 62
   212
100
AcDbLine
 10
49.8719
 20
36.596982
 30
0.0
 11
49.999709
 21
36.59053
 31
0.0
  0
LINE
  5
446
100
AcDbEntity
  8
0
  6
Continuous
 62
   212
100
AcDbLine
 10
49.999709
 20
36.59053
 30
0.0
 11
51.49972
 21
36.59053
 31
0.0
  0
LINE
  5
447
100
AcDbEntity
  8
0
  6
Continuous
 62
   212
100
AcDbLine
 10
51.49972
 20
36.59053
 30
0.0
 11
51.627471
 21
36.596982
 31
0.0
  0
LINE
  5
448
100
AcDbEntity
  8
0
  6
Continuous
 62
   212
100
AcDbLine
 10
51.627471
 20
36.596982
 30
0.0
 11
51.751541
 21
36.61592
 31
0.0
  0
LINE
  5
449
100
AcDbEntity
  8
0
  6
Continuous
 62
   212
100
AcDbLine
 10
51.751541
 20
36.61592
 30
0.0
 11
51.871302
 21
36.646715
 31
0.0
  0
LINE
  5
44A
100
AcDbEntity
  8
0
  6
Continuous
 62
   212
100
AcDbLine
 10
51.871302
 20
36.646715
 30
0.0
 11
51.986123
 21
36.68874
 31
0.0
  0
LINE
  5
44B
100
AcDbEntity
  8
0
  6
Continuous
 62
   212
100
AcDbLine
 10
51.986123
 20
36.68874
 30
0.0
 11
52.095376
 21
36.741367
 31
0.0
  0
LINE
  5
44C
100
AcDbEntity
  8
0
  6
Continuous
 62
   212
100
AcDbLine
 10
52.095376
 20
36.741367
 30
0.0
 11
52.198431
 21
36.803968
 31
0.0
  0
LINE
  5
44D
100
AcDbEntity
  8
0
  6
Continuous
 62
   212
100
AcDbLine
 10
52.198431
 20
36.803968
 30
0.0
 11
52.294658
 21
36.875916
 31
0.0
  0
LINE
  5
44E
100
AcDbEntity
  8
0
  6
Continuous
 62
   212
100
AcDbLine
 10
52.294658
 20
36.875916
 30
0.0
 11
52.383428
 21
36.956581
 31
0.0
  0
LINE
  5
44F
100
AcDbEntity
  8
0
  6
Continuous
 62
   212
100
AcDbLine
 10
52.383428
 20
36.956581
 30
0.0
 11
52.464112
 21
37.045337
 31
0.0
  0
LINE
  5
450
100
AcDbEntity
  8
0
  6
Continuous
 62
   212
100
AcDbLine
 10
52.464112
 20
37.045337
 30
0.0
 11
52.53608
 21
37.141556
 31
0.0
  0
LINE
  5
451
100
AcDbEntity
  8
0
  6
Continuous
 62
   212
100
AcDbLine
 10
52.53608
 20
37.141556
 30
0.0
 11
52.598703
 21
37.244609
 31
0.0
  0
LINE
  5
452
100
AcDbEntity
  8
0
  6
Continuous
 62
   212
100
AcDbLine
 10
52.598703
 20
37.244609
 30
0.0
 11
52.651352
 21
37.35387
 31
0.0
  0
LINE
  5
453
100
AcDbEntity
  8
0
  6
Continuous
 62
   212
100
AcDbLine
 10
52.651352
 20
37.35387
 30
0.0
 11
52.693396
 21
37.468709
 31
0.0
  0
LINE
  5
454
100
AcDbEntity
  8
0
  6
Continuous
 62
   212
100
AcDbLine
 10
52.693396
 20
37.468709
 30
0.0
 11
52.724207
 21
37.588499
 31
0.0
  0
LINE
  5
455
100
AcDbEntity
  8
0
  6
Continuous
 62
   212
100
AcDbLine
 10
52.724207
 20
37.588499
 30
0.0
 11
52.743155
 21
37.712613
 31
0.0
  0
LINE
  5
456
100
AcDbEntity
  8
0
  6
Continuous
 62
   212
100
AcDbLine
 10
52.743155
 20
37.712613
 30
0.0
 11
52.749611
 21
37.840422
 31
0.0
  0
LINE
  5
457
100
AcDbEntity
  8
0
  6
Continuous
 62
   212
100
AcDbLine
 10
52.749611
 20
37.840422
 30
0.0
 11
52.749611
 21
39.340433
 31
0.0
  0
LINE
  5
458
100
AcDbEntity
  8
0
  6
Continuous
 62
   212
100
AcDbLine
 10
52.749611
 20
39.340433
 30
0.0
 11
52.743155
 21
39.468242
 31
0.0
  0
LINE
  5
459
100
AcDbEntity
  8
0
  6
Continuous
 62
   212
100
AcDbLine
 10
52.743155
 20
39.468242
 30
0.0
 11
52.724207
 21
39.592356
 31
0.0
  0
LINE
  5
45A
100
AcDbEntity
  8
0
  6
Continuous
 62
   212
100
AcDbLine
 10
52.724207
 20
39.592356
 30
0.0
 11
52.693396
 21
39.712146
 31
0.0
  0
LINE
  5
45B
100
AcDbEntity
  8
0
  6
Continuous
 62
   212
100
AcDbLine
 10
52.693396
 20
39.712146
 30
0.0
 11
52.651352
 21
39.826985
 31
0.0
  0
LINE
  5
45C
100
AcDbEntity
  8
0
  6
Continuous
 62
   212
100
AcDbLine
 10
52.651352
 20
39.826985
 30
0.0
 11
52.598703
 21
39.936245
 31
0.0
  0
LINE
  5
45D
100
AcDbEntity
  8
0
  6
Continuous
 62
   212
100
AcDbLine
 10
52.598703
 20
39.936245
 30
0.0
 11
52.53608
 21
40.039299
 31
0.0
  0
LINE
  5
45E
100
AcDbEntity
  8
0
  6
Continuous
 62
   212
100
AcDbLine
 10
52.53608
 20
40.039299
 30
0.0
 11
52.464112
 21
40.135518
 31
0.0
  0
LINE
  5
45F
100
AcDbEntity
  8
0
  6
Continuous
 62
   212
100
AcDbLine
 10
52.464112
 20
40.135518
 30
0.0
 11
52.383428
 21
40.224274
 31
0.0
  0
LINE
  5
460
100
AcDbEntity
  8
0
  6
Continuous
 62
   212
100
AcDbLine
 10
52.383428
 20
40.224274
 30
0.0
 11
52.294658
 21
40.304939
 31
0.0
  0
LINE
  5
461
100
AcDbEntity
  8
0
  6
Continuous
 62
   212
100
AcDbLine
 10
52.294658
 20
40.304939
 30
0.0
 11
52.198431
 21
40.376887
 31
0.0
  0
LINE
  5
462
100
AcDbEntity
  8
0
  6
Continuous
 62
   212
100
AcDbLine
 10
52.198431
 20
40.376887
 30
0.0
 11
52.095376
 21
40.439488
 31
0.0
  0
LINE
  5
463
100
AcDbEntity
  8
0
  6
Continuous
 62
   212
100
AcDbLine
 10
52.095376
 20
40.439488
 30
0.0
 11
51.986123
 21
40.492115
 31
0.0
  0
LINE
  5
464
100
AcDbEntity
  8
0
  6
Continuous
 62
   212
100
AcDbLine
 10
51.986123
 20
40.492115
 30
0.0
 11
51.871302
 21
40.53414
 31
0.0
  0
LINE
  5
465
100
AcDbEntity
  8
0
  6
Continuous
 62
   212
100
AcDbLine
 10
51.871302
 20
40.53414
 30
0.0
 11
51.751541
 21
40.564935
 31
0.0
  0
LINE
  5
466
100
AcDbEntity
  8
0
  6
Continuous
 62
   212
100
AcDbLine
 10
51.751541
 20
40.564935
 30
0.0
 11
51.627471
 21
40.583873
 31
0.0
  0
LINE
  5
467
100
AcDbEntity
  8
0
  6
Continuous
 62
   212
100
AcDbLine
 10
51.627471
 20
40.583873
 30
0.0
 11
51.49972
 21
40.590325
 31
0.0
  0
LINE
  5
468
100
AcDbEntity
  8
0
  6
Continuous
 62
   212
100
AcDbLine
 10
51.49972
 20
40.590325
 30
0.0
 11
49.999709
 21
40.590325
 31
0.0
  0
LINE
  5
469
100
AcDbEntity
  8
0
  6
Continuous
 62
   212
100
AcDbLine
 10
49.999709
 20
40.590325
 30
0.0
 11
49.8719
 21
40.583873
 31
0.0
  0
LINE
  5
46A
100
AcDbEntity
  8
0
  6
Continuous
 62
   212
100
AcDbLine
 10
49.8719
 20
40.583873
 30
0.0
 11
49.747786
 21
40.564935
 31
0.0
  0
LINE
  5
46B
100
AcDbEntity
  8
0
  6
Continuous
 62
   212
100
AcDbLine
 10
49.747786
 20
40.564935
 30
0.0
 11
49.627996
 21
40.53414
 31
0.0
  0
LINE
  5
46C
100
AcDbEntity
  8
0
  6
Continuous
 62
   212
100
AcDbLine
 10
49.627996
 20
40.53414
 30
0.0
 11
49.513156
 21
40.492115
 31
0.0
  0
LINE
  5
46D
100
AcDbEntity
  8
0
  6
Continuous
 62
   212
100
AcDbLine
 10
49.513156
 20
40.492115
 30
0.0
 11
49.403896
 21
40.439488
 31
0.0
  0
LINE
  5
46E
100
AcDbEntity
  8
0
  6
Continuous
 62
   212
100
AcDbLine
 10
49.403896
 20
40.439488
 30
0.0
 11
49.300843
 21
40.376887
 31
0.0
  0
LINE
  5
46F
100
AcDbEntity
  8
0
  6
Continuous
 62
   212
100
AcDbLine
 10
49.300843
 20
40.376887
 30
0.0
 11
49.204624
 21
40.304939
 31
0.0
  0
LINE
  5
470
100
AcDbEntity
  8
0
  6
Continuous
 62
   212
100
AcDbLine
 10
49.204624
 20
40.304939
 30
0.0
 11
49.115868
 21
40.224274
 31
0.0
  0
LINE
  5
471
100
AcDbEntity
  8
0
  6
Continuous
 62
   212
100
AcDbLine
 10
49.115868
 20
40.224274
 30
0.0
 11
49.035202
 21
40.135518
 31
0.0
  0
LINE
  5
472
100
AcDbEntity
  8
0
  6
Continuous
 62
   212
100
AcDbLine
 10
49.035202
 20
40.135518
 30
0.0
 11
48.963255
 21
40.039299
 31
0.0
  0
LINE
  5
473
100
AcDbEntity
  8
0
  6
Continuous
 62
   212
100
AcDbLine
 10
48.963255
 20
40.039299
 30
0.0
 11
48.900654
 21
39.936245
 31
0.0
  0
LINE
  5
474
100
AcDbEntity
  8
0
  6
Continuous
 62
   212
100
AcDbLine
 10
48.900654
 20
39.936245
 30
0.0
 11
48.848027
 21
39.826985
 31
0.0
  0
LINE
  5
475
100
AcDbEntity
  8
0
  6
Continuous
 62
   212
100
AcDbLine
 10
48.848027
 20
39.826985
 30
0.0
 11
48.806002
 21
39.712146
 31
0.0
  0
LINE
  5
476
100
AcDbEntity
  8
0
  6
Continuous
 62
   212
100
AcDbLine
 10
48.806002
 20
39.712146
 30
0.0
 11
48.775207
 21
39.592356
 31
0.0
  0
LINE
  5
477
100
AcDbEntity
  8
0
  6
Continuous
 62
   212
100
AcDbLine
 10
48.775207
 20
39.592356
 30
0.0
 11
48.756269
 21
39.468242
 31
0.0
  0
LINE
  5
478
100
AcDbEntity
  8
0
  6
Continuous
 62
   212
100
AcDbLine
 10
48.756269
 20
39.468242
 30
0.0
 11
48.749817
 21
39.340433
 31
0.0
  0
LINE
  5
479
100
AcDbEntity
  8
0
  6
Continuous
 62
   212
100
AcDbLine
 10
48.749817
 20
39.340433
 30
0.0
 11
48.749817
 21
37.840422
 31
0.0
  0
LINE
  5
47A
100
AcDbEntity
  8
0
  6
Continuous
 62
   212
100
AcDbLine
 10
48.749817
 20
37.840422
 30
0.0
 11
48.756269
 21
37.712613
 31
0.0
  0
LINE
  5
47B
100
AcDbEntity
  8
0
  6
Continuous
 62
   212
100
AcDbLine
 10
48.756269
 20
37.712613
 30
0.0
 11
48.775207
 21
37.588499
 31
0.0
  0
LINE
  5
47C
100
AcDbEntity
  8
0
  6
Continuous
 62
   212
100
AcDbLine
 10
48.775207
 20
37.588499
 30
0.0
 11
48.806002
 21
37.468709
 31
0.0
  0
LINE
  5
47D
100
AcDbEntity
  8
0
  6
Continuous
 62
   212
100
AcDbLine
 10
48.806002
 20
37.468709
 30
0.0
 11
48.848027
 21
37.35387
 31
0.0
  0
LINE
  5
47E
100
AcDbEntity
  8
0
  6
Continuous
 62
   212
100
AcDbLine
 10
48.848027
 20
37.35387
 30
0.0
 11
48.900654
 21
37.244609
 31
0.0
  0
LINE
  5
47F
100
AcDbEntity
  8
0
  6
Continuous
 62
   212
100
AcDbLine
 10
48.900654
 20
37.244609
 30
0.0
 11
48.963255
 21
37.141556
 31
0.0
  0
LINE
  5
480
100
AcDbEntity
  8
0
  6
Continuous
 62
   212
100
AcDbLine
 10
48.963255
 20
37.141556
 30
0.0
 11
49.035202
 21
37.045337
 31
0.0
  0
LINE
  5
481
100
AcDbEntity
  8
0
  6
Continuous
 62
   212
100
AcDbLine
 10
49.035202
 20
37.045337
 30
0.0
 11
49.115868
 21
36.956581
 31
0.0
  0
LINE
  5
482
100
AcDbEntity
  8
0
  6
Continuous
 62
   212
100
AcDbLine
 10
49.115868
 20
36.956581
 30
0.0
 11
49.204624
 21
36.875916
 31
0.0
  0
LINE
  5
483
100
AcDbEntity
  8
0
  6
Continuous
 62
   212
100
AcDbLine
 10
67.335779
 20
17.881656
 30
0.0
 11
67.258458
 21
18.092964
 31
0.0
  0
LINE
  5
484
100
AcDbEntity
  8
0
  6
Continuous
 62
   212
100
AcDbLine
 10
67.258458
 20
18.092964
 30
0.0
 11
67.201798
 21
18.313368
 31
0.0
  0
LINE
  5
485
100
AcDbEntity
  8
0
  6
Continuous
 62
   212
100
AcDbLine
 10
67.201798
 20
18.313368
 30
0.0
 11
67.166956
 21
18.541708
 31
0.0
  0
LINE
  5
486
100
AcDbEntity
  8
0
  6
Continuous
 62
   212
100
AcDbLine
 10
42.787476
 20
41.427867
 30
0.0
 11
42.690627
 21
41.62893
 31
0.0
  0
LINE
  5
487
100
AcDbEntity
  8
0
  6
Continuous
 62
   212
100
AcDbLine
 10
42.690627
 20
41.62893
 30
0.0
 11
42.613287
 21
41.840256
 31
0.0
  0
LINE
  5
488
100
AcDbEntity
  8
0
  6
Continuous
 62
   212
100
AcDbLine
 10
42.521758
 20
42.759427
 30
0.0
 11
42.556611
 21
42.9878
 31
0.0
  0
LINE
  5
489
100
AcDbEntity
  8
0
  6
Continuous
 62
   212
100
AcDbLine
 10
42.556611
 20
42.9878
 30
0.0
 11
42.613287
 21
43.208216
 31
0.0
  0
LINE
  5
48A
100
AcDbEntity
  8
0
  6
Continuous
 62
   212
100
AcDbLine
 10
42.613287
 20
43.208216
 30
0.0
 11
42.690627
 21
43.41952
 31
0.0
  0
LINE
  5
48B
100
AcDbEntity
  8
0
  6
Continuous
 62
   212
100
AcDbLine
 10
42.690627
 20
43.41952
 30
0.0
 11
42.787476
 21
43.620556
 31
0.0
  0
LINE
  5
48C
100
AcDbEntity
  8
0
  6
Continuous
 62
   212
100
AcDbLine
 10
42.787476
 20
43.620556
 30
0.0
 11
42.902678
 21
43.810171
 31
0.0
  0
LINE
  5
48D
100
AcDbEntity
  8
0
  6
Continuous
 62
   212
100
AcDbLine
 10
42.902678
 20
43.810171
 30
0.0
 11
43.035076
 21
43.987208
 31
0.0
  0
LINE
  5
48E
100
AcDbEntity
  8
0
  6
Continuous
 62
   212
100
AcDbLine
 10
43.035076
 20
43.987208
 30
0.0
 11
43.183513
 21
44.150514
 31
0.0
  0
LINE
  5
48F
100
AcDbEntity
  8
0
  6
Continuous
 62
   212
100
AcDbLine
 10
43.183513
 20
44.150514
 30
0.0
 11
43.346832
 21
44.298932
 31
0.0
  0
LINE
  5
490
100
AcDbEntity
  8
0
  6
Continuous
 62
   212
100
AcDbLine
 10
43.346832
 20
44.298932
 30
0.0
 11
43.523879
 21
44.431309
 31
0.0
  0
LINE
  5
491
100
AcDbEntity
  8
0
  6
Continuous
 62
   212
100
AcDbLine
 10
43.523879
 20
44.431309
 30
0.0
 11
43.713494
 21
44.546489
 31
0.0
  0
LINE
  5
492
100
AcDbEntity
  8
0
  6
Continuous
 62
   212
100
AcDbLine
 10
43.713494
 20
44.546489
 30
0.0
 11
43.914523
 21
44.643317
 31
0.0
  0
LINE
  5
493
100
AcDbEntity
  8
0
  6
Continuous
 62
   212
100
AcDbLine
 10
43.914523
 20
44.643317
 30
0.0
 11
44.125809
 21
44.720638
 31
0.0
  0
LINE
  5
494
100
AcDbEntity
  8
0
  6
Continuous
 62
   212
100
AcDbLine
 10
44.125809
 20
44.720638
 30
0.0
 11
44.346195
 21
44.777297
 31
0.0
  0
LINE
  5
495
100
AcDbEntity
  8
0
  6
Continuous
 62
   212
100
AcDbLine
 10
44.346195
 20
44.777297
 30
0.0
 11
44.574525
 21
44.81214
 31
0.0
  0
LINE
  5
496
100
AcDbEntity
  8
0
  6
Continuous
 62
   212
100
AcDbLine
 10
44.574525
 20
44.81214
 30
0.0
 11
44.809642
 21
44.824011
 31
0.0
  0
LINE
  5
497
100
AcDbEntity
  8
0
  6
Continuous
 62
   212
100
AcDbLine
 10
44.809642
 20
44.824011
 30
0.0
 11
45.044821
 21
44.81214
 31
0.0
  0
LINE
  5
498
100
AcDbEntity
  8
0
  6
Continuous
 62
   212
100
AcDbLine
 10
45.044821
 20
44.81214
 30
0.0
 11
45.273205
 21
44.777297
 31
0.0
  0
LINE
  5
499
100
AcDbEntity
  8
0
  6
Continuous
 62
   212
100
AcDbLine
 10
45.273205
 20
44.777297
 30
0.0
 11
45.493638
 21
44.720638
 31
0.0
  0
LINE
  5
49A
100
AcDbEntity
  8
0
  6
Continuous
 62
   212
100
AcDbLine
 10
45.493638
 20
44.720638
 30
0.0
 11
45.704964
 21
44.643317
 31
0.0
  0
LINE
  5
49B
100
AcDbEntity
  8
0
  6
Continuous
 62
   212
100
AcDbLine
 10
45.704964
 20
44.643317
 30
0.0
 11
45.906028
 21
44.546489
 31
0.0
  0
LINE
  5
49C
100
AcDbEntity
  8
0
  6
Continuous
 62
   212
100
AcDbLine
 10
45.906028
 20
44.546489
 30
0.0
 11
46.095672
 21
44.431309
 31
0.0
  0
LINE
  5
49D
100
AcDbEntity
  8
0
  6
Continuous
 62
   212
100
AcDbLine
 10
46.095672
 20
44.431309
 30
0.0
 11
46.272741
 21
44.298932
 31
0.0
  0
LINE
  5
49E
100
AcDbEntity
  8
0
  6
Continuous
 62
   212
100
AcDbLine
 10
46.272741
 20
44.298932
 30
0.0
 11
46.43608
 21
44.150514
 31
0.0
  0
LINE
  5
49F
100
AcDbEntity
  8
0
  6
Continuous
 62
   212
100
AcDbLine
 10
46.43608
 20
44.150514
 30
0.0
 11
46.584531
 21
43.987208
 31
0.0
  0
LINE
  5
4A0
100
AcDbEntity
  8
0
  6
Continuous
 62
   212
100
AcDbLine
 10
46.584531
 20
43.987208
 30
0.0
 11
46.71694
 21
43.810171
 31
0.0
  0
LINE
  5
4A1
100
AcDbEntity
  8
0
  6
Continuous
 62
   212
100
AcDbLine
 10
46.71694
 20
43.810171
 30
0.0
 11
46.832149
 21
43.620556
 31
0.0
  0
LINE
  5
4A2
100
AcDbEntity
  8
0
  6
Continuous
 62
   212
100
AcDbLine
 10
46.832149
 20
43.620556
 30
0.0
 11
46.929004
 21
43.41952
 31
0.0
  0
LINE
  5
4A3
100
AcDbEntity
  8
0
  6
Continuous
 62
   212
100
AcDbLine
 10
46.929004
 20
43.41952
 30
0.0
 11
47.006348
 21
43.208216
 31
0.0
  0
LINE
  5
4A4
100
AcDbEntity
  8
0
  6
Continuous
 62
   212
100
AcDbLine
 10
47.006348
 20
43.208216
 30
0.0
 11
47.063024
 21
42.9878
 31
0.0
  0
LINE
  5
4A5
100
AcDbEntity
  8
0
  6
Continuous
 62
   212
100
AcDbLine
 10
47.063024
 20
42.9878
 30
0.0
 11
47.097878
 21
42.759427
 31
0.0
  0
LINE
  5
4A6
100
AcDbEntity
  8
0
  6
Continuous
 62
   212
100
AcDbLine
 10
47.097878
 20
42.759427
 30
0.0
 11
47.109753
 21
42.524252
 31
0.0
  0
LINE
  5
4A7
100
AcDbEntity
  8
0
  6
Continuous
 62
   212
100
AcDbLine
 10
47.109753
 20
42.524252
 30
0.0
 11
47.097878
 21
42.289073
 31
0.0
  0
LINE
  5
4A8
100
AcDbEntity
  8
0
  6
Continuous
 62
   212
100
AcDbLine
 10
47.097878
 20
42.289073
 30
0.0
 11
47.063024
 21
42.060689
 31
0.0
  0
LINE
  5
4A9
100
AcDbEntity
  8
0
  6
Continuous
 62
   212
100
AcDbLine
 10
47.063024
 20
42.060689
 30
0.0
 11
47.006348
 21
41.840256
 31
0.0
  0
LINE
  5
4AA
100
AcDbEntity
  8
0
  6
Continuous
 62
   212
100
AcDbLine
 10
47.006348
 20
41.840256
 30
0.0
 11
46.929004
 21
41.62893
 31
0.0
  0
LINE
  5
4AB
100
AcDbEntity
  8
0
  6
Continuous
 62
   212
100
AcDbLine
 10
46.929004
 20
41.62893
 30
0.0
 11
46.832149
 21
41.427867
 31
0.0
  0
LINE
  5
4AC
100
AcDbEntity
  8
0
  6
Continuous
 62
   212
100
AcDbLine
 10
46.832149
 20
41.427867
 30
0.0
 11
46.71694
 21
41.238222
 31
0.0
  0
LINE
  5
4AD
100
AcDbEntity
  8
0
  6
Continuous
 62
   212
100
AcDbLine
 10
46.71694
 20
41.238222
 30
0.0
 11
46.584531
 21
41.061153
 31
0.0
  0
LINE
  5
4AE
100
AcDbEntity
  8
0
  6
Continuous
 62
   212
100
AcDbLine
 10
46.584531
 20
41.061153
 30
0.0
 11
46.43608
 21
40.897815
 31
0.0
  0
LINE
  5
4AF
100
AcDbEntity
  8
0
  6
Continuous
 62
   212
100
AcDbLine
 10
46.43608
 20
40.897815
 30
0.0
 11
46.272741
 21
40.749363
 31
0.0
  0
LINE
  5
4B0
100
AcDbEntity
  8
0
  6
Continuous
 62
   212
100
AcDbLine
 10
46.272741
 20
40.749363
 30
0.0
 11
46.095672
 21
40.616955
 31
0.0
  0
LINE
  5
4B1
100
AcDbEntity
  8
0
  6
Continuous
 62
   212
100
AcDbLine
 10
46.095672
 20
40.616955
 30
0.0
 11
45.906028
 21
40.501745
 31
0.0
  0
LINE
  5
4B2
100
AcDbEntity
  8
0
  6
Continuous
 62
   212
100
AcDbLine
 10
45.906028
 20
40.501745
 30
0.0
 11
45.704964
 21
40.40489
 31
0.0
  0
LINE
  5
4B3
100
AcDbEntity
  8
0
  6
Continuous
 62
   212
100
AcDbLine
 10
45.704964
 20
40.40489
 30
0.0
 11
45.493638
 21
40.327547
 31
0.0
  0
LINE
  5
4B4
100
AcDbEntity
  8
0
  6
Continuous
 62
   212
100
AcDbLine
 10
45.493638
 20
40.327547
 30
0.0
 11
45.273205
 21
40.27087
 31
0.0
  0
LINE
  5
4B5
100
AcDbEntity
  8
0
  6
Continuous
 62
   212
100
AcDbLine
 10
45.273205
 20
40.27087
 30
0.0
 11
45.044821
 21
40.236016
 31
0.0
  0
LINE
  5
4B6
100
AcDbEntity
  8
0
  6
Continuous
 62
   212
100
AcDbLine
 10
45.044821
 20
40.236016
 30
0.0
 11
44.809642
 21
40.224141
 31
0.0
  0
LINE
  5
4B7
100
AcDbEntity
  8
0
  6
Continuous
 62
   212
100
AcDbLine
 10
44.809642
 20
40.224141
 30
0.0
 11
44.574525
 21
40.236016
 31
0.0
  0
LINE
  5
4B8
100
AcDbEntity
  8
0
  6
Continuous
 62
   212
100
AcDbLine
 10
44.574525
 20
40.236016
 30
0.0
 11
44.346195
 21
40.27087
 31
0.0
  0
LINE
  5
4B9
100
AcDbEntity
  8
0
  6
Continuous
 62
   212
100
AcDbLine
 10
44.346195
 20
40.27087
 30
0.0
 11
44.125809
 21
40.327547
 31
0.0
  0
LINE
  5
4BA
100
AcDbEntity
  8
0
  6
Continuous
 62
   212
100
AcDbLine
 10
44.125809
 20
40.327547
 30
0.0
 11
43.914523
 21
40.40489
 31
0.0
  0
LINE
  5
4BB
100
AcDbEntity
  8
0
  6
Continuous
 62
   212
100
AcDbLine
 10
43.914523
 20
40.40489
 30
0.0
 11
43.713494
 21
40.501745
 31
0.0
  0
LINE
  5
4BC
100
AcDbEntity
  8
0
  6
Continuous
 62
   212
100
AcDbLine
 10
43.713494
 20
40.501745
 30
0.0
 11
43.523879
 21
40.616955
 31
0.0
  0
LINE
  5
4BD
100
AcDbEntity
  8
0
  6
Continuous
 62
   212
100
AcDbLine
 10
43.523879
 20
40.616955
 30
0.0
 11
43.346832
 21
40.749363
 31
0.0
  0
LINE
  5
4BE
100
AcDbEntity
  8
0
  6
Continuous
 62
   212
100
AcDbLine
 10
43.346832
 20
40.749363
 30
0.0
 11
43.183513
 21
40.897815
 31
0.0
  0
LINE
  5
4BF
100
AcDbEntity
  8
0
  6
Continuous
 62
   212
100
AcDbLine
 10
43.183513
 20
40.897815
 30
0.0
 11
43.035076
 21
41.061153
 31
0.0
  0
LINE
  5
4C0
100
AcDbEntity
  8
0
  6
Continuous
 62
   212
100
AcDbLine
 10
43.035076
 20
41.061153
 30
0.0
 11
42.902678
 21
41.238222
 31
0.0
  0
LINE
  5
4C1
100
AcDbEntity
  8
0
  6
Continuous
 62
   212
100
AcDbLine
 10
42.902678
 20
41.238222
 30
0.0
 11
42.787476
 21
41.427867
 31
0.0
  0
LINE
  5
4C2
100
AcDbEntity
  8
0
  6
Continuous
 62
   212
100
AcDbLine
 10
66.355538
 20
10.177547
 30
0.0
 11
66.302911
 21
10.286808
 31
0.0
  0
LINE
  5
4C3
100
AcDbEntity
  8
0
  6
Continuous
 62
   212
100
AcDbLine
 10
66.302911
 20
10.286808
 30
0.0
 11
66.260886
 21
10.401647
 31
0.0
  0
LINE
  5
4C4
100
AcDbEntity
  8
0
  6
Continuous
 62
   212
100
AcDbLine
 10
66.260886
 20
10.401647
 30
0.0
 11
66.230091
 21
10.521437
 31
0.0
  0
LINE
  5
4C5
100
AcDbEntity
  8
0
  6
Continuous
 62
   212
100
AcDbLine
 10
67.828582
 20
17.150524
 30
0.0
 11
67.680163
 21
17.313876
 31
0.0
  0
LINE
  5
4C6
100
AcDbEntity
  8
0
  6
Continuous
 62
   212
100
AcDbLine
 10
67.680163
 20
17.313876
 30
0.0
 11
67.547786
 21
17.490954
 31
0.0
  0
LINE
  5
4C7
100
AcDbEntity
  8
0
  6
Continuous
 62
   212
100
AcDbLine
 10
67.547786
 20
17.490954
 30
0.0
 11
67.432607
 21
17.6806
 31
0.0
  0
LINE
  5
4C8
100
AcDbEntity
  8
0
  6
Continuous
 62
   212
100
AcDbLine
 10
67.432607
 20
17.6806
 30
0.0
 11
67.335779
 21
17.881656
 31
0.0
  0
LINE
  5
4C9
100
AcDbEntity
  8
0
  6
Continuous
 62
   212
100
AcDbLine
 10
67.166956
 20
18.541708
 30
0.0
 11
67.155085
 21
18.776829
 31
0.0
  0
LINE
  5
4CA
100
AcDbEntity
  8
0
  6
Continuous
 62
   212
100
AcDbLine
 10
67.155085
 20
18.776829
 30
0.0
 11
67.166956
 21
19.012008
 31
0.0
  0
LINE
  5
4CB
100
AcDbEntity
  8
0
  6
Continuous
 62
   212
100
AcDbLine
 10
67.166956
 20
19.012008
 30
0.0
 11
67.201798
 21
19.240392
 31
0.0
  0
LINE
  5
4CC
100
AcDbEntity
  8
0
  6
Continuous
 62
   212
100
AcDbLine
 10
67.201798
 20
19.240392
 30
0.0
 11
67.258458
 21
19.460826
 31
0.0
  0
LINE
  5
4CD
100
AcDbEntity
  8
0
  6
Continuous
 62
   212
100
AcDbLine
 10
67.258458
 20
19.460826
 30
0.0
 11
67.335779
 21
19.672152
 31
0.0
  0
LINE
  5
4CE
100
AcDbEntity
  8
0
  6
Continuous
 62
   212
100
AcDbLine
 10
67.335779
 20
19.672152
 30
0.0
 11
67.432607
 21
19.873215
 31
0.0
  0
LINE
  5
4CF
100
AcDbEntity
  8
0
  6
Continuous
 62
   212
100
AcDbLine
 10
67.432607
 20
19.873215
 30
0.0
 11
67.547786
 21
20.062859
 31
0.0
  0
LINE
  5
4D0
100
AcDbEntity
  8
0
  6
Continuous
 62
   212
100
AcDbLine
 10
67.547786
 20
20.062859
 30
0.0
 11
67.680163
 21
20.239929
 31
0.0
  0
LINE
  5
4D1
100
AcDbEntity
  8
0
  6
Continuous
 62
   212
100
AcDbLine
 10
67.680163
 20
20.239929
 30
0.0
 11
67.828582
 21
20.403267
 31
0.0
  0
LINE
  5
4D2
100
AcDbEntity
  8
0
  6
Continuous
 62
   212
100
AcDbLine
 10
67.828582
 20
20.403267
 30
0.0
 11
67.991887
 21
20.551719
 31
0.0
  0
LINE
  5
4D3
100
AcDbEntity
  8
0
  6
Continuous
 62
   212
100
AcDbLine
 10
67.991887
 20
20.551719
 30
0.0
 11
68.168925
 21
20.684127
 31
0.0
  0
LINE
  5
4D4
100
AcDbEntity
  8
0
  6
Continuous
 62
   212
100
AcDbLine
 10
68.168925
 20
20.684127
 30
0.0
 11
68.358539
 21
20.799337
 31
0.0
  0
LINE
  5
4D5
100
AcDbEntity
  8
0
  6
Continuous
 62
   212
100
AcDbLine
 10
68.358539
 20
20.799337
 30
0.0
 11
68.559576
 21
20.896191
 31
0.0
  0
LINE
  5
4D6
100
AcDbEntity
  8
0
  6
Continuous
 62
   212
100
AcDbLine
 10
68.559576
 20
20.896191
 30
0.0
 11
68.770879
 21
20.973535
 31
0.0
  0
LINE
  5
4D7
100
AcDbEntity
  8
0
  6
Continuous
 62
   212
100
AcDbLine
 10
68.770879
 20
20.973535
 30
0.0
 11
68.991295
 21
21.030212
 31
0.0
  0
LINE
  5
4D8
100
AcDbEntity
  8
0
  6
Continuous
 62
   212
100
AcDbLine
 10
68.991295
 20
21.030212
 30
0.0
 11
69.219668
 21
21.065066
 31
0.0
  0
LINE
  5
4D9
100
AcDbEntity
  8
0
  6
Continuous
 62
   212
100
AcDbLine
 10
69.219668
 20
21.065066
 30
0.0
 11
69.454843
 21
21.07694
 31
0.0
  0
LINE
  5
4DA
100
AcDbEntity
  8
0
  6
Continuous
 62
   212
100
AcDbLine
 10
69.454843
 20
21.07694
 30
0.0
 11
69.689964
 21
21.065066
 31
0.0
  0
LINE
  5
4DB
100
AcDbEntity
  8
0
  6
Continuous
 62
   212
100
AcDbLine
 10
69.689964
 20
21.065066
 30
0.0
 11
69.918305
 21
21.030212
 31
0.0
  0
LINE
  5
4DC
100
AcDbEntity
  8
0
  6
Continuous
 62
   212
100
AcDbLine
 10
69.918305
 20
21.030212
 30
0.0
 11
70.138708
 21
20.973535
 31
0.0
  0
LINE
  5
4DD
100
AcDbEntity
  8
0
  6
Continuous
 62
   212
100
AcDbLine
 10
70.138708
 20
20.973535
 30
0.0
 11
70.350017
 21
20.896191
 31
0.0
  0
LINE
  5
4DE
100
AcDbEntity
  8
0
  6
Continuous
 62
   212
100
AcDbLine
 10
70.350017
 20
20.896191
 30
0.0
 11
70.551072
 21
20.799337
 31
0.0
  0
LINE
  5
4DF
100
AcDbEntity
  8
0
  6
Continuous
 62
   212
100
AcDbLine
 10
70.551072
 20
20.799337
 30
0.0
 11
70.740718
 21
20.684127
 31
0.0
  0
LINE
  5
4E0
100
AcDbEntity
  8
0
  6
Continuous
 62
   212
100
AcDbLine
 10
70.740718
 20
20.684127
 30
0.0
 11
70.917796
 21
20.551719
 31
0.0
  0
LINE
  5
4E1
100
AcDbEntity
  8
0
  6
Continuous
 62
   212
100
AcDbLine
 10
70.917796
 20
20.551719
 30
0.0
 11
71.081149
 21
20.403267
 31
0.0
  0
LINE
  5
4E2
100
AcDbEntity
  8
0
  6
Continuous
 62
   212
100
AcDbLine
 10
71.081149
 20
20.403267
 30
0.0
 11
71.229619
 21
20.239929
 31
0.0
  0
LINE
  5
4E3
100
AcDbEntity
  8
0
  6
Continuous
 62
   212
100
AcDbLine
 10
71.229619
 20
20.239929
 30
0.0
 11
71.362048
 21
20.062859
 31
0.0
  0
LINE
  5
4E4
100
AcDbEntity
  8
0
  6
Continuous
 62
   212
100
AcDbLine
 10
71.362048
 20
20.062859
 30
0.0
 11
71.47728
 21
19.873215
 31
0.0
  0
LINE
  5
4E5
100
AcDbEntity
  8
0
  6
Continuous
 62
   212
100
AcDbLine
 10
71.47728
 20
19.873215
 30
0.0
 11
71.574156
 21
19.672152
 31
0.0
  0
LINE
  5
4E6
100
AcDbEntity
  8
0
  6
Continuous
 62
   212
100
AcDbLine
 10
71.574156
 20
19.672152
 30
0.0
 11
71.651519
 21
19.460826
 31
0.0
  0
LINE
  5
4E7
100
AcDbEntity
  8
0
  6
Continuous
 62
   212
100
AcDbLine
 10
71.651519
 20
19.460826
 30
0.0
 11
71.708211
 21
19.240392
 31
0.0
  0
LINE
  5
4E8
100
AcDbEntity
  8
0
  6
Continuous
 62
   212
100
AcDbLine
 10
71.708211
 20
19.240392
 30
0.0
 11
71.743076
 21
19.012008
 31
0.0
  0
LINE
  5
4E9
100
AcDbEntity
  8
0
  6
Continuous
 62
   212
100
AcDbLine
 10
71.743076
 20
19.012008
 30
0.0
 11
71.754954
 21
18.776829
 31
0.0
  0
LINE
  5
4EA
100
AcDbEntity
  8
0
  6
Continuous
 62
   212
100
AcDbLine
 10
71.754954
 20
18.776829
 30
0.0
 11
71.743076
 21
18.541708
 31
0.0
  0
LINE
  5
4EB
100
AcDbEntity
  8
0
  6
Continuous
 62
   212
100
AcDbLine
 10
71.743076
 20
18.541708
 30
0.0
 11
71.708211
 21
18.313368
 31
0.0
  0
LINE
  5
4EC
100
AcDbEntity
  8
0
  6
Continuous
 62
   212
100
AcDbLine
 10
71.708211
 20
18.313368
 30
0.0
 11
71.651519
 21
18.092964
 31
0.0
  0
LINE
  5
4ED
100
AcDbEntity
  8
0
  6
Continuous
 62
   212
100
AcDbLine
 10
71.651519
 20
18.092964
 30
0.0
 11
71.574156
 21
17.881656
 31
0.0
  0
LINE
  5
4EE
100
AcDbEntity
  8
0
  6
Continuous
 62
   212
100
AcDbLine
 10
71.574156
 20
17.881656
 30
0.0
 11
71.47728
 21
17.6806
 31
0.0
  0
LINE
  5
4EF
100
AcDbEntity
  8
0
  6
Continuous
 62
   212
100
AcDbLine
 10
71.47728
 20
17.6806
 30
0.0
 11
71.362048
 21
17.490954
 31
0.0
  0
LINE
  5
4F0
100
AcDbEntity
  8
0
  6
Continuous
 62
   212
100
AcDbLine
 10
71.362048
 20
17.490954
 30
0.0
 11
71.229619
 21
17.313876
 31
0.0
  0
LINE
  5
4F1
100
AcDbEntity
  8
0
  6
Continuous
 62
   212
100
AcDbLine
 10
71.229619
 20
17.313876
 30
0.0
 11
71.081149
 21
17.150524
 31
0.0
  0
LINE
  5
4F2
100
AcDbEntity
  8
0
  6
Continuous
 62
   212
100
AcDbLine
 10
71.081149
 20
17.150524
 30
0.0
 11
70.917796
 21
17.002054
 31
0.0
  0
LINE
  5
4F3
100
AcDbEntity
  8
0
  6
Continuous
 62
   212
100
AcDbLine
 10
70.917796
 20
17.002054
 30
0.0
 11
70.740718
 21
16.869624
 31
0.0
  0
LINE
  5
4F4
100
AcDbEntity
  8
0
  6
Continuous
 62
   212
100
AcDbLine
 10
70.740718
 20
16.869624
 30
0.0
 11
70.551072
 21
16.754393
 31
0.0
  0
LINE
  5
4F5
100
AcDbEntity
  8
0
  6
Continuous
 62
   212
100
AcDbLine
 10
70.551072
 20
16.754393
 30
0.0
 11
70.350017
 21
16.657517
 31
0.0
  0
LINE
  5
4F6
100
AcDbEntity
  8
0
  6
Continuous
 62
   212
100
AcDbLine
 10
70.350017
 20
16.657517
 30
0.0
 11
70.138708
 21
16.580154
 31
0.0
  0
LINE
  5
4F7
100
AcDbEntity
  8
0
  6
Continuous
 62
   212
100
AcDbLine
 10
70.138708
 20
16.580154
 30
0.0
 11
69.918305
 21
16.523461
 31
0.0
  0
LINE
  5
4F8
100
AcDbEntity
  8
0
  6
Continuous
 62
   212
100
AcDbLine
 10
69.918305
 20
16.523461
 30
0.0
 11
69.689964
 21
16.488597
 31
0.0
  0
LINE
  5
4F9
100
AcDbEntity
  8
0
  6
Continuous
 62
   212
100
AcDbLine
 10
69.689964
 20
16.488597
 30
0.0
 11
69.454843
 21
16.476718
 31
0.0
  0
LINE
  5
4FA
100
AcDbEntity
  8
0
  6
Continuous
 62
   212
100
AcDbLine
 10
69.454843
 20
16.476718
 30
0.0
 11
69.219668
 21
16.488597
 31
0.0
  0
LINE
  5
4FB
100
AcDbEntity
  8
0
  6
Continuous
 62
   212
100
AcDbLine
 10
69.219668
 20
16.488597
 30
0.0
 11
68.991295
 21
16.523461
 31
0.0
  0
LINE
  5
4FC
100
AcDbEntity
  8
0
  6
Continuous
 62
   212
100
AcDbLine
 10
68.991295
 20
16.523461
 30
0.0
 11
68.770879
 21
16.580154
 31
0.0
  0
LINE
  5
4FD
100
AcDbEntity
  8
0
  6
Continuous
 62
   212
100
AcDbLine
 10
68.770879
 20
16.580154
 30
0.0
 11
68.559576
 21
16.657517
 31
0.0
  0
LINE
  5
4FE
100
AcDbEntity
  8
0
  6
Continuous
 62
   212
100
AcDbLine
 10
68.559576
 20
16.657517
 30
0.0
 11
68.358539
 21
16.754393
 31
0.0
  0
LINE
  5
4FF
100
AcDbEntity
  8
0
  6
Continuous
 62
   212
100
AcDbLine
 10
68.358539
 20
16.754393
 30
0.0
 11
68.168925
 21
16.869624
 31
0.0
  0
LINE
  5
500
100
AcDbEntity
  8
0
  6
Continuous
 62
   212
100
AcDbLine
 10
68.168925
 20
16.869624
 30
0.0
 11
67.991887
 21
17.002054
 31
0.0
  0
LINE
  5
501
100
AcDbEntity
  8
0
  6
Continuous
 62
   212
100
AcDbLine
 10
67.991887
 20
17.002054
 30
0.0
 11
67.828582
 21
17.150524
 31
0.0
  0
LINE
  5
502
100
AcDbEntity
  8
0
  6
Continuous
 62
   212
100
AcDbLine
 10
36.46328
 20
37.141556
 30
0.0
 11
36.400679
 21
37.244609
 31
0.0
  0
LINE
  5
503
100
AcDbEntity
  8
0
  6
Continuous
 62
   212
100
AcDbLine
 10
36.400679
 20
37.244609
 30
0.0
 11
36.348052
 21
37.35387
 31
0.0
  0
LINE
  5
504
100
AcDbEntity
  8
0
  6
Continuous
 62
   212
100
AcDbLine
 10
36.348052
 20
37.35387
 30
0.0
 11
36.306027
 21
37.468709
 31
0.0
  0
LINE
  5
505
100
AcDbEntity
  8
0
  6
Continuous
 62
   212
100
AcDbLine
 10
36.306027
 20
37.468709
 30
0.0
 11
36.275232
 21
37.588499
 31
0.0
  0
LINE
  5
506
100
AcDbEntity
  8
0
  6
Continuous
 62
   212
100
AcDbLine
 10
66.570752
 20
9.889519
 30
0.0
 11
66.490087
 21
9.978275
 31
0.0
  0
LINE
  5
507
100
AcDbEntity
  8
0
  6
Continuous
 62
   212
100
AcDbLine
 10
66.490087
 20
9.978275
 30
0.0
 11
66.41814
 21
10.074494
 31
0.0
  0
LINE
  5
508
100
AcDbEntity
  8
0
  6
Continuous
 62
   212
100
AcDbLine
 10
66.41814
 20
10.074494
 30
0.0
 11
66.355538
 21
10.177547
 31
0.0
  0
LINE
  5
509
100
AcDbEntity
  8
0
  6
Continuous
 62
   212
100
AcDbLine
 10
66.230091
 20
10.521437
 30
0.0
 11
66.211154
 21
10.645551
 31
0.0
  0
LINE
  5
50A
100
AcDbEntity
  8
0
  6
Continuous
 62
   212
100
AcDbLine
 10
66.211154
 20
10.645551
 30
0.0
 11
66.204701
 21
10.77336
 31
0.0
  0
LINE
  5
50B
100
AcDbEntity
  8
0
  6
Continuous
 62
   212
100
AcDbLine
 10
66.204701
 20
10.77336
 30
0.0
 11
66.204701
 21
12.273371
 31
0.0
  0
LINE
  5
50C
100
AcDbEntity
  8
0
  6
Continuous
 62
   212
100
AcDbLine
 10
66.204701
 20
12.273371
 30
0.0
 11
66.211154
 21
12.40118
 31
0.0
  0
LINE
  5
50D
100
AcDbEntity
  8
0
  6
Continuous
 62
   212
100
AcDbLine
 10
66.211154
 20
12.40118
 30
0.0
 11
66.230091
 21
12.525294
 31
0.0
  0
LINE
  5
50E
100
AcDbEntity
  8
0
  6
Continuous
 62
   212
100
AcDbLine
 10
66.230091
 20
12.525294
 30
0.0
 11
66.260886
 21
12.645084
 31
0.0
  0
LINE
  5
50F
100
AcDbEntity
  8
0
  6
Continuous
 62
   212
100
AcDbLine
 10
66.260886
 20
12.645084
 30
0.0
 11
66.302911
 21
12.759923
 31
0.0
  0
LINE
  5
510
100
AcDbEntity
  8
0
  6
Continuous
 62
   212
100
AcDbLine
 10
66.302911
 20
12.759923
 30
0.0
 11
66.355538
 21
12.869183
 31
0.0
  0
LINE
  5
511
100
AcDbEntity
  8
0
  6
Continuous
 62
   212
100
AcDbLine
 10
66.355538
 20
12.869183
 30
0.0
 11
66.41814
 21
12.972237
 31
0.0
  0
LINE
  5
512
100
AcDbEntity
  8
0
  6
Continuous
 62
   212
100
AcDbLine
 10
66.41814
 20
12.972237
 30
0.0
 11
66.490087
 21
13.068456
 31
0.0
  0
LINE
  5
513
100
AcDbEntity
  8
0
  6
Continuous
 62
   212
100
AcDbLine
 10
66.490087
 20
13.068456
 30
0.0
 11
66.570752
 21
13.157212
 31
0.0
  0
LINE
  5
514
100
AcDbEntity
  8
0
  6
Continuous
 62
   212
100
AcDbLine
 10
66.570752
 20
13.157212
 30
0.0
 11
66.659509
 21
13.237877
 31
0.0
  0
LINE
  5
515
100
AcDbEntity
  8
0
  6
Continuous
 62
   212
100
AcDbLine
 10
66.659509
 20
13.237877
 30
0.0
 11
66.755727
 21
13.309825
 31
0.0
  0
LINE
  5
516
100
AcDbEntity
  8
0
  6
Continuous
 62
   212
100
AcDbLine
 10
66.755727
 20
13.309825
 30
0.0
 11
66.858781
 21
13.372426
 31
0.0
  0
LINE
  5
517
100
AcDbEntity
  8
0
  6
Continuous
 62
   212
100
AcDbLine
 10
66.858781
 20
13.372426
 30
0.0
 11
66.968041
 21
13.425053
 31
0.0
  0
LINE
  5
518
100
AcDbEntity
  8
0
  6
Continuous
 62
   212
100
AcDbLine
 10
66.968041
 20
13.425053
 30
0.0
 11
67.08288
 21
13.467078
 31
0.0
  0
LINE
  5
519
100
AcDbEntity
  8
0
  6
Continuous
 62
   212
100
AcDbLine
 10
67.08288
 20
13.467078
 30
0.0
 11
67.202671
 21
13.497873
 31
0.0
  0
LINE
  5
51A
100
AcDbEntity
  8
0
  6
Continuous
 62
   212
100
AcDbLine
 10
67.202671
 20
13.497873
 30
0.0
 11
67.326784
 21
13.516811
 31
0.0
  0
LINE
  5
51B
100
AcDbEntity
  8
0
  6
Continuous
 62
   212
100
AcDbLine
 10
67.326784
 20
13.516811
 30
0.0
 11
67.454593
 21
13.523263
 31
0.0
  0
LINE
  5
51C
100
AcDbEntity
  8
0
  6
Continuous
 62
   212
100
AcDbLine
 10
67.454593
 20
13.523263
 30
0.0
 11
79.954568
 21
13.523263
 31
0.0
  0
LINE
  5
51D
100
AcDbEntity
  8
0
  6
Continuous
 62
   212
100
AcDbLine
 10
79.954568
 20
13.523263
 30
0.0
 11
80.082377
 21
13.516811
 31
0.0
  0
LINE
  5
51E
100
AcDbEntity
  8
0
  6
Continuous
 62
   212
100
AcDbLine
 10
80.082377
 20
13.516811
 30
0.0
 11
80.206491
 21
13.497873
 31
0.0
  0
LINE
  5
51F
100
AcDbEntity
  8
0
  6
Continuous
 62
   212
100
AcDbLine
 10
80.206491
 20
13.497873
 30
0.0
 11
80.326281
 21
13.467078
 31
0.0
  0
LINE
  5
520
100
AcDbEntity
  8
0
  6
Continuous
 62
   212
100
AcDbLine
 10
80.326281
 20
13.467078
 30
0.0
 11
80.44112
 21
13.425053
 31
0.0
  0
LINE
  5
521
100
AcDbEntity
  8
0
  6
Continuous
 62
   212
100
AcDbLine
 10
80.44112
 20
13.425053
 30
0.0
 11
80.550381
 21
13.372426
 31
0.0
  0
LINE
  5
522
100
AcDbEntity
  8
0
  6
Continuous
 62
   212
100
AcDbLine
 10
80.550381
 20
13.372426
 30
0.0
 11
80.653434
 21
13.309825
 31
0.0
  0
LINE
  5
523
100
AcDbEntity
  8
0
  6
Continuous
 62
   212
100
AcDbLine
 10
80.653434
 20
13.309825
 30
0.0
 11
80.749653
 21
13.237877
 31
0.0
  0
LINE
  5
524
100
AcDbEntity
  8
0
  6
Continuous
 62
   212
100
AcDbLine
 10
80.749653
 20
13.237877
 30
0.0
 11
80.838409
 21
13.157212
 31
0.0
  0
LINE
  5
525
100
AcDbEntity
  8
0
  6
Continuous
 62
   212
100
AcDbLine
 10
80.838409
 20
13.157212
 30
0.0
 11
80.919074
 21
13.068456
 31
0.0
  0
LINE
  5
526
100
AcDbEntity
  8
0
  6
Continuous
 62
   212
100
AcDbLine
 10
80.919074
 20
13.068456
 30
0.0
 11
80.991022
 21
12.972237
 31
0.0
  0
LINE
  5
527
100
AcDbEntity
  8
0
  6
Continuous
 62
   212
100
AcDbLine
 10
80.991022
 20
12.972237
 30
0.0
 11
81.053623
 21
12.869183
 31
0.0
  0
LINE
  5
528
100
AcDbEntity
  8
0
  6
Continuous
 62
   212
100
AcDbLine
 10
81.053623
 20
12.869183
 30
0.0
 11
81.10625
 21
12.759923
 31
0.0
  0
LINE
  5
529
100
AcDbEntity
  8
0
  6
Continuous
 62
   212
100
AcDbLine
 10
81.10625
 20
12.759923
 30
0.0
 11
81.148275
 21
12.645084
 31
0.0
  0
LINE
  5
52A
100
AcDbEntity
  8
0
  6
Continuous
 62
   212
100
AcDbLine
 10
81.148275
 20
12.645084
 30
0.0
 11
81.17907
 21
12.525294
 31
0.0
  0
LINE
  5
52B
100
AcDbEntity
  8
0
  6
Continuous
 62
   212
100
AcDbLine
 10
81.17907
 20
12.525294
 30
0.0
 11
81.198008
 21
12.40118
 31
0.0
  0
LINE
  5
52C
100
AcDbEntity
  8
0
  6
Continuous
 62
   212
100
AcDbLine
 10
81.198008
 20
12.40118
 30
0.0
 11
81.20446
 21
12.273371
 31
0.0
  0
LINE
  5
52D
100
AcDbEntity
  8
0
  6
Continuous
 62
   212
100
AcDbLine
 10
81.20446
 20
12.273371
 30
0.0
 11
81.20446
 21
10.77336
 31
0.0
  0
LINE
  5
52E
100
AcDbEntity
  8
0
  6
Continuous
 62
   212
100
AcDbLine
 10
81.20446
 20
10.77336
 30
0.0
 11
81.198008
 21
10.645551
 31
0.0
  0
LINE
  5
52F
100
AcDbEntity
  8
0
  6
Continuous
 62
   212
100
AcDbLine
 10
81.198008
 20
10.645551
 30
0.0
 11
81.17907
 21
10.521437
 31
0.0
  0
LINE
  5
530
100
AcDbEntity
  8
0
  6
Continuous
 62
   212
100
AcDbLine
 10
81.17907
 20
10.521437
 30
0.0
 11
81.148275
 21
10.401647
 31
0.0
  0
LINE
  5
531
100
AcDbEntity
  8
0
  6
Continuous
 62
   212
100
AcDbLine
 10
81.148275
 20
10.401647
 30
0.0
 11
81.10625
 21
10.286808
 31
0.0
  0
LINE
  5
532
100
AcDbEntity
  8
0
  6
Continuous
 62
   212
100
AcDbLine
 10
81.10625
 20
10.286808
 30
0.0
 11
81.053623
 21
10.177547
 31
0.0
  0
LINE
  5
533
100
AcDbEntity
  8
0
  6
Continuous
 62
   212
100
AcDbLine
 10
81.053623
 20
10.177547
 30
0.0
 11
80.991022
 21
10.074494
 31
0.0
  0
LINE
  5
534
100
AcDbEntity
  8
0
  6
Continuous
 62
   212
100
AcDbLine
 10
80.991022
 20
10.074494
 30
0.0
 11
80.919074
 21
9.978275
 31
0.0
  0
LINE
  5
535
100
AcDbEntity
  8
0
  6
Continuous
 62
   212
100
AcDbLine
 10
80.919074
 20
9.978275
 30
0.0
 11
80.838409
 21
9.889519
 31
0.0
  0
LINE
  5
536
100
AcDbEntity
  8
0
  6
Continuous
 62
   212
100
AcDbLine
 10
80.838409
 20
9.889519
 30
0.0
 11
80.749653
 21
9.808854
 31
0.0
  0
LINE
  5
537
100
AcDbEntity
  8
0
  6
Continuous
 62
   212
100
AcDbLine
 10
80.749653
 20
9.808854
 30
0.0
 11
80.653434
 21
9.736906
 31
0.0
  0
LINE
  5
538
100
AcDbEntity
  8
0
  6
Continuous
 62
   212
100
AcDbLine
 10
80.653434
 20
9.736906
 30
0.0
 11
80.550381
 21
9.674305
 31
0.0
  0
LINE
  5
539
100
AcDbEntity
  8
0
  6
Continuous
 62
   212
100
AcDbLine
 10
80.550381
 20
9.674305
 30
0.0
 11
80.44112
 21
9.621678
 31
0.0
  0
LINE
  5
53A
100
AcDbEntity
  8
0
  6
Continuous
 62
   212
100
AcDbLine
 10
80.44112
 20
9.621678
 30
0.0
 11
80.326281
 21
9.579653
 31
0.0
  0
LINE
  5
53B
100
AcDbEntity
  8
0
  6
Continuous
 62
   212
100
AcDbLine
 10
80.326281
 20
9.579653
 30
0.0
 11
80.206491
 21
9.548858
 31
0.0
  0
LINE
  5
53C
100
AcDbEntity
  8
0
  6
Continuous
 62
   212
100
AcDbLine
 10
80.206491
 20
9.548858
 30
0.0
 11
80.082377
 21
9.52992
 31
0.0
  0
LINE
  5
53D
100
AcDbEntity
  8
0
  6
Continuous
 62
   212
100
AcDbLine
 10
80.082377
 20
9.52992
 30
0.0
 11
79.954568
 21
9.523468
 31
0.0
  0
LINE
  5
53E
100
AcDbEntity
  8
0
  6
Continuous
 62
   212
100
AcDbLine
 10
79.954568
 20
9.523468
 30
0.0
 11
67.454593
 21
9.523468
 31
0.0
  0
LINE
  5
53F
100
AcDbEntity
  8
0
  6
Continuous
 62
   212
100
AcDbLine
 10
67.454593
 20
9.523468
 30
0.0
 11
67.326784
 21
9.52992
 31
0.0
  0
LINE
  5
540
100
AcDbEntity
  8
0
  6
Continuous
 62
   212
100
AcDbLine
 10
67.326784
 20
9.52992
 30
0.0
 11
67.202671
 21
9.548858
 31
0.0
  0
LINE
  5
541
100
AcDbEntity
  8
0
  6
Continuous
 62
   212
100
AcDbLine
 10
67.202671
 20
9.548858
 30
0.0
 11
67.08288
 21
9.579653
 31
0.0
  0
LINE
  5
542
100
AcDbEntity
  8
0
  6
Continuous
 62
   212
100
AcDbLine
 10
67.08288
 20
9.579653
 30
0.0
 11
66.968041
 21
9.621678
 31
0.0
  0
LINE
  5
543
100
AcDbEntity
  8
0
  6
Continuous
 62
   212
100
AcDbLine
 10
66.968041
 20
9.621678
 30
0.0
 11
66.858781
 21
9.674305
 31
0.0
  0
LINE
  5
544
100
AcDbEntity
  8
0
  6
Continuous
 62
   212
100
AcDbLine
 10
66.858781
 20
9.674305
 30
0.0
 11
66.755727
 21
9.736906
 31
0.0
  0
LINE
  5
545
100
AcDbEntity
  8
0
  6
Continuous
 62
   212
100
AcDbLine
 10
66.755727
 20
9.736906
 30
0.0
 11
66.659509
 21
9.808854
 31
0.0
  0
LINE
  5
546
100
AcDbEntity
  8
0
  6
Continuous
 62
   212
100
AcDbLine
 10
66.659509
 20
9.808854
 30
0.0
 11
66.570752
 21
9.889519
 31
0.0
  0
LINE
  5
547
100
AcDbEntity
  8
0
  6
Continuous
 62
   212
100
AcDbLine
 10
36.855637
 20
25.677192
 30
0.0
 11
36.802983
 21
25.786452
 31
0.0
  0
LINE
  5
548
100
AcDbEntity
  8
0
  6
Continuous
 62
   212
100
AcDbLine
 10
36.802983
 20
25.786452
 30
0.0
 11
36.760936
 21
25.901291
 31
0.0
  0
LINE
  5
549
100
AcDbEntity
  8
0
  6
Continuous
 62
   212
100
AcDbLine
 10
36.760936
 20
25.901291
 30
0.0
 11
36.730123
 21
26.021082
 31
0.0
  0
LINE
  5
54A
100
AcDbEntity
  8
0
  6
Continuous
 62
   212
100
AcDbLine
 10
36.615893
 20
36.956581
 30
0.0
 11
36.535227
 21
37.045337
 31
0.0
  0
LINE
  5
54B
100
AcDbEntity
  8
0
  6
Continuous
 62
   212
100
AcDbLine
 10
36.535227
 20
37.045337
 30
0.0
 11
36.46328
 21
37.141556
 31
0.0
  0
LINE
  5
54C
100
AcDbEntity
  8
0
  6
Continuous
 62
   212
100
AcDbLine
 10
36.275232
 20
37.588499
 30
0.0
 11
36.256294
 21
37.712613
 31
0.0
  0
LINE
  5
54D
100
AcDbEntity
  8
0
  6
Continuous
 62
   212
100
AcDbLine
 10
36.256294
 20
37.712613
 30
0.0
 11
36.249842
 21
37.840422
 31
0.0
  0
LINE
  5
54E
100
AcDbEntity
  8
0
  6
Continuous
 62
   212
100
AcDbLine
 10
36.249842
 20
37.840422
 30
0.0
 11
36.249842
 21
39.340433
 31
0.0
  0
LINE
  5
54F
100
AcDbEntity
  8
0
  6
Continuous
 62
   212
100
AcDbLine
 10
36.249842
 20
39.340433
 30
0.0
 11
36.256294
 21
39.468242
 31
0.0
  0
LINE
  5
550
100
AcDbEntity
  8
0
  6
Continuous
 62
   212
100
AcDbLine
 10
36.256294
 20
39.468242
 30
0.0
 11
36.275232
 21
39.592356
 31
0.0
  0
LINE
  5
551
100
AcDbEntity
  8
0
  6
Continuous
 62
   212
100
AcDbLine
 10
36.275232
 20
39.592356
 30
0.0
 11
36.306027
 21
39.712146
 31
0.0
  0
LINE
  5
552
100
AcDbEntity
  8
0
  6
Continuous
 62
   212
100
AcDbLine
 10
36.306027
 20
39.712146
 30
0.0
 11
36.348052
 21
39.826985
 31
0.0
  0
LINE
  5
553
100
AcDbEntity
  8
0
  6
Continuous
 62
   212
100
AcDbLine
 10
36.348052
 20
39.826985
 30
0.0
 11
36.400679
 21
39.936245
 31
0.0
  0
LINE
  5
554
100
AcDbEntity
  8
0
  6
Continuous
 62
   212
100
AcDbLine
 10
36.400679
 20
39.936245
 30
0.0
 11
36.46328
 21
40.039299
 31
0.0
  0
LINE
  5
555
100
AcDbEntity
  8
0
  6
Continuous
 62
   212
100
AcDbLine
 10
36.46328
 20
40.039299
 30
0.0
 11
36.535227
 21
40.135518
 31
0.0
  0
LINE
  5
556
100
AcDbEntity
  8
0
  6
Continuous
 62
   212
100
AcDbLine
 10
36.535227
 20
40.135518
 30
0.0
 11
36.615893
 21
40.224274
 31
0.0
  0
LINE
  5
557
100
AcDbEntity
  8
0
  6
Continuous
 62
   212
100
AcDbLine
 10
36.615893
 20
40.224274
 30
0.0
 11
36.704649
 21
40.304939
 31
0.0
  0
LINE
  5
558
100
AcDbEntity
  8
0
  6
Continuous
 62
   212
100
AcDbLine
 10
36.704649
 20
40.304939
 30
0.0
 11
36.800868
 21
40.376887
 31
0.0
  0
LINE
  5
559
100
AcDbEntity
  8
0
  6
Continuous
 62
   212
100
AcDbLine
 10
36.800868
 20
40.376887
 30
0.0
 11
36.903921
 21
40.439488
 31
0.0
  0
LINE
  5
55A
100
AcDbEntity
  8
0
  6
Continuous
 62
   212
100
AcDbLine
 10
36.903921
 20
40.439488
 30
0.0
 11
37.013181
 21
40.492115
 31
0.0
  0
LINE
  5
55B
100
AcDbEntity
  8
0
  6
Continuous
 62
   212
100
AcDbLine
 10
37.013181
 20
40.492115
 30
0.0
 11
37.128021
 21
40.53414
 31
0.0
  0
LINE
  5
55C
100
AcDbEntity
  8
0
  6
Continuous
 62
   212
100
AcDbLine
 10
37.128021
 20
40.53414
 30
0.0
 11
37.247811
 21
40.564935
 31
0.0
  0
LINE
  5
55D
100
AcDbEntity
  8
0
  6
Continuous
 62
   212
100
AcDbLine
 10
37.247811
 20
40.564935
 30
0.0
 11
37.371925
 21
40.583873
 31
0.0
  0
LINE
  5
55E
100
AcDbEntity
  8
0
  6
Continuous
 62
   212
100
AcDbLine
 10
37.371925
 20
40.583873
 30
0.0
 11
37.499734
 21
40.590325
 31
0.0
  0
LINE
  5
55F
100
AcDbEntity
  8
0
  6
Continuous
 62
   212
100
AcDbLine
 10
37.499734
 20
40.590325
 30
0.0
 11
41.999767
 21
40.590325
 31
0.0
  0
LINE
  5
560
100
AcDbEntity
  8
0
  6
Continuous
 62
   212
100
AcDbLine
 10
41.999767
 20
40.590325
 30
0.0
 11
42.127576
 21
40.583873
 31
0.0
  0
LINE
  5
561
100
AcDbEntity
  8
0
  6
Continuous
 62
   212
100
AcDbLine
 10
42.127576
 20
40.583873
 30
0.0
 11
42.251689
 21
40.564935
 31
0.0
  0
LINE
  5
562
100
AcDbEntity
  8
0
  6
Continuous
 62
   212
100
AcDbLine
 10
42.251689
 20
40.564935
 30
0.0
 11
42.37148
 21
40.53414
 31
0.0
  0
LINE
  5
563
100
AcDbEntity
  8
0
  6
Continuous
 62
   212
100
AcDbLine
 10
42.37148
 20
40.53414
 30
0.0
 11
42.486319
 21
40.492115
 31
0.0
  0
LINE
  5
564
100
AcDbEntity
  8
0
  6
Continuous
 62
   212
100
AcDbLine
 10
42.486319
 20
40.492115
 30
0.0
 11
42.595579
 21
40.439488
 31
0.0
  0
LINE
  5
565
100
AcDbEntity
  8
0
  6
Continuous
 62
   212
100
AcDbLine
 10
42.595579
 20
40.439488
 30
0.0
 11
42.698633
 21
40.376887
 31
0.0
  0
LINE
  5
566
100
AcDbEntity
  8
0
  6
Continuous
 62
   212
100
AcDbLine
 10
42.698633
 20
40.376887
 30
0.0
 11
42.794851
 21
40.304939
 31
0.0
  0
LINE
  5
567
100
AcDbEntity
  8
0
  6
Continuous
 62
   212
100
AcDbLine
 10
42.794851
 20
40.304939
 30
0.0
 11
42.883608
 21
40.224274
 31
0.0
  0
LINE
  5
568
100
AcDbEntity
  8
0
  6
Continuous
 62
   212
100
AcDbLine
 10
42.883608
 20
40.224274
 30
0.0
 11
42.964273
 21
40.135518
 31
0.0
  0
LINE
  5
569
100
AcDbEntity
  8
0
  6
Continuous
 62
   212
100
AcDbLine
 10
42.964273
 20
40.135518
 30
0.0
 11
43.03622
 21
40.039299
 31
0.0
  0
LINE
  5
56A
100
AcDbEntity
  8
0
  6
Continuous
 62
   212
100
AcDbLine
 10
43.03622
 20
40.039299
 30
0.0
 11
43.098822
 21
39.936245
 31
0.0
  0
LINE
  5
56B
100
AcDbEntity
  8
0
  6
Continuous
 62
   212
100
AcDbLine
 10
43.098822
 20
39.936245
 30
0.0
 11
43.151449
 21
39.826985
 31
0.0
  0
LINE
  5
56C
100
AcDbEntity
  8
0
  6
Continuous
 62
   212
100
AcDbLine
 10
43.151449
 20
39.826985
 30
0.0
 11
43.193474
 21
39.712146
 31
0.0
  0
LINE
  5
56D
100
AcDbEntity
  8
0
  6
Continuous
 62
   212
100
AcDbLine
 10
43.193474
 20
39.712146
 30
0.0
 11
43.224269
 21
39.592356
 31
0.0
  0
LINE
  5
56E
100
AcDbEntity
  8
0
  6
Continuous
 62
   212
100
AcDbLine
 10
43.224269
 20
39.592356
 30
0.0
 11
43.243206
 21
39.468242
 31
0.0
  0
LINE
  5
56F
100
AcDbEntity
  8
0
  6
Continuous
 62
   212
100
AcDbLine
 10
43.243206
 20
39.468242
 30
0.0
 11
43.249659
 21
39.340433
 31
0.0
  0
LINE
  5
570
100
AcDbEntity
  8
0
  6
Continuous
 62
   212
100
AcDbLine
 10
43.249659
 20
39.340433
 30
0.0
 11
43.249659
 21
37.840422
 31
0.0
  0
LINE
  5
571
100
AcDbEntity
  8
0
  6
Continuous
 62
   212
100
AcDbLine
 10
43.249659
 20
37.840422
 30
0.0
 11
43.243206
 21
37.712613
 31
0.0
  0
LINE
  5
572
100
AcDbEntity
  8
0
  6
Continuous
 62
   212
100
AcDbLine
 10
43.243206
 20
37.712613
 30
0.0
 11
43.224269
 21
37.588499
 31
0.0
  0
LINE
  5
573
100
AcDbEntity
  8
0
  6
Continuous
 62
   212
100
AcDbLine
 10
43.224269
 20
37.588499
 30
0.0
 11
43.193474
 21
37.468709
 31
0.0
  0
LINE
  5
574
100
AcDbEntity
  8
0
  6
Continuous
 62
   212
100
AcDbLine
 10
43.193474
 20
37.468709
 30
0.0
 11
43.151449
 21
37.35387
 31
0.0
  0
LINE
  5
575
100
AcDbEntity
  8
0
  6
Continuous
 62
   212
100
AcDbLine
 10
43.151449
 20
37.35387
 30
0.0
 11
43.098822
 21
37.244609
 31
0.0
  0
LINE
  5
576
100
AcDbEntity
  8
0
  6
Continuous
 62
   212
100
AcDbLine
 10
43.098822
 20
37.244609
 30
0.0
 11
43.03622
 21
37.141556
 31
0.0
  0
LINE
  5
577
100
AcDbEntity
  8
0
  6
Continuous
 62
   212
100
AcDbLine
 10
43.03622
 20
37.141556
 30
0.0
 11
42.964273
 21
37.045337
 31
0.0
  0
LINE
  5
578
100
AcDbEntity
  8
0
  6
Continuous
 62
   212
100
AcDbLine
 10
42.964273
 20
37.045337
 30
0.0
 11
42.883608
 21
36.956581
 31
0.0
  0
LINE
  5
579
100
AcDbEntity
  8
0
  6
Continuous
 62
   212
100
AcDbLine
 10
42.883608
 20
36.956581
 30
0.0
 11
42.794851
 21
36.875916
 31
0.0
  0
LINE
  5
57A
100
AcDbEntity
  8
0
  6
Continuous
 62
   212
100
AcDbLine
 10
42.794851
 20
36.875916
 30
0.0
 11
42.698633
 21
36.803968
 31
0.0
  0
LINE
  5
57B
100
AcDbEntity
  8
0
  6
Continuous
 62
   212
100
AcDbLine
 10
42.698633
 20
36.803968
 30
0.0
 11
42.595579
 21
36.741367
 31
0.0
  0
LINE
  5
57C
100
AcDbEntity
  8
0
  6
Continuous
 62
   212
100
AcDbLine
 10
42.595579
 20
36.741367
 30
0.0
 11
42.486319
 21
36.68874
 31
0.0
  0
LINE
  5
57D
100
AcDbEntity
  8
0
  6
Continuous
 62
   212
100
AcDbLine
 10
42.486319
 20
36.68874
 30
0.0
 11
42.37148
 21
36.646715
 31
0.0
  0
LINE
  5
57E
100
AcDbEntity
  8
0
  6
Continuous
 62
   212
100
AcDbLine
 10
42.37148
 20
36.646715
 30
0.0
 11
42.251689
 21
36.61592
 31
0.0
  0
LINE
  5
57F
100
AcDbEntity
  8
0
  6
Continuous
 62
   212
100
AcDbLine
 10
42.251689
 20
36.61592
 30
0.0
 11
42.127576
 21
36.596982
 31
0.0
  0
LINE
  5
580
100
AcDbEntity
  8
0
  6
Continuous
 62
   212
100
AcDbLine
 10
42.127576
 20
36.596982
 30
0.0
 11
41.999767
 21
36.59053
 31
0.0
  0
LINE
  5
581
100
AcDbEntity
  8
0
  6
Continuous
 62
   212
100
AcDbLine
 10
41.999767
 20
36.59053
 30
0.0
 11
37.499734
 21
36.59053
 31
0.0
  0
LINE
  5
582
100
AcDbEntity
  8
0
  6
Continuous
 62
   212
100
AcDbLine
 10
37.499734
 20
36.59053
 30
0.0
 11
37.371925
 21
36.596982
 31
0.0
  0
LINE
  5
583
100
AcDbEntity
  8
0
  6
Continuous
 62
   212
100
AcDbLine
 10
37.371925
 20
36.596982
 30
0.0
 11
37.247811
 21
36.61592
 31
0.0
  0
LINE
  5
584
100
AcDbEntity
  8
0
  6
Continuous
 62
   212
100
AcDbLine
 10
37.247811
 20
36.61592
 30
0.0
 11
37.128021
 21
36.646715
 31
0.0
  0
LINE
  5
585
100
AcDbEntity
  8
0
  6
Continuous
 62
   212
100
AcDbLine
 10
37.128021
 20
36.646715
 30
0.0
 11
37.013181
 21
36.68874
 31
0.0
  0
LINE
  5
586
100
AcDbEntity
  8
0
  6
Continuous
 62
   212
100
AcDbLine
 10
37.013181
 20
36.68874
 30
0.0
 11
36.903921
 21
36.741367
 31
0.0
  0
LINE
  5
587
100
AcDbEntity
  8
0
  6
Continuous
 62
   212
100
AcDbLine
 10
36.903921
 20
36.741367
 30
0.0
 11
36.800868
 21
36.803968
 31
0.0
  0
LINE
  5
588
100
AcDbEntity
  8
0
  6
Continuous
 62
   212
100
AcDbLine
 10
36.800868
 20
36.803968
 30
0.0
 11
36.704649
 21
36.875916
 31
0.0
  0
LINE
  5
589
100
AcDbEntity
  8
0
  6
Continuous
 62
   212
100
AcDbLine
 10
36.704649
 20
36.875916
 30
0.0
 11
36.615893
 21
36.956581
 31
0.0
  0
LINE
  5
58A
100
AcDbEntity
  8
0
  6
Continuous
 62
   212
100
AcDbLine
 10
49.859125
 20
9.674305
 30
0.0
 11
49.968385
 21
9.621678
 31
0.0
  0
LINE
  5
58B
100
AcDbEntity
  8
0
  6
Continuous
 62
   212
100
AcDbLine
 10
49.968385
 20
9.621678
 30
0.0
 11
50.083225
 21
9.579653
 31
0.0
  0
LINE
  5
58C
100
AcDbEntity
  8
0
  6
Continuous
 62
   212
100
AcDbLine
 10
50.083225
 20
9.579653
 30
0.0
 11
50.203015
 21
9.548858
 31
0.0
  0
LINE
  5
58D
100
AcDbEntity
  8
0
  6
Continuous
 62
   212
100
AcDbLine
 10
50.203015
 20
9.548858
 30
0.0
 11
50.327129
 21
9.52992
 31
0.0
  0
LINE
  5
58E
100
AcDbEntity
  8
0
  6
Continuous
 62
   212
100
AcDbLine
 10
37.070946
 20
25.389164
 30
0.0
 11
36.990247
 21
25.47792
 31
0.0
  0
LINE
  5
58F
100
AcDbEntity
  8
0
  6
Continuous
 62
   212
100
AcDbLine
 10
36.990247
 20
25.47792
 30
0.0
 11
36.918268
 21
25.574138
 31
0.0
  0
LINE
  5
590
100
AcDbEntity
  8
0
  6
Continuous
 62
   212
100
AcDbLine
 10
36.918268
 20
25.574138
 30
0.0
 11
36.855637
 21
25.677192
 31
0.0
  0
LINE
  5
591
100
AcDbEntity
  8
0
  6
Continuous
 62
   212
100
AcDbLine
 10
36.730123
 20
26.021082
 30
0.0
 11
36.711174
 21
26.145195
 31
0.0
  0
LINE
  5
592
100
AcDbEntity
  8
0
  6
Continuous
 62
   212
100
AcDbLine
 10
36.711174
 20
26.145195
 30
0.0
 11
36.704718
 21
26.273004
 31
0.0
  0
LINE
  5
593
100
AcDbEntity
  8
0
  6
Continuous
 62
   212
100
AcDbLine
 10
36.704718
 20
26.273004
 30
0.0
 11
36.704718
 21
27.773015
 31
0.0
  0
LINE
  5
594
100
AcDbEntity
  8
0
  6
Continuous
 62
   212
100
AcDbLine
 10
36.704718
 20
27.773015
 30
0.0
 11
36.711174
 21
27.900824
 31
0.0
  0
LINE
  5
595
100
AcDbEntity
  8
0
  6
Continuous
 62
   212
100
AcDbLine
 10
36.711174
 20
27.900824
 30
0.0
 11
36.730123
 21
28.024938
 31
0.0
  0
LINE
  5
596
100
AcDbEntity
  8
0
  6
Continuous
 62
   212
100
AcDbLine
 10
36.730123
 20
28.024938
 30
0.0
 11
36.760936
 21
28.144728
 31
0.0
  0
LINE
  5
597
100
AcDbEntity
  8
0
  6
Continuous
 62
   212
100
AcDbLine
 10
36.760936
 20
28.144728
 30
0.0
 11
36.802983
 21
28.259568
 31
0.0
  0
LINE
  5
598
100
AcDbEntity
  8
0
  6
Continuous
 62
   212
100
AcDbLine
 10
36.802983
 20
28.259568
 30
0.0
 11
36.855637
 21
28.368828
 31
0.0
  0
LINE
  5
599
100
AcDbEntity
  8
0
  6
Continuous
 62
   212
100
AcDbLine
 10
36.855637
 20
28.368828
 30
0.0
 11
36.918268
 21
28.471881
 31
0.0
  0
LINE
  5
59A
100
AcDbEntity
  8
0
  6
Continuous
 62
   212
100
AcDbLine
 10
36.918268
 20
28.471881
 30
0.0
 11
36.990247
 21
28.5681
 31
0.0
  0
LINE
  5
59B
100
AcDbEntity
  8
0
  6
Continuous
 62
   212
100
AcDbLine
 10
36.990247
 20
28.5681
 30
0.0
 11
37.070946
 21
28.656856
 31
0.0
  0
LINE
  5
59C
100
AcDbEntity
  8
0
  6
Continuous
 62
   212
100
AcDbLine
 10
37.070946
 20
28.656856
 30
0.0
 11
37.159735
 21
28.737522
 31
0.0
  0
LINE
  5
59D
100
AcDbEntity
  8
0
  6
Continuous
 62
   212
100
AcDbLine
 10
37.159735
 20
28.737522
 30
0.0
 11
37.255985
 21
28.809469
 31
0.0
  0
LINE
  5
59E
100
AcDbEntity
  8
0
  6
Continuous
 62
   212
100
AcDbLine
 10
37.255985
 20
28.809469
 30
0.0
 11
37.359068
 21
28.87207
 31
0.0
  0
LINE
  5
59F
100
AcDbEntity
  8
0
  6
Continuous
 62
   212
100
AcDbLine
 10
37.359068
 20
28.87207
 30
0.0
 11
37.468355
 21
28.924697
 31
0.0
  0
LINE
  5
5A0
100
AcDbEntity
  8
0
  6
Continuous
 62
   212
100
AcDbLine
 10
37.468355
 20
28.924697
 30
0.0
 11
37.583217
 21
28.966722
 31
0.0
  0
LINE
  5
5A1
100
AcDbEntity
  8
0
  6
Continuous
 62
   212
100
AcDbLine
 10
37.583217
 20
28.966722
 30
0.0
 11
37.703025
 21
28.997517
 31
0.0
  0
LINE
  5
5A2
100
AcDbEntity
  8
0
  6
Continuous
 62
   212
100
AcDbLine
 10
37.703025
 20
28.997517
 30
0.0
 11
37.82715
 21
29.016455
 31
0.0
  0
LINE
  5
5A3
100
AcDbEntity
  8
0
  6
Continuous
 62
   212
100
AcDbLine
 10
37.82715
 20
29.016455
 30
0.0
 11
37.954963
 21
29.022907
 31
0.0
  0
LINE
  5
5A4
100
AcDbEntity
  8
0
  6
Continuous
 62
   212
100
AcDbLine
 10
37.954963
 20
29.022907
 30
0.0
 11
45.454665
 21
29.022907
 31
0.0
  0
LINE
  5
5A5
100
AcDbEntity
  8
0
  6
Continuous
 62
   212
100
AcDbLine
 10
45.454665
 20
29.022907
 30
0.0
 11
45.582478
 21
29.016455
 31
0.0
  0
LINE
  5
5A6
100
AcDbEntity
  8
0
  6
Continuous
 62
   212
100
AcDbLine
 10
45.582478
 20
29.016455
 30
0.0
 11
45.706603
 21
28.997517
 31
0.0
  0
LINE
  5
5A7
100
AcDbEntity
  8
0
  6
Continuous
 62
   212
100
AcDbLine
 10
45.706603
 20
28.997517
 30
0.0
 11
45.826411
 21
28.966722
 31
0.0
  0
LINE
  5
5A8
100
AcDbEntity
  8
0
  6
Continuous
 62
   212
100
AcDbLine
 10
45.826411
 20
28.966722
 30
0.0
 11
45.941273
 21
28.924697
 31
0.0
  0
LINE
  5
5A9
100
AcDbEntity
  8
0
  6
Continuous
 62
   212
100
AcDbLine
 10
45.941273
 20
28.924697
 30
0.0
 11
46.05056
 21
28.87207
 31
0.0
  0
LINE
  5
5AA
100
AcDbEntity
  8
0
  6
Continuous
 62
   212
100
AcDbLine
 10
46.05056
 20
28.87207
 30
0.0
 11
46.153643
 21
28.809469
 31
0.0
  0
LINE
  5
5AB
100
AcDbEntity
  8
0
  6
Continuous
 62
   212
100
AcDbLine
 10
46.153643
 20
28.809469
 30
0.0
 11
46.249893
 21
28.737522
 31
0.0
  0
LINE
  5
5AC
100
AcDbEntity
  8
0
  6
Continuous
 62
   212
100
AcDbLine
 10
46.249893
 20
28.737522
 30
0.0
 11
46.338682
 21
28.656856
 31
0.0
  0
LINE
  5
5AD
100
AcDbEntity
  8
0
  6
Continuous
 62
   212
100
AcDbLine
 10
46.338682
 20
28.656856
 30
0.0
 11
46.419381
 21
28.5681
 31
0.0
  0
LINE
  5
5AE
100
AcDbEntity
  8
0
  6
Continuous
 62
   212
100
AcDbLine
 10
46.419381
 20
28.5681
 30
0.0
 11
46.49136
 21
28.471881
 31
0.0
  0
LINE
  5
5AF
100
AcDbEntity
  8
0
  6
Continuous
 62
   212
100
AcDbLine
 10
46.49136
 20
28.471881
 30
0.0
 11
46.553991
 21
28.368828
 31
0.0
  0
LINE
  5
5B0
100
AcDbEntity
  8
0
  6
Continuous
 62
   212
100
AcDbLine
 10
46.553991
 20
28.368828
 30
0.0
 11
46.606645
 21
28.259568
 31
0.0
  0
LINE
  5
5B1
100
AcDbEntity
  8
0
  6
Continuous
 62
   212
100
AcDbLine
 10
46.606645
 20
28.259568
 30
0.0
 11
46.648692
 21
28.144728
 31
0.0
  0
LINE
  5
5B2
100
AcDbEntity
  8
0
  6
Continuous
 62
   212
100
AcDbLine
 10
46.648692
 20
28.144728
 30
0.0
 11
46.679505
 21
28.024938
 31
0.0
  0
LINE
  5
5B3
100
AcDbEntity
  8
0
  6
Continuous
 62
   212
100
AcDbLine
 10
46.679505
 20
28.024938
 30
0.0
 11
46.698454
 21
27.900824
 31
0.0
  0
LINE
  5
5B4
100
AcDbEntity
  8
0
  6
Continuous
 62
   212
100
AcDbLine
 10
46.698454
 20
27.900824
 30
0.0
 11
46.70491
 21
27.773015
 31
0.0
  0
LINE
  5
5B5
100
AcDbEntity
  8
0
  6
Continuous
 62
   212
100
AcDbLine
 10
46.70491
 20
27.773015
 30
0.0
 11
46.70491
 21
26.273004
 31
0.0
  0
LINE
  5
5B6
100
AcDbEntity
  8
0
  6
Continuous
 62
   212
100
AcDbLine
 10
46.70491
 20
26.273004
 30
0.0
 11
46.698454
 21
26.145195
 31
0.0
  0
LINE
  5
5B7
100
AcDbEntity
  8
0
  6
Continuous
 62
   212
100
AcDbLine
 10
46.698454
 20
26.145195
 30
0.0
 11
46.679505
 21
26.021082
 31
0.0
  0
LINE
  5
5B8
100
AcDbEntity
  8
0
  6
Continuous
 62
   212
100
AcDbLine
 10
46.679505
 20
26.021082
 30
0.0
 11
46.648692
 21
25.901291
 31
0.0
  0
LINE
  5
5B9
100
AcDbEntity
  8
0
  6
Continuous
 62
   212
100
AcDbLine
 10
46.648692
 20
25.901291
 30
0.0
 11
46.606645
 21
25.786452
 31
0.0
  0
LINE
  5
5BA
100
AcDbEntity
  8
0
  6
Continuous
 62
   212
100
AcDbLine
 10
46.606645
 20
25.786452
 30
0.0
 11
46.553991
 21
25.677192
 31
0.0
  0
LINE
  5
5BB
100
AcDbEntity
  8
0
  6
Continuous
 62
   212
100
AcDbLine
 10
46.553991
 20
25.677192
 30
0.0
 11
46.49136
 21
25.574138
 31
0.0
  0
LINE
  5
5BC
100
AcDbEntity
  8
0
  6
Continuous
 62
   212
100
AcDbLine
 10
46.49136
 20
25.574138
 30
0.0
 11
46.419381
 21
25.47792
 31
0.0
  0
LINE
  5
5BD
100
AcDbEntity
  8
0
  6
Continuous
 62
   212
100
AcDbLine
 10
46.419381
 20
25.47792
 30
0.0
 11
46.338682
 21
25.389164
 31
0.0
  0
LINE
  5
5BE
100
AcDbEntity
  8
0
  6
Continuous
 62
   212
100
AcDbLine
 10
46.338682
 20
25.389164
 30
0.0
 11
46.249893
 21
25.308498
 31
0.0
  0
LINE
  5
5BF
100
AcDbEntity
  8
0
  6
Continuous
 62
   212
100
AcDbLine
 10
46.249893
 20
25.308498
 30
0.0
 11
46.153643
 21
25.236551
 31
0.0
  0
LINE
  5
5C0
100
AcDbEntity
  8
0
  6
Continuous
 62
   212
100
AcDbLine
 10
46.153643
 20
25.236551
 30
0.0
 11
46.05056
 21
25.17395
 31
0.0
  0
LINE
  5
5C1
100
AcDbEntity
  8
0
  6
Continuous
 62
   212
100
AcDbLine
 10
46.05056
 20
25.17395
 30
0.0
 11
45.941273
 21
25.121323
 31
0.0
  0
LINE
  5
5C2
100
AcDbEntity
  8
0
  6
Continuous
 62
   212
100
AcDbLine
 10
45.941273
 20
25.121323
 30
0.0
 11
45.826411
 21
25.079298
 31
0.0
  0
LINE
  5
5C3
100
AcDbEntity
  8
0
  6
Continuous
 62
   212
100
AcDbLine
 10
45.826411
 20
25.079298
 30
0.0
 11
45.706603
 21
25.048502
 31
0.0
  0
LINE
  5
5C4
100
AcDbEntity
  8
0
  6
Continuous
 62
   212
100
AcDbLine
 10
45.706603
 20
25.048502
 30
0.0
 11
45.582478
 21
25.029565
 31
0.0
  0
LINE
  5
5C5
100
AcDbEntity
  8
0
  6
Continuous
 62
   212
100
AcDbLine
 10
45.582478
 20
25.029565
 30
0.0
 11
45.454665
 21
25.023113
 31
0.0
  0
LINE
  5
5C6
100
AcDbEntity
  8
0
  6
Continuous
 62
   212
100
AcDbLine
 10
45.454665
 20
25.023113
 30
0.0
 11
37.954963
 21
25.023113
 31
0.0
  0
LINE
  5
5C7
100
AcDbEntity
  8
0
  6
Continuous
 62
   212
100
AcDbLine
 10
37.954963
 20
25.023113
 30
0.0
 11
37.82715
 21
25.029565
 31
0.0
  0
LINE
  5
5C8
100
AcDbEntity
  8
0
  6
Continuous
 62
   212
100
AcDbLine
 10
37.82715
 20
25.029565
 30
0.0
 11
37.703025
 21
25.048502
 31
0.0
  0
LINE
  5
5C9
100
AcDbEntity
  8
0
  6
Continuous
 62
   212
100
AcDbLine
 10
37.703025
 20
25.048502
 30
0.0
 11
37.583217
 21
25.079298
 31
0.0
  0
LINE
  5
5CA
100
AcDbEntity
  8
0
  6
Continuous
 62
   212
100
AcDbLine
 10
37.583217
 20
25.079298
 30
0.0
 11
37.468355
 21
25.121323
 31
0.0
  0
LINE
  5
5CB
100
AcDbEntity
  8
0
  6
Continuous
 62
   212
100
AcDbLine
 10
37.468355
 20
25.121323
 30
0.0
 11
37.359068
 21
25.17395
 31
0.0
  0
LINE
  5
5CC
100
AcDbEntity
  8
0
  6
Continuous
 62
   212
100
AcDbLine
 10
37.359068
 20
25.17395
 30
0.0
 11
37.255985
 21
25.236551
 31
0.0
  0
LINE
  5
5CD
100
AcDbEntity
  8
0
  6
Continuous
 62
   212
100
AcDbLine
 10
37.255985
 20
25.236551
 30
0.0
 11
37.159735
 21
25.308498
 31
0.0
  0
LINE
  5
5CE
100
AcDbEntity
  8
0
  6
Continuous
 62
   212
100
AcDbLine
 10
37.159735
 20
25.308498
 30
0.0
 11
37.070946
 21
25.389164
 31
0.0
  0
LINE
  5
5CF
100
AcDbEntity
  8
0
  6
Continuous
 62
   212
100
AcDbLine
 10
43.357907
 20
14.17116
 30
0.0
 11
43.242705
 21
14.360805
 31
0.0
  0
LINE
  5
5D0
100
AcDbEntity
  8
0
  6
Continuous
 62
   212
100
AcDbLine
 10
43.242705
 20
14.360805
 30
0.0
 11
43.145856
 21
14.561868
 31
0.0
  0
LINE
  5
5D1
100
AcDbEntity
  8
0
  6
Continuous
 62
   212
100
AcDbLine
 10
43.145856
 20
14.561868
 30
0.0
 11
43.068516
 21
14.773194
 31
0.0
  0
LINE
  5
5D2
100
AcDbEntity
  8
0
  6
Continuous
 62
   212
100
AcDbLine
 10
49.659853
 20
9.808854
 30
0.0
 11
49.756072
 21
9.736906
 31
0.0
  0
LINE
  5
5D3
100
AcDbEntity
  8
0
  6
Continuous
 62
   212
100
AcDbLine
 10
49.756072
 20
9.736906
 30
0.0
 11
49.859125
 21
9.674305
 31
0.0
  0
LINE
  5
5D4
100
AcDbEntity
  8
0
  6
Continuous
 62
   212
100
AcDbLine
 10
50.327129
 20
9.52992
 30
0.0
 11
50.454938
 21
9.523468
 31
0.0
  0
LINE
  5
5D5
100
AcDbEntity
  8
0
  6
Continuous
 62
   212
100
AcDbLine
 10
50.454938
 20
9.523468
 30
0.0
 11
51.954949
 21
9.523468
 31
0.0
  0
LINE
  5
5D6
100
AcDbEntity
  8
0
  6
Continuous
 62
   212
100
AcDbLine
 10
51.954949
 20
9.523468
 30
0.0
 11
52.0827
 21
9.52992
 31
0.0
  0
LINE
  5
5D7
100
AcDbEntity
  8
0
  6
Continuous
 62
   212
100
AcDbLine
 10
52.0827
 20
9.52992
 30
0.0
 11
52.20677
 21
9.548858
 31
0.0
  0
LINE
  5
5D8
100
AcDbEntity
  8
0
  6
Continuous
 62
   212
100
AcDbLine
 10
52.20677
 20
9.548858
 30
0.0
 11
52.326531
 21
9.579653
 31
0.0
  0
LINE
  5
5D9
100
AcDbEntity
  8
0
  6
Continuous
 62
   212
100
AcDbLine
 10
52.326531
 20
9.579653
 30
0.0
 11
52.441352
 21
9.621678
 31
0.0
  0
LINE
  5
5DA
100
AcDbEntity
  8
0
  6
Continuous
 62
   212
100
AcDbLine
 10
52.441352
 20
9.621678
 30
0.0
 11
52.550605
 21
9.674305
 31
0.0
  0
LINE
  5
5DB
100
AcDbEntity
  8
0
  6
Continuous
 62
   212
100
AcDbLine
 10
52.550605
 20
9.674305
 30
0.0
 11
52.65366
 21
9.736906
 31
0.0
  0
LINE
  5
5DC
100
AcDbEntity
  8
0
  6
Continuous
 62
   212
100
AcDbLine
 10
52.65366
 20
9.736906
 30
0.0
 11
52.749887
 21
9.808854
 31
0.0
  0
LINE
  5
5DD
100
AcDbEntity
  8
0
  6
Continuous
 62
   212
100
AcDbLine
 10
52.749887
 20
9.808854
 30
0.0
 11
52.838657
 21
9.889519
 31
0.0
  0
LINE
  5
5DE
100
AcDbEntity
  8
0
  6
Continuous
 62
   212
100
AcDbLine
 10
52.838657
 20
9.889519
 30
0.0
 11
52.919341
 21
9.978275
 31
0.0
  0
LINE
  5
5DF
100
AcDbEntity
  8
0
  6
Continuous
 62
   212
100
AcDbLine
 10
52.919341
 20
9.978275
 30
0.0
 11
52.991309
 21
10.074494
 31
0.0
  0
LINE
  5
5E0
100
AcDbEntity
  8
0
  6
Continuous
 62
   212
100
AcDbLine
 10
52.991309
 20
10.074494
 30
0.0
 11
53.053932
 21
10.177547
 31
0.0
  0
LINE
  5
5E1
100
AcDbEntity
  8
0
  6
Continuous
 62
   212
100
AcDbLine
 10
53.053932
 20
10.177547
 30
0.0
 11
53.106581
 21
10.286808
 31
0.0
  0
LINE
  5
5E2
100
AcDbEntity
  8
0
  6
Continuous
 62
   212
100
AcDbLine
 10
53.106581
 20
10.286808
 30
0.0
 11
53.148625
 21
10.401647
 31
0.0
  0
LINE
  5
5E3
100
AcDbEntity
  8
0
  6
Continuous
 62
   212
100
AcDbLine
 10
53.148625
 20
10.401647
 30
0.0
 11
53.179436
 21
10.521437
 31
0.0
  0
LINE
  5
5E4
100
AcDbEntity
  8
0
  6
Continuous
 62
   212
100
AcDbLine
 10
53.179436
 20
10.521437
 30
0.0
 11
53.198384
 21
10.645551
 31
0.0
  0
LINE
  5
5E5
100
AcDbEntity
  8
0
  6
Continuous
 62
   212
100
AcDbLine
 10
53.198384
 20
10.645551
 30
0.0
 11
53.20484
 21
10.77336
 31
0.0
  0
LINE
  5
5E6
100
AcDbEntity
  8
0
  6
Continuous
 62
   212
100
AcDbLine
 10
53.20484
 20
10.77336
 30
0.0
 11
53.20484
 21
12.273371
 31
0.0
  0
LINE
  5
5E7
100
AcDbEntity
  8
0
  6
Continuous
 62
   212
100
AcDbLine
 10
53.20484
 20
12.273371
 30
0.0
 11
53.198384
 21
12.40118
 31
0.0
  0
LINE
  5
5E8
100
AcDbEntity
  8
0
  6
Continuous
 62
   212
100
AcDbLine
 10
53.198384
 20
12.40118
 30
0.0
 11
53.179436
 21
12.525294
 31
0.0
  0
LINE
  5
5E9
100
AcDbEntity
  8
0
  6
Continuous
 62
   212
100
AcDbLine
 10
53.179436
 20
12.525294
 30
0.0
 11
53.148625
 21
12.645084
 31
0.0
  0
LINE
  5
5EA
100
AcDbEntity
  8
0
  6
Continuous
 62
   212
100
AcDbLine
 10
53.148625
 20
12.645084
 30
0.0
 11
53.106581
 21
12.759923
 31
0.0
  0
LINE
  5
5EB
100
AcDbEntity
  8
0
  6
Continuous
 62
   212
100
AcDbLine
 10
53.106581
 20
12.759923
 30
0.0
 11
53.053932
 21
12.869183
 31
0.0
  0
LINE
  5
5EC
100
AcDbEntity
  8
0
  6
Continuous
 62
   212
100
AcDbLine
 10
53.053932
 20
12.869183
 30
0.0
 11
52.991309
 21
12.972237
 31
0.0
  0
LINE
  5
5ED
100
AcDbEntity
  8
0
  6
Continuous
 62
   212
100
AcDbLine
 10
52.991309
 20
12.972237
 30
0.0
 11
52.919341
 21
13.068456
 31
0.0
  0
LINE
  5
5EE
100
AcDbEntity
  8
0
  6
Continuous
 62
   212
100
AcDbLine
 10
52.919341
 20
13.068456
 30
0.0
 11
52.838657
 21
13.157212
 31
0.0
  0
LINE
  5
5EF
100
AcDbEntity
  8
0
  6
Continuous
 62
   212
100
AcDbLine
 10
52.838657
 20
13.157212
 30
0.0
 11
52.749887
 21
13.237877
 31
0.0
  0
LINE
  5
5F0
100
AcDbEntity
  8
0
  6
Continuous
 62
   212
100
AcDbLine
 10
52.749887
 20
13.237877
 30
0.0
 11
52.65366
 21
13.309825
 31
0.0
  0
LINE
  5
5F1
100
AcDbEntity
  8
0
  6
Continuous
 62
   212
100
AcDbLine
 10
52.65366
 20
13.309825
 30
0.0
 11
52.550605
 21
13.372426
 31
0.0
  0
LINE
  5
5F2
100
AcDbEntity
  8
0
  6
Continuous
 62
   212
100
AcDbLine
 10
52.550605
 20
13.372426
 30
0.0
 11
52.441352
 21
13.425053
 31
0.0
  0
LINE
  5
5F3
100
AcDbEntity
  8
0
  6
Continuous
 62
   212
100
AcDbLine
 10
52.441352
 20
13.425053
 30
0.0
 11
52.326531
 21
13.467078
 31
0.0
  0
LINE
  5
5F4
100
AcDbEntity
  8
0
  6
Continuous
 62
   212
100
AcDbLine
 10
52.326531
 20
13.467078
 30
0.0
 11
52.20677
 21
13.497873
 31
0.0
  0
LINE
  5
5F5
100
AcDbEntity
  8
0
  6
Continuous
 62
   212
100
AcDbLine
 10
52.20677
 20
13.497873
 30
0.0
 11
52.0827
 21
13.516811
 31
0.0
  0
LINE
  5
5F6
100
AcDbEntity
  8
0
  6
Continuous
 62
   212
100
AcDbLine
 10
52.0827
 20
13.516811
 30
0.0
 11
51.954949
 21
13.523263
 31
0.0
  0
LINE
  5
5F7
100
AcDbEntity
  8
0
  6
Continuous
 62
   212
100
AcDbLine
 10
51.954949
 20
13.523263
 30
0.0
 11
50.454938
 21
13.523263
 31
0.0
  0
LINE
  5
5F8
100
AcDbEntity
  8
0
  6
Continuous
 62
   212
100
AcDbLine
 10
50.454938
 20
13.523263
 30
0.0
 11
50.327129
 21
13.516811
 31
0.0
  0
LINE
  5
5F9
100
AcDbEntity
  8
0
  6
Continuous
 62
   212
100
AcDbLine
 10
50.327129
 20
13.516811
 30
0.0
 11
50.203015
 21
13.497873
 31
0.0
  0
LINE
  5
5FA
100
AcDbEntity
  8
0
  6
Continuous
 62
   212
100
AcDbLine
 10
50.203015
 20
13.497873
 30
0.0
 11
50.083225
 21
13.467078
 31
0.0
  0
LINE
  5
5FB
100
AcDbEntity
  8
0
  6
Continuous
 62
   212
100
AcDbLine
 10
50.083225
 20
13.467078
 30
0.0
 11
49.968385
 21
13.425053
 31
0.0
  0
LINE
  5
5FC
100
AcDbEntity
  8
0
  6
Continuous
 62
   212
100
AcDbLine
 10
49.968385
 20
13.425053
 30
0.0
 11
49.859125
 21
13.372426
 31
0.0
  0
LINE
  5
5FD
100
AcDbEntity
  8
0
  6
Continuous
 62
   212
100
AcDbLine
 10
49.859125
 20
13.372426
 30
0.0
 11
49.756072
 21
13.309825
 31
0.0
  0
LINE
  5
5FE
100
AcDbEntity
  8
0
  6
Continuous
 62
   212
100
AcDbLine
 10
49.756072
 20
13.309825
 30
0.0
 11
49.659853
 21
13.237877
 31
0.0
  0
LINE
  5
5FF
100
AcDbEntity
  8
0
  6
Continuous
 62
   212
100
AcDbLine
 10
49.659853
 20
13.237877
 30
0.0
 11
49.571097
 21
13.157212
 31
0.0
  0
LINE
  5
600
100
AcDbEntity
  8
0
  6
Continuous
 62
   212
100
AcDbLine
 10
49.571097
 20
13.157212
 30
0.0
 11
49.490431
 21
13.068456
 31
0.0
  0
LINE
  5
601
100
AcDbEntity
  8
0
  6
Continuous
 62
   212
100
AcDbLine
 10
49.490431
 20
13.068456
 30
0.0
 11
49.418484
 21
12.972237
 31
0.0
  0
LINE
  5
602
100
AcDbEntity
  8
0
  6
Continuous
 62
   212
100
AcDbLine
 10
49.418484
 20
12.972237
 30
0.0
 11
49.355883
 21
12.869183
 31
0.0
  0
LINE
  5
603
100
AcDbEntity
  8
0
  6
Continuous
 62
   212
100
AcDbLine
 10
49.355883
 20
12.869183
 30
0.0
 11
49.303256
 21
12.759923
 31
0.0
  0
LINE
  5
604
100
AcDbEntity
  8
0
  6
Continuous
 62
   212
100
AcDbLine
 10
49.303256
 20
12.759923
 30
0.0
 11
49.261231
 21
12.645084
 31
0.0
  0
LINE
  5
605
100
AcDbEntity
  8
0
  6
Continuous
 62
   212
100
AcDbLine
 10
49.261231
 20
12.645084
 30
0.0
 11
49.230436
 21
12.525294
 31
0.0
  0
LINE
  5
606
100
AcDbEntity
  8
0
  6
Continuous
 62
   212
100
AcDbLine
 10
49.230436
 20
12.525294
 30
0.0
 11
49.211498
 21
12.40118
 31
0.0
  0
LINE
  5
607
100
AcDbEntity
  8
0
  6
Continuous
 62
   212
100
AcDbLine
 10
49.211498
 20
12.40118
 30
0.0
 11
49.205046
 21
12.273371
 31
0.0
  0
LINE
  5
608
100
AcDbEntity
  8
0
  6
Continuous
 62
   212
100
AcDbLine
 10
49.205046
 20
12.273371
 30
0.0
 11
49.205046
 21
10.77336
 31
0.0
  0
LINE
  5
609
100
AcDbEntity
  8
0
  6
Continuous
 62
   212
100
AcDbLine
 10
49.205046
 20
10.77336
 30
0.0
 11
49.211498
 21
10.645551
 31
0.0
  0
LINE
  5
60A
100
AcDbEntity
  8
0
  6
Continuous
 62
   212
100
AcDbLine
 10
49.211498
 20
10.645551
 30
0.0
 11
49.230436
 21
10.521437
 31
0.0
  0
LINE
  5
60B
100
AcDbEntity
  8
0
  6
Continuous
 62
   212
100
AcDbLine
 10
49.230436
 20
10.521437
 30
0.0
 11
49.261231
 21
10.401647
 31
0.0
  0
LINE
  5
60C
100
AcDbEntity
  8
0
  6
Continuous
 62
   212
100
AcDbLine
 10
49.261231
 20
10.401647
 30
0.0
 11
49.303256
 21
10.286808
 31
0.0
  0
LINE
  5
60D
100
AcDbEntity
  8
0
  6
Continuous
 62
   212
100
AcDbLine
 10
49.303256
 20
10.286808
 30
0.0
 11
49.355883
 21
10.177547
 31
0.0
  0
LINE
  5
60E
100
AcDbEntity
  8
0
  6
Continuous
 62
   212
100
AcDbLine
 10
49.355883
 20
10.177547
 30
0.0
 11
49.418484
 21
10.074494
 31
0.0
  0
LINE
  5
60F
100
AcDbEntity
  8
0
  6
Continuous
 62
   212
100
AcDbLine
 10
49.418484
 20
10.074494
 30
0.0
 11
49.490431
 21
9.978275
 31
0.0
  0
LINE
  5
610
100
AcDbEntity
  8
0
  6
Continuous
 62
   212
100
AcDbLine
 10
49.490431
 20
9.978275
 30
0.0
 11
49.571097
 21
9.889519
 31
0.0
  0
LINE
  5
611
100
AcDbEntity
  8
0
  6
Continuous
 62
   212
100
AcDbLine
 10
49.571097
 20
9.889519
 30
0.0
 11
49.659853
 21
9.808854
 31
0.0
  0
LINE
  5
612
100
AcDbEntity
  8
0
  6
Continuous
 62
   212
100
AcDbLine
 10
36.855908
 20
10.177547
 30
0.0
 11
36.803281
 21
10.286808
 31
0.0
  0
LINE
  5
613
100
AcDbEntity
  8
0
  6
Continuous
 62
   212
100
AcDbLine
 10
36.803281
 20
10.286808
 30
0.0
 11
36.761256
 21
10.401647
 31
0.0
  0
LINE
  5
614
100
AcDbEntity
  8
0
  6
Continuous
 62
   212
100
AcDbLine
 10
36.761256
 20
10.401647
 30
0.0
 11
36.730461
 21
10.521437
 31
0.0
  0
LINE
  5
615
100
AcDbEntity
  8
0
  6
Continuous
 62
   212
100
AcDbLine
 10
43.638742
 20
13.830753
 30
0.0
 11
43.490305
 21
13.994091
 31
0.0
  0
LINE
  5
616
100
AcDbEntity
  8
0
  6
Continuous
 62
   212
100
AcDbLine
 10
43.490305
 20
13.994091
 30
0.0
 11
43.357907
 21
14.17116
 31
0.0
  0
LINE
  5
617
100
AcDbEntity
  8
0
  6
Continuous
 62
   212
100
AcDbLine
 10
43.068516
 20
14.773194
 30
0.0
 11
43.01184
 21
14.993627
 31
0.0
  0
LINE
  5
618
100
AcDbEntity
  8
0
  6
Continuous
 62
   212
100
AcDbLine
 10
43.01184
 20
14.993627
 30
0.0
 11
42.976987
 21
15.222011
 31
0.0
  0
LINE
  5
619
100
AcDbEntity
  8
0
  6
Continuous
 62
   212
100
AcDbLine
 10
42.976987
 20
15.222011
 30
0.0
 11
42.965113
 21
15.45719
 31
0.0
  0
LINE
  5
61A
100
AcDbEntity
  8
0
  6
Continuous
 62
   212
100
AcDbLine
 10
42.965113
 20
15.45719
 30
0.0
 11
42.976987
 21
15.692365
 31
0.0
  0
LINE
  5
61B
100
AcDbEntity
  8
0
  6
Continuous
 62
   212
100
AcDbLine
 10
42.976987
 20
15.692365
 30
0.0
 11
43.01184
 21
15.920738
 31
0.0
  0
LINE
  5
61C
100
AcDbEntity
  8
0
  6
Continuous
 62
   212
100
AcDbLine
 10
43.01184
 20
15.920738
 30
0.0
 11
43.068516
 21
16.141154
 31
0.0
  0
LINE
  5
61D
100
AcDbEntity
  8
0
  6
Continuous
 62
   212
100
AcDbLine
 10
43.068516
 20
16.141154
 30
0.0
 11
43.145856
 21
16.352458
 31
0.0
  0
LINE
  5
61E
100
AcDbEntity
  8
0
  6
Continuous
 62
   212
100
AcDbLine
 10
43.145856
 20
16.352458
 30
0.0
 11
43.242705
 21
16.553494
 31
0.0
  0
LINE
  5
61F
100
AcDbEntity
  8
0
  6
Continuous
 62
   212
100
AcDbLine
 10
43.242705
 20
16.553494
 30
0.0
 11
43.357907
 21
16.743109
 31
0.0
  0
LINE
  5
620
100
AcDbEntity
  8
0
  6
Continuous
 62
   212
100
AcDbLine
 10
43.357907
 20
16.743109
 30
0.0
 11
43.490305
 21
16.920146
 31
0.0
  0
LINE
  5
621
100
AcDbEntity
  8
0
  6
Continuous
 62
   212
100
AcDbLine
 10
43.490305
 20
16.920146
 30
0.0
 11
43.638742
 21
17.083452
 31
0.0
  0
LINE
  5
622
100
AcDbEntity
  8
0
  6
Continuous
 62
   212
100
AcDbLine
 10
43.638742
 20
17.083452
 30
0.0
 11
43.802061
 21
17.23187
 31
0.0
  0
LINE
  5
623
100
AcDbEntity
  8
0
  6
Continuous
 62
   212
100
AcDbLine
 10
43.802061
 20
17.23187
 30
0.0
 11
43.979108
 21
17.364247
 31
0.0
  0
LINE
  5
624
100
AcDbEntity
  8
0
  6
Continuous
 62
   212
100
AcDbLine
 10
43.979108
 20
17.364247
 30
0.0
 11
44.168723
 21
17.479427
 31
0.0
  0
LINE
  5
625
100
AcDbEntity
  8
0
  6
Continuous
 62
   212
100
AcDbLine
 10
44.168723
 20
17.479427
 30
0.0
 11
44.369752
 21
17.576255
 31
0.0
  0
LINE
  5
626
100
AcDbEntity
  8
0
  6
Continuous
 62
   212
100
AcDbLine
 10
44.369752
 20
17.576255
 30
0.0
 11
44.581038
 21
17.653576
 31
0.0
  0
LINE
  5
627
100
AcDbEntity
  8
0
  6
Continuous
 62
   212
100
AcDbLine
 10
44.581038
 20
17.653576
 30
0.0
 11
44.801424
 21
17.710235
 31
0.0
  0
LINE
  5
628
100
AcDbEntity
  8
0
  6
Continuous
 62
   212
100
AcDbLine
 10
44.801424
 20
17.710235
 30
0.0
 11
45.029754
 21
17.745078
 31
0.0
  0
LINE
  5
629
100
AcDbEntity
  8
0
  6
Continuous
 62
   212
100
AcDbLine
 10
45.029754
 20
17.745078
 30
0.0
 11
45.264871
 21
17.756949
 31
0.0
  0
LINE
  5
62A
100
AcDbEntity
  8
0
  6
Continuous
 62
   212
100
AcDbLine
 10
45.264871
 20
17.756949
 30
0.0
 11
45.50005
 21
17.745078
 31
0.0
  0
LINE
  5
62B
100
AcDbEntity
  8
0
  6
Continuous
 62
   212
100
AcDbLine
 10
45.50005
 20
17.745078
 30
0.0
 11
45.728434
 21
17.710235
 31
0.0
  0
LINE
  5
62C
100
AcDbEntity
  8
0
  6
Continuous
 62
   212
100
AcDbLine
 10
45.728434
 20
17.710235
 30
0.0
 11
45.948867
 21
17.653576
 31
0.0
  0
LINE
  5
62D
100
AcDbEntity
  8
0
  6
Continuous
 62
   212
100
AcDbLine
 10
45.948867
 20
17.653576
 30
0.0
 11
46.160193
 21
17.576255
 31
0.0
  0
LINE
  5
62E
100
AcDbEntity
  8
0
  6
Continuous
 62
   212
100
AcDbLine
 10
46.160193
 20
17.576255
 30
0.0
 11
46.361257
 21
17.479427
 31
0.0
  0
LINE
  5
62F
100
AcDbEntity
  8
0
  6
Continuous
 62
   212
100
AcDbLine
 10
46.361257
 20
17.479427
 30
0.0
 11
46.550901
 21
17.364247
 31
0.0
  0
LINE
  5
630
100
AcDbEntity
  8
0
  6
Continuous
 62
   212
100
AcDbLine
 10
46.550901
 20
17.364247
 30
0.0
 11
46.72797
 21
17.23187
 31
0.0
  0
LINE
  5
631
100
AcDbEntity
  8
0
  6
Continuous
 62
   212
100
AcDbLine
 10
46.72797
 20
17.23187
 30
0.0
 11
46.891309
 21
17.083452
 31
0.0
  0
LINE
  5
632
100
AcDbEntity
  8
0
  6
Continuous
 62
   212
100
AcDbLine
 10
46.891309
 20
17.083452
 30
0.0
 11
47.03976
 21
16.920146
 31
0.0
  0
LINE
  5
633
100
AcDbEntity
  8
0
  6
Continuous
 62
   212
100
AcDbLine
 10
47.03976
 20
16.920146
 30
0.0
 11
47.172169
 21
16.743109
 31
0.0
  0
LINE
  5
634
100
AcDbEntity
  8
0
  6
Continuous
 62
   212
100
AcDbLine
 10
47.172169
 20
16.743109
 30
0.0
 11
47.287378
 21
16.553494
 31
0.0
  0
LINE
  5
635
100
AcDbEntity
  8
0
  6
Continuous
 62
   212
100
AcDbLine
 10
47.287378
 20
16.553494
 30
0.0
 11
47.384233
 21
16.352458
 31
0.0
  0
LINE
  5
636
100
AcDbEntity
  8
0
  6
Continuous
 62
   212
100
AcDbLine
 10
47.384233
 20
16.352458
 30
0.0
 11
47.461577
 21
16.141154
 31
0.0
  0
LINE
  5
637
100
AcDbEntity
  8
0
  6
Continuous
 62
   212
100
AcDbLine
 10
47.461577
 20
16.141154
 30
0.0
 11
47.518253
 21
15.920738
 31
0.0
  0
LINE
  5
638
100
AcDbEntity
  8
0
  6
Continuous
 62
   212
100
AcDbLine
 10
47.518253
 20
15.920738
 30
0.0
 11
47.553107
 21
15.692365
 31
0.0
  0
LINE
  5
639
100
AcDbEntity
  8
0
  6
Continuous
 62
   212
100
AcDbLine
 10
47.553107
 20
15.692365
 30
0.0
 11
47.564982
 21
15.45719
 31
0.0
  0
LINE
  5
63A
100
AcDbEntity
  8
0
  6
Continuous
 62
   212
100
AcDbLine
 10
47.564982
 20
15.45719
 30
0.0
 11
47.553107
 21
15.222011
 31
0.0
  0
LINE
  5
63B
100
AcDbEntity
  8
0
  6
Continuous
 62
   212
100
AcDbLine
 10
47.553107
 20
15.222011
 30
0.0
 11
47.518253
 21
14.993627
 31
0.0
  0
LINE
  5
63C
100
AcDbEntity
  8
0
  6
Continuous
 62
   212
100
AcDbLine
 10
47.518253
 20
14.993627
 30
0.0
 11
47.461577
 21
14.773194
 31
0.0
  0
LINE
  5
63D
100
AcDbEntity
  8
0
  6
Continuous
 62
   212
100
AcDbLine
 10
47.461577
 20
14.773194
 30
0.0
 11
47.384233
 21
14.561868
 31
0.0
  0
LINE
  5
63E
100
AcDbEntity
  8
0
  6
Continuous
 62
   212
100
AcDbLine
 10
47.384233
 20
14.561868
 30
0.0
 11
47.287378
 21
14.360805
 31
0.0
  0
LINE
  5
63F
100
AcDbEntity
  8
0
  6
Continuous
 62
   212
100
AcDbLine
 10
47.287378
 20
14.360805
 30
0.0
 11
47.172169
 21
14.17116
 31
0.0
  0
LINE
  5
640
100
AcDbEntity
  8
0
  6
Continuous
 62
   212
100
AcDbLine
 10
47.172169
 20
14.17116
 30
0.0
 11
47.03976
 21
13.994091
 31
0.0
  0
LINE
  5
641
100
AcDbEntity
  8
0
  6
Continuous
 62
   212
100
AcDbLine
 10
47.03976
 20
13.994091
 30
0.0
 11
46.891309
 21
13.830753
 31
0.0
  0
LINE
  5
642
100
AcDbEntity
  8
0
  6
Continuous
 62
   212
100
AcDbLine
 10
46.891309
 20
13.830753
 30
0.0
 11
46.72797
 21
13.682301
 31
0.0
  0
LINE
  5
643
100
AcDbEntity
  8
0
  6
Continuous
 62
   212
100
AcDbLine
 10
46.72797
 20
13.682301
 30
0.0
 11
46.550901
 21
13.549893
 31
0.0
  0
LINE
  5
644
100
AcDbEntity
  8
0
  6
Continuous
 62
   212
100
AcDbLine
 10
46.550901
 20
13.549893
 30
0.0
 11
46.361257
 21
13.434683
 31
0.0
  0
LINE
  5
645
100
AcDbEntity
  8
0
  6
Continuous
 62
   212
100
AcDbLine
 10
46.361257
 20
13.434683
 30
0.0
 11
46.160193
 21
13.337828
 31
0.0
  0
LINE
  5
646
100
AcDbEntity
  8
0
  6
Continuous
 62
   212
100
AcDbLine
 10
46.160193
 20
13.337828
 30
0.0
 11
45.948867
 21
13.260485
 31
0.0
  0
LINE
  5
647
100
AcDbEntity
  8
0
  6
Continuous
 62
   212
100
AcDbLine
 10
45.948867
 20
13.260485
 30
0.0
 11
45.728434
 21
13.203808
 31
0.0
  0
LINE
  5
648
100
AcDbEntity
  8
0
  6
Continuous
 62
   212
100
AcDbLine
 10
45.728434
 20
13.203808
 30
0.0
 11
45.50005
 21
13.168954
 31
0.0
  0
LINE
  5
649
100
AcDbEntity
  8
0
  6
Continuous
 62
   212
100
AcDbLine
 10
45.50005
 20
13.168954
 30
0.0
 11
45.264871
 21
13.157079
 31
0.0
  0
LINE
  5
64A
100
AcDbEntity
  8
0
  6
Continuous
 62
   212
100
AcDbLine
 10
45.264871
 20
13.157079
 30
0.0
 11
45.029754
 21
13.168954
 31
0.0
  0
LINE
  5
64B
100
AcDbEntity
  8
0
  6
Continuous
 62
   212
100
AcDbLine
 10
45.029754
 20
13.168954
 30
0.0
 11
44.801424
 21
13.203808
 31
0.0
  0
LINE
  5
64C
100
AcDbEntity
  8
0
  6
Continuous
 62
   212
100
AcDbLine
 10
44.801424
 20
13.203808
 30
0.0
 11
44.581038
 21
13.260485
 31
0.0
  0
LINE
  5
64D
100
AcDbEntity
  8
0
  6
Continuous
 62
   212
100
AcDbLine
 10
44.581038
 20
13.260485
 30
0.0
 11
44.369752
 21
13.337828
 31
0.0
  0
LINE
  5
64E
100
AcDbEntity
  8
0
  6
Continuous
 62
   212
100
AcDbLine
 10
44.369752
 20
13.337828
 30
0.0
 11
44.168723
 21
13.434683
 31
0.0
  0
LINE
  5
64F
100
AcDbEntity
  8
0
  6
Continuous
 62
   212
100
AcDbLine
 10
44.168723
 20
13.434683
 30
0.0
 11
43.979108
 21
13.549893
 31
0.0
  0
LINE
  5
650
100
AcDbEntity
  8
0
  6
Continuous
 62
   212
100
AcDbLine
 10
43.979108
 20
13.549893
 30
0.0
 11
43.802061
 21
13.682301
 31
0.0
  0
LINE
  5
651
100
AcDbEntity
  8
0
  6
Continuous
 62
   212
100
AcDbLine
 10
43.802061
 20
13.682301
 30
0.0
 11
43.638742
 21
13.830753
 31
0.0
  0
LINE
  5
652
100
AcDbEntity
  8
0
  6
Continuous
 62
   212
100
AcDbLine
 10
11.5
 20
20.846521
 30
0.0
 11
11.5
 21
73.153479
 31
0.0
  0
ARC
  5
653
100
AcDbEntity
  8
0
  6
Continuous
 62
   212
100
AcDbCircle
 10
10.653479
 20
73.153479
 30
0.0
 40
0.846521
100
AcDbArc
 50
0.0
 51
90.0
  0
LINE
  5
654
100
AcDbEntity
  8
0
  6
Continuous
 62
   212
100
AcDbLine
 10
10.653479
 20
74.0
 30
0.0
 11
9.346521
 21
74.0
 31
0.0
  0
LINE
  5
655
100
AcDbEntity
  8
0
  6
Continuous
 62
   212
100
AcDbLine
 10
37.159878
 20
9.808854
 30
0.0
 11
37.071122
 21
9.889519
 31
0.0
  0
LINE
  5
656
100
AcDbEntity
  8
0
  6
Continuous
 62
   212
100
AcDbLine
 10
37.071122
 20
9.889519
 30
0.0
 11
36.990456
 21
9.978275
 31
0.0
  0
LINE
  5
657
100
AcDbEntity
  8
0
  6
Continuous
 62
   212
100
AcDbLine
 10
36.990456
 20
9.978275
 30
0.0
 11
36.918509
 21
10.074494
 31
0.0
  0
LINE
  5
658
100
AcDbEntity
  8
0
  6
Continuous
 62
   212
100
AcDbLine
 10
36.918509
 20
10.074494
 30
0.0
 11
36.855908
 21
10.177547
 31
0.0
  0
LINE
  5
659
100
AcDbEntity
  8
0
  6
Continuous
 62
   212
100
AcDbLine
 10
36.730461
 20
10.521437
 30
0.0
 11
36.711523
 21
10.645551
 31
0.0
  0
LINE
  5
65A
100
AcDbEntity
  8
0
  6
Continuous
 62
   212
100
AcDbLine
 10
36.711523
 20
10.645551
 30
0.0
 11
36.705071
 21
10.77336
 31
0.0
  0
LINE
  5
65B
100
AcDbEntity
  8
0
  6
Continuous
 62
   212
100
AcDbLine
 10
36.705071
 20
10.77336
 30
0.0
 11
36.705071
 21
12.273371
 31
0.0
  0
LINE
  5
65C
100
AcDbEntity
  8
0
  6
Continuous
 62
   212
100
AcDbLine
 10
36.705071
 20
12.273371
 30
0.0
 11
36.711523
 21
12.40118
 31
0.0
  0
LINE
  5
65D
100
AcDbEntity
  8
0
  6
Continuous
 62
   212
100
AcDbLine
 10
36.711523
 20
12.40118
 30
0.0
 11
36.730461
 21
12.525294
 31
0.0
  0
LINE
  5
65E
100
AcDbEntity
  8
0
  6
Continuous
 62
   212
100
AcDbLine
 10
36.730461
 20
12.525294
 30
0.0
 11
36.761256
 21
12.645084
 31
0.0
  0
LINE
  5
65F
100
AcDbEntity
  8
0
  6
Continuous
 62
   212
100
AcDbLine
 10
36.761256
 20
12.645084
 30
0.0
 11
36.803281
 21
12.759923
 31
0.0
  0
LINE
  5
660
100
AcDbEntity
  8
0
  6
Continuous
 62
   212
100
AcDbLine
 10
36.803281
 20
12.759923
 30
0.0
 11
36.855908
 21
12.869183
 31
0.0
  0
LINE
  5
661
100
AcDbEntity
  8
0
  6
Continuous
 62
   212
100
AcDbLine
 10
36.855908
 20
12.869183
 30
0.0
 11
36.918509
 21
12.972237
 31
0.0
  0
LINE
  5
662
100
AcDbEntity
  8
0
  6
Continuous
 62
   212
100
AcDbLine
 10
36.918509
 20
12.972237
 30
0.0
 11
36.990456
 21
13.068456
 31
0.0
  0
LINE
  5
663
100
AcDbEntity
  8
0
  6
Continuous
 62
   212
100
AcDbLine
 10
36.990456
 20
13.068456
 30
0.0
 11
37.071122
 21
13.157212
 31
0.0
  0
LINE
  5
664
100
AcDbEntity
  8
0
  6
Continuous
 62
   212
100
AcDbLine
 10
37.071122
 20
13.157212
 30
0.0
 11
37.159878
 21
13.237877
 31
0.0
  0
LINE
  5
665
100
AcDbEntity
  8
0
  6
Continuous
 62
   212
100
AcDbLine
 10
37.159878
 20
13.237877
 30
0.0
 11
37.256097
 21
13.309825
 31
0.0
  0
LINE
  5
666
100
AcDbEntity
  8
0
  6
Continuous
 62
   212
100
AcDbLine
 10
37.256097
 20
13.309825
 30
0.0
 11
37.35915
 21
13.372426
 31
0.0
  0
LINE
  5
667
100
AcDbEntity
  8
0
  6
Continuous
 62
   212
100
AcDbLine
 10
37.35915
 20
13.372426
 30
0.0
 11
37.46841
 21
13.425053
 31
0.0
  0
LINE
  5
668
100
AcDbEntity
  8
0
  6
Continuous
 62
   212
100
AcDbLine
 10
37.46841
 20
13.425053
 30
0.0
 11
37.58325
 21
13.467078
 31
0.0
  0
LINE
  5
669
100
AcDbEntity
  8
0
  6
Continuous
 62
   212
100
AcDbLine
 10
37.58325
 20
13.467078
 30
0.0
 11
37.70304
 21
13.497873
 31
0.0
  0
LINE
  5
66A
100
AcDbEntity
  8
0
  6
Continuous
 62
   212
100
AcDbLine
 10
37.70304
 20
13.497873
 30
0.0
 11
37.827154
 21
13.516811
 31
0.0
  0
LINE
  5
66B
100
AcDbEntity
  8
0
  6
Continuous
 62
   212
100
AcDbLine
 10
37.827154
 20
13.516811
 30
0.0
 11
37.954963
 21
13.523263
 31
0.0
  0
LINE
  5
66C
100
AcDbEntity
  8
0
  6
Continuous
 62
   212
100
AcDbLine
 10
37.954963
 20
13.523263
 30
0.0
 11
42.454996
 21
13.523263
 31
0.0
  0
LINE
  5
66D
100
AcDbEntity
  8
0
  6
Continuous
 62
   212
100
AcDbLine
 10
42.454996
 20
13.523263
 30
0.0
 11
42.582805
 21
13.516811
 31
0.0
  0
LINE
  5
66E
100
AcDbEntity
  8
0
  6
Continuous
 62
   212
100
AcDbLine
 10
42.582805
 20
13.516811
 30
0.0
 11
42.706918
 21
13.497873
 31
0.0
  0
LINE
  5
66F
100
AcDbEntity
  8
0
  6
Continuous
 62
   212
100
AcDbLine
 10
42.706918
 20
13.497873
 30
0.0
 11
42.826709
 21
13.467078
 31
0.0
  0
LINE
  5
670
100
AcDbEntity
  8
0
  6
Continuous
 62
   212
100
AcDbLine
 10
42.826709
 20
13.467078
 30
0.0
 11
42.941548
 21
13.425053
 31
0.0
  0
LINE
  5
671
100
AcDbEntity
  8
0
  6
Continuous
 62
   212
100
AcDbLine
 10
42.941548
 20
13.425053
 30
0.0
 11
43.050808
 21
13.372426
 31
0.0
  0
LINE
  5
672
100
AcDbEntity
  8
0
  6
Continuous
 62
   212
100
AcDbLine
 10
43.050808
 20
13.372426
 30
0.0
 11
43.153862
 21
13.309825
 31
0.0
  0
LINE
  5
673
100
AcDbEntity
  8
0
  6
Continuous
 62
   212
100
AcDbLine
 10
43.153862
 20
13.309825
 30
0.0
 11
43.25008
 21
13.237877
 31
0.0
  0
LINE
  5
674
100
AcDbEntity
  8
0
  6
Continuous
 62
   212
100
AcDbLine
 10
43.25008
 20
13.237877
 30
0.0
 11
43.338837
 21
13.157212
 31
0.0
  0
LINE
  5
675
100
AcDbEntity
  8
0
  6
Continuous
 62
   212
100
AcDbLine
 10
43.338837
 20
13.157212
 30
0.0
 11
43.419502
 21
13.068456
 31
0.0
  0
LINE
  5
676
100
AcDbEntity
  8
0
  6
Continuous
 62
   212
100
AcDbLine
 10
43.419502
 20
13.068456
 30
0.0
 11
43.491449
 21
12.972237
 31
0.0
  0
LINE
  5
677
100
AcDbEntity
  8
0
  6
Continuous
 62
   212
100
AcDbLine
 10
43.491449
 20
12.972237
 30
0.0
 11
43.554051
 21
12.869183
 31
0.0
  0
LINE
  5
678
100
AcDbEntity
  8
0
  6
Continuous
 62
   212
100
AcDbLine
 10
43.554051
 20
12.869183
 30
0.0
 11
43.606678
 21
12.759923
 31
0.0
  0
LINE
  5
679
100
AcDbEntity
  8
0
  6
Continuous
 62
   212
100
AcDbLine
 10
43.606678
 20
12.759923
 30
0.0
 11
43.648703
 21
12.645084
 31
0.0
  0
LINE
  5
67A
100
AcDbEntity
  8
0
  6
Continuous
 62
   212
100
AcDbLine
 10
43.648703
 20
12.645084
 30
0.0
 11
43.679498
 21
12.525294
 31
0.0
  0
LINE
  5
67B
100
AcDbEntity
  8
0
  6
Continuous
 62
   212
100
AcDbLine
 10
43.679498
 20
12.525294
 30
0.0
 11
43.698435
 21
12.40118
 31
0.0
  0
LINE
  5
67C
100
AcDbEntity
  8
0
  6
Continuous
 62
   212
100
AcDbLine
 10
43.698435
 20
12.40118
 30
0.0
 11
43.704888
 21
12.273371
 31
0.0
  0
LINE
  5
67D
100
AcDbEntity
  8
0
  6
Continuous
 62
   212
100
AcDbLine
 10
43.704888
 20
12.273371
 30
0.0
 11
43.704888
 21
10.77336
 31
0.0
  0
LINE
  5
67E
100
AcDbEntity
  8
0
  6
Continuous
 62
   212
100
AcDbLine
 10
43.704888
 20
10.77336
 30
0.0
 11
43.698435
 21
10.645551
 31
0.0
  0
LINE
  5
67F
100
AcDbEntity
  8
0
  6
Continuous
 62
   212
100
AcDbLine
 10
43.698435
 20
10.645551
 30
0.0
 11
43.679498
 21
10.521437
 31
0.0
  0
LINE
  5
680
100
AcDbEntity
  8
0
  6
Continuous
 62
   212
100
AcDbLine
 10
43.679498
 20
10.521437
 30
0.0
 11
43.648703
 21
10.401647
 31
0.0
  0
LINE
  5
681
100
AcDbEntity
  8
0
  6
Continuous
 62
   212
100
AcDbLine
 10
43.648703
 20
10.401647
 30
0.0
 11
43.606678
 21
10.286808
 31
0.0
  0
LINE
  5
682
100
AcDbEntity
  8
0
  6
Continuous
 62
   212
100
AcDbLine
 10
43.606678
 20
10.286808
 30
0.0
 11
43.554051
 21
10.177547
 31
0.0
  0
LINE
  5
683
100
AcDbEntity
  8
0
  6
Continuous
 62
   212
100
AcDbLine
 10
43.554051
 20
10.177547
 30
0.0
 11
43.491449
 21
10.074494
 31
0.0
  0
LINE
  5
684
100
AcDbEntity
  8
0
  6
Continuous
 62
   212
100
AcDbLine
 10
43.491449
 20
10.074494
 30
0.0
 11
43.419502
 21
9.978275
 31
0.0
  0
LINE
  5
685
100
AcDbEntity
  8
0
  6
Continuous
 62
   212
100
AcDbLine
 10
43.419502
 20
9.978275
 30
0.0
 11
43.338837
 21
9.889519
 31
0.0
  0
LINE
  5
686
100
AcDbEntity
  8
0
  6
Continuous
 62
   212
100
AcDbLine
 10
43.338837
 20
9.889519
 30
0.0
 11
43.25008
 21
9.808854
 31
0.0
  0
LINE
  5
687
100
AcDbEntity
  8
0
  6
Continuous
 62
   212
100
AcDbLine
 10
43.25008
 20
9.808854
 30
0.0
 11
43.153862
 21
9.736906
 31
0.0
  0
LINE
  5
688
100
AcDbEntity
  8
0
  6
Continuous
 62
   212
100
AcDbLine
 10
43.153862
 20
9.736906
 30
0.0
 11
43.050808
 21
9.674305
 31
0.0
  0
LINE
  5
689
100
AcDbEntity
  8
0
  6
Continuous
 62
   212
100
AcDbLine
 10
43.050808
 20
9.674305
 30
0.0
 11
42.941548
 21
9.621678
 31
0.0
  0
LINE
  5
68A
100
AcDbEntity
  8
0
  6
Continuous
 62
   212
100
AcDbLine
 10
42.941548
 20
9.621678
 30
0.0
 11
42.826709
 21
9.579653
 31
0.0
  0
LINE
  5
68B
100
AcDbEntity
  8
0
  6
Continuous
 62
   212
100
AcDbLine
 10
42.826709
 20
9.579653
 30
0.0
 11
42.706918
 21
9.548858
 31
0.0
  0
LINE
  5
68C
100
AcDbEntity
  8
0
  6
Continuous
 62
   212
100
AcDbLine
 10
42.706918
 20
9.548858
 30
0.0
 11
42.582805
 21
9.52992
 31
0.0
  0
LINE
  5
68D
100
AcDbEntity
  8
0
  6
Continuous
 62
   212
100
AcDbLine
 10
42.582805
 20
9.52992
 30
0.0
 11
42.454996
 21
9.523468
 31
0.0
  0
LINE
  5
68E
100
AcDbEntity
  8
0
  6
Continuous
 62
   212
100
AcDbLine
 10
42.454996
 20
9.523468
 30
0.0
 11
37.954963
 21
9.523468
 31
0.0
  0
LINE
  5
68F
100
AcDbEntity
  8
0
  6
Continuous
 62
   212
100
AcDbLine
 10
37.954963
 20
9.523468
 30
0.0
 11
37.827154
 21
9.52992
 31
0.0
  0
LINE
  5
690
100
AcDbEntity
  8
0
  6
Continuous
 62
   212
100
AcDbLine
 10
37.827154
 20
9.52992
 30
0.0
 11
37.70304
 21
9.548858
 31
0.0
  0
LINE
  5
691
100
AcDbEntity
  8
0
  6
Continuous
 62
   212
100
AcDbLine
 10
37.70304
 20
9.548858
 30
0.0
 11
37.58325
 21
9.579653
 31
0.0
  0
LINE
  5
692
100
AcDbEntity
  8
0
  6
Continuous
 62
   212
100
AcDbLine
 10
37.58325
 20
9.579653
 30
0.0
 11
37.46841
 21
9.621678
 31
0.0
  0
LINE
  5
693
100
AcDbEntity
  8
0
  6
Continuous
 62
   212
100
AcDbLine
 10
37.46841
 20
9.621678
 30
0.0
 11
37.35915
 21
9.674305
 31
0.0
  0
LINE
  5
694
100
AcDbEntity
  8
0
  6
Continuous
 62
   212
100
AcDbLine
 10
37.35915
 20
9.674305
 30
0.0
 11
37.256097
 21
9.736906
 31
0.0
  0
LINE
  5
695
100
AcDbEntity
  8
0
  6
Continuous
 62
   212
100
AcDbLine
 10
37.256097
 20
9.736906
 30
0.0
 11
37.159878
 21
9.808854
 31
0.0
  0
ARC
  5
696
100
AcDbEntity
  8
0
  6
Continuous
 62
   212
100
AcDbCircle
 10
6.0
 20
4.0
 30
0.0
 40
2.0
100
AcDbArc
 50
-180.0
 51
-90.0
  0
LINE
  5
697
100
AcDbEntity
  8
0
  6
Continuous
 62
   212
100
AcDbLine
 10
5.954295
 20
0.0
 30
0.0
 11
215.248279
 21
0.0
 31
0.0
  0
ARC
  5
698
100
AcDbEntity
  8
0
  6
Continuous
 62
   212
100
AcDbCircle
 10
9.346521
 20
20.846521
 30
0.0
 40
0.846521
100
AcDbArc
 50
-180.0
 51
-90.0
  0
LINE
  5
699
100
AcDbEntity
  8
0
  6
Continuous
 62
   212
100
AcDbLine
 10
9.346521
 20
20.0
 30
0.0
 11
10.653479
 21
20.0
 31
0.0
  0
ARC
  5
69A
100
AcDbEntity
  8
0
  6
Continuous
 62
   212
100
AcDbCircle
 10
10.653479
 20
20.846521
 30
0.0
 40
0.846521
100
AcDbArc
 50
-90.0
 51
0.0
  0
ARC
  5
69B
100
AcDbEntity
  8
0
  6
Continuous
 62
   212
100
AcDbCircle
 10
9.346521
 20
73.153479
 30
0.0
 40
0.846521
100
AcDbArc
 50
-270.0
 51
-180.0
  0
LINE
  5
69C
100
AcDbEntity
  8
0
  6
Continuous
 62
   212
100
AcDbLine
 10
8.5
 20
73.153479
 30
0.0
 11
8.5
 21
20.846521
 31
0.0
  0
LINE
  5
69D
100
AcDbEntity
  8
0
  6
Continuous
 62
   212
100
AcDbLine
 10
221.0
 20
5.751721
 30
0.0
 11
221.0
 21
88.248279
 31
0.0
  0
ARC
  5
69E
100
AcDbEntity
  8
0
  6
Continuous
 62
   212
100
AcDbCircle
 10
215.248279
 20
88.248279
 30
0.0
 40
5.751721
100
AcDbArc
 50
0.0
 51
90.0
  0
LINE
  5
69F
100
AcDbEntity
  8
0
  6
Continuous
 62
   212
100
AcDbLine
 10
215.248279
 20
94.0
 30
0.0
 11
9.367003
 21
94.0
 31
0.0
  0
ARC
  5
6A0
100
AcDbEntity
  8
0
  6
Continuous
 62
   212
100
AcDbCircle
 10
6.0
 20
4.0
 30
0.0
 40
2.0
100
AcDbArc
 50
-90.0
 51
0.0
  0
ARC
  5
6A1
100
AcDbEntity
  8
0
  6
Continuous
 62
   212
100
AcDbCircle
 10
6.0
 20
4.0
 30
0.0
 40
2.0
100
AcDbArc
 50
0.0
 51
90.0
  0
ARC
  5
6A2
100
AcDbEntity
  8
0
  6
Continuous
 62
   212
100
AcDbCircle
 10
6.0
 20
4.0
 30
0.0
 40
2.0
100
AcDbArc
 50
-270.0
 51
-180.0
  0
LINE
  5
6A3
100
AcDbEntity
  8
0
  6
Continuous
 62
   212
100
AcDbLine
 10
88.818479
 20
74.41918
 30
0.0
 11
87.227451
 21
72.828505
 31
0.0
  0
LINE
  5
6A4
100
AcDbEntity
  8
0
  6
Continuous
 62
   212
100
AcDbLine
 10
87.227451
 20
72.828505
 30
0.0
 11
88.818479
 21
71.237477
 31
0.0
  0
LINE
  5
6A5
100
AcDbEntity
  8
0
  6
Continuous
 62
   212
100
AcDbLine
 10
83.945912
 20
60.344052
 30
0.0
 11
86.945935
 21
60.344052
 31
0.0
  0
ARC
  5
6A6
100
AcDbEntity
  8
0
  6
Continuous
 62
   212
100
AcDbCircle
 10
215.248279
 20
5.751721
 30
0.0
 40
5.751721
100
AcDbArc
 50
-90.0
 51
0.0
  0
LINE
  5
6A7
100
AcDbEntity
  8
0
  6
Continuous
 62
   212
100
AcDbLine
 10
86.748922
 20
55.58973
 30
0.0
 11
86.748922
 21
58.589752
 31
0.0
  0
LINE
  5
6A8
100
AcDbEntity
  8
0
  6
Continuous
 62
   212
100
AcDbLine
 10
86.748922
 20
58.589752
 30
0.0
 11
83.7489
 21
58.589752
 31
0.0
  0
LINE
  5
6A9
100
AcDbEntity
  8
0
  6
Continuous
 62
   212
100
AcDbLine
 10
87.030439
 20
46.074255
 30
0.0
 11
88.621467
 21
44.483227
 31
0.0
  0
LINE
  5
6AA
100
AcDbEntity
  8
0
  6
Continuous
 62
   212
100
AcDbLine
 10
37.946512
 20
85.344002
 30
0.0
 11
34.94649
 21
85.344002
 31
0.0
  0
LINE
  5
6AB
100
AcDbEntity
  8
0
  6
Continuous
 62
   212
100
AcDbLine
 10
86.945935
 20
82.34398
 30
0.0
 11
86.945935
 21
85.344002
 31
0.0
  0
LINE
  5
6AC
100
AcDbEntity
  8
0
  6
Continuous
 62
   212
100
AcDbLine
 10
86.945935
 20
85.344002
 30
0.0
 11
83.945912
 21
85.344002
 31
0.0
  0
LINE
  5
6AD
100
AcDbEntity
  8
0
  6
Continuous
 62
   212
100
AcDbLine
 10
84.204129
 20
6.52274
 30
0.0
 11
87.204151
 21
6.52274
 31
0.0
  0
LINE
  5
6AE
100
AcDbEntity
  8
0
  6
Continuous
 62
   212
100
AcDbLine
 10
87.204151
 20
6.52274
 30
0.0
 11
87.204151
 21
9.522763
 31
0.0
  0
LINE
  5
6AF
100
AcDbEntity
  8
0
  6
Continuous
 62
   212
100
AcDbLine
 10
86.945935
 20
60.344052
 30
0.0
 11
86.945935
 21
63.344074
 31
0.0
  0
LINE
  5
6B0
100
AcDbEntity
  8
0
  6
Continuous
 62
   212
100
AcDbLine
 10
34.94649
 20
85.344002
 30
0.0
 11
34.94649
 21
82.34398
 31
0.0
  0
LINE
  5
6B1
100
AcDbEntity
  8
0
  6
Continuous
 62
   212
100
AcDbLine
 10
87.204151
 20
28.522668
 30
0.0
 11
87.204151
 21
31.52269
 31
0.0
  0
LINE
  5
6B2
100
AcDbEntity
  8
0
  6
Continuous
 62
   212
100
AcDbLine
 10
88.621467
 20
47.66493
 30
0.0
 11
87.030439
 21
46.074255
 31
0.0
  0
LINE
  5
6B3
100
AcDbEntity
  8
0
  6
Continuous
 62
   212
100
AcDbLine
 10
87.204151
 20
31.52269
 30
0.0
 11
84.204129
 21
31.52269
 31
0.0
  0
LINE
  5
6B4
100
AcDbEntity
  8
0
  6
Continuous
 62
   212
100
AcDbLine
 10
89.076696
 20
20.597868
 30
0.0
 11
87.485668
 21
19.007193
 31
0.0
  0
LINE
  5
6B5
100
AcDbEntity
  8
0
  6
Continuous
 62
   212
100
AcDbLine
 10
87.485668
 20
19.007193
 30
0.0
 11
89.076696
 21
17.416165
 31
0.0
  0
LINE
  5
6B6
100
AcDbEntity
  8
0
  6
Continuous
 62
   212
100
AcDbLine
 10
37.7495
 20
58.589752
 30
0.0
 11
34.749478
 21
58.589752
 31
0.0
  0
LINE
  5
6B7
100
AcDbEntity
  8
0
  6
Continuous
 62
   212
100
AcDbLine
 10
83.7489
 20
33.589802
 30
0.0
 11
86.748922
 21
33.589802
 31
0.0
  0
LINE
  5
6B8
100
AcDbEntity
  8
0
  6
Continuous
 62
   212
100
AcDbLine
 10
86.748922
 20
33.589802
 30
0.0
 11
86.748922
 21
36.589825
 31
0.0
  0
LINE
  5
6B9
100
AcDbEntity
  8
0
  6
Continuous
 62
   212
100
AcDbLine
 10
34.749478
 20
58.589752
 30
0.0
 11
34.749478
 21
55.58973
 31
0.0
  0
LINE
  5
6BA
100
AcDbEntity
  8
0
  6
Continuous
 62
   212
100
AcDbLine
 10
38.204729
 20
31.52269
 30
0.0
 11
35.204707
 21
31.52269
 31
0.0
  0
LINE
  5
6BB
100
AcDbEntity
  8
0
  6
Continuous
 62
   212
100
AcDbLine
 10
35.204707
 20
31.52269
 30
0.0
 11
35.204707
 21
28.522668
 31
0.0
  0
ENDBLK
  5
6BC
100
AcDbEntity
  8
0
100
AcDbBlockEnd
  0
ENDSEC
  0
SECTION
  2
ENTITIES
  0
INSERT
  5
41
100
AcDbEntity
  8
0
  6
Continuous
 62
   192
100
AcDbBlockReference
  2
*B1
 10
0.0
 20
0.0
 30
0.0
  0
INSERT
  5
6BD
100
AcDbEntity
  8
0
  6
Continuous
 62
   212
100
AcDbBlockReference
  2
*B2
 10
0.0
 20
0.0
 30
0.0
  0
ENDSEC
  0
SECTION
  2
OBJECTS
  0
DICTIONARY
  5
19
100
AcDbDictionary
280
     0
281
     1
  3
ACAD_GROUP
350
1A
  3
ACAD_MLINESTYLE
350
1B
  3
ACAD_LAYOUT
350
1E
  3
ACAD_PLOTSETTINGS
350
22
  3
ACAD_PLOTSTYLENAME
350
1F
  3
ACAD_WIPEOUT_VARS
350
23
  0
DICTIONARY
  5
1A
102
{ACAD_REACTORS
330
19
102
}
100
AcDbDictionary
280
     0
281
     1
  0
DICTIONARY
  5
1B
102
{ACAD_REACTORS
330
19
102
}
100
AcDbDictionary
280
     0
281
     1
  3
Standard
350
1C
  0
MLINESTYLE
  5
1C
102
{ACAD_REACTORS
330
1B
102
}
100
AcDbMlineStyle
  2
Standard
 70
     0
  3

 62
     0
 51
90.0
 52
90.0
 71
     2
 49
0.5
 62
   256
  6
BYLAYER
 49
-0.5
 62
   256
  6
BYLAYER
  0
ACDBDICTIONARYWDFLT
  5
1F
102
{ACAD_REACTORS
330
19
102
}
100
AcDbDictionary
281
     1
  3
Normal
350
1D
100
AcDbDictionaryWithDefault
340
1D
  0
ACDBPLACEHOLDER
  5
1D
102
{ACAD_REACTORS
330
1F
102
}
  0
LAYOUT
  5
20
102
{ACAD_REACTORS
330
1E
102
}
100
AcDbPlotSettings
  1

  2

  4

  6

 40
0.0
 41
0.0
 42
0.0
 43
0.0
 44
0.0
 45
0.0
 46
0.0
 47
0.0
 48
0.0
 49
0.0
140
0.0
141
0.0
142
1.0
143
1.0
 70
     0
 72
     0
 73
     0
 74
     0
  7

 75
     0
147
1.0
148
0.0
149
0.0
100
AcDbLayout
  1
Model
 70
     0
 71
     0
 10
0.0
 20
0.0
 11
0.0
 21
0.0
 12
0.0
 22
0.0
 32
0.0
 14
0.0
 24
0.0
 34
0.0
 15
0.0
 25
0.0
 35
0.0
146
0.0
 13
0.0
 23
0.0
 33
0.0
 16
0.0
 26
0.0
 36
0.0
 17
0.0
 27
0.0
 37
0.0
 76
     0
330
A
331
0
345
0
346
0
  0
LAYOUT
  5
21
102
{ACAD_REACTORS
330
1E
102
}
100
AcDbPlotSettings
  1

  2

  4

  6

 40
0.0
 41
0.0
 42
0.0
 43
0.0
 44
0.0
 45
0.0
 46
0.0
 47
0.0
 48
0.0
 49
0.0
140
0.0
141
0.0
142
1.0
143
1.0
 70
     0
 72
     0
 73
     0
 74
     0
  7

 75
     0
147
1.0
148
0.0
149
0.0
100
AcDbLayout
  1
Layout1
 70
     0
 71
     0
 10
0.0
 20
0.0
 11
0.0
 21
0.0
 12
0.0
 22
0.0
 32
0.0
 14
0.0
 24
0.0
 34
0.0
 15
0.0
 25
0.0
 35
0.0
146
0.0
 13
0.0
 23
0.0
 33
0.0
 16
0.0
 26
0.0
 36
0.0
 17
0.0
 27
0.0
 37
0.0
 76
     0
330
B
331
0
345
0
346
0
  0
DICTIONARY
  5
1E
102
{ACAD_REACTORS
330
19
102
}
100
AcDbDictionary
280
     0
281
     1
  3
Layout1
350
21
  3
Model
350
20
  0
DICTIONARY
  5
22
102
{ACAD_REACTORS
330
19
102
}
100
AcDbDictionary
280
     0
281
     1
  0
WIPEOUTVARIABLES
  5
23
100
AcDbWipeoutVariables
 70
     1
  0
ENDSEC
  0
EOF
