  0
SECTION
  2
HEADER
  9
$ACADVER
  1
AC1009
  0
ENDSEC
  0
SECTION
  2
ENTITIES
  0
POLYLINE
  5
90
  8
Layer_0
  62
0
  70
1
  66
1
  10
0
  20
0
  30
0
  0
VERTEX
  5
90
  8
Layer_0
  10
96.124969
  20
120.125
  0
VERTEX
  5
91
  8
Layer_0
  10
92.714973
  20
120.125
  0
VERTEX
  5
92
  8
Layer_0
  10
92.681221
  20
120.09125
  0
VERTEX
  5
93
  8
Layer_0
  10
92.714973
  20
120.125
  0
VERTEX
  5
94
  8
Layer_0
  10
92.714973
  20
123.44501
  0
VERTEX
  5
95
  8
Layer_0
  10
92.681221
  20
123.47876
  0
VERTEX
  5
96
  8
Layer_0
  10
92.714973
  20
123.44501
  0
VERTEX
  5
97
  8
Layer_0
  10
99.534973
  20
123.44501
  0
VERTEX
  5
98
  8
Layer_0
  10
99.568726
  20
123.47876
  0
VERTEX
  5
99
  8
Layer_0
  10
99.534973
  20
123.44501
  0
VERTEX
  5
9a
  8
Layer_0
  10
99.534973
  20
120.125
  0
VERTEX
  5
9b
  8
Layer_0
  10
99.568726
  20
120.09125
  0
VERTEX
  5
9c
  8
Layer_0
  10
99.534973
  20
120.125
  0
VERTEX
  5
9d
  8
Layer_0
  10
96.124969
  20
120.125
  0
SEQEND
  0
POLYLINE
  5
9f
  8
Layer_0
  62
0
  70
1
  66
1
  10
0
  20
0
  30
0
  0
VERTEX
  5
9f
  8
Layer_0
  10
110.12497
  20
120.125
  0
VERTEX
  5
a0
  8
Layer_0
  10
106.71497
  20
120.125
  0
VERTEX
  5
a1
  8
Layer_0
  10
106.68122
  20
120.09125
  0
VERTEX
  5
a2
  8
Layer_0
  10
106.71497
  20
120.125
  0
VERTEX
  5
a3
  8
Layer_0
  10
106.71497
  20
123.44501
  0
VERTEX
  5
a4
  8
Layer_0
  10
106.68122
  20
123.47876
  0
VERTEX
  5
a5
  8
Layer_0
  10
106.71497
  20
123.44501
  0
VERTEX
  5
a6
  8
Layer_0
  10
113.53497
  20
123.44501
  0
VERTEX
  5
a7
  8
Layer_0
  10
113.56873
  20
123.47876
  0
VERTEX
  5
a8
  8
Layer_0
  10
113.53497
  20
123.44501
  0
VERTEX
  5
a9
  8
Layer_0
  10
113.53497
  20
120.125
  0
VERTEX
  5
aa
  8
Layer_0
  10
113.56873
  20
120.09125
  0
VERTEX
  5
ab
  8
Layer_0
  10
113.53497
  20
120.125
  0
VERTEX
  5
ac
  8
Layer_0
  10
110.12497
  20
120.125
  0
SEQEND
  0
POLYLINE
  5
ae
  8
Layer_0
  62
0
  70
1
  66
1
  10
0
  20
0
  30
0
  0
VERTEX
  5
ae
  8
Layer_0
  10
124.12497
  20
120.125
  0
VERTEX
  5
af
  8
Layer_0
  10
120.71497
  20
120.125
  0
VERTEX
  5
b0
  8
Layer_0
  10
120.68122
  20
120.09125
  0
VERTEX
  5
b1
  8
Layer_0
  10
120.71497
  20
120.125
  0
VERTEX
  5
b2
  8
Layer_0
  10
120.71497
  20
123.44501
  0
VERTEX
  5
b3
  8
Layer_0
  10
120.68122
  20
123.47876
  0
VERTEX
  5
b4
  8
Layer_0
  10
120.71497
  20
123.44501
  0
VERTEX
  5
b5
  8
Layer_0
  10
127.53497
  20
123.44501
  0
VERTEX
  5
b6
  8
Layer_0
  10
127.56873
  20
123.47876
  0
VERTEX
  5
b7
  8
Layer_0
  10
127.53497
  20
123.44501
  0
VERTEX
  5
b8
  8
Layer_0
  10
127.53497
  20
120.125
  0
VERTEX
  5
b9
  8
Layer_0
  10
127.56873
  20
120.09125
  0
VERTEX
  5
ba
  8
Layer_0
  10
127.53497
  20
120.125
  0
VERTEX
  5
bb
  8
Layer_0
  10
124.12497
  20
120.125
  0
SEQEND
  0
POLYLINE
  5
bd
  8
Layer_0
  62
0
  70
1
  66
1
  10
0
  20
0
  30
0
  0
VERTEX
  5
bd
  8
Layer_0
  10
138.12497
  20
120.125
  0
VERTEX
  5
be
  8
Layer_0
  10
134.71497
  20
120.125
  0
VERTEX
  5
bf
  8
Layer_0
  10
134.68121
  20
120.09125
  0
VERTEX
  5
c0
  8
Layer_0
  10
134.71497
  20
120.125
  0
VERTEX
  5
c1
  8
Layer_0
  10
134.71497
  20
123.44501
  0
VERTEX
  5
c2
  8
Layer_0
  10
134.68121
  20
123.47876
  0
VERTEX
  5
c3
  8
Layer_0
  10
134.71497
  20
123.44501
  0
VERTEX
  5
c4
  8
Layer_0
  10
141.53497
  20
123.44501
  0
VERTEX
  5
c5
  8
Layer_0
  10
141.56873
  20
123.47876
  0
VERTEX
  5
c6
  8
Layer_0
  10
141.53497
  20
123.44501
  0
VERTEX
  5
c7
  8
Layer_0
  10
141.53497
  20
120.125
  0
VERTEX
  5
c8
  8
Layer_0
  10
141.56873
  20
120.09125
  0
VERTEX
  5
c9
  8
Layer_0
  10
141.53497
  20
120.125
  0
VERTEX
  5
ca
  8
Layer_0
  10
138.12497
  20
120.125
  0
SEQEND
  0
POLYLINE
  5
cc
  8
Layer_0
  62
0
  70
1
  66
1
  10
0
  20
0
  30
0
  0
VERTEX
  5
cc
  8
Layer_0
  10
152.12497
  20
120.125
  0
VERTEX
  5
cd
  8
Layer_0
  10
148.71497
  20
120.125
  0
VERTEX
  5
ce
  8
Layer_0
  10
148.68121
  20
120.09125
  0
VERTEX
  5
cf
  8
Layer_0
  10
148.71497
  20
120.125
  0
VERTEX
  5
d0
  8
Layer_0
  10
148.71497
  20
123.44501
  0
VERTEX
  5
d1
  8
Layer_0
  10
148.68121
  20
123.47876
  0
VERTEX
  5
d2
  8
Layer_0
  10
148.71497
  20
123.44501
  0
VERTEX
  5
d3
  8
Layer_0
  10
155.53497
  20
123.44501
  0
VERTEX
  5
d4
  8
Layer_0
  10
155.56873
  20
123.47876
  0
VERTEX
  5
d5
  8
Layer_0
  10
155.53497
  20
123.44501
  0
VERTEX
  5
d6
  8
Layer_0
  10
155.53497
  20
120.125
  0
VERTEX
  5
d7
  8
Layer_0
  10
155.56873
  20
120.09125
  0
VERTEX
  5
d8
  8
Layer_0
  10
155.53497
  20
120.125
  0
VERTEX
  5
d9
  8
Layer_0
  10
152.12497
  20
120.125
  0
SEQEND
  0
POLYLINE
  5
db
  8
Layer_0
  62
0
  70
1
  66
1
  10
0
  20
0
  30
0
  0
VERTEX
  5
db
  8
Layer_0
  10
166.12497
  20
120.125
  0
VERTEX
  5
dc
  8
Layer_0
  10
162.71497
  20
120.125
  0
VERTEX
  5
dd
  8
Layer_0
  10
162.68121
  20
120.09125
  0
VERTEX
  5
de
  8
Layer_0
  10
162.71497
  20
120.125
  0
VERTEX
  5
df
  8
Layer_0
  10
162.71497
  20
123.44501
  0
VERTEX
  5
e0
  8
Layer_0
  10
162.68121
  20
123.47876
  0
VERTEX
  5
e1
  8
Layer_0
  10
162.71497
  20
123.44501
  0
VERTEX
  5
e2
  8
Layer_0
  10
169.53497
  20
123.44501
  0
VERTEX
  5
e3
  8
Layer_0
  10
169.56873
  20
123.47876
  0
VERTEX
  5
e4
  8
Layer_0
  10
169.53497
  20
123.44501
  0
VERTEX
  5
e5
  8
Layer_0
  10
169.53497
  20
120.125
  0
VERTEX
  5
e6
  8
Layer_0
  10
169.56873
  20
120.09125
  0
VERTEX
  5
e7
  8
Layer_0
  10
169.53497
  20
120.125
  0
VERTEX
  5
e8
  8
Layer_0
  10
166.12497
  20
120.125
  0
SEQEND
  0
POLYLINE
  5
ea
  8
Layer_0
  62
0
  70
1
  66
1
  10
0
  20
0
  30
0
  0
VERTEX
  5
ea
  8
Layer_0
  10
180.12497
  20
120.125
  0
VERTEX
  5
eb
  8
Layer_0
  10
176.71497
  20
120.125
  0
VERTEX
  5
ec
  8
Layer_0
  10
176.68121
  20
120.09125
  0
VERTEX
  5
ed
  8
Layer_0
  10
176.71497
  20
120.125
  0
VERTEX
  5
ee
  8
Layer_0
  10
176.71497
  20
123.44501
  0
VERTEX
  5
ef
  8
Layer_0
  10
176.68121
  20
123.47876
  0
VERTEX
  5
f0
  8
Layer_0
  10
176.71497
  20
123.44501
  0
VERTEX
  5
f1
  8
Layer_0
  10
183.53497
  20
123.44501
  0
VERTEX
  5
f2
  8
Layer_0
  10
183.56873
  20
123.47876
  0
VERTEX
  5
f3
  8
Layer_0
  10
183.53497
  20
123.44501
  0
VERTEX
  5
f4
  8
Layer_0
  10
183.53497
  20
120.125
  0
VERTEX
  5
f5
  8
Layer_0
  10
183.56873
  20
120.09125
  0
VERTEX
  5
f6
  8
Layer_0
  10
183.53497
  20
120.125
  0
VERTEX
  5
f7
  8
Layer_0
  10
180.12497
  20
120.125
  0
SEQEND
  0
POLYLINE
  5
f9
  8
Layer_0
  62
0
  70
1
  66
1
  10
0
  20
0
  30
0
  0
VERTEX
  5
f9
  8
Layer_0
  10
194.12497
  20
120.125
  0
VERTEX
  5
fa
  8
Layer_0
  10
190.71497
  20
120.125
  0
VERTEX
  5
fb
  8
Layer_0
  10
190.68121
  20
120.09125
  0
VERTEX
  5
fc
  8
Layer_0
  10
190.71497
  20
120.125
  0
VERTEX
  5
fd
  8
Layer_0
  10
190.71497
  20
123.44501
  0
VERTEX
  5
fe
  8
Layer_0
  10
190.68121
  20
123.47876
  0
VERTEX
  5
ff
  8
Layer_0
  10
190.71497
  20
123.44501
  0
VERTEX
  5
100
  8
Layer_0
  10
197.53497
  20
123.44501
  0
VERTEX
  5
101
  8
Layer_0
  10
197.56873
  20
123.47876
  0
VERTEX
  5
102
  8
Layer_0
  10
197.53497
  20
123.44501
  0
VERTEX
  5
103
  8
Layer_0
  10
197.53497
  20
120.125
  0
VERTEX
  5
104
  8
Layer_0
  10
197.56873
  20
120.09125
  0
VERTEX
  5
105
  8
Layer_0
  10
197.53497
  20
120.125
  0
VERTEX
  5
106
  8
Layer_0
  10
194.12497
  20
120.125
  0
SEQEND
  0
POLYLINE
  5
108
  8
Layer_0
  62
0
  70
1
  66
1
  10
0
  20
0
  30
0
  0
VERTEX
  5
108
  8
Layer_0
  10
208.12497
  20
120.125
  0
VERTEX
  5
109
  8
Layer_0
  10
204.71497
  20
120.125
  0
VERTEX
  5
10a
  8
Layer_0
  10
204.68121
  20
120.09125
  0
VERTEX
  5
10b
  8
Layer_0
  10
204.71497
  20
120.125
  0
VERTEX
  5
10c
  8
Layer_0
  10
204.71497
  20
123.44501
  0
VERTEX
  5
10d
  8
Layer_0
  10
204.68121
  20
123.47876
  0
VERTEX
  5
10e
  8
Layer_0
  10
204.71497
  20
123.44501
  0
VERTEX
  5
10f
  8
Layer_0
  10
211.53497
  20
123.44501
  0
VERTEX
  5
110
  8
Layer_0
  10
211.56873
  20
123.47876
  0
VERTEX
  5
111
  8
Layer_0
  10
211.53497
  20
123.44501
  0
VERTEX
  5
112
  8
Layer_0
  10
211.53497
  20
120.125
  0
VERTEX
  5
113
  8
Layer_0
  10
211.56873
  20
120.09125
  0
VERTEX
  5
114
  8
Layer_0
  10
211.53497
  20
120.125
  0
VERTEX
  5
115
  8
Layer_0
  10
208.12497
  20
120.125
  0
SEQEND
  0
POLYLINE
  5
117
  8
Layer_0
  62
0
  70
1
  66
1
  10
0
  20
0
  30
0
  0
VERTEX
  5
117
  8
Layer_0
  10
222.12497
  20
120.125
  0
VERTEX
  5
118
  8
Layer_0
  10
218.71497
  20
120.125
  0
VERTEX
  5
119
  8
Layer_0
  10
218.68121
  20
120.09125
  0
VERTEX
  5
11a
  8
Layer_0
  10
218.71497
  20
120.125
  0
VERTEX
  5
11b
  8
Layer_0
  10
218.71497
  20
123.44501
  0
VERTEX
  5
11c
  8
Layer_0
  10
218.68121
  20
123.47876
  0
VERTEX
  5
11d
  8
Layer_0
  10
218.71497
  20
123.44501
  0
VERTEX
  5
11e
  8
Layer_0
  10
225.53497
  20
123.44501
  0
VERTEX
  5
11f
  8
Layer_0
  10
225.56873
  20
123.47876
  0
VERTEX
  5
120
  8
Layer_0
  10
225.53497
  20
123.44501
  0
VERTEX
  5
121
  8
Layer_0
  10
225.53497
  20
120.125
  0
VERTEX
  5
122
  8
Layer_0
  10
225.56873
  20
120.09125
  0
VERTEX
  5
123
  8
Layer_0
  10
225.53497
  20
120.125
  0
VERTEX
  5
124
  8
Layer_0
  10
222.12497
  20
120.125
  0
SEQEND
  0
POLYLINE
  5
126
  8
Layer_0
  62
0
  70
1
  66
1
  10
0
  20
0
  30
0
  0
VERTEX
  5
126
  8
Layer_0
  10
85.038971
  20
124.53699
  0
VERTEX
  5
127
  8
Layer_0
  10
88.332977
  20
123.65399
  0
VERTEX
  5
128
  8
Layer_0
  10
88.374222
  20
123.67798
  0
VERTEX
  5
129
  8
Layer_0
  10
88.332977
  20
123.65399
  0
VERTEX
  5
12a
  8
Layer_0
  10
87.473969
  20
120.44699
  0
VERTEX
  5
12b
  8
Layer_0
  10
87.497604
  20
120.40573
  0
VERTEX
  5
12c
  8
Layer_0
  10
87.473969
  20
120.44699
  0
VERTEX
  5
12d
  8
Layer_0
  10
80.885971
  20
122.21198
  0
VERTEX
  5
12e
  8
Layer_0
  10
80.844727
  20
122.18835
  0
VERTEX
  5
12f
  8
Layer_0
  10
80.885971
  20
122.21198
  0
VERTEX
  5
130
  8
Layer_0
  10
81.744972
  20
125.41901
  0
VERTEX
  5
131
  8
Layer_0
  10
81.721344
  20
125.46027
  0
VERTEX
  5
132
  8
Layer_0
  10
81.744972
  20
125.41901
  0
VERTEX
  5
133
  8
Layer_0
  10
85.038971
  20
124.53699
  0
SEQEND
  0
POLYLINE
  5
135
  8
Layer_0
  62
0
  70
1
  66
1
  10
0
  20
0
  30
0
  0
VERTEX
  5
135
  8
Layer_0
  10
77.961975
  20
128.62198
  0
VERTEX
  5
136
  8
Layer_0
  10
80.373978
  20
126.211
  0
VERTEX
  5
137
  8
Layer_0
  10
80.421219
  20
126.21136
  0
VERTEX
  5
138
  8
Layer_0
  10
80.373978
  20
126.211
  0
VERTEX
  5
139
  8
Layer_0
  10
78.02597
  20
123.86398
  0
VERTEX
  5
13a
  8
Layer_0
  10
78.02597
  20
123.81598
  0
VERTEX
  5
13b
  8
Layer_0
  10
78.02597
  20
123.86398
  0
VERTEX
  5
13c
  8
Layer_0
  10
73.203972
  20
128.68597
  0
VERTEX
  5
13d
  8
Layer_0
  10
73.155968
  20
128.68597
  0
VERTEX
  5
13e
  8
Layer_0
  10
73.203972
  20
128.68597
  0
VERTEX
  5
13f
  8
Layer_0
  10
75.550972
  20
131.034
  0
VERTEX
  5
140
  8
Layer_0
  10
75.551353
  20
131.08124
  0
VERTEX
  5
141
  8
Layer_0
  10
75.550972
  20
131.034
  0
VERTEX
  5
142
  8
Layer_0
  10
77.961975
  20
128.62198
  0
SEQEND
  0
POLYLINE
  5
144
  8
Layer_0
  62
0
  70
1
  66
1
  10
0
  20
0
  30
0
  0
VERTEX
  5
144
  8
Layer_0
  10
73.876968
  20
135.69897
  0
VERTEX
  5
145
  8
Layer_0
  10
74.758972
  20
132.405
  0
VERTEX
  5
146
  8
Layer_0
  10
74.800232
  20
132.38135
  0
VERTEX
  5
147
  8
Layer_0
  10
74.758972
  20
132.405
  0
VERTEX
  5
148
  8
Layer_0
  10
71.551971
  20
131.54599
  0
VERTEX
  5
149
  8
Layer_0
  10
71.528351
  20
131.50473
  0
VERTEX
  5
14a
  8
Layer_0
  10
71.551971
  20
131.54599
  0
VERTEX
  5
14b
  8
Layer_0
  10
69.786972
  20
138.13397
  0
VERTEX
  5
14c
  8
Layer_0
  10
69.745728
  20
138.15759
  0
VERTEX
  5
14d
  8
Layer_0
  10
69.786972
  20
138.13397
  0
VERTEX
  5
14e
  8
Layer_0
  10
72.993973
  20
138.99298
  0
VERTEX
  5
14f
  8
Layer_0
  10
73.017975
  20
139.03424
  0
VERTEX
  5
150
  8
Layer_0
  10
72.993973
  20
138.99298
  0
VERTEX
  5
151
  8
Layer_0
  10
73.876968
  20
135.69897
  0
SEQEND
  0
POLYLINE
  5
153
  8
Layer_0
  62
0
  70
1
  66
1
  10
0
  20
0
  30
0
  0
VERTEX
  5
153
  8
Layer_0
  10
234.06998
  20
121.32999
  0
VERTEX
  5
154
  8
Layer_0
  10
230.77597
  20
120.44699
  0
VERTEX
  5
155
  8
Layer_0
  10
230.75235
  20
120.40573
  0
VERTEX
  5
156
  8
Layer_0
  10
230.77597
  20
120.44699
  0
VERTEX
  5
157
  8
Layer_0
  10
229.91698
  20
123.65399
  0
VERTEX
  5
158
  8
Layer_0
  10
229.87573
  20
123.67798
  0
VERTEX
  5
159
  8
Layer_0
  10
229.91698
  20
123.65399
  0
VERTEX
  5
15a
  8
Layer_0
  10
236.50497
  20
125.41901
  0
VERTEX
  5
15b
  8
Layer_0
  10
236.52859
  20
125.46027
  0
VERTEX
  5
15c
  8
Layer_0
  10
236.50497
  20
125.41901
  0
VERTEX
  5
15d
  8
Layer_0
  10
237.36397
  20
122.21198
  0
VERTEX
  5
15e
  8
Layer_0
  10
237.40521
  20
122.18835
  0
VERTEX
  5
15f
  8
Layer_0
  10
237.36397
  20
122.21198
  0
VERTEX
  5
160
  8
Layer_0
  10
234.06998
  20
121.32999
  0
SEQEND
  0
POLYLINE
  5
162
  8
Layer_0
  62
0
  70
1
  66
1
  10
0
  20
0
  30
0
  0
VERTEX
  5
162
  8
Layer_0
  10
242.63498
  20
126.27499
  0
VERTEX
  5
163
  8
Layer_0
  10
240.22397
  20
123.86398
  0
VERTEX
  5
164
  8
Layer_0
  10
240.22397
  20
123.81598
  0
VERTEX
  5
165
  8
Layer_0
  10
240.22397
  20
123.86398
  0
VERTEX
  5
166
  8
Layer_0
  10
237.87598
  20
126.211
  0
VERTEX
  5
167
  8
Layer_0
  10
237.82874
  20
126.21136
  0
VERTEX
  5
168
  8
Layer_0
  10
237.87598
  20
126.211
  0
VERTEX
  5
169
  8
Layer_0
  10
242.69897
  20
131.034
  0
VERTEX
  5
16a
  8
Layer_0
  10
242.69861
  20
131.08124
  0
VERTEX
  5
16b
  8
Layer_0
  10
242.69897
  20
131.034
  0
VERTEX
  5
16c
  8
Layer_0
  10
245.04597
  20
128.68597
  0
VERTEX
  5
16d
  8
Layer_0
  10
245.09396
  20
128.68597
  0
VERTEX
  5
16e
  8
Layer_0
  10
245.04597
  20
128.68597
  0
VERTEX
  5
16f
  8
Layer_0
  10
242.63498
  20
126.27499
  0
SEQEND
  0
POLYLINE
  5
171
  8
Layer_0
  62
0
  70
1
  66
1
  10
0
  20
0
  30
0
  0
VERTEX
  5
171
  8
Layer_0
  10
247.57997
  20
134.84
  0
VERTEX
  5
172
  8
Layer_0
  10
246.69797
  20
131.54599
  0
VERTEX
  5
173
  8
Layer_0
  10
246.7216
  20
131.50473
  0
VERTEX
  5
174
  8
Layer_0
  10
246.69797
  20
131.54599
  0
VERTEX
  5
175
  8
Layer_0
  10
243.49097
  20
132.405
  0
VERTEX
  5
176
  8
Layer_0
  10
243.44972
  20
132.38135
  0
VERTEX
  5
177
  8
Layer_0
  10
243.49097
  20
132.405
  0
VERTEX
  5
178
  8
Layer_0
  10
245.25597
  20
138.99298
  0
VERTEX
  5
179
  8
Layer_0
  10
245.23196
  20
139.03424
  0
VERTEX
  5
17a
  8
Layer_0
  10
245.25597
  20
138.99298
  0
VERTEX
  5
17b
  8
Layer_0
  10
248.46297
  20
138.13397
  0
VERTEX
  5
17c
  8
Layer_0
  10
248.50421
  20
138.15759
  0
VERTEX
  5
17d
  8
Layer_0
  10
248.46297
  20
138.13397
  0
VERTEX
  5
17e
  8
Layer_0
  10
247.57997
  20
134.84
  0
SEQEND
  0
POLYLINE
  5
180
  8
Layer_0
  62
0
  66
1
  10
0
  20
0
  30
0
  0
VERTEX
  5
180
  8
Layer_0
  10
64.124969
  20
114.78497
  0
VERTEX
  5
181
  8
Layer_0
  10
71.534973
  20
114.78497
  0
VERTEX
  5
182
  8
Layer_0
  10
71.568726
  20
114.81873
  0
VERTEX
  5
183
  8
Layer_0
  10
71.534973
  20
114.78497
  0
VERTEX
  5
184
  8
Layer_0
  10
71.534973
  20
111.375
  0
VERTEX
  5
185
  8
Layer_0
  10
71.561226
  20
111.31122
  0
VERTEX
  5
186
  8
Layer_0
  10
71.624969
  20
111.28497
  0
VERTEX
  5
187
  8
Layer_0
  10
78.624969
  20
111.28497
  0
VERTEX
  5
188
  8
Layer_0
  10
78.688721
  20
111.31122
  0
VERTEX
  5
189
  8
Layer_0
  10
78.714973
  20
111.375
  0
VERTEX
  5
18a
  8
Layer_0
  10
78.714973
  20
114.78497
  0
VERTEX
  5
18b
  8
Layer_0
  10
78.681221
  20
114.81873
  0
VERTEX
  5
18c
  8
Layer_0
  10
78.714973
  20
114.78497
  0
VERTEX
  5
18d
  8
Layer_0
  10
85.534973
  20
114.78497
  0
VERTEX
  5
18e
  8
Layer_0
  10
85.568726
  20
114.81873
  0
VERTEX
  5
18f
  8
Layer_0
  10
85.534973
  20
114.78497
  0
VERTEX
  5
190
  8
Layer_0
  10
85.534973
  20
111.375
  0
VERTEX
  5
191
  8
Layer_0
  10
85.561226
  20
111.31122
  0
VERTEX
  5
192
  8
Layer_0
  10
85.624969
  20
111.28497
  0
VERTEX
  5
193
  8
Layer_0
  10
92.624969
  20
111.28497
  0
VERTEX
  5
194
  8
Layer_0
  10
92.688721
  20
111.31122
  0
VERTEX
  5
195
  8
Layer_0
  10
92.714973
  20
111.375
  0
VERTEX
  5
196
  8
Layer_0
  10
92.714973
  20
114.78497
  0
VERTEX
  5
197
  8
Layer_0
  10
92.681221
  20
114.81873
  0
VERTEX
  5
198
  8
Layer_0
  10
92.714973
  20
114.78497
  0
VERTEX
  5
199
  8
Layer_0
  10
99.534973
  20
114.78497
  0
VERTEX
  5
19a
  8
Layer_0
  10
99.568726
  20
114.81873
  0
VERTEX
  5
19b
  8
Layer_0
  10
99.534973
  20
114.78497
  0
VERTEX
  5
19c
  8
Layer_0
  10
99.534973
  20
111.375
  0
VERTEX
  5
19d
  8
Layer_0
  10
99.561226
  20
111.31122
  0
VERTEX
  5
19e
  8
Layer_0
  10
99.624969
  20
111.28497
  0
VERTEX
  5
19f
  8
Layer_0
  10
106.62497
  20
111.28497
  0
VERTEX
  5
1a0
  8
Layer_0
  10
106.68872
  20
111.31122
  0
VERTEX
  5
1a1
  8
Layer_0
  10
106.71497
  20
111.375
  0
VERTEX
  5
1a2
  8
Layer_0
  10
106.71497
  20
114.78497
  0
VERTEX
  5
1a3
  8
Layer_0
  10
106.68122
  20
114.81873
  0
VERTEX
  5
1a4
  8
Layer_0
  10
106.71497
  20
114.78497
  0
VERTEX
  5
1a5
  8
Layer_0
  10
113.53497
  20
114.78497
  0
VERTEX
  5
1a6
  8
Layer_0
  10
113.56873
  20
114.81873
  0
VERTEX
  5
1a7
  8
Layer_0
  10
113.53497
  20
114.78497
  0
VERTEX
  5
1a8
  8
Layer_0
  10
113.53497
  20
111.375
  0
VERTEX
  5
1a9
  8
Layer_0
  10
113.56123
  20
111.31122
  0
VERTEX
  5
1aa
  8
Layer_0
  10
113.62497
  20
111.28497
  0
VERTEX
  5
1ab
  8
Layer_0
  10
120.62497
  20
111.28497
  0
VERTEX
  5
1ac
  8
Layer_0
  10
120.68872
  20
111.31122
  0
VERTEX
  5
1ad
  8
Layer_0
  10
120.71497
  20
111.375
  0
VERTEX
  5
1ae
  8
Layer_0
  10
120.71497
  20
114.78497
  0
VERTEX
  5
1af
  8
Layer_0
  10
120.68122
  20
114.81873
  0
VERTEX
  5
1b0
  8
Layer_0
  10
120.71497
  20
114.78497
  0
VERTEX
  5
1b1
  8
Layer_0
  10
127.53497
  20
114.78497
  0
VERTEX
  5
1b2
  8
Layer_0
  10
127.56873
  20
114.81873
  0
VERTEX
  5
1b3
  8
Layer_0
  10
127.53497
  20
114.78497
  0
VERTEX
  5
1b4
  8
Layer_0
  10
127.53497
  20
111.375
  0
VERTEX
  5
1b5
  8
Layer_0
  10
127.56123
  20
111.31122
  0
VERTEX
  5
1b6
  8
Layer_0
  10
127.62497
  20
111.28497
  0
VERTEX
  5
1b7
  8
Layer_0
  10
134.62497
  20
111.28497
  0
VERTEX
  5
1b8
  8
Layer_0
  10
134.68872
  20
111.31122
  0
VERTEX
  5
1b9
  8
Layer_0
  10
134.71497
  20
111.375
  0
VERTEX
  5
1ba
  8
Layer_0
  10
134.71497
  20
114.78497
  0
VERTEX
  5
1bb
  8
Layer_0
  10
134.68121
  20
114.81873
  0
VERTEX
  5
1bc
  8
Layer_0
  10
134.71497
  20
114.78497
  0
VERTEX
  5
1bd
  8
Layer_0
  10
141.53497
  20
114.78497
  0
VERTEX
  5
1be
  8
Layer_0
  10
141.56873
  20
114.81873
  0
VERTEX
  5
1bf
  8
Layer_0
  10
141.53497
  20
114.78497
  0
VERTEX
  5
1c0
  8
Layer_0
  10
141.53497
  20
111.375
  0
VERTEX
  5
1c1
  8
Layer_0
  10
141.56123
  20
111.31122
  0
VERTEX
  5
1c2
  8
Layer_0
  10
141.62497
  20
111.28497
  0
VERTEX
  5
1c3
  8
Layer_0
  10
148.62497
  20
111.28497
  0
VERTEX
  5
1c4
  8
Layer_0
  10
148.68872
  20
111.31122
  0
VERTEX
  5
1c5
  8
Layer_0
  10
148.71497
  20
111.375
  0
VERTEX
  5
1c6
  8
Layer_0
  10
148.71497
  20
114.78497
  0
VERTEX
  5
1c7
  8
Layer_0
  10
148.68121
  20
114.81873
  0
VERTEX
  5
1c8
  8
Layer_0
  10
148.71497
  20
114.78497
  0
VERTEX
  5
1c9
  8
Layer_0
  10
155.53497
  20
114.78497
  0
VERTEX
  5
1ca
  8
Layer_0
  10
155.56873
  20
114.81873
  0
VERTEX
  5
1cb
  8
Layer_0
  10
155.53497
  20
114.78497
  0
VERTEX
  5
1cc
  8
Layer_0
  10
155.53497
  20
111.375
  0
VERTEX
  5
1cd
  8
Layer_0
  10
155.56123
  20
111.31122
  0
VERTEX
  5
1ce
  8
Layer_0
  10
155.62497
  20
111.28497
  0
VERTEX
  5
1cf
  8
Layer_0
  10
162.62497
  20
111.28497
  0
VERTEX
  5
1d0
  8
Layer_0
  10
162.68872
  20
111.31122
  0
VERTEX
  5
1d1
  8
Layer_0
  10
162.71497
  20
111.375
  0
VERTEX
  5
1d2
  8
Layer_0
  10
162.71497
  20
114.78497
  0
VERTEX
  5
1d3
  8
Layer_0
  10
162.68121
  20
114.81873
  0
VERTEX
  5
1d4
  8
Layer_0
  10
162.71497
  20
114.78497
  0
VERTEX
  5
1d5
  8
Layer_0
  10
169.53497
  20
114.78497
  0
VERTEX
  5
1d6
  8
Layer_0
  10
169.56873
  20
114.81873
  0
VERTEX
  5
1d7
  8
Layer_0
  10
169.53497
  20
114.78497
  0
VERTEX
  5
1d8
  8
Layer_0
  10
169.53497
  20
111.375
  0
VERTEX
  5
1d9
  8
Layer_0
  10
169.56123
  20
111.31122
  0
VERTEX
  5
1da
  8
Layer_0
  10
169.62497
  20
111.28497
  0
VERTEX
  5
1db
  8
Layer_0
  10
176.62497
  20
111.28497
  0
VERTEX
  5
1dc
  8
Layer_0
  10
176.68872
  20
111.31122
  0
VERTEX
  5
1dd
  8
Layer_0
  10
176.71497
  20
111.375
  0
VERTEX
  5
1de
  8
Layer_0
  10
176.71497
  20
114.78497
  0
VERTEX
  5
1df
  8
Layer_0
  10
176.68121
  20
114.81873
  0
VERTEX
  5
1e0
  8
Layer_0
  10
176.71497
  20
114.78497
  0
VERTEX
  5
1e1
  8
Layer_0
  10
183.53497
  20
114.78497
  0
VERTEX
  5
1e2
  8
Layer_0
  10
183.56873
  20
114.81873
  0
VERTEX
  5
1e3
  8
Layer_0
  10
183.53497
  20
114.78497
  0
VERTEX
  5
1e4
  8
Layer_0
  10
183.53497
  20
111.375
  0
VERTEX
  5
1e5
  8
Layer_0
  10
183.56122
  20
111.31122
  0
VERTEX
  5
1e6
  8
Layer_0
  10
183.62497
  20
111.28497
  0
VERTEX
  5
1e7
  8
Layer_0
  10
190.62497
  20
111.28497
  0
VERTEX
  5
1e8
  8
Layer_0
  10
190.68872
  20
111.31122
  0
VERTEX
  5
1e9
  8
Layer_0
  10
190.71497
  20
111.375
  0
VERTEX
  5
1ea
  8
Layer_0
  10
190.71497
  20
114.78497
  0
VERTEX
  5
1eb
  8
Layer_0
  10
190.68121
  20
114.81873
  0
VERTEX
  5
1ec
  8
Layer_0
  10
190.71497
  20
114.78497
  0
VERTEX
  5
1ed
  8
Layer_0
  10
197.53497
  20
114.78497
  0
VERTEX
  5
1ee
  8
Layer_0
  10
197.56873
  20
114.81873
  0
VERTEX
  5
1ef
  8
Layer_0
  10
197.53497
  20
114.78497
  0
VERTEX
  5
1f0
  8
Layer_0
  10
197.53497
  20
111.375
  0
VERTEX
  5
1f1
  8
Layer_0
  10
197.56122
  20
111.31122
  0
VERTEX
  5
1f2
  8
Layer_0
  10
197.62497
  20
111.28497
  0
VERTEX
  5
1f3
  8
Layer_0
  10
204.62497
  20
111.28497
  0
VERTEX
  5
1f4
  8
Layer_0
  10
204.68872
  20
111.31122
  0
VERTEX
  5
1f5
  8
Layer_0
  10
204.71497
  20
111.375
  0
VERTEX
  5
1f6
  8
Layer_0
  10
204.71497
  20
114.78497
  0
VERTEX
  5
1f7
  8
Layer_0
  10
204.68121
  20
114.81873
  0
VERTEX
  5
1f8
  8
Layer_0
  10
204.71497
  20
114.78497
  0
VERTEX
  5
1f9
  8
Layer_0
  10
211.53497
  20
114.78497
  0
VERTEX
  5
1fa
  8
Layer_0
  10
211.56873
  20
114.81873
  0
VERTEX
  5
1fb
  8
Layer_0
  10
211.53497
  20
114.78497
  0
VERTEX
  5
1fc
  8
Layer_0
  10
211.53497
  20
111.375
  0
VERTEX
  5
1fd
  8
Layer_0
  10
211.56122
  20
111.31122
  0
VERTEX
  5
1fe
  8
Layer_0
  10
211.62497
  20
111.28497
  0
VERTEX
  5
1ff
  8
Layer_0
  10
218.62497
  20
111.28497
  0
VERTEX
  5
200
  8
Layer_0
  10
218.68872
  20
111.31122
  0
VERTEX
  5
201
  8
Layer_0
  10
218.71497
  20
111.375
  0
VERTEX
  5
202
  8
Layer_0
  10
218.71497
  20
114.78497
  0
VERTEX
  5
203
  8
Layer_0
  10
218.68121
  20
114.81873
  0
VERTEX
  5
204
  8
Layer_0
  10
218.71497
  20
114.78497
  0
VERTEX
  5
205
  8
Layer_0
  10
225.53497
  20
114.78497
  0
VERTEX
  5
206
  8
Layer_0
  10
225.56873
  20
114.81873
  0
VERTEX
  5
207
  8
Layer_0
  10
225.53497
  20
114.78497
  0
VERTEX
  5
208
  8
Layer_0
  10
225.53497
  20
111.375
  0
VERTEX
  5
209
  8
Layer_0
  10
225.56122
  20
111.31122
  0
VERTEX
  5
20a
  8
Layer_0
  10
225.62497
  20
111.28497
  0
VERTEX
  5
20b
  8
Layer_0
  10
232.62497
  20
111.28497
  0
VERTEX
  5
20c
  8
Layer_0
  10
232.68872
  20
111.31122
  0
VERTEX
  5
20d
  8
Layer_0
  10
232.71497
  20
111.375
  0
VERTEX
  5
20e
  8
Layer_0
  10
232.71497
  20
114.78497
  0
VERTEX
  5
20f
  8
Layer_0
  10
232.68121
  20
114.81873
  0
VERTEX
  5
210
  8
Layer_0
  10
232.71497
  20
114.78497
  0
VERTEX
  5
211
  8
Layer_0
  10
239.53497
  20
114.78497
  0
VERTEX
  5
212
  8
Layer_0
  10
239.56873
  20
114.81873
  0
VERTEX
  5
213
  8
Layer_0
  10
239.53497
  20
114.78497
  0
VERTEX
  5
214
  8
Layer_0
  10
239.53497
  20
111.375
  0
VERTEX
  5
215
  8
Layer_0
  10
239.56122
  20
111.31122
  0
VERTEX
  5
216
  8
Layer_0
  10
239.62497
  20
111.28497
  0
VERTEX
  5
217
  8
Layer_0
  10
246.62497
  20
111.28497
  0
VERTEX
  5
218
  8
Layer_0
  10
246.68872
  20
111.31122
  0
VERTEX
  5
219
  8
Layer_0
  10
246.71497
  20
111.375
  0
VERTEX
  5
21a
  8
Layer_0
  10
246.71497
  20
114.78497
  0
VERTEX
  5
21b
  8
Layer_0
  10
246.68121
  20
114.81873
  0
VERTEX
  5
21c
  8
Layer_0
  10
246.71497
  20
114.78497
  0
VERTEX
  5
21d
  8
Layer_0
  10
254.12497
  20
114.78497
  0
VERTEX
  5
21e
  8
Layer_0
  10
254.18872
  20
114.81122
  0
VERTEX
  5
21f
  8
Layer_0
  10
254.21497
  20
114.875
  0
VERTEX
  5
220
  8
Layer_0
  10
254.21497
  20
116.78497
  0
VERTEX
  5
221
  8
Layer_0
  10
254.18121
  20
116.81873
  0
VERTEX
  5
222
  8
Layer_0
  10
254.21497
  20
116.78497
  0
VERTEX
  5
223
  8
Layer_0
  10
257.62497
  20
116.78497
  0
VERTEX
  5
224
  8
Layer_0
  10
257.68872
  20
116.81122
  0
VERTEX
  5
225
  8
Layer_0
  10
257.71497
  20
116.875
  0
VERTEX
  5
226
  8
Layer_0
  10
257.71497
  20
123.875
  0
VERTEX
  5
227
  8
Layer_0
  10
257.68872
  20
123.93875
  0
VERTEX
  5
228
  8
Layer_0
  10
257.62497
  20
123.965
  0
VERTEX
  5
229
  8
Layer_0
  10
254.21497
  20
123.965
  0
VERTEX
  5
22a
  8
Layer_0
  10
254.18121
  20
123.93124
  0
VERTEX
  5
22b
  8
Layer_0
  10
254.21497
  20
123.965
  0
VERTEX
  5
22c
  8
Layer_0
  10
254.21497
  20
130.78497
  0
VERTEX
  5
22d
  8
Layer_0
  10
254.18121
  20
130.81873
  0
VERTEX
  5
22e
  8
Layer_0
  10
254.21497
  20
130.78497
  0
VERTEX
  5
22f
  8
Layer_0
  10
257.62497
  20
130.78497
  0
VERTEX
  5
230
  8
Layer_0
  10
257.68872
  20
130.81122
  0
VERTEX
  5
231
  8
Layer_0
  10
257.71497
  20
130.875
  0
VERTEX
  5
232
  8
Layer_0
  10
257.71497
  20
137.875
  0
VERTEX
  5
233
  8
Layer_0
  10
257.68872
  20
137.93875
  0
VERTEX
  5
234
  8
Layer_0
  10
257.62497
  20
137.965
  0
VERTEX
  5
235
  8
Layer_0
  10
254.21497
  20
137.965
  0
VERTEX
  5
236
  8
Layer_0
  10
254.18121
  20
137.93124
  0
VERTEX
  5
237
  8
Layer_0
  10
254.21497
  20
137.965
  0
VERTEX
  5
238
  8
Layer_0
  10
254.21497
  20
139.78497
  0
VERTEX
  5
239
  8
Layer_0
  10
254.18121
  20
139.81873
  0
VERTEX
  5
23a
  8
Layer_0
  10
254.21497
  20
139.78497
  0
VERTEX
  5
23b
  8
Layer_0
  10
257.62497
  20
139.78497
  0
VERTEX
  5
23c
  8
Layer_0
  10
257.68872
  20
139.81122
  0
VERTEX
  5
23d
  8
Layer_0
  10
257.71497
  20
139.875
  0
VERTEX
  5
23e
  8
Layer_0
  10
257.69952
  20
140.81488
  0
VERTEX
  5
23f
  8
Layer_0
  10
257.65332
  20
141.75198
  0
VERTEX
  5
240
  8
Layer_0
  10
257.57651
  20
142.68552
  0
VERTEX
  5
241
  8
Layer_0
  10
257.46936
  20
143.61481
  0
VERTEX
  5
242
  8
Layer_0
  10
257.33203
  20
144.53912
  0
VERTEX
  5
243
  8
Layer_0
  10
257.16467
  20
145.4577
  0
VERTEX
  5
244
  8
Layer_0
  10
256.96756
  20
146.36987
  0
VERTEX
  5
245
  8
Layer_0
  10
256.74084
  20
147.27484
  0
VERTEX
  5
246
  8
Layer_0
  10
256.48474
  20
148.17194
  0
VERTEX
  5
247
  8
Layer_0
  10
256.1994
  20
149.06042
  0
VERTEX
  5
248
  8
Layer_0
  10
255.88506
  20
149.93961
  0
VERTEX
  5
249
  8
Layer_0
  10
255.5419
  20
150.80872
  0
VERTEX
  5
24a
  8
Layer_0
  10
255.17012
  20
151.66702
  0
VERTEX
  5
24b
  8
Layer_0
  10
254.7699
  20
152.51382
  0
VERTEX
  5
24c
  8
Layer_0
  10
254.34146
  20
153.34839
  0
VERTEX
  5
24d
  8
Layer_0
  10
253.88498
  20
154.16998
  0
VERTEX
  5
24e
  8
Layer_0
  10
253.40155
  20
154.97614
  0
VERTEX
  5
24f
  8
Layer_0
  10
252.89291
  20
155.76448
  0
VERTEX
  5
250
  8
Layer_0
  10
252.35957
  20
156.5345
  0
VERTEX
  5
251
  8
Layer_0
  10
251.80206
  20
157.28564
  0
VERTEX
  5
252
  8
Layer_0
  10
251.22092
  20
158.0174
  0
VERTEX
  5
253
  8
Layer_0
  10
250.61667
  20
158.72922
  0
VERTEX
  5
254
  8
Layer_0
  10
249.98985
  20
159.42059
  0
VERTEX
  5
255
  8
Layer_0
  10
249.34097
  20
160.091
  0
VERTEX
  5
256
  8
Layer_0
  10
248.67058
  20
160.73988
  0
VERTEX
  5
257
  8
Layer_0
  10
247.97922
  20
161.3667
  0
VERTEX
  5
258
  8
Layer_0
  10
247.2674
  20
161.97095
  0
VERTEX
  5
259
  8
Layer_0
  10
246.53563
  20
162.55209
  0
VERTEX
  5
25a
  8
Layer_0
  10
245.78447
  20
163.10959
  0
VERTEX
  5
25b
  8
Layer_0
  10
245.01447
  20
163.64293
  0
VERTEX
  5
25c
  8
Layer_0
  10
244.22614
  20
164.15155
  0
VERTEX
  5
25d
  8
Layer_0
  10
243.41997
  20
164.63498
  0
VERTEX
  5
25e
  8
Layer_0
  10
242.59836
  20
165.09146
  0
VERTEX
  5
25f
  8
Layer_0
  10
241.76381
  20
165.5199
  0
VERTEX
  5
260
  8
Layer_0
  10
240.91702
  20
165.92012
  0
VERTEX
  5
261
  8
Layer_0
  10
240.05872
  20
166.2919
  0
VERTEX
  5
262
  8
Layer_0
  10
239.18961
  20
166.63507
  0
VERTEX
  5
263
  8
Layer_0
  10
238.31046
  20
166.9494
  0
VERTEX
  5
264
  8
Layer_0
  10
237.42197
  20
167.23474
  0
VERTEX
  5
265
  8
Layer_0
  10
236.52484
  20
167.49086
  0
VERTEX
  5
266
  8
Layer_0
  10
235.61984
  20
167.71758
  0
VERTEX
  5
267
  8
Layer_0
  10
234.70769
  20
167.9147
  0
VERTEX
  5
268
  8
Layer_0
  10
233.78909
  20
168.08203
  0
VERTEX
  5
269
  8
Layer_0
  10
232.86479
  20
168.21939
  0
VERTEX
  5
26a
  8
Layer_0
  10
231.93552
  20
168.32654
  0
VERTEX
  5
26b
  8
Layer_0
  10
231.00195
  20
168.40332
  0
VERTEX
  5
26c
  8
Layer_0
  10
230.06488
  20
168.44955
  0
VERTEX
  5
26d
  8
Layer_0
  10
229.12497
  20
168.465
  0
VERTEX
  5
26e
  8
Layer_0
  10
89.124969
  20
168.465
  0
VERTEX
  5
26f
  8
Layer_0
  10
88.185074
  20
168.44955
  0
VERTEX
  5
270
  8
Layer_0
  10
87.247986
  20
168.40332
  0
VERTEX
  5
271
  8
Layer_0
  10
86.31443
  20
168.32654
  0
VERTEX
  5
272
  8
Layer_0
  10
85.385139
  20
168.21939
  0
VERTEX
  5
273
  8
Layer_0
  10
84.460838
  20
168.08203
  0
VERTEX
  5
274
  8
Layer_0
  10
83.542244
  20
167.9147
  0
VERTEX
  5
275
  8
Layer_0
  10
82.630089
  20
167.71758
  0
VERTEX
  5
276
  8
Layer_0
  10
81.725098
  20
167.49086
  0
VERTEX
  5
277
  8
Layer_0
  10
80.827988
  20
167.23474
  0
VERTEX
  5
278
  8
Layer_0
  10
79.939499
  20
166.9494
  0
VERTEX
  5
279
  8
Layer_0
  10
79.060333
  20
166.63507
  0
VERTEX
  5
27a
  8
Layer_0
  10
78.191238
  20
166.2919
  0
VERTEX
  5
27b
  8
Layer_0
  10
77.332932
  20
165.92012
  0
VERTEX
  5
27c
  8
Layer_0
  10
76.48613
  20
165.5199
  0
VERTEX
  5
27d
  8
Layer_0
  10
75.651573
  20
165.09146
  0
VERTEX
  5
27e
  8
Layer_0
  10
74.829971
  20
164.63498
  0
VERTEX
  5
27f
  8
Layer_0
  10
74.023819
  20
164.15155
  0
VERTEX
  5
280
  8
Layer_0
  10
73.235474
  20
163.64293
  0
VERTEX
  5
281
  8
Layer_0
  10
72.465454
  20
163.10959
  0
VERTEX
  5
282
  8
Layer_0
  10
71.71431
  20
162.55209
  0
VERTEX
  5
283
  8
Layer_0
  10
70.982559
  20
161.97095
  0
VERTEX
  5
284
  8
Layer_0
  10
70.270729
  20
161.3667
  0
VERTEX
  5
285
  8
Layer_0
  10
69.579353
  20
160.73988
  0
VERTEX
  5
286
  8
Layer_0
  10
68.908966
  20
160.091
  0
VERTEX
  5
287
  8
Layer_0
  10
68.260101
  20
159.42059
  0
VERTEX
  5
288
  8
Layer_0
  10
67.63327
  20
158.72922
  0
VERTEX
  5
289
  8
Layer_0
  10
67.029022
  20
158.0174
  0
VERTEX
  5
28a
  8
Layer_0
  10
66.447876
  20
157.28564
  0
VERTEX
  5
28b
  8
Layer_0
  10
65.890373
  20
156.5345
  0
VERTEX
  5
28c
  8
Layer_0
  10
65.357033
  20
155.76448
  0
VERTEX
  5
28d
  8
Layer_0
  10
64.848389
  20
154.97614
  0
VERTEX
  5
28e
  8
Layer_0
  10
64.364975
  20
154.16998
  0
VERTEX
  5
28f
  8
Layer_0
  10
63.908485
  20
153.34839
  0
VERTEX
  5
290
  8
Layer_0
  10
63.480045
  20
152.51382
  0
VERTEX
  5
291
  8
Layer_0
  10
63.079834
  20
151.66702
  0
VERTEX
  5
292
  8
Layer_0
  10
62.70805
  20
150.80872
  0
VERTEX
  5
293
  8
Layer_0
  10
62.364891
  20
149.93961
  0
VERTEX
  5
294
  8
Layer_0
  10
62.050545
  20
149.06042
  0
VERTEX
  5
295
  8
Layer_0
  10
61.765221
  20
148.17194
  0
VERTEX
  5
296
  8
Layer_0
  10
61.509098
  20
147.27484
  0
VERTEX
  5
297
  8
Layer_0
  10
61.282375
  20
146.36987
  0
VERTEX
  5
298
  8
Layer_0
  10
61.085251
  20
145.4577
  0
VERTEX
  5
299
  8
Layer_0
  10
60.917923
  20
144.53912
  0
VERTEX
  5
29a
  8
Layer_0
  10
60.780579
  20
143.61481
  0
VERTEX
  5
29b
  8
Layer_0
  10
60.67342
  20
142.68552
  0
VERTEX
  5
29c
  8
Layer_0
  10
60.596634
  20
141.75198
  0
VERTEX
  5
29d
  8
Layer_0
  10
60.550423
  20
140.81488
  0
VERTEX
  5
29e
  8
Layer_0
  10
60.534973
  20
139.875
  0
VERTEX
  5
29f
  8
Layer_0
  10
60.561226
  20
139.81122
  0
VERTEX
  5
2a0
  8
Layer_0
  10
60.624973
  20
139.78497
  0
VERTEX
  5
2a1
  8
Layer_0
  10
64.034973
  20
139.78497
  0
VERTEX
  5
2a2
  8
Layer_0
  10
64.068726
  20
139.81873
  0
VERTEX
  5
2a3
  8
Layer_0
  10
64.034973
  20
139.78497
  0
VERTEX
  5
2a4
  8
Layer_0
  10
64.034973
  20
137.965
  0
VERTEX
  5
2a5
  8
Layer_0
  10
64.068726
  20
137.93124
  0
VERTEX
  5
2a6
  8
Layer_0
  10
64.034973
  20
137.965
  0
VERTEX
  5
2a7
  8
Layer_0
  10
60.624973
  20
137.965
  0
VERTEX
  5
2a8
  8
Layer_0
  10
60.561226
  20
137.93875
  0
VERTEX
  5
2a9
  8
Layer_0
  10
60.534973
  20
137.875
  0
VERTEX
  5
2aa
  8
Layer_0
  10
60.534973
  20
130.875
  0
VERTEX
  5
2ab
  8
Layer_0
  10
60.561226
  20
130.81122
  0
VERTEX
  5
2ac
  8
Layer_0
  10
60.624973
  20
130.78497
  0
VERTEX
  5
2ad
  8
Layer_0
  10
64.034973
  20
130.78497
  0
VERTEX
  5
2ae
  8
Layer_0
  10
64.068726
  20
130.81873
  0
VERTEX
  5
2af
  8
Layer_0
  10
64.034973
  20
130.78497
  0
VERTEX
  5
2b0
  8
Layer_0
  10
64.034973
  20
123.965
  0
VERTEX
  5
2b1
  8
Layer_0
  10
64.068726
  20
123.93124
  0
VERTEX
  5
2b2
  8
Layer_0
  10
64.034973
  20
123.965
  0
VERTEX
  5
2b3
  8
Layer_0
  10
60.624973
  20
123.965
  0
VERTEX
  5
2b4
  8
Layer_0
  10
60.561226
  20
123.93875
  0
VERTEX
  5
2b5
  8
Layer_0
  10
60.534973
  20
123.875
  0
VERTEX
  5
2b6
  8
Layer_0
  10
60.534973
  20
116.875
  0
VERTEX
  5
2b7
  8
Layer_0
  10
60.561226
  20
116.81122
  0
VERTEX
  5
2b8
  8
Layer_0
  10
60.624973
  20
116.78497
  0
VERTEX
  5
2b9
  8
Layer_0
  10
64.034973
  20
116.78497
  0
VERTEX
  5
2ba
  8
Layer_0
  10
64.068726
  20
116.81873
  0
VERTEX
  5
2bb
  8
Layer_0
  10
64.034973
  20
116.78497
  0
VERTEX
  5
2bc
  8
Layer_0
  10
64.034973
  20
114.875
  0
SEQEND
  0
POLYLINE
  5
2be
  8
Layer_0
  62
0
  70
1
  66
1
  10
0
  20
0
  30
0
  0
VERTEX
  5
2be
  8
Layer_0
  10
97.264969
  20
179.66
  0
VERTEX
  5
2bf
  8
Layer_0
  10
93.854965
  20
179.66
  0
VERTEX
  5
2c0
  8
Layer_0
  10
93.821213
  20
179.62625
  0
VERTEX
  5
2c1
  8
Layer_0
  10
93.854965
  20
179.66
  0
VERTEX
  5
2c2
  8
Layer_0
  10
93.854965
  20
182.98
  0
VERTEX
  5
2c3
  8
Layer_0
  10
93.821213
  20
183.01375
  0
VERTEX
  5
2c4
  8
Layer_0
  10
93.854965
  20
182.98
  0
VERTEX
  5
2c5
  8
Layer_0
  10
100.67496
  20
182.98
  0
VERTEX
  5
2c6
  8
Layer_0
  10
100.70871
  20
183.01375
  0
VERTEX
  5
2c7
  8
Layer_0
  10
100.67496
  20
182.98
  0
VERTEX
  5
2c8
  8
Layer_0
  10
100.67496
  20
179.66
  0
VERTEX
  5
2c9
  8
Layer_0
  10
100.70871
  20
179.62625
  0
VERTEX
  5
2ca
  8
Layer_0
  10
100.67496
  20
179.66
  0
VERTEX
  5
2cb
  8
Layer_0
  10
97.264969
  20
179.66
  0
SEQEND
  0
POLYLINE
  5
2cd
  8
Layer_0
  62
0
  70
1
  66
1
  10
0
  20
0
  30
0
  0
VERTEX
  5
2cd
  8
Layer_0
  10
111.26495
  20
179.66
  0
VERTEX
  5
2ce
  8
Layer_0
  10
107.85497
  20
179.66
  0
VERTEX
  5
2cf
  8
Layer_0
  10
107.82121
  20
179.62625
  0
VERTEX
  5
2d0
  8
Layer_0
  10
107.85497
  20
179.66
  0
VERTEX
  5
2d1
  8
Layer_0
  10
107.85497
  20
182.98
  0
VERTEX
  5
2d2
  8
Layer_0
  10
107.82121
  20
183.01375
  0
VERTEX
  5
2d3
  8
Layer_0
  10
107.85497
  20
182.98
  0
VERTEX
  5
2d4
  8
Layer_0
  10
114.67496
  20
182.98
  0
VERTEX
  5
2d5
  8
Layer_0
  10
114.70871
  20
183.01375
  0
VERTEX
  5
2d6
  8
Layer_0
  10
114.67496
  20
182.98
  0
VERTEX
  5
2d7
  8
Layer_0
  10
114.67496
  20
179.66
  0
VERTEX
  5
2d8
  8
Layer_0
  10
114.70871
  20
179.62625
  0
VERTEX
  5
2d9
  8
Layer_0
  10
114.67496
  20
179.66
  0
VERTEX
  5
2da
  8
Layer_0
  10
111.26495
  20
179.66
  0
SEQEND
  0
POLYLINE
  5
2dc
  8
Layer_0
  62
0
  70
1
  66
1
  10
0
  20
0
  30
0
  0
VERTEX
  5
2dc
  8
Layer_0
  10
125.26495
  20
179.66
  0
VERTEX
  5
2dd
  8
Layer_0
  10
121.85495
  20
179.66
  0
VERTEX
  5
2de
  8
Layer_0
  10
121.8212
  20
179.62625
  0
VERTEX
  5
2df
  8
Layer_0
  10
121.85495
  20
179.66
  0
VERTEX
  5
2e0
  8
Layer_0
  10
121.85495
  20
182.98
  0
VERTEX
  5
2e1
  8
Layer_0
  10
121.8212
  20
183.01375
  0
VERTEX
  5
2e2
  8
Layer_0
  10
121.85495
  20
182.98
  0
VERTEX
  5
2e3
  8
Layer_0
  10
128.67496
  20
182.98
  0
VERTEX
  5
2e4
  8
Layer_0
  10
128.70871
  20
183.01375
  0
VERTEX
  5
2e5
  8
Layer_0
  10
128.67496
  20
182.98
  0
VERTEX
  5
2e6
  8
Layer_0
  10
128.67496
  20
179.66
  0
VERTEX
  5
2e7
  8
Layer_0
  10
128.70871
  20
179.62625
  0
VERTEX
  5
2e8
  8
Layer_0
  10
128.67496
  20
179.66
  0
VERTEX
  5
2e9
  8
Layer_0
  10
125.26495
  20
179.66
  0
SEQEND
  0
POLYLINE
  5
2eb
  8
Layer_0
  62
0
  70
1
  66
1
  10
0
  20
0
  30
0
  0
VERTEX
  5
2eb
  8
Layer_0
  10
139.26495
  20
179.66
  0
VERTEX
  5
2ec
  8
Layer_0
  10
135.85495
  20
179.66
  0
VERTEX
  5
2ed
  8
Layer_0
  10
135.8212
  20
179.62625
  0
VERTEX
  5
2ee
  8
Layer_0
  10
135.85495
  20
179.66
  0
VERTEX
  5
2ef
  8
Layer_0
  10
135.85495
  20
182.98
  0
VERTEX
  5
2f0
  8
Layer_0
  10
135.8212
  20
183.01375
  0
VERTEX
  5
2f1
  8
Layer_0
  10
135.85495
  20
182.98
  0
VERTEX
  5
2f2
  8
Layer_0
  10
142.67496
  20
182.98
  0
VERTEX
  5
2f3
  8
Layer_0
  10
142.70871
  20
183.01375
  0
VERTEX
  5
2f4
  8
Layer_0
  10
142.67496
  20
182.98
  0
VERTEX
  5
2f5
  8
Layer_0
  10
142.67496
  20
179.66
  0
VERTEX
  5
2f6
  8
Layer_0
  10
142.70871
  20
179.62625
  0
VERTEX
  5
2f7
  8
Layer_0
  10
142.67496
  20
179.66
  0
VERTEX
  5
2f8
  8
Layer_0
  10
139.26495
  20
179.66
  0
SEQEND
  0
POLYLINE
  5
2fa
  8
Layer_0
  62
0
  70
1
  66
1
  10
0
  20
0
  30
0
  0
VERTEX
  5
2fa
  8
Layer_0
  10
153.26495
  20
179.66
  0
VERTEX
  5
2fb
  8
Layer_0
  10
149.85495
  20
179.66
  0
VERTEX
  5
2fc
  8
Layer_0
  10
149.8212
  20
179.62625
  0
VERTEX
  5
2fd
  8
Layer_0
  10
149.85495
  20
179.66
  0
VERTEX
  5
2fe
  8
Layer_0
  10
149.85495
  20
182.98
  0
VERTEX
  5
2ff
  8
Layer_0
  10
149.8212
  20
183.01375
  0
VERTEX
  5
300
  8
Layer_0
  10
149.85495
  20
182.98
  0
VERTEX
  5
301
  8
Layer_0
  10
156.67496
  20
182.98
  0
VERTEX
  5
302
  8
Layer_0
  10
156.70871
  20
183.01375
  0
VERTEX
  5
303
  8
Layer_0
  10
156.67496
  20
182.98
  0
VERTEX
  5
304
  8
Layer_0
  10
156.67496
  20
179.66
  0
VERTEX
  5
305
  8
Layer_0
  10
156.70871
  20
179.62625
  0
VERTEX
  5
306
  8
Layer_0
  10
156.67496
  20
179.66
  0
VERTEX
  5
307
  8
Layer_0
  10
153.26495
  20
179.66
  0
SEQEND
  0
POLYLINE
  5
309
  8
Layer_0
  62
0
  70
1
  66
1
  10
0
  20
0
  30
0
  0
VERTEX
  5
309
  8
Layer_0
  10
167.26495
  20
179.66
  0
VERTEX
  5
30a
  8
Layer_0
  10
163.85495
  20
179.66
  0
VERTEX
  5
30b
  8
Layer_0
  10
163.8212
  20
179.62625
  0
VERTEX
  5
30c
  8
Layer_0
  10
163.85495
  20
179.66
  0
VERTEX
  5
30d
  8
Layer_0
  10
163.85495
  20
182.98
  0
VERTEX
  5
30e
  8
Layer_0
  10
163.8212
  20
183.01375
  0
VERTEX
  5
30f
  8
Layer_0
  10
163.85495
  20
182.98
  0
VERTEX
  5
310
  8
Layer_0
  10
170.67496
  20
182.98
  0
VERTEX
  5
311
  8
Layer_0
  10
170.70871
  20
183.01375
  0
VERTEX
  5
312
  8
Layer_0
  10
170.67496
  20
182.98
  0
VERTEX
  5
313
  8
Layer_0
  10
170.67496
  20
179.66
  0
VERTEX
  5
314
  8
Layer_0
  10
170.70871
  20
179.62625
  0
VERTEX
  5
315
  8
Layer_0
  10
170.67496
  20
179.66
  0
VERTEX
  5
316
  8
Layer_0
  10
167.26495
  20
179.66
  0
SEQEND
  0
POLYLINE
  5
318
  8
Layer_0
  62
0
  70
1
  66
1
  10
0
  20
0
  30
0
  0
VERTEX
  5
318
  8
Layer_0
  10
181.26495
  20
179.66
  0
VERTEX
  5
319
  8
Layer_0
  10
177.85495
  20
179.66
  0
VERTEX
  5
31a
  8
Layer_0
  10
177.8212
  20
179.62625
  0
VERTEX
  5
31b
  8
Layer_0
  10
177.85495
  20
179.66
  0
VERTEX
  5
31c
  8
Layer_0
  10
177.85495
  20
182.98
  0
VERTEX
  5
31d
  8
Layer_0
  10
177.8212
  20
183.01375
  0
VERTEX
  5
31e
  8
Layer_0
  10
177.85495
  20
182.98
  0
VERTEX
  5
31f
  8
Layer_0
  10
184.67496
  20
182.98
  0
VERTEX
  5
320
  8
Layer_0
  10
184.70871
  20
183.01375
  0
VERTEX
  5
321
  8
Layer_0
  10
184.67496
  20
182.98
  0
VERTEX
  5
322
  8
Layer_0
  10
184.67496
  20
179.66
  0
VERTEX
  5
323
  8
Layer_0
  10
184.70871
  20
179.62625
  0
VERTEX
  5
324
  8
Layer_0
  10
184.67496
  20
179.66
  0
VERTEX
  5
325
  8
Layer_0
  10
181.26495
  20
179.66
  0
SEQEND
  0
POLYLINE
  5
327
  8
Layer_0
  62
0
  70
1
  66
1
  10
0
  20
0
  30
0
  0
VERTEX
  5
327
  8
Layer_0
  10
195.26495
  20
179.66
  0
VERTEX
  5
328
  8
Layer_0
  10
191.85495
  20
179.66
  0
VERTEX
  5
329
  8
Layer_0
  10
191.8212
  20
179.62625
  0
VERTEX
  5
32a
  8
Layer_0
  10
191.85495
  20
179.66
  0
VERTEX
  5
32b
  8
Layer_0
  10
191.85495
  20
182.98
  0
VERTEX
  5
32c
  8
Layer_0
  10
191.8212
  20
183.01375
  0
VERTEX
  5
32d
  8
Layer_0
  10
191.85495
  20
182.98
  0
VERTEX
  5
32e
  8
Layer_0
  10
198.67496
  20
182.98
  0
VERTEX
  5
32f
  8
Layer_0
  10
198.70871
  20
183.01375
  0
VERTEX
  5
330
  8
Layer_0
  10
198.67496
  20
182.98
  0
VERTEX
  5
331
  8
Layer_0
  10
198.67496
  20
179.66
  0
VERTEX
  5
332
  8
Layer_0
  10
198.70871
  20
179.62625
  0
VERTEX
  5
333
  8
Layer_0
  10
198.67496
  20
179.66
  0
VERTEX
  5
334
  8
Layer_0
  10
195.26495
  20
179.66
  0
SEQEND
  0
POLYLINE
  5
336
  8
Layer_0
  62
0
  70
1
  66
1
  10
0
  20
0
  30
0
  0
VERTEX
  5
336
  8
Layer_0
  10
209.26495
  20
179.66
  0
VERTEX
  5
337
  8
Layer_0
  10
205.85495
  20
179.66
  0
VERTEX
  5
338
  8
Layer_0
  10
205.8212
  20
179.62625
  0
VERTEX
  5
339
  8
Layer_0
  10
205.85495
  20
179.66
  0
VERTEX
  5
33a
  8
Layer_0
  10
205.85495
  20
182.98
  0
VERTEX
  5
33b
  8
Layer_0
  10
205.8212
  20
183.01375
  0
VERTEX
  5
33c
  8
Layer_0
  10
205.85495
  20
182.98
  0
VERTEX
  5
33d
  8
Layer_0
  10
212.67496
  20
182.98
  0
VERTEX
  5
33e
  8
Layer_0
  10
212.70871
  20
183.01375
  0
VERTEX
  5
33f
  8
Layer_0
  10
212.67496
  20
182.98
  0
VERTEX
  5
340
  8
Layer_0
  10
212.67496
  20
179.66
  0
VERTEX
  5
341
  8
Layer_0
  10
212.70871
  20
179.62625
  0
VERTEX
  5
342
  8
Layer_0
  10
212.67496
  20
179.66
  0
VERTEX
  5
343
  8
Layer_0
  10
209.26495
  20
179.66
  0
SEQEND
  0
POLYLINE
  5
345
  8
Layer_0
  62
0
  70
1
  66
1
  10
0
  20
0
  30
0
  0
VERTEX
  5
345
  8
Layer_0
  10
223.26495
  20
179.66
  0
VERTEX
  5
346
  8
Layer_0
  10
219.85495
  20
179.66
  0
VERTEX
  5
347
  8
Layer_0
  10
219.8212
  20
179.62625
  0
VERTEX
  5
348
  8
Layer_0
  10
219.85495
  20
179.66
  0
VERTEX
  5
349
  8
Layer_0
  10
219.85495
  20
182.98
  0
VERTEX
  5
34a
  8
Layer_0
  10
219.8212
  20
183.01375
  0
VERTEX
  5
34b
  8
Layer_0
  10
219.85495
  20
182.98
  0
VERTEX
  5
34c
  8
Layer_0
  10
226.67496
  20
182.98
  0
VERTEX
  5
34d
  8
Layer_0
  10
226.70871
  20
183.01375
  0
VERTEX
  5
34e
  8
Layer_0
  10
226.67496
  20
182.98
  0
VERTEX
  5
34f
  8
Layer_0
  10
226.67496
  20
179.66
  0
VERTEX
  5
350
  8
Layer_0
  10
226.70871
  20
179.62625
  0
VERTEX
  5
351
  8
Layer_0
  10
226.67496
  20
179.66
  0
VERTEX
  5
352
  8
Layer_0
  10
223.26495
  20
179.66
  0
SEQEND
  0
POLYLINE
  5
354
  8
Layer_0
  62
0
  70
1
  66
1
  10
0
  20
0
  30
0
  0
VERTEX
  5
354
  8
Layer_0
  10
86.17897
  20
184.07199
  0
VERTEX
  5
355
  8
Layer_0
  10
89.472961
  20
183.189
  0
VERTEX
  5
356
  8
Layer_0
  10
89.514221
  20
183.213
  0
VERTEX
  5
357
  8
Layer_0
  10
89.472961
  20
183.189
  0
VERTEX
  5
358
  8
Layer_0
  10
88.613968
  20
179.98199
  0
VERTEX
  5
359
  8
Layer_0
  10
88.637589
  20
179.94073
  0
VERTEX
  5
35a
  8
Layer_0
  10
88.613968
  20
179.98199
  0
VERTEX
  5
35b
  8
Layer_0
  10
82.02597
  20
181.74699
  0
VERTEX
  5
35c
  8
Layer_0
  10
81.984711
  20
181.72337
  0
VERTEX
  5
35d
  8
Layer_0
  10
82.02597
  20
181.74699
  0
VERTEX
  5
35e
  8
Layer_0
  10
82.884964
  20
184.95399
  0
VERTEX
  5
35f
  8
Layer_0
  10
82.861336
  20
184.99524
  0
VERTEX
  5
360
  8
Layer_0
  10
82.884964
  20
184.95399
  0
VERTEX
  5
361
  8
Layer_0
  10
86.17897
  20
184.07199
  0
SEQEND
  0
POLYLINE
  5
363
  8
Layer_0
  62
0
  70
1
  66
1
  10
0
  20
0
  30
0
  0
VERTEX
  5
363
  8
Layer_0
  10
79.101959
  20
188.15698
  0
VERTEX
  5
364
  8
Layer_0
  10
81.513962
  20
185.746
  0
VERTEX
  5
365
  8
Layer_0
  10
81.561218
  20
185.74637
  0
VERTEX
  5
366
  8
Layer_0
  10
81.513962
  20
185.746
  0
VERTEX
  5
367
  8
Layer_0
  10
79.16597
  20
183.39899
  0
VERTEX
  5
368
  8
Layer_0
  10
79.165962
  20
183.35098
  0
VERTEX
  5
369
  8
Layer_0
  10
79.16597
  20
183.39899
  0
VERTEX
  5
36a
  8
Layer_0
  10
74.343964
  20
188.22099
  0
VERTEX
  5
36b
  8
Layer_0
  10
74.295967
  20
188.22099
  0
VERTEX
  5
36c
  8
Layer_0
  10
74.343964
  20
188.22099
  0
VERTEX
  5
36d
  8
Layer_0
  10
76.690964
  20
190.569
  0
VERTEX
  5
36e
  8
Layer_0
  10
76.691338
  20
190.61624
  0
VERTEX
  5
36f
  8
Layer_0
  10
76.690964
  20
190.569
  0
VERTEX
  5
370
  8
Layer_0
  10
79.101959
  20
188.15698
  0
SEQEND
  0
POLYLINE
  5
372
  8
Layer_0
  62
0
  70
1
  66
1
  10
0
  20
0
  30
0
  0
VERTEX
  5
372
  8
Layer_0
  10
75.016968
  20
195.23399
  0
VERTEX
  5
373
  8
Layer_0
  10
75.898972
  20
191.94
  0
VERTEX
  5
374
  8
Layer_0
  10
75.940216
  20
191.91637
  0
VERTEX
  5
375
  8
Layer_0
  10
75.898972
  20
191.94
  0
VERTEX
  5
376
  8
Layer_0
  10
72.691971
  20
191.08099
  0
VERTEX
  5
377
  8
Layer_0
  10
72.668335
  20
191.03973
  0
VERTEX
  5
378
  8
Layer_0
  10
72.691971
  20
191.08099
  0
VERTEX
  5
379
  8
Layer_0
  10
70.926971
  20
197.66899
  0
VERTEX
  5
37a
  8
Layer_0
  10
70.885712
  20
197.69261
  0
VERTEX
  5
37b
  8
Layer_0
  10
70.926971
  20
197.66899
  0
VERTEX
  5
37c
  8
Layer_0
  10
74.133972
  20
198.52798
  0
VERTEX
  5
37d
  8
Layer_0
  10
74.157959
  20
198.56924
  0
VERTEX
  5
37e
  8
Layer_0
  10
74.133972
  20
198.52798
  0
VERTEX
  5
37f
  8
Layer_0
  10
75.016968
  20
195.23399
  0
SEQEND
  0
POLYLINE
  5
381
  8
Layer_0
  62
0
  70
1
  66
1
  10
0
  20
0
  30
0
  0
VERTEX
  5
381
  8
Layer_0
  10
235.20996
  20
180.86499
  0
VERTEX
  5
382
  8
Layer_0
  10
231.91595
  20
179.98199
  0
VERTEX
  5
383
  8
Layer_0
  10
231.89235
  20
179.94073
  0
VERTEX
  5
384
  8
Layer_0
  10
231.91595
  20
179.98199
  0
VERTEX
  5
385
  8
Layer_0
  10
231.05698
  20
183.189
  0
VERTEX
  5
386
  8
Layer_0
  10
231.01572
  20
183.213
  0
VERTEX
  5
387
  8
Layer_0
  10
231.05698
  20
183.189
  0
VERTEX
  5
388
  8
Layer_0
  10
237.64496
  20
184.95399
  0
VERTEX
  5
389
  8
Layer_0
  10
237.66859
  20
184.99524
  0
VERTEX
  5
38a
  8
Layer_0
  10
237.64496
  20
184.95399
  0
VERTEX
  5
38b
  8
Layer_0
  10
238.50397
  20
181.74699
  0
VERTEX
  5
38c
  8
Layer_0
  10
238.54523
  20
181.72337
  0
VERTEX
  5
38d
  8
Layer_0
  10
238.50397
  20
181.74699
  0
VERTEX
  5
38e
  8
Layer_0
  10
235.20996
  20
180.86499
  0
SEQEND
  0
POLYLINE
  5
390
  8
Layer_0
  62
0
  70
1
  66
1
  10
0
  20
0
  30
0
  0
VERTEX
  5
390
  8
Layer_0
  10
243.77496
  20
185.81
  0
VERTEX
  5
391
  8
Layer_0
  10
241.36395
  20
183.39899
  0
VERTEX
  5
392
  8
Layer_0
  10
241.36397
  20
183.35098
  0
VERTEX
  5
393
  8
Layer_0
  10
241.36395
  20
183.39899
  0
VERTEX
  5
394
  8
Layer_0
  10
239.01596
  20
185.746
  0
VERTEX
  5
395
  8
Layer_0
  10
238.96872
  20
185.74637
  0
VERTEX
  5
396
  8
Layer_0
  10
239.01596
  20
185.746
  0
VERTEX
  5
397
  8
Layer_0
  10
243.83896
  20
190.569
  0
VERTEX
  5
398
  8
Layer_0
  10
243.83859
  20
190.61624
  0
VERTEX
  5
399
  8
Layer_0
  10
243.83896
  20
190.569
  0
VERTEX
  5
39a
  8
Layer_0
  10
246.18597
  20
188.22099
  0
VERTEX
  5
39b
  8
Layer_0
  10
246.23398
  20
188.22099
  0
VERTEX
  5
39c
  8
Layer_0
  10
246.18597
  20
188.22099
  0
VERTEX
  5
39d
  8
Layer_0
  10
243.77496
  20
185.81
  0
SEQEND
  0
POLYLINE
  5
39f
  8
Layer_0
  62
0
  70
1
  66
1
  10
0
  20
0
  30
0
  0
VERTEX
  5
39f
  8
Layer_0
  10
248.71997
  20
194.375
  0
VERTEX
  5
3a0
  8
Layer_0
  10
247.83795
  20
191.08099
  0
VERTEX
  5
3a1
  8
Layer_0
  10
247.86159
  20
191.03973
  0
VERTEX
  5
3a2
  8
Layer_0
  10
247.83795
  20
191.08099
  0
VERTEX
  5
3a3
  8
Layer_0
  10
244.63095
  20
191.94
  0
VERTEX
  5
3a4
  8
Layer_0
  10
244.58972
  20
191.91637
  0
VERTEX
  5
3a5
  8
Layer_0
  10
244.63095
  20
191.94
  0
VERTEX
  5
3a6
  8
Layer_0
  10
246.39597
  20
198.52798
  0
VERTEX
  5
3a7
  8
Layer_0
  10
246.37196
  20
198.56924
  0
VERTEX
  5
3a8
  8
Layer_0
  10
246.39597
  20
198.52798
  0
VERTEX
  5
3a9
  8
Layer_0
  10
249.60297
  20
197.66899
  0
VERTEX
  5
3aa
  8
Layer_0
  10
249.64423
  20
197.69261
  0
VERTEX
  5
3ab
  8
Layer_0
  10
249.60297
  20
197.66899
  0
VERTEX
  5
3ac
  8
Layer_0
  10
248.71997
  20
194.375
  0
SEQEND
  0
POLYLINE
  5
3ae
  8
Layer_0
  62
0
  66
1
  10
0
  20
0
  30
0
  0
VERTEX
  5
3ae
  8
Layer_0
  10
65.264969
  20
174.31999
  0
VERTEX
  5
3af
  8
Layer_0
  10
72.674957
  20
174.31999
  0
VERTEX
  5
3b0
  8
Layer_0
  10
72.70871
  20
174.35374
  0
VERTEX
  5
3b1
  8
Layer_0
  10
72.674957
  20
174.31999
  0
VERTEX
  5
3b2
  8
Layer_0
  10
72.674957
  20
170.91
  0
VERTEX
  5
3b3
  8
Layer_0
  10
72.701218
  20
170.84624
  0
VERTEX
  5
3b4
  8
Layer_0
  10
72.764969
  20
170.81999
  0
VERTEX
  5
3b5
  8
Layer_0
  10
79.764969
  20
170.81999
  0
VERTEX
  5
3b6
  8
Layer_0
  10
79.82872
  20
170.84624
  0
VERTEX
  5
3b7
  8
Layer_0
  10
79.854965
  20
170.91
  0
VERTEX
  5
3b8
  8
Layer_0
  10
79.854965
  20
174.31999
  0
VERTEX
  5
3b9
  8
Layer_0
  10
79.821213
  20
174.35374
  0
VERTEX
  5
3ba
  8
Layer_0
  10
79.854965
  20
174.31999
  0
VERTEX
  5
3bb
  8
Layer_0
  10
86.674957
  20
174.31999
  0
VERTEX
  5
3bc
  8
Layer_0
  10
86.70871
  20
174.35374
  0
VERTEX
  5
3bd
  8
Layer_0
  10
86.674957
  20
174.31999
  0
VERTEX
  5
3be
  8
Layer_0
  10
86.674957
  20
170.91
  0
VERTEX
  5
3bf
  8
Layer_0
  10
86.701218
  20
170.84624
  0
VERTEX
  5
3c0
  8
Layer_0
  10
86.764969
  20
170.81999
  0
VERTEX
  5
3c1
  8
Layer_0
  10
93.764969
  20
170.81999
  0
VERTEX
  5
3c2
  8
Layer_0
  10
93.82872
  20
170.84624
  0
VERTEX
  5
3c3
  8
Layer_0
  10
93.854965
  20
170.91
  0
VERTEX
  5
3c4
  8
Layer_0
  10
93.854965
  20
174.31999
  0
VERTEX
  5
3c5
  8
Layer_0
  10
93.821213
  20
174.35374
  0
VERTEX
  5
3c6
  8
Layer_0
  10
93.854965
  20
174.31999
  0
VERTEX
  5
3c7
  8
Layer_0
  10
100.67496
  20
174.31999
  0
VERTEX
  5
3c8
  8
Layer_0
  10
100.70871
  20
174.35374
  0
VERTEX
  5
3c9
  8
Layer_0
  10
100.67496
  20
174.31999
  0
VERTEX
  5
3ca
  8
Layer_0
  10
100.67496
  20
170.91
  0
VERTEX
  5
3cb
  8
Layer_0
  10
100.70122
  20
170.84624
  0
VERTEX
  5
3cc
  8
Layer_0
  10
100.76497
  20
170.81999
  0
VERTEX
  5
3cd
  8
Layer_0
  10
107.76497
  20
170.81999
  0
VERTEX
  5
3ce
  8
Layer_0
  10
107.82872
  20
170.84624
  0
VERTEX
  5
3cf
  8
Layer_0
  10
107.85497
  20
170.91
  0
VERTEX
  5
3d0
  8
Layer_0
  10
107.85497
  20
174.31999
  0
VERTEX
  5
3d1
  8
Layer_0
  10
107.82121
  20
174.35374
  0
VERTEX
  5
3d2
  8
Layer_0
  10
107.85497
  20
174.31999
  0
VERTEX
  5
3d3
  8
Layer_0
  10
114.67496
  20
174.31999
  0
VERTEX
  5
3d4
  8
Layer_0
  10
114.70871
  20
174.35374
  0
VERTEX
  5
3d5
  8
Layer_0
  10
114.67496
  20
174.31999
  0
VERTEX
  5
3d6
  8
Layer_0
  10
114.67496
  20
170.91
  0
VERTEX
  5
3d7
  8
Layer_0
  10
114.70121
  20
170.84624
  0
VERTEX
  5
3d8
  8
Layer_0
  10
114.76495
  20
170.81999
  0
VERTEX
  5
3d9
  8
Layer_0
  10
121.76495
  20
170.81999
  0
VERTEX
  5
3da
  8
Layer_0
  10
121.8287
  20
170.84624
  0
VERTEX
  5
3db
  8
Layer_0
  10
121.85495
  20
170.91
  0
VERTEX
  5
3dc
  8
Layer_0
  10
121.85495
  20
174.31999
  0
VERTEX
  5
3dd
  8
Layer_0
  10
121.8212
  20
174.35374
  0
VERTEX
  5
3de
  8
Layer_0
  10
121.85495
  20
174.31999
  0
VERTEX
  5
3df
  8
Layer_0
  10
128.67496
  20
174.31999
  0
VERTEX
  5
3e0
  8
Layer_0
  10
128.70871
  20
174.35374
  0
VERTEX
  5
3e1
  8
Layer_0
  10
128.67496
  20
174.31999
  0
VERTEX
  5
3e2
  8
Layer_0
  10
128.67496
  20
170.91
  0
VERTEX
  5
3e3
  8
Layer_0
  10
128.70122
  20
170.84624
  0
VERTEX
  5
3e4
  8
Layer_0
  10
128.76495
  20
170.81999
  0
VERTEX
  5
3e5
  8
Layer_0
  10
135.76495
  20
170.81999
  0
VERTEX
  5
3e6
  8
Layer_0
  10
135.8287
  20
170.84624
  0
VERTEX
  5
3e7
  8
Layer_0
  10
135.85495
  20
170.91
  0
VERTEX
  5
3e8
  8
Layer_0
  10
135.85495
  20
174.31999
  0
VERTEX
  5
3e9
  8
Layer_0
  10
135.8212
  20
174.35374
  0
VERTEX
  5
3ea
  8
Layer_0
  10
135.85495
  20
174.31999
  0
VERTEX
  5
3eb
  8
Layer_0
  10
142.67496
  20
174.31999
  0
VERTEX
  5
3ec
  8
Layer_0
  10
142.70871
  20
174.35374
  0
VERTEX
  5
3ed
  8
Layer_0
  10
142.67496
  20
174.31999
  0
VERTEX
  5
3ee
  8
Layer_0
  10
142.67496
  20
170.91
  0
VERTEX
  5
3ef
  8
Layer_0
  10
142.70122
  20
170.84624
  0
VERTEX
  5
3f0
  8
Layer_0
  10
142.76495
  20
170.81999
  0
VERTEX
  5
3f1
  8
Layer_0
  10
149.76495
  20
170.81999
  0
VERTEX
  5
3f2
  8
Layer_0
  10
149.8287
  20
170.84624
  0
VERTEX
  5
3f3
  8
Layer_0
  10
149.85495
  20
170.91
  0
VERTEX
  5
3f4
  8
Layer_0
  10
149.85495
  20
174.31999
  0
VERTEX
  5
3f5
  8
Layer_0
  10
149.8212
  20
174.35374
  0
VERTEX
  5
3f6
  8
Layer_0
  10
149.85495
  20
174.31999
  0
VERTEX
  5
3f7
  8
Layer_0
  10
156.67496
  20
174.31999
  0
VERTEX
  5
3f8
  8
Layer_0
  10
156.70871
  20
174.35374
  0
VERTEX
  5
3f9
  8
Layer_0
  10
156.67496
  20
174.31999
  0
VERTEX
  5
3fa
  8
Layer_0
  10
156.67496
  20
170.91
  0
VERTEX
  5
3fb
  8
Layer_0
  10
156.70122
  20
170.84624
  0
VERTEX
  5
3fc
  8
Layer_0
  10
156.76495
  20
170.81999
  0
VERTEX
  5
3fd
  8
Layer_0
  10
163.76495
  20
170.81999
  0
VERTEX
  5
3fe
  8
Layer_0
  10
163.8287
  20
170.84624
  0
VERTEX
  5
3ff
  8
Layer_0
  10
163.85495
  20
170.91
  0
VERTEX
  5
400
  8
Layer_0
  10
163.85495
  20
174.31999
  0
VERTEX
  5
401
  8
Layer_0
  10
163.8212
  20
174.35374
  0
VERTEX
  5
402
  8
Layer_0
  10
163.85495
  20
174.31999
  0
VERTEX
  5
403
  8
Layer_0
  10
170.67496
  20
174.31999
  0
VERTEX
  5
404
  8
Layer_0
  10
170.70871
  20
174.35374
  0
VERTEX
  5
405
  8
Layer_0
  10
170.67496
  20
174.31999
  0
VERTEX
  5
406
  8
Layer_0
  10
170.67496
  20
170.91
  0
VERTEX
  5
407
  8
Layer_0
  10
170.70122
  20
170.84624
  0
VERTEX
  5
408
  8
Layer_0
  10
170.76495
  20
170.81999
  0
VERTEX
  5
409
  8
Layer_0
  10
177.76495
  20
170.81999
  0
VERTEX
  5
40a
  8
Layer_0
  10
177.8287
  20
170.84624
  0
VERTEX
  5
40b
  8
Layer_0
  10
177.85495
  20
170.91
  0
VERTEX
  5
40c
  8
Layer_0
  10
177.85495
  20
174.31999
  0
VERTEX
  5
40d
  8
Layer_0
  10
177.8212
  20
174.35374
  0
VERTEX
  5
40e
  8
Layer_0
  10
177.85495
  20
174.31999
  0
VERTEX
  5
40f
  8
Layer_0
  10
184.67496
  20
174.31999
  0
VERTEX
  5
410
  8
Layer_0
  10
184.70871
  20
174.35374
  0
VERTEX
  5
411
  8
Layer_0
  10
184.67496
  20
174.31999
  0
VERTEX
  5
412
  8
Layer_0
  10
184.67496
  20
170.91
  0
VERTEX
  5
413
  8
Layer_0
  10
184.70122
  20
170.84624
  0
VERTEX
  5
414
  8
Layer_0
  10
184.76495
  20
170.81999
  0
VERTEX
  5
415
  8
Layer_0
  10
191.76495
  20
170.81999
  0
VERTEX
  5
416
  8
Layer_0
  10
191.8287
  20
170.84624
  0
VERTEX
  5
417
  8
Layer_0
  10
191.85495
  20
170.91
  0
VERTEX
  5
418
  8
Layer_0
  10
191.85495
  20
174.31999
  0
VERTEX
  5
419
  8
Layer_0
  10
191.8212
  20
174.35374
  0
VERTEX
  5
41a
  8
Layer_0
  10
191.85495
  20
174.31999
  0
VERTEX
  5
41b
  8
Layer_0
  10
198.67496
  20
174.31999
  0
VERTEX
  5
41c
  8
Layer_0
  10
198.70871
  20
174.35374
  0
VERTEX
  5
41d
  8
Layer_0
  10
198.67496
  20
174.31999
  0
VERTEX
  5
41e
  8
Layer_0
  10
198.67496
  20
170.91
  0
VERTEX
  5
41f
  8
Layer_0
  10
198.70122
  20
170.84624
  0
VERTEX
  5
420
  8
Layer_0
  10
198.76495
  20
170.81999
  0
VERTEX
  5
421
  8
Layer_0
  10
205.76495
  20
170.81999
  0
VERTEX
  5
422
  8
Layer_0
  10
205.8287
  20
170.84624
  0
VERTEX
  5
423
  8
Layer_0
  10
205.85495
  20
170.91
  0
VERTEX
  5
424
  8
Layer_0
  10
205.85495
  20
174.31999
  0
VERTEX
  5
425
  8
Layer_0
  10
205.8212
  20
174.35374
  0
VERTEX
  5
426
  8
Layer_0
  10
205.85495
  20
174.31999
  0
VERTEX
  5
427
  8
Layer_0
  10
212.67496
  20
174.31999
  0
VERTEX
  5
428
  8
Layer_0
  10
212.70871
  20
174.35374
  0
VERTEX
  5
429
  8
Layer_0
  10
212.67496
  20
174.31999
  0
VERTEX
  5
42a
  8
Layer_0
  10
212.67496
  20
170.91
  0
VERTEX
  5
42b
  8
Layer_0
  10
212.70122
  20
170.84624
  0
VERTEX
  5
42c
  8
Layer_0
  10
212.76495
  20
170.81999
  0
VERTEX
  5
42d
  8
Layer_0
  10
219.76495
  20
170.81999
  0
VERTEX
  5
42e
  8
Layer_0
  10
219.8287
  20
170.84624
  0
VERTEX
  5
42f
  8
Layer_0
  10
219.85495
  20
170.91
  0
VERTEX
  5
430
  8
Layer_0
  10
219.85495
  20
174.31999
  0
VERTEX
  5
431
  8
Layer_0
  10
219.8212
  20
174.35374
  0
VERTEX
  5
432
  8
Layer_0
  10
219.85495
  20
174.31999
  0
VERTEX
  5
433
  8
Layer_0
  10
226.67496
  20
174.31999
  0
VERTEX
  5
434
  8
Layer_0
  10
226.70871
  20
174.35374
  0
VERTEX
  5
435
  8
Layer_0
  10
226.67496
  20
174.31999
  0
VERTEX
  5
436
  8
Layer_0
  10
226.67496
  20
170.91
  0
VERTEX
  5
437
  8
Layer_0
  10
226.70122
  20
170.84624
  0
VERTEX
  5
438
  8
Layer_0
  10
226.76495
  20
170.81999
  0
VERTEX
  5
439
  8
Layer_0
  10
233.76495
  20
170.81999
  0
VERTEX
  5
43a
  8
Layer_0
  10
233.8287
  20
170.84624
  0
VERTEX
  5
43b
  8
Layer_0
  10
233.85495
  20
170.91
  0
VERTEX
  5
43c
  8
Layer_0
  10
233.85495
  20
174.31999
  0
VERTEX
  5
43d
  8
Layer_0
  10
233.8212
  20
174.35374
  0
VERTEX
  5
43e
  8
Layer_0
  10
233.85495
  20
174.31999
  0
VERTEX
  5
43f
  8
Layer_0
  10
240.67496
  20
174.31999
  0
VERTEX
  5
440
  8
Layer_0
  10
240.70871
  20
174.35374
  0
VERTEX
  5
441
  8
Layer_0
  10
240.67496
  20
174.31999
  0
VERTEX
  5
442
  8
Layer_0
  10
240.67496
  20
170.91
  0
VERTEX
  5
443
  8
Layer_0
  10
240.70122
  20
170.84624
  0
VERTEX
  5
444
  8
Layer_0
  10
240.76495
  20
170.81999
  0
VERTEX
  5
445
  8
Layer_0
  10
247.76495
  20
170.81999
  0
VERTEX
  5
446
  8
Layer_0
  10
247.8287
  20
170.84624
  0
VERTEX
  5
447
  8
Layer_0
  10
247.85495
  20
170.91
  0
VERTEX
  5
448
  8
Layer_0
  10
247.85495
  20
174.31999
  0
VERTEX
  5
449
  8
Layer_0
  10
247.8212
  20
174.35374
  0
VERTEX
  5
44a
  8
Layer_0
  10
247.85495
  20
174.31999
  0
VERTEX
  5
44b
  8
Layer_0
  10
255.26495
  20
174.31999
  0
VERTEX
  5
44c
  8
Layer_0
  10
255.3287
  20
174.34624
  0
VERTEX
  5
44d
  8
Layer_0
  10
255.35495
  20
174.41
  0
VERTEX
  5
44e
  8
Layer_0
  10
255.35495
  20
176.31999
  0
VERTEX
  5
44f
  8
Layer_0
  10
255.3212
  20
176.35374
  0
VERTEX
  5
450
  8
Layer_0
  10
255.35495
  20
176.31999
  0
VERTEX
  5
451
  8
Layer_0
  10
258.76495
  20
176.31999
  0
VERTEX
  5
452
  8
Layer_0
  10
258.82874
  20
176.34624
  0
VERTEX
  5
453
  8
Layer_0
  10
258.85495
  20
176.41
  0
VERTEX
  5
454
  8
Layer_0
  10
258.85495
  20
183.41
  0
VERTEX
  5
455
  8
Layer_0
  10
258.82874
  20
183.47374
  0
VERTEX
  5
456
  8
Layer_0
  10
258.76495
  20
183.5
  0
VERTEX
  5
457
  8
Layer_0
  10
255.35495
  20
183.5
  0
VERTEX
  5
458
  8
Layer_0
  10
255.3212
  20
183.46625
  0
VERTEX
  5
459
  8
Layer_0
  10
255.35495
  20
183.5
  0
VERTEX
  5
45a
  8
Layer_0
  10
255.35495
  20
190.31999
  0
VERTEX
  5
45b
  8
Layer_0
  10
255.3212
  20
190.35374
  0
VERTEX
  5
45c
  8
Layer_0
  10
255.35495
  20
190.31999
  0
VERTEX
  5
45d
  8
Layer_0
  10
258.76495
  20
190.31999
  0
VERTEX
  5
45e
  8
Layer_0
  10
258.82874
  20
190.34624
  0
VERTEX
  5
45f
  8
Layer_0
  10
258.85495
  20
190.41
  0
VERTEX
  5
460
  8
Layer_0
  10
258.85495
  20
197.41
  0
VERTEX
  5
461
  8
Layer_0
  10
258.82874
  20
197.47374
  0
VERTEX
  5
462
  8
Layer_0
  10
258.76495
  20
197.5
  0
VERTEX
  5
463
  8
Layer_0
  10
255.35495
  20
197.5
  0
VERTEX
  5
464
  8
Layer_0
  10
255.3212
  20
197.46625
  0
VERTEX
  5
465
  8
Layer_0
  10
255.35495
  20
197.5
  0
VERTEX
  5
466
  8
Layer_0
  10
255.35495
  20
199.31999
  0
VERTEX
  5
467
  8
Layer_0
  10
255.3212
  20
199.35374
  0
VERTEX
  5
468
  8
Layer_0
  10
255.35495
  20
199.31999
  0
VERTEX
  5
469
  8
Layer_0
  10
258.76495
  20
199.31999
  0
VERTEX
  5
46a
  8
Layer_0
  10
258.82874
  20
199.34624
  0
VERTEX
  5
46b
  8
Layer_0
  10
258.85495
  20
199.41
  0
VERTEX
  5
46c
  8
Layer_0
  10
258.83948
  20
200.34991
  0
VERTEX
  5
46d
  8
Layer_0
  10
258.79327
  20
201.28699
  0
VERTEX
  5
46e
  8
Layer_0
  10
258.71649
  20
202.22055
  0
VERTEX
  5
46f
  8
Layer_0
  10
258.60934
  20
203.14983
  0
VERTEX
  5
470
  8
Layer_0
  10
258.47198
  20
204.07413
  0
VERTEX
  5
471
  8
Layer_0
  10
258.30469
  20
204.99271
  0
VERTEX
  5
472
  8
Layer_0
  10
258.10757
  20
205.90488
  0
VERTEX
  5
473
  8
Layer_0
  10
257.88086
  20
206.80986
  0
VERTEX
  5
474
  8
Layer_0
  10
257.62469
  20
207.70697
  0
VERTEX
  5
475
  8
Layer_0
  10
257.33939
  20
208.59546
  0
VERTEX
  5
476
  8
Layer_0
  10
257.02505
  20
209.47461
  0
VERTEX
  5
477
  8
Layer_0
  10
256.68188
  20
210.34372
  0
VERTEX
  5
478
  8
Layer_0
  10
256.31009
  20
211.20203
  0
VERTEX
  5
479
  8
Layer_0
  10
255.9099
  20
212.04883
  0
VERTEX
  5
47a
  8
Layer_0
  10
255.48146
  20
212.88339
  0
VERTEX
  5
47b
  8
Layer_0
  10
255.02496
  20
213.70499
  0
VERTEX
  5
47c
  8
Layer_0
  10
254.54153
  20
214.51114
  0
VERTEX
  5
47d
  8
Layer_0
  10
254.0329
  20
215.29948
  0
VERTEX
  5
47e
  8
Layer_0
  10
253.49956
  20
216.0695
  0
VERTEX
  5
47f
  8
Layer_0
  10
252.94205
  20
216.82065
  0
VERTEX
  5
480
  8
Layer_0
  10
252.3609
  20
217.5524
  0
VERTEX
  5
481
  8
Layer_0
  10
251.75665
  20
218.26422
  0
VERTEX
  5
482
  8
Layer_0
  10
251.12984
  20
218.9556
  0
VERTEX
  5
483
  8
Layer_0
  10
250.48096
  20
219.62601
  0
VERTEX
  5
484
  8
Layer_0
  10
249.81056
  20
220.27489
  0
VERTEX
  5
485
  8
Layer_0
  10
249.1192
  20
220.9017
  0
VERTEX
  5
486
  8
Layer_0
  10
248.40738
  20
221.50595
  0
VERTEX
  5
487
  8
Layer_0
  10
247.67563
  20
222.0871
  0
VERTEX
  5
488
  8
Layer_0
  10
246.92448
  20
222.64459
  0
VERTEX
  5
489
  8
Layer_0
  10
246.15446
  20
223.17793
  0
VERTEX
  5
48a
  8
Layer_0
  10
245.36612
  20
223.68655
  0
VERTEX
  5
48b
  8
Layer_0
  10
244.55997
  20
224.16998
  0
VERTEX
  5
48c
  8
Layer_0
  10
243.73837
  20
224.62646
  0
VERTEX
  5
48d
  8
Layer_0
  10
242.90381
  20
225.0549
  0
VERTEX
  5
48e
  8
Layer_0
  10
242.05701
  20
225.45512
  0
VERTEX
  5
48f
  8
Layer_0
  10
241.1987
  20
225.8269
  0
VERTEX
  5
490
  8
Layer_0
  10
240.32959
  20
226.17007
  0
VERTEX
  5
491
  8
Layer_0
  10
239.45044
  20
226.48441
  0
VERTEX
  5
492
  8
Layer_0
  10
238.56195
  20
226.76974
  0
VERTEX
  5
493
  8
Layer_0
  10
237.66484
  20
227.02586
  0
VERTEX
  5
494
  8
Layer_0
  10
236.75986
  20
227.25258
  0
VERTEX
  5
495
  8
Layer_0
  10
235.84769
  20
227.44971
  0
VERTEX
  5
496
  8
Layer_0
  10
234.92911
  20
227.61703
  0
VERTEX
  5
497
  8
Layer_0
  10
234.00479
  20
227.75439
  0
VERTEX
  5
498
  8
Layer_0
  10
233.0755
  20
227.86154
  0
VERTEX
  5
499
  8
Layer_0
  10
232.14195
  20
227.93832
  0
VERTEX
  5
49a
  8
Layer_0
  10
231.20486
  20
227.98456
  0
VERTEX
  5
49b
  8
Layer_0
  10
230.26495
  20
228
  0
VERTEX
  5
49c
  8
Layer_0
  10
90.264969
  20
228
  0
VERTEX
  5
49d
  8
Layer_0
  10
89.325073
  20
227.98456
  0
VERTEX
  5
49e
  8
Layer_0
  10
88.387985
  20
227.93832
  0
VERTEX
  5
49f
  8
Layer_0
  10
87.45443
  20
227.86154
  0
VERTEX
  5
4a0
  8
Layer_0
  10
86.525139
  20
227.75439
  0
VERTEX
  5
4a1
  8
Layer_0
  10
85.600838
  20
227.61703
  0
VERTEX
  5
4a2
  8
Layer_0
  10
84.682243
  20
227.44971
  0
VERTEX
  5
4a3
  8
Layer_0
  10
83.770088
  20
227.25258
  0
VERTEX
  5
4a4
  8
Layer_0
  10
82.865097
  20
227.02586
  0
VERTEX
  5
4a5
  8
Layer_0
  10
81.967987
  20
226.76974
  0
VERTEX
  5
4a6
  8
Layer_0
  10
81.079491
  20
226.48441
  0
VERTEX
  5
4a7
  8
Layer_0
  10
80.200333
  20
226.17007
  0
VERTEX
  5
4a8
  8
Layer_0
  10
79.331238
  20
225.8269
  0
VERTEX
  5
4a9
  8
Layer_0
  10
78.472931
  20
225.45512
  0
VERTEX
  5
4aa
  8
Layer_0
  10
77.626129
  20
225.0549
  0
VERTEX
  5
4ab
  8
Layer_0
  10
76.791573
  20
224.62646
  0
VERTEX
  5
4ac
  8
Layer_0
  10
75.969971
  20
224.16998
  0
VERTEX
  5
4ad
  8
Layer_0
  10
75.163818
  20
223.68655
  0
VERTEX
  5
4ae
  8
Layer_0
  10
74.375473
  20
223.17793
  0
VERTEX
  5
4af
  8
Layer_0
  10
73.605453
  20
222.64459
  0
VERTEX
  5
4b0
  8
Layer_0
  10
72.854309
  20
222.0871
  0
VERTEX
  5
4b1
  8
Layer_0
  10
72.122559
  20
221.50595
  0
VERTEX
  5
4b2
  8
Layer_0
  10
71.410721
  20
220.9017
  0
VERTEX
  5
4b3
  8
Layer_0
  10
70.719345
  20
220.27489
  0
VERTEX
  5
4b4
  8
Layer_0
  10
70.048965
  20
219.62601
  0
VERTEX
  5
4b5
  8
Layer_0
  10
69.400101
  20
218.9556
  0
VERTEX
  5
4b6
  8
Layer_0
  10
68.77327
  20
218.26422
  0
VERTEX
  5
4b7
  8
Layer_0
  10
68.169022
  20
217.5524
  0
VERTEX
  5
4b8
  8
Layer_0
  10
67.587875
  20
216.82065
  0
VERTEX
  5
4b9
  8
Layer_0
  10
67.030365
  20
216.0695
  0
VERTEX
  5
4ba
  8
Layer_0
  10
66.497025
  20
215.29948
  0
VERTEX
  5
4bb
  8
Layer_0
  10
65.98838
  20
214.51114
  0
VERTEX
  5
4bc
  8
Layer_0
  10
65.504959
  20
213.70499
  0
VERTEX
  5
4bd
  8
Layer_0
  10
65.048477
  20
212.88339
  0
VERTEX
  5
4be
  8
Layer_0
  10
64.620033
  20
212.04883
  0
VERTEX
  5
4bf
  8
Layer_0
  10
64.219826
  20
211.20203
  0
VERTEX
  5
4c0
  8
Layer_0
  10
63.848042
  20
210.34372
  0
VERTEX
  5
4c1
  8
Layer_0
  10
63.504883
  20
209.47461
  0
VERTEX
  5
4c2
  8
Layer_0
  10
63.190536
  20
208.59546
  0
VERTEX
  5
4c3
  8
Layer_0
  10
62.905205
  20
207.70697
  0
VERTEX
  5
4c4
  8
Layer_0
  10
62.649086
  20
206.80986
  0
VERTEX
  5
4c5
  8
Layer_0
  10
62.422367
  20
205.90488
  0
VERTEX
  5
4c6
  8
Layer_0
  10
62.225243
  20
204.99271
  0
VERTEX
  5
4c7
  8
Layer_0
  10
62.057915
  20
204.07413
  0
VERTEX
  5
4c8
  8
Layer_0
  10
61.92057
  20
203.14983
  0
VERTEX
  5
4c9
  8
Layer_0
  10
61.813408
  20
202.22055
  0
VERTEX
  5
4ca
  8
Layer_0
  10
61.736618
  20
201.28699
  0
VERTEX
  5
4cb
  8
Layer_0
  10
61.690407
  20
200.34991
  0
VERTEX
  5
4cc
  8
Layer_0
  10
61.674957
  20
199.41
  0
VERTEX
  5
4cd
  8
Layer_0
  10
61.70121
  20
199.34624
  0
VERTEX
  5
4ce
  8
Layer_0
  10
61.764969
  20
199.31999
  0
VERTEX
  5
4cf
  8
Layer_0
  10
65.174957
  20
199.31999
  0
VERTEX
  5
4d0
  8
Layer_0
  10
65.20871
  20
199.35374
  0
VERTEX
  5
4d1
  8
Layer_0
  10
65.174957
  20
199.31999
  0
VERTEX
  5
4d2
  8
Layer_0
  10
65.174957
  20
197.5
  0
VERTEX
  5
4d3
  8
Layer_0
  10
65.20871
  20
197.46625
  0
VERTEX
  5
4d4
  8
Layer_0
  10
65.174957
  20
197.5
  0
VERTEX
  5
4d5
  8
Layer_0
  10
61.764969
  20
197.5
  0
VERTEX
  5
4d6
  8
Layer_0
  10
61.70121
  20
197.47374
  0
VERTEX
  5
4d7
  8
Layer_0
  10
61.674957
  20
197.41
  0
VERTEX
  5
4d8
  8
Layer_0
  10
61.674957
  20
190.41
  0
VERTEX
  5
4d9
  8
Layer_0
  10
61.70121
  20
190.34624
  0
VERTEX
  5
4da
  8
Layer_0
  10
61.764969
  20
190.31999
  0
VERTEX
  5
4db
  8
Layer_0
  10
65.174957
  20
190.31999
  0
VERTEX
  5
4dc
  8
Layer_0
  10
65.20871
  20
190.35374
  0
VERTEX
  5
4dd
  8
Layer_0
  10
65.174957
  20
190.31999
  0
VERTEX
  5
4de
  8
Layer_0
  10
65.174957
  20
183.5
  0
VERTEX
  5
4df
  8
Layer_0
  10
65.20871
  20
183.46625
  0
VERTEX
  5
4e0
  8
Layer_0
  10
65.174957
  20
183.5
  0
VERTEX
  5
4e1
  8
Layer_0
  10
61.764969
  20
183.5
  0
VERTEX
  5
4e2
  8
Layer_0
  10
61.70121
  20
183.47374
  0
VERTEX
  5
4e3
  8
Layer_0
  10
61.674957
  20
183.41
  0
VERTEX
  5
4e4
  8
Layer_0
  10
61.674957
  20
176.41
  0
VERTEX
  5
4e5
  8
Layer_0
  10
61.70121
  20
176.34624
  0
VERTEX
  5
4e6
  8
Layer_0
  10
61.764969
  20
176.31999
  0
VERTEX
  5
4e7
  8
Layer_0
  10
65.174957
  20
176.31999
  0
VERTEX
  5
4e8
  8
Layer_0
  10
65.20871
  20
176.35374
  0
VERTEX
  5
4e9
  8
Layer_0
  10
65.174957
  20
176.31999
  0
VERTEX
  5
4ea
  8
Layer_0
  10
65.174957
  20
174.41
  0
SEQEND
  0
POLYLINE
  5
4ec
  8
Layer_0
  62
0
  70
1
  66
1
  10
0
  20
0
  30
0
  0
VERTEX
  5
4ec
  8
Layer_0
  10
288.96497
  20
285.87503
  0
VERTEX
  5
4ed
  8
Layer_0
  10
288.96497
  20
293.285
  0
VERTEX
  5
4ee
  8
Layer_0
  10
288.93121
  20
293.31876
  0
VERTEX
  5
4ef
  8
Layer_0
  10
288.96497
  20
293.285
  0
VERTEX
  5
4f0
  8
Layer_0
  10
292.37497
  20
293.285
  0
VERTEX
  5
4f1
  8
Layer_0
  10
292.43872
  20
293.31128
  0
VERTEX
  5
4f2
  8
Layer_0
  10
292.46497
  20
293.37503
  0
VERTEX
  5
4f3
  8
Layer_0
  10
292.46497
  20
300.37503
  0
VERTEX
  5
4f4
  8
Layer_0
  10
292.43872
  20
300.43878
  0
VERTEX
  5
4f5
  8
Layer_0
  10
292.37497
  20
300.46503
  0
VERTEX
  5
4f6
  8
Layer_0
  10
288.96497
  20
300.46503
  0
VERTEX
  5
4f7
  8
Layer_0
  10
288.93121
  20
300.43127
  0
VERTEX
  5
4f8
  8
Layer_0
  10
288.96497
  20
300.46503
  0
VERTEX
  5
4f9
  8
Layer_0
  10
288.96497
  20
307.285
  0
VERTEX
  5
4fa
  8
Layer_0
  10
288.93121
  20
307.31876
  0
VERTEX
  5
4fb
  8
Layer_0
  10
288.96497
  20
307.285
  0
VERTEX
  5
4fc
  8
Layer_0
  10
292.37497
  20
307.285
  0
VERTEX
  5
4fd
  8
Layer_0
  10
292.43872
  20
307.31128
  0
VERTEX
  5
4fe
  8
Layer_0
  10
292.46497
  20
307.37503
  0
VERTEX
  5
4ff
  8
Layer_0
  10
292.46497
  20
314.37503
  0
VERTEX
  5
500
  8
Layer_0
  10
292.43872
  20
314.43878
  0
VERTEX
  5
501
  8
Layer_0
  10
292.37497
  20
314.46503
  0
VERTEX
  5
502
  8
Layer_0
  10
288.96497
  20
314.46503
  0
VERTEX
  5
503
  8
Layer_0
  10
288.93121
  20
314.43127
  0
VERTEX
  5
504
  8
Layer_0
  10
288.96497
  20
314.46503
  0
VERTEX
  5
505
  8
Layer_0
  10
288.96497
  20
321.285
  0
VERTEX
  5
506
  8
Layer_0
  10
288.93121
  20
321.31876
  0
VERTEX
  5
507
  8
Layer_0
  10
288.96497
  20
321.285
  0
VERTEX
  5
508
  8
Layer_0
  10
292.37497
  20
321.285
  0
VERTEX
  5
509
  8
Layer_0
  10
292.43872
  20
321.31128
  0
VERTEX
  5
50a
  8
Layer_0
  10
292.46497
  20
321.37503
  0
VERTEX
  5
50b
  8
Layer_0
  10
292.46497
  20
328.37503
  0
VERTEX
  5
50c
  8
Layer_0
  10
292.43872
  20
328.43878
  0
VERTEX
  5
50d
  8
Layer_0
  10
292.37497
  20
328.46503
  0
VERTEX
  5
50e
  8
Layer_0
  10
288.96497
  20
328.46503
  0
VERTEX
  5
50f
  8
Layer_0
  10
288.93121
  20
328.43127
  0
VERTEX
  5
510
  8
Layer_0
  10
288.96497
  20
328.46503
  0
VERTEX
  5
511
  8
Layer_0
  10
288.96497
  20
339.37503
  0
VERTEX
  5
512
  8
Layer_0
  10
288.93872
  20
339.43878
  0
VERTEX
  5
513
  8
Layer_0
  10
288.87497
  20
339.46503
  0
VERTEX
  5
514
  8
Layer_0
  10
286.87497
  20
339.46503
  0
VERTEX
  5
515
  8
Layer_0
  10
286.81122
  20
339.43878
  0
VERTEX
  5
516
  8
Layer_0
  10
286.78497
  20
339.37503
  0
VERTEX
  5
517
  8
Layer_0
  10
286.78497
  20
335.96503
  0
VERTEX
  5
518
  8
Layer_0
  10
286.81873
  20
335.93127
  0
VERTEX
  5
519
  8
Layer_0
  10
286.78497
  20
335.96503
  0
VERTEX
  5
51a
  8
Layer_0
  10
279.96497
  20
335.96503
  0
VERTEX
  5
51b
  8
Layer_0
  10
279.93121
  20
335.93127
  0
VERTEX
  5
51c
  8
Layer_0
  10
279.96497
  20
335.96503
  0
VERTEX
  5
51d
  8
Layer_0
  10
279.96497
  20
339.37503
  0
VERTEX
  5
51e
  8
Layer_0
  10
279.93872
  20
339.43878
  0
VERTEX
  5
51f
  8
Layer_0
  10
279.87497
  20
339.46503
  0
VERTEX
  5
520
  8
Layer_0
  10
272.87497
  20
339.46503
  0
VERTEX
  5
521
  8
Layer_0
  10
272.81122
  20
339.43878
  0
VERTEX
  5
522
  8
Layer_0
  10
272.78497
  20
339.37503
  0
VERTEX
  5
523
  8
Layer_0
  10
272.78497
  20
335.96503
  0
VERTEX
  5
524
  8
Layer_0
  10
272.81873
  20
335.93127
  0
VERTEX
  5
525
  8
Layer_0
  10
272.78497
  20
335.96503
  0
VERTEX
  5
526
  8
Layer_0
  10
265.96497
  20
335.96503
  0
VERTEX
  5
527
  8
Layer_0
  10
265.93121
  20
335.93127
  0
VERTEX
  5
528
  8
Layer_0
  10
265.96497
  20
335.96503
  0
VERTEX
  5
529
  8
Layer_0
  10
265.96497
  20
339.37503
  0
VERTEX
  5
52a
  8
Layer_0
  10
265.93872
  20
339.43878
  0
VERTEX
  5
52b
  8
Layer_0
  10
265.87497
  20
339.46503
  0
VERTEX
  5
52c
  8
Layer_0
  10
263.87497
  20
339.46503
  0
VERTEX
  5
52d
  8
Layer_0
  10
263.81122
  20
339.43878
  0
VERTEX
  5
52e
  8
Layer_0
  10
263.78497
  20
339.37503
  0
VERTEX
  5
52f
  8
Layer_0
  10
263.78497
  20
282.37503
  0
VERTEX
  5
530
  8
Layer_0
  10
263.81122
  20
282.31128
  0
VERTEX
  5
531
  8
Layer_0
  10
263.87497
  20
282.285
  0
VERTEX
  5
532
  8
Layer_0
  10
265.87497
  20
282.285
  0
VERTEX
  5
533
  8
Layer_0
  10
265.93872
  20
282.31128
  0
VERTEX
  5
534
  8
Layer_0
  10
265.96497
  20
282.37503
  0
VERTEX
  5
535
  8
Layer_0
  10
265.96497
  20
285.785
  0
VERTEX
  5
536
  8
Layer_0
  10
265.93121
  20
285.81876
  0
VERTEX
  5
537
  8
Layer_0
  10
265.96497
  20
285.785
  0
VERTEX
  5
538
  8
Layer_0
  10
272.78497
  20
285.785
  0
VERTEX
  5
539
  8
Layer_0
  10
272.81873
  20
285.81876
  0
VERTEX
  5
53a
  8
Layer_0
  10
272.78497
  20
285.785
  0
VERTEX
  5
53b
  8
Layer_0
  10
272.78497
  20
282.37503
  0
VERTEX
  5
53c
  8
Layer_0
  10
272.81122
  20
282.31128
  0
VERTEX
  5
53d
  8
Layer_0
  10
272.87497
  20
282.285
  0
VERTEX
  5
53e
  8
Layer_0
  10
279.87497
  20
282.285
  0
VERTEX
  5
53f
  8
Layer_0
  10
279.93872
  20
282.31128
  0
VERTEX
  5
540
  8
Layer_0
  10
279.96497
  20
282.37503
  0
VERTEX
  5
541
  8
Layer_0
  10
279.96497
  20
285.785
  0
VERTEX
  5
542
  8
Layer_0
  10
279.93121
  20
285.81876
  0
VERTEX
  5
543
  8
Layer_0
  10
279.96497
  20
285.785
  0
VERTEX
  5
544
  8
Layer_0
  10
286.78497
  20
285.785
  0
VERTEX
  5
545
  8
Layer_0
  10
286.81873
  20
285.81876
  0
VERTEX
  5
546
  8
Layer_0
  10
286.78497
  20
285.785
  0
VERTEX
  5
547
  8
Layer_0
  10
286.78497
  20
282.37503
  0
VERTEX
  5
548
  8
Layer_0
  10
286.81122
  20
282.31128
  0
VERTEX
  5
549
  8
Layer_0
  10
286.87497
  20
282.285
  0
VERTEX
  5
54a
  8
Layer_0
  10
288.87497
  20
282.285
  0
VERTEX
  5
54b
  8
Layer_0
  10
288.93872
  20
282.31128
  0
VERTEX
  5
54c
  8
Layer_0
  10
288.96497
  20
282.37503
  0
VERTEX
  5
54d
  8
Layer_0
  10
288.96497
  20
285.87503
  0
SEQEND
  0
POLYLINE
  5
54f
  8
Layer_0
  62
0
  70
1
  66
1
  10
0
  20
0
  30
0
  0
VERTEX
  5
54f
  8
Layer_0
  10
299.28497
  20
338.87503
  0
VERTEX
  5
550
  8
Layer_0
  10
299.28497
  20
331.46503
  0
VERTEX
  5
551
  8
Layer_0
  10
299.31873
  20
331.43127
  0
VERTEX
  5
552
  8
Layer_0
  10
299.28497
  20
331.46503
  0
VERTEX
  5
553
  8
Layer_0
  10
295.87497
  20
331.46503
  0
VERTEX
  5
554
  8
Layer_0
  10
295.81122
  20
331.43878
  0
VERTEX
  5
555
  8
Layer_0
  10
295.78497
  20
331.37503
  0
VERTEX
  5
556
  8
Layer_0
  10
295.78497
  20
324.37503
  0
VERTEX
  5
557
  8
Layer_0
  10
295.81122
  20
324.31128
  0
VERTEX
  5
558
  8
Layer_0
  10
295.87497
  20
324.28503
  0
VERTEX
  5
559
  8
Layer_0
  10
299.28497
  20
324.28503
  0
VERTEX
  5
55a
  8
Layer_0
  10
299.31873
  20
324.31879
  0
VERTEX
  5
55b
  8
Layer_0
  10
299.28497
  20
324.28503
  0
VERTEX
  5
55c
  8
Layer_0
  10
299.28497
  20
317.46503
  0
VERTEX
  5
55d
  8
Layer_0
  10
299.31873
  20
317.43127
  0
VERTEX
  5
55e
  8
Layer_0
  10
299.28497
  20
317.46503
  0
VERTEX
  5
55f
  8
Layer_0
  10
295.87497
  20
317.46503
  0
VERTEX
  5
560
  8
Layer_0
  10
295.81122
  20
317.43878
  0
VERTEX
  5
561
  8
Layer_0
  10
295.78497
  20
317.37503
  0
VERTEX
  5
562
  8
Layer_0
  10
295.78497
  20
310.37503
  0
VERTEX
  5
563
  8
Layer_0
  10
295.81122
  20
310.31128
  0
VERTEX
  5
564
  8
Layer_0
  10
295.87497
  20
310.28503
  0
VERTEX
  5
565
  8
Layer_0
  10
299.28497
  20
310.28503
  0
VERTEX
  5
566
  8
Layer_0
  10
299.31873
  20
310.31879
  0
VERTEX
  5
567
  8
Layer_0
  10
299.28497
  20
310.28503
  0
VERTEX
  5
568
  8
Layer_0
  10
299.28497
  20
303.46503
  0
VERTEX
  5
569
  8
Layer_0
  10
299.31873
  20
303.43127
  0
VERTEX
  5
56a
  8
Layer_0
  10
299.28497
  20
303.46503
  0
VERTEX
  5
56b
  8
Layer_0
  10
295.87497
  20
303.46503
  0
VERTEX
  5
56c
  8
Layer_0
  10
295.81122
  20
303.43878
  0
VERTEX
  5
56d
  8
Layer_0
  10
295.78497
  20
303.37503
  0
VERTEX
  5
56e
  8
Layer_0
  10
295.78497
  20
296.375
  0
VERTEX
  5
56f
  8
Layer_0
  10
295.81122
  20
296.31128
  0
VERTEX
  5
570
  8
Layer_0
  10
295.87497
  20
296.28503
  0
VERTEX
  5
571
  8
Layer_0
  10
299.28497
  20
296.28503
  0
VERTEX
  5
572
  8
Layer_0
  10
299.31873
  20
296.31879
  0
VERTEX
  5
573
  8
Layer_0
  10
299.28497
  20
296.28503
  0
VERTEX
  5
574
  8
Layer_0
  10
299.28497
  20
285.375
  0
VERTEX
  5
575
  8
Layer_0
  10
299.31122
  20
285.31128
  0
VERTEX
  5
576
  8
Layer_0
  10
299.37497
  20
285.28503
  0
VERTEX
  5
577
  8
Layer_0
  10
301.37497
  20
285.28503
  0
VERTEX
  5
578
  8
Layer_0
  10
301.43872
  20
285.31128
  0
VERTEX
  5
579
  8
Layer_0
  10
301.46497
  20
285.375
  0
VERTEX
  5
57a
  8
Layer_0
  10
301.46497
  20
288.78503
  0
VERTEX
  5
57b
  8
Layer_0
  10
301.43121
  20
288.81879
  0
VERTEX
  5
57c
  8
Layer_0
  10
301.46497
  20
288.78503
  0
VERTEX
  5
57d
  8
Layer_0
  10
308.28497
  20
288.78503
  0
VERTEX
  5
57e
  8
Layer_0
  10
308.31873
  20
288.81879
  0
VERTEX
  5
57f
  8
Layer_0
  10
308.28497
  20
288.78503
  0
VERTEX
  5
580
  8
Layer_0
  10
308.28497
  20
285.375
  0
VERTEX
  5
581
  8
Layer_0
  10
308.31122
  20
285.31128
  0
VERTEX
  5
582
  8
Layer_0
  10
308.37497
  20
285.28503
  0
VERTEX
  5
583
  8
Layer_0
  10
315.37497
  20
285.28503
  0
VERTEX
  5
584
  8
Layer_0
  10
315.43872
  20
285.31128
  0
VERTEX
  5
585
  8
Layer_0
  10
315.46497
  20
285.375
  0
VERTEX
  5
586
  8
Layer_0
  10
315.46497
  20
288.78503
  0
VERTEX
  5
587
  8
Layer_0
  10
315.43121
  20
288.81879
  0
VERTEX
  5
588
  8
Layer_0
  10
315.46497
  20
288.78503
  0
VERTEX
  5
589
  8
Layer_0
  10
322.28497
  20
288.78503
  0
VERTEX
  5
58a
  8
Layer_0
  10
322.31873
  20
288.81879
  0
VERTEX
  5
58b
  8
Layer_0
  10
322.28497
  20
288.78503
  0
VERTEX
  5
58c
  8
Layer_0
  10
322.28497
  20
285.375
  0
VERTEX
  5
58d
  8
Layer_0
  10
322.31122
  20
285.31128
  0
VERTEX
  5
58e
  8
Layer_0
  10
322.37497
  20
285.28503
  0
VERTEX
  5
58f
  8
Layer_0
  10
324.37497
  20
285.28503
  0
VERTEX
  5
590
  8
Layer_0
  10
324.43872
  20
285.31128
  0
VERTEX
  5
591
  8
Layer_0
  10
324.46497
  20
285.375
  0
VERTEX
  5
592
  8
Layer_0
  10
324.46497
  20
342.37503
  0
VERTEX
  5
593
  8
Layer_0
  10
324.43872
  20
342.43878
  0
VERTEX
  5
594
  8
Layer_0
  10
324.37497
  20
342.46503
  0
VERTEX
  5
595
  8
Layer_0
  10
322.37497
  20
342.46503
  0
VERTEX
  5
596
  8
Layer_0
  10
322.31122
  20
342.43878
  0
VERTEX
  5
597
  8
Layer_0
  10
322.28497
  20
342.37503
  0
VERTEX
  5
598
  8
Layer_0
  10
322.28497
  20
338.96503
  0
VERTEX
  5
599
  8
Layer_0
  10
322.31873
  20
338.93127
  0
VERTEX
  5
59a
  8
Layer_0
  10
322.28497
  20
338.96503
  0
VERTEX
  5
59b
  8
Layer_0
  10
315.46497
  20
338.96503
  0
VERTEX
  5
59c
  8
Layer_0
  10
315.43121
  20
338.93127
  0
VERTEX
  5
59d
  8
Layer_0
  10
315.46497
  20
338.96503
  0
VERTEX
  5
59e
  8
Layer_0
  10
315.46497
  20
342.37503
  0
VERTEX
  5
59f
  8
Layer_0
  10
315.43872
  20
342.43878
  0
VERTEX
  5
5a0
  8
Layer_0
  10
315.37497
  20
342.46503
  0
VERTEX
  5
5a1
  8
Layer_0
  10
308.37497
  20
342.46503
  0
VERTEX
  5
5a2
  8
Layer_0
  10
308.31122
  20
342.43878
  0
VERTEX
  5
5a3
  8
Layer_0
  10
308.28497
  20
342.37503
  0
VERTEX
  5
5a4
  8
Layer_0
  10
308.28497
  20
338.96503
  0
VERTEX
  5
5a5
  8
Layer_0
  10
308.31873
  20
338.93127
  0
VERTEX
  5
5a6
  8
Layer_0
  10
308.28497
  20
338.96503
  0
VERTEX
  5
5a7
  8
Layer_0
  10
301.46497
  20
338.96503
  0
VERTEX
  5
5a8
  8
Layer_0
  10
301.43121
  20
338.93127
  0
VERTEX
  5
5a9
  8
Layer_0
  10
301.46497
  20
338.96503
  0
VERTEX
  5
5aa
  8
Layer_0
  10
301.46497
  20
342.37503
  0
VERTEX
  5
5ab
  8
Layer_0
  10
301.43872
  20
342.43878
  0
VERTEX
  5
5ac
  8
Layer_0
  10
301.37497
  20
342.46503
  0
VERTEX
  5
5ad
  8
Layer_0
  10
299.37497
  20
342.46503
  0
VERTEX
  5
5ae
  8
Layer_0
  10
299.31122
  20
342.43878
  0
VERTEX
  5
5af
  8
Layer_0
  10
299.28497
  20
342.37503
  0
VERTEX
  5
5b0
  8
Layer_0
  10
299.28497
  20
338.87503
  0
SEQEND
  0
POLYLINE
  5
5b2
  8
Layer_0
  62
0
  70
1
  66
1
  10
0
  20
0
  30
0
  0
VERTEX
  5
5b2
  8
Layer_0
  10
264.65997
  20
223.83997
  0
VERTEX
  5
5b3
  8
Layer_0
  10
264.65997
  20
198.83997
  0
VERTEX
  5
5b4
  8
Layer_0
  10
264.68622
  20
198.77621
  0
VERTEX
  5
5b5
  8
Layer_0
  10
264.74997
  20
198.74994
  0
VERTEX
  5
5b6
  8
Layer_0
  10
289.74997
  20
198.74994
  0
VERTEX
  5
5b7
  8
Layer_0
  10
289.77319
  20
198.75296
  0
VERTEX
  5
5b8
  8
Layer_0
  10
289.79495
  20
198.76196
  0
VERTEX
  5
5b9
  8
Layer_0
  10
289.81372
  20
198.77621
  0
VERTEX
  5
5ba
  8
Layer_0
  10
289.82794
  20
198.79498
  0
VERTEX
  5
5bb
  8
Layer_0
  10
289.83698
  20
198.81671
  0
VERTEX
  5
5bc
  8
Layer_0
  10
289.83997
  20
198.83997
  0
VERTEX
  5
5bd
  8
Layer_0
  10
289.83698
  20
198.86322
  0
VERTEX
  5
5be
  8
Layer_0
  10
289.82794
  20
198.88495
  0
VERTEX
  5
5bf
  8
Layer_0
  10
289.81372
  20
198.90372
  0
VERTEX
  5
5c0
  8
Layer_0
  10
289.79495
  20
198.91797
  0
VERTEX
  5
5c1
  8
Layer_0
  10
289.77319
  20
198.92697
  0
VERTEX
  5
5c2
  8
Layer_0
  10
289.74997
  20
198.92999
  0
VERTEX
  5
5c3
  8
Layer_0
  10
288.93109
  20
198.94345
  0
VERTEX
  5
5c4
  8
Layer_0
  10
288.11462
  20
198.9837
  0
VERTEX
  5
5c5
  8
Layer_0
  10
287.30124
  20
199.05061
  0
VERTEX
  5
5c6
  8
Layer_0
  10
286.49158
  20
199.14398
  0
VERTEX
  5
5c7
  8
Layer_0
  10
285.68628
  20
199.26367
  0
VERTEX
  5
5c8
  8
Layer_0
  10
284.88593
  20
199.40945
  0
VERTEX
  5
5c9
  8
Layer_0
  10
284.09122
  20
199.58121
  0
VERTEX
  5
5ca
  8
Layer_0
  10
283.30273
  20
199.77875
  0
VERTEX
  5
5cb
  8
Layer_0
  10
282.52112
  20
200.00189
  0
VERTEX
  5
5cc
  8
Layer_0
  10
281.74701
  20
200.2505
  0
VERTEX
  5
5cd
  8
Layer_0
  10
280.98102
  20
200.52438
  0
VERTEX
  5
5ce
  8
Layer_0
  10
280.22375
  20
200.82336
  0
VERTEX
  5
5cf
  8
Layer_0
  10
279.47589
  20
201.14728
  0
VERTEX
  5
5d0
  8
Layer_0
  10
278.73804
  20
201.49597
  0
VERTEX
  5
5d1
  8
Layer_0
  10
278.01086
  20
201.86925
  0
VERTEX
  5
5d2
  8
Layer_0
  10
277.29495
  20
202.26697
  0
VERTEX
  5
5d3
  8
Layer_0
  10
276.59253
  20
202.68817
  0
VERTEX
  5
5d4
  8
Layer_0
  10
275.90561
  20
203.13135
  0
VERTEX
  5
5d5
  8
Layer_0
  10
275.23468
  20
203.59604
  0
VERTEX
  5
5d6
  8
Layer_0
  10
274.5802
  20
204.08176
  0
VERTEX
  5
5d7
  8
Layer_0
  10
273.94263
  20
204.58807
  0
VERTEX
  5
5d8
  8
Layer_0
  10
273.32245
  20
205.11453
  0
VERTEX
  5
5d9
  8
Layer_0
  10
272.72006
  20
205.66064
  0
VERTEX
  5
5da
  8
Layer_0
  10
272.13596
  20
206.22597
  0
VERTEX
  5
5db
  8
Layer_0
  10
271.57062
  20
206.81006
  0
VERTEX
  5
5dc
  8
Layer_0
  10
271.02451
  20
207.41241
  0
VERTEX
  5
5dd
  8
Layer_0
  10
270.49805
  20
208.03259
  0
VERTEX
  5
5de
  8
Layer_0
  10
269.99173
  20
208.67018
  0
VERTEX
  5
5df
  8
Layer_0
  10
269.50601
  20
209.32468
  0
VERTEX
  5
5e0
  8
Layer_0
  10
269.04132
  20
209.99557
  0
VERTEX
  5
5e1
  8
Layer_0
  10
268.59814
  20
210.6825
  0
VERTEX
  5
5e2
  8
Layer_0
  10
268.17697
  20
211.38495
  0
VERTEX
  5
5e3
  8
Layer_0
  10
267.77927
  20
212.10086
  0
VERTEX
  5
5e4
  8
Layer_0
  10
267.40601
  20
212.82803
  0
VERTEX
  5
5e5
  8
Layer_0
  10
267.05731
  20
213.56587
  0
VERTEX
  5
5e6
  8
Layer_0
  10
266.73337
  20
214.31372
  0
VERTEX
  5
5e7
  8
Layer_0
  10
266.43436
  20
215.07095
  0
VERTEX
  5
5e8
  8
Layer_0
  10
266.16049
  20
215.83696
  0
VERTEX
  5
5e9
  8
Layer_0
  10
265.9119
  20
216.61108
  0
VERTEX
  5
5ea
  8
Layer_0
  10
265.68872
  20
217.3927
  0
VERTEX
  5
5eb
  8
Layer_0
  10
265.49118
  20
218.18118
  0
VERTEX
  5
5ec
  8
Layer_0
  10
265.31943
  20
218.97592
  0
VERTEX
  5
5ed
  8
Layer_0
  10
265.17365
  20
219.77625
  0
VERTEX
  5
5ee
  8
Layer_0
  10
265.05396
  20
220.58157
  0
VERTEX
  5
5ef
  8
Layer_0
  10
264.96057
  20
221.39124
  0
VERTEX
  5
5f0
  8
Layer_0
  10
264.89368
  20
222.20459
  0
VERTEX
  5
5f1
  8
Layer_0
  10
264.85339
  20
223.02104
  0
VERTEX
  5
5f2
  8
Layer_0
  10
264.83997
  20
223.83997
  0
VERTEX
  5
5f3
  8
Layer_0
  10
264.83698
  20
223.81671
  0
VERTEX
  5
5f4
  8
Layer_0
  10
264.82797
  20
223.79498
  0
VERTEX
  5
5f5
  8
Layer_0
  10
264.81372
  20
223.77621
  0
VERTEX
  5
5f6
  8
Layer_0
  10
264.79498
  20
223.76196
  0
VERTEX
  5
5f7
  8
Layer_0
  10
264.77319
  20
223.75296
  0
VERTEX
  5
5f8
  8
Layer_0
  10
264.74997
  20
223.74994
  0
VERTEX
  5
5f9
  8
Layer_0
  10
264.72668
  20
223.75296
  0
VERTEX
  5
5fa
  8
Layer_0
  10
264.70496
  20
223.76196
  0
VERTEX
  5
5fb
  8
Layer_0
  10
264.68622
  20
223.77621
  0
VERTEX
  5
5fc
  8
Layer_0
  10
264.67197
  20
223.79498
  0
VERTEX
  5
5fd
  8
Layer_0
  10
264.66296
  20
223.81671
  0
VERTEX
  5
5fe
  8
Layer_0
  10
264.65997
  20
223.83997
  0
SEQEND
  0
POLYLINE
  5
600
  8
Layer_0
  62
0
  70
1
  66
1
  10
0
  20
0
  30
0
  0
VERTEX
  5
600
  8
Layer_0
  10
291.58997
  20
198.83997
  0
VERTEX
  5
601
  8
Layer_0
  10
291.58997
  20
223.83997
  0
VERTEX
  5
602
  8
Layer_0
  10
291.56372
  20
223.90372
  0
VERTEX
  5
603
  8
Layer_0
  10
291.49997
  20
223.92999
  0
VERTEX
  5
604
  8
Layer_0
  10
266.49997
  20
223.92999
  0
VERTEX
  5
605
  8
Layer_0
  10
266.47668
  20
223.92697
  0
VERTEX
  5
606
  8
Layer_0
  10
266.45496
  20
223.91797
  0
VERTEX
  5
607
  8
Layer_0
  10
266.43622
  20
223.90372
  0
VERTEX
  5
608
  8
Layer_0
  10
266.42197
  20
223.88495
  0
VERTEX
  5
609
  8
Layer_0
  10
266.41296
  20
223.86322
  0
VERTEX
  5
60a
  8
Layer_0
  10
266.40997
  20
223.83997
  0
VERTEX
  5
60b
  8
Layer_0
  10
266.41296
  20
223.81671
  0
VERTEX
  5
60c
  8
Layer_0
  10
266.42197
  20
223.79498
  0
VERTEX
  5
60d
  8
Layer_0
  10
266.43622
  20
223.77621
  0
VERTEX
  5
60e
  8
Layer_0
  10
266.45496
  20
223.76196
  0
VERTEX
  5
60f
  8
Layer_0
  10
266.47668
  20
223.75296
  0
VERTEX
  5
610
  8
Layer_0
  10
266.49997
  20
223.74994
  0
VERTEX
  5
611
  8
Layer_0
  10
267.31885
  20
223.73648
  0
VERTEX
  5
612
  8
Layer_0
  10
268.13531
  20
223.69623
  0
VERTEX
  5
613
  8
Layer_0
  10
268.9487
  20
223.62932
  0
VERTEX
  5
614
  8
Layer_0
  10
269.75836
  20
223.53595
  0
VERTEX
  5
615
  8
Layer_0
  10
270.56366
  20
223.41626
  0
VERTEX
  5
616
  8
Layer_0
  10
271.36401
  20
223.27048
  0
VERTEX
  5
617
  8
Layer_0
  10
272.15872
  20
223.09872
  0
VERTEX
  5
618
  8
Layer_0
  10
272.9472
  20
222.90118
  0
VERTEX
  5
619
  8
Layer_0
  10
273.72882
  20
222.67804
  0
VERTEX
  5
61a
  8
Layer_0
  10
274.50293
  20
222.42943
  0
VERTEX
  5
61b
  8
Layer_0
  10
275.26892
  20
222.15555
  0
VERTEX
  5
61c
  8
Layer_0
  10
276.02618
  20
221.85657
  0
VERTEX
  5
61d
  8
Layer_0
  10
276.77402
  20
221.53265
  0
VERTEX
  5
61e
  8
Layer_0
  10
277.51187
  20
221.18396
  0
VERTEX
  5
61f
  8
Layer_0
  10
278.23901
  20
220.81068
  0
VERTEX
  5
620
  8
Layer_0
  10
278.95496
  20
220.41296
  0
VERTEX
  5
621
  8
Layer_0
  10
279.65741
  20
219.99176
  0
VERTEX
  5
622
  8
Layer_0
  10
280.34433
  20
219.54858
  0
VERTEX
  5
623
  8
Layer_0
  10
281.01526
  20
219.08389
  0
VERTEX
  5
624
  8
Layer_0
  10
281.66974
  20
218.59818
  0
VERTEX
  5
625
  8
Layer_0
  10
282.30731
  20
218.09186
  0
VERTEX
  5
626
  8
Layer_0
  10
282.92749
  20
217.5654
  0
VERTEX
  5
627
  8
Layer_0
  10
283.52988
  20
217.01929
  0
VERTEX
  5
628
  8
Layer_0
  10
284.11395
  20
216.45396
  0
VERTEX
  5
629
  8
Layer_0
  10
284.67929
  20
215.86987
  0
VERTEX
  5
62a
  8
Layer_0
  10
285.2254
  20
215.26752
  0
VERTEX
  5
62b
  8
Layer_0
  10
285.75189
  20
214.64734
  0
VERTEX
  5
62c
  8
Layer_0
  10
286.25821
  20
214.00975
  0
VERTEX
  5
62d
  8
Layer_0
  10
286.74393
  20
213.35526
  0
VERTEX
  5
62e
  8
Layer_0
  10
287.20862
  20
212.68436
  0
VERTEX
  5
62f
  8
Layer_0
  10
287.65179
  20
211.99744
  0
VERTEX
  5
630
  8
Layer_0
  10
288.07297
  20
211.29498
  0
VERTEX
  5
631
  8
Layer_0
  10
288.47067
  20
210.57906
  0
VERTEX
  5
632
  8
Layer_0
  10
288.84393
  20
209.85187
  0
VERTEX
  5
633
  8
Layer_0
  10
289.19263
  20
209.11404
  0
VERTEX
  5
634
  8
Layer_0
  10
289.51657
  20
208.36618
  0
VERTEX
  5
635
  8
Layer_0
  10
289.81558
  20
207.60895
  0
VERTEX
  5
636
  8
Layer_0
  10
290.08945
  20
206.84294
  0
VERTEX
  5
637
  8
Layer_0
  10
290.33804
  20
206.06882
  0
VERTEX
  5
638
  8
Layer_0
  10
290.56122
  20
205.2872
  0
VERTEX
  5
639
  8
Layer_0
  10
290.75876
  20
204.49872
  0
VERTEX
  5
63a
  8
Layer_0
  10
290.93051
  20
203.70399
  0
VERTEX
  5
63b
  8
Layer_0
  10
291.07629
  20
202.90366
  0
VERTEX
  5
63c
  8
Layer_0
  10
291.19598
  20
202.09836
  0
VERTEX
  5
63d
  8
Layer_0
  10
291.28937
  20
201.2887
  0
VERTEX
  5
63e
  8
Layer_0
  10
291.35626
  20
200.47534
  0
VERTEX
  5
63f
  8
Layer_0
  10
291.39655
  20
199.65889
  0
VERTEX
  5
640
  8
Layer_0
  10
291.40997
  20
198.83997
  0
VERTEX
  5
641
  8
Layer_0
  10
291.41296
  20
198.86322
  0
VERTEX
  5
642
  8
Layer_0
  10
291.42197
  20
198.88495
  0
VERTEX
  5
643
  8
Layer_0
  10
291.43622
  20
198.90372
  0
VERTEX
  5
644
  8
Layer_0
  10
291.45496
  20
198.91797
  0
VERTEX
  5
645
  8
Layer_0
  10
291.47668
  20
198.92697
  0
VERTEX
  5
646
  8
Layer_0
  10
291.49997
  20
198.92999
  0
VERTEX
  5
647
  8
Layer_0
  10
291.52319
  20
198.92697
  0
VERTEX
  5
648
  8
Layer_0
  10
291.54495
  20
198.91797
  0
VERTEX
  5
649
  8
Layer_0
  10
291.56372
  20
198.90372
  0
VERTEX
  5
64a
  8
Layer_0
  10
291.57794
  20
198.88495
  0
VERTEX
  5
64b
  8
Layer_0
  10
291.58698
  20
198.86322
  0
VERTEX
  5
64c
  8
Layer_0
  10
291.58997
  20
198.83997
  0
SEQEND
  0
POLYLINE
  5
64e
  8
Layer_0
  62
0
  70
1
  66
1
  10
0
  20
0
  30
0
  0
VERTEX
  5
64e
  8
Layer_0
  10
264.65997
  20
196.90997
  0
VERTEX
  5
64f
  8
Layer_0
  10
264.65997
  20
171.90997
  0
VERTEX
  5
650
  8
Layer_0
  10
264.68622
  20
171.84622
  0
VERTEX
  5
651
  8
Layer_0
  10
264.74997
  20
171.81995
  0
VERTEX
  5
652
  8
Layer_0
  10
289.74997
  20
171.81995
  0
VERTEX
  5
653
  8
Layer_0
  10
289.77319
  20
171.82297
  0
VERTEX
  5
654
  8
Layer_0
  10
289.79495
  20
171.83197
  0
VERTEX
  5
655
  8
Layer_0
  10
289.81372
  20
171.84622
  0
VERTEX
  5
656
  8
Layer_0
  10
289.82794
  20
171.86499
  0
VERTEX
  5
657
  8
Layer_0
  10
289.83698
  20
171.88672
  0
VERTEX
  5
658
  8
Layer_0
  10
289.83997
  20
171.90997
  0
VERTEX
  5
659
  8
Layer_0
  10
289.83698
  20
171.93323
  0
VERTEX
  5
65a
  8
Layer_0
  10
289.82794
  20
171.95496
  0
VERTEX
  5
65b
  8
Layer_0
  10
289.81372
  20
171.97371
  0
VERTEX
  5
65c
  8
Layer_0
  10
289.79495
  20
171.98798
  0
VERTEX
  5
65d
  8
Layer_0
  10
289.77319
  20
171.99695
  0
VERTEX
  5
65e
  8
Layer_0
  10
289.74997
  20
171.99994
  0
VERTEX
  5
65f
  8
Layer_0
  10
288.93109
  20
172.0134
  0
VERTEX
  5
660
  8
Layer_0
  10
288.11462
  20
172.05365
  0
VERTEX
  5
661
  8
Layer_0
  10
287.30124
  20
172.12056
  0
VERTEX
  5
662
  8
Layer_0
  10
286.49158
  20
172.21393
  0
VERTEX
  5
663
  8
Layer_0
  10
285.68628
  20
172.33362
  0
VERTEX
  5
664
  8
Layer_0
  10
284.88593
  20
172.4794
  0
VERTEX
  5
665
  8
Layer_0
  10
284.09122
  20
172.65115
  0
VERTEX
  5
666
  8
Layer_0
  10
283.30273
  20
172.84869
  0
VERTEX
  5
667
  8
Layer_0
  10
282.52112
  20
173.07185
  0
VERTEX
  5
668
  8
Layer_0
  10
281.74701
  20
173.32045
  0
VERTEX
  5
669
  8
Layer_0
  10
280.98102
  20
173.59433
  0
VERTEX
  5
66a
  8
Layer_0
  10
280.22375
  20
173.89334
  0
VERTEX
  5
66b
  8
Layer_0
  10
279.47589
  20
174.21725
  0
VERTEX
  5
66c
  8
Layer_0
  10
278.73804
  20
174.56596
  0
VERTEX
  5
66d
  8
Layer_0
  10
278.01086
  20
174.93925
  0
VERTEX
  5
66e
  8
Layer_0
  10
277.29495
  20
175.33698
  0
VERTEX
  5
66f
  8
Layer_0
  10
276.59253
  20
175.75818
  0
VERTEX
  5
670
  8
Layer_0
  10
275.90561
  20
176.20135
  0
VERTEX
  5
671
  8
Layer_0
  10
275.23468
  20
176.66605
  0
VERTEX
  5
672
  8
Layer_0
  10
274.5802
  20
177.15176
  0
VERTEX
  5
673
  8
Layer_0
  10
273.94263
  20
177.65808
  0
VERTEX
  5
674
  8
Layer_0
  10
273.32245
  20
178.18454
  0
VERTEX
  5
675
  8
Layer_0
  10
272.72006
  20
178.73065
  0
VERTEX
  5
676
  8
Layer_0
  10
272.13596
  20
179.29597
  0
VERTEX
  5
677
  8
Layer_0
  10
271.57062
  20
179.88007
  0
VERTEX
  5
678
  8
Layer_0
  10
271.02451
  20
180.48242
  0
VERTEX
  5
679
  8
Layer_0
  10
270.49805
  20
181.1026
  0
VERTEX
  5
67a
  8
Layer_0
  10
269.99173
  20
181.74019
  0
VERTEX
  5
67b
  8
Layer_0
  10
269.50601
  20
182.39468
  0
VERTEX
  5
67c
  8
Layer_0
  10
269.04132
  20
183.06558
  0
VERTEX
  5
67d
  8
Layer_0
  10
268.59814
  20
183.7525
  0
VERTEX
  5
67e
  8
Layer_0
  10
268.17694
  20
184.45496
  0
VERTEX
  5
67f
  8
Layer_0
  10
267.77921
  20
185.17087
  0
VERTEX
  5
680
  8
Layer_0
  10
267.40594
  20
185.89804
  0
VERTEX
  5
681
  8
Layer_0
  10
267.05725
  20
186.63588
  0
VERTEX
  5
682
  8
Layer_0
  10
266.73331
  20
187.38373
  0
VERTEX
  5
683
  8
Layer_0
  10
266.43433
  20
188.14096
  0
VERTEX
  5
684
  8
Layer_0
  10
266.16046
  20
188.90697
  0
VERTEX
  5
685
  8
Layer_0
  10
265.91187
  20
189.68109
  0
VERTEX
  5
686
  8
Layer_0
  10
265.68872
  20
190.46271
  0
VERTEX
  5
687
  8
Layer_0
  10
265.49118
  20
191.25119
  0
VERTEX
  5
688
  8
Layer_0
  10
265.31943
  20
192.04593
  0
VERTEX
  5
689
  8
Layer_0
  10
265.17365
  20
192.84625
  0
VERTEX
  5
68a
  8
Layer_0
  10
265.05396
  20
193.65158
  0
VERTEX
  5
68b
  8
Layer_0
  10
264.96057
  20
194.46124
  0
VERTEX
  5
68c
  8
Layer_0
  10
264.89368
  20
195.2746
  0
VERTEX
  5
68d
  8
Layer_0
  10
264.85339
  20
196.09105
  0
VERTEX
  5
68e
  8
Layer_0
  10
264.83997
  20
196.90997
  0
VERTEX
  5
68f
  8
Layer_0
  10
264.83698
  20
196.88672
  0
VERTEX
  5
690
  8
Layer_0
  10
264.82794
  20
196.86499
  0
VERTEX
  5
691
  8
Layer_0
  10
264.81372
  20
196.84622
  0
VERTEX
  5
692
  8
Layer_0
  10
264.79495
  20
196.83197
  0
VERTEX
  5
693
  8
Layer_0
  10
264.77319
  20
196.82297
  0
VERTEX
  5
694
  8
Layer_0
  10
264.74997
  20
196.81995
  0
VERTEX
  5
695
  8
Layer_0
  10
264.72668
  20
196.82297
  0
VERTEX
  5
696
  8
Layer_0
  10
264.70496
  20
196.83197
  0
VERTEX
  5
697
  8
Layer_0
  10
264.68622
  20
196.84622
  0
VERTEX
  5
698
  8
Layer_0
  10
264.67197
  20
196.86499
  0
VERTEX
  5
699
  8
Layer_0
  10
264.66296
  20
196.88672
  0
VERTEX
  5
69a
  8
Layer_0
  10
264.65997
  20
196.90997
  0
SEQEND
  0
POLYLINE
  5
69c
  8
Layer_0
  62
0
  70
1
  66
1
  10
0
  20
0
  30
0
  0
VERTEX
  5
69c
  8
Layer_0
  10
291.58997
  20
171.90997
  0
VERTEX
  5
69d
  8
Layer_0
  10
291.58997
  20
196.90997
  0
VERTEX
  5
69e
  8
Layer_0
  10
291.56372
  20
196.97369
  0
VERTEX
  5
69f
  8
Layer_0
  10
291.49997
  20
196.99994
  0
VERTEX
  5
6a0
  8
Layer_0
  10
266.49997
  20
196.99994
  0
VERTEX
  5
6a1
  8
Layer_0
  10
266.47668
  20
196.99695
  0
VERTEX
  5
6a2
  8
Layer_0
  10
266.45496
  20
196.98798
  0
VERTEX
  5
6a3
  8
Layer_0
  10
266.43622
  20
196.97371
  0
VERTEX
  5
6a4
  8
Layer_0
  10
266.42197
  20
196.95496
  0
VERTEX
  5
6a5
  8
Layer_0
  10
266.41296
  20
196.93323
  0
VERTEX
  5
6a6
  8
Layer_0
  10
266.40997
  20
196.90997
  0
VERTEX
  5
6a7
  8
Layer_0
  10
266.41296
  20
196.88672
  0
VERTEX
  5
6a8
  8
Layer_0
  10
266.42197
  20
196.86499
  0
VERTEX
  5
6a9
  8
Layer_0
  10
266.43622
  20
196.84622
  0
VERTEX
  5
6aa
  8
Layer_0
  10
266.45496
  20
196.83197
  0
VERTEX
  5
6ab
  8
Layer_0
  10
266.47668
  20
196.82297
  0
VERTEX
  5
6ac
  8
Layer_0
  10
266.49997
  20
196.81995
  0
VERTEX
  5
6ad
  8
Layer_0
  10
267.31885
  20
196.80649
  0
VERTEX
  5
6ae
  8
Layer_0
  10
268.13531
  20
196.76624
  0
VERTEX
  5
6af
  8
Layer_0
  10
268.9487
  20
196.69933
  0
VERTEX
  5
6b0
  8
Layer_0
  10
269.75836
  20
196.60596
  0
VERTEX
  5
6b1
  8
Layer_0
  10
270.56366
  20
196.48627
  0
VERTEX
  5
6b2
  8
Layer_0
  10
271.36401
  20
196.34048
  0
VERTEX
  5
6b3
  8
Layer_0
  10
272.15872
  20
196.16873
  0
VERTEX
  5
6b4
  8
Layer_0
  10
272.9472
  20
195.97119
  0
VERTEX
  5
6b5
  8
Layer_0
  10
273.72882
  20
195.74805
  0
VERTEX
  5
6b6
  8
Layer_0
  10
274.50293
  20
195.49944
  0
VERTEX
  5
6b7
  8
Layer_0
  10
275.26892
  20
195.22556
  0
VERTEX
  5
6b8
  8
Layer_0
  10
276.02618
  20
194.92657
  0
VERTEX
  5
6b9
  8
Layer_0
  10
276.77402
  20
194.60266
  0
VERTEX
  5
6ba
  8
Layer_0
  10
277.51187
  20
194.25397
  0
VERTEX
  5
6bb
  8
Layer_0
  10
278.23901
  20
193.88069
  0
VERTEX
  5
6bc
  8
Layer_0
  10
278.95496
  20
193.48297
  0
VERTEX
  5
6bd
  8
Layer_0
  10
279.65741
  20
193.06177
  0
VERTEX
  5
6be
  8
Layer_0
  10
280.34433
  20
192.61859
  0
VERTEX
  5
6bf
  8
Layer_0
  10
281.01526
  20
192.1539
  0
VERTEX
  5
6c0
  8
Layer_0
  10
281.66974
  20
191.66818
  0
VERTEX
  5
6c1
  8
Layer_0
  10
282.30731
  20
191.16187
  0
VERTEX
  5
6c2
  8
Layer_0
  10
282.92749
  20
190.63541
  0
VERTEX
  5
6c3
  8
Layer_0
  10
283.52988
  20
190.08929
  0
VERTEX
  5
6c4
  8
Layer_0
  10
284.11395
  20
189.52397
  0
VERTEX
  5
6c5
  8
Layer_0
  10
284.67929
  20
188.93988
  0
VERTEX
  5
6c6
  8
Layer_0
  10
285.2254
  20
188.33752
  0
VERTEX
  5
6c7
  8
Layer_0
  10
285.75189
  20
187.71735
  0
VERTEX
  5
6c8
  8
Layer_0
  10
286.25821
  20
187.07976
  0
VERTEX
  5
6c9
  8
Layer_0
  10
286.74393
  20
186.42526
  0
VERTEX
  5
6ca
  8
Layer_0
  10
287.20862
  20
185.75436
  0
VERTEX
  5
6cb
  8
Layer_0
  10
287.65179
  20
185.06744
  0
VERTEX
  5
6cc
  8
Layer_0
  10
288.07297
  20
184.36499
  0
VERTEX
  5
6cd
  8
Layer_0
  10
288.47067
  20
183.64906
  0
VERTEX
  5
6ce
  8
Layer_0
  10
288.84393
  20
182.92188
  0
VERTEX
  5
6cf
  8
Layer_0
  10
289.19263
  20
182.18405
  0
VERTEX
  5
6d0
  8
Layer_0
  10
289.51657
  20
181.43619
  0
VERTEX
  5
6d1
  8
Layer_0
  10
289.81558
  20
180.67896
  0
VERTEX
  5
6d2
  8
Layer_0
  10
290.08945
  20
179.91295
  0
VERTEX
  5
6d3
  8
Layer_0
  10
290.33804
  20
179.13882
  0
VERTEX
  5
6d4
  8
Layer_0
  10
290.56122
  20
178.35721
  0
VERTEX
  5
6d5
  8
Layer_0
  10
290.75876
  20
177.56873
  0
VERTEX
  5
6d6
  8
Layer_0
  10
290.93051
  20
176.774
  0
VERTEX
  5
6d7
  8
Layer_0
  10
291.07629
  20
175.97366
  0
VERTEX
  5
6d8
  8
Layer_0
  10
291.19598
  20
175.16837
  0
VERTEX
  5
6d9
  8
Layer_0
  10
291.28937
  20
174.3587
  0
VERTEX
  5
6da
  8
Layer_0
  10
291.35626
  20
173.54535
  0
VERTEX
  5
6db
  8
Layer_0
  10
291.39655
  20
172.7289
  0
VERTEX
  5
6dc
  8
Layer_0
  10
291.40997
  20
171.90997
  0
VERTEX
  5
6dd
  8
Layer_0
  10
291.41296
  20
171.93323
  0
VERTEX
  5
6de
  8
Layer_0
  10
291.42197
  20
171.95496
  0
VERTEX
  5
6df
  8
Layer_0
  10
291.43622
  20
171.97371
  0
VERTEX
  5
6e0
  8
Layer_0
  10
291.45496
  20
171.98798
  0
VERTEX
  5
6e1
  8
Layer_0
  10
291.47668
  20
171.99695
  0
VERTEX
  5
6e2
  8
Layer_0
  10
291.49997
  20
171.99994
  0
VERTEX
  5
6e3
  8
Layer_0
  10
291.52319
  20
171.99695
  0
VERTEX
  5
6e4
  8
Layer_0
  10
291.54495
  20
171.98798
  0
VERTEX
  5
6e5
  8
Layer_0
  10
291.56372
  20
171.97371
  0
VERTEX
  5
6e6
  8
Layer_0
  10
291.57794
  20
171.95496
  0
VERTEX
  5
6e7
  8
Layer_0
  10
291.58698
  20
171.93323
  0
VERTEX
  5
6e8
  8
Layer_0
  10
291.58997
  20
171.90997
  0
SEQEND
  0
POLYLINE
  5
6ea
  8
Layer_0
  62
0
  70
1
  66
1
  10
0
  20
0
  30
0
  0
VERTEX
  5
6ea
  8
Layer_0
  10
65.124969
  20
281.285
  0
VERTEX
  5
6eb
  8
Layer_0
  10
72.624969
  20
281.285
  0
VERTEX
  5
6ec
  8
Layer_0
  10
72.688721
  20
281.31125
  0
VERTEX
  5
6ed
  8
Layer_0
  10
72.714973
  20
281.375
  0
VERTEX
  5
6ee
  8
Layer_0
  10
72.714973
  20
284.785
  0
VERTEX
  5
6ef
  8
Layer_0
  10
72.681221
  20
284.81876
  0
VERTEX
  5
6f0
  8
Layer_0
  10
72.714973
  20
284.785
  0
VERTEX
  5
6f1
  8
Layer_0
  10
79.534973
  20
284.785
  0
VERTEX
  5
6f2
  8
Layer_0
  10
79.568726
  20
284.81876
  0
VERTEX
  5
6f3
  8
Layer_0
  10
79.534973
  20
284.785
  0
VERTEX
  5
6f4
  8
Layer_0
  10
79.534973
  20
281.375
  0
VERTEX
  5
6f5
  8
Layer_0
  10
79.561226
  20
281.31125
  0
VERTEX
  5
6f6
  8
Layer_0
  10
79.624969
  20
281.285
  0
VERTEX
  5
6f7
  8
Layer_0
  10
86.624969
  20
281.285
  0
VERTEX
  5
6f8
  8
Layer_0
  10
86.688721
  20
281.31125
  0
VERTEX
  5
6f9
  8
Layer_0
  10
86.714973
  20
281.375
  0
VERTEX
  5
6fa
  8
Layer_0
  10
86.714973
  20
284.785
  0
VERTEX
  5
6fb
  8
Layer_0
  10
86.681221
  20
284.81876
  0
VERTEX
  5
6fc
  8
Layer_0
  10
86.714973
  20
284.785
  0
VERTEX
  5
6fd
  8
Layer_0
  10
93.534973
  20
284.785
  0
VERTEX
  5
6fe
  8
Layer_0
  10
93.568726
  20
284.81876
  0
VERTEX
  5
6ff
  8
Layer_0
  10
93.534973
  20
284.785
  0
VERTEX
  5
700
  8
Layer_0
  10
93.534973
  20
281.375
  0
VERTEX
  5
701
  8
Layer_0
  10
93.561226
  20
281.31125
  0
VERTEX
  5
702
  8
Layer_0
  10
93.624969
  20
281.285
  0
VERTEX
  5
703
  8
Layer_0
  10
100.62497
  20
281.285
  0
VERTEX
  5
704
  8
Layer_0
  10
100.68872
  20
281.31125
  0
VERTEX
  5
705
  8
Layer_0
  10
100.71497
  20
281.375
  0
VERTEX
  5
706
  8
Layer_0
  10
100.71497
  20
284.785
  0
VERTEX
  5
707
  8
Layer_0
  10
100.68122
  20
284.81876
  0
VERTEX
  5
708
  8
Layer_0
  10
100.71497
  20
284.785
  0
VERTEX
  5
709
  8
Layer_0
  10
107.53497
  20
284.785
  0
VERTEX
  5
70a
  8
Layer_0
  10
107.56873
  20
284.81876
  0
VERTEX
  5
70b
  8
Layer_0
  10
107.53497
  20
284.785
  0
VERTEX
  5
70c
  8
Layer_0
  10
107.53497
  20
281.375
  0
VERTEX
  5
70d
  8
Layer_0
  10
107.56123
  20
281.31125
  0
VERTEX
  5
70e
  8
Layer_0
  10
107.62497
  20
281.285
  0
VERTEX
  5
70f
  8
Layer_0
  10
114.62497
  20
281.285
  0
VERTEX
  5
710
  8
Layer_0
  10
114.68872
  20
281.31125
  0
VERTEX
  5
711
  8
Layer_0
  10
114.71497
  20
281.375
  0
VERTEX
  5
712
  8
Layer_0
  10
114.71497
  20
284.785
  0
VERTEX
  5
713
  8
Layer_0
  10
114.68122
  20
284.81876
  0
VERTEX
  5
714
  8
Layer_0
  10
114.71497
  20
284.785
  0
VERTEX
  5
715
  8
Layer_0
  10
121.53497
  20
284.785
  0
VERTEX
  5
716
  8
Layer_0
  10
121.56873
  20
284.81876
  0
VERTEX
  5
717
  8
Layer_0
  10
121.53497
  20
284.785
  0
VERTEX
  5
718
  8
Layer_0
  10
121.53497
  20
281.375
  0
VERTEX
  5
719
  8
Layer_0
  10
121.56123
  20
281.31125
  0
VERTEX
  5
71a
  8
Layer_0
  10
121.62497
  20
281.285
  0
VERTEX
  5
71b
  8
Layer_0
  10
128.62497
  20
281.285
  0
VERTEX
  5
71c
  8
Layer_0
  10
128.68872
  20
281.31125
  0
VERTEX
  5
71d
  8
Layer_0
  10
128.71497
  20
281.375
  0
VERTEX
  5
71e
  8
Layer_0
  10
128.71497
  20
284.785
  0
VERTEX
  5
71f
  8
Layer_0
  10
128.68121
  20
284.81876
  0
VERTEX
  5
720
  8
Layer_0
  10
128.71497
  20
284.785
  0
VERTEX
  5
721
  8
Layer_0
  10
135.53497
  20
284.785
  0
VERTEX
  5
722
  8
Layer_0
  10
135.56873
  20
284.81876
  0
VERTEX
  5
723
  8
Layer_0
  10
135.53497
  20
284.785
  0
VERTEX
  5
724
  8
Layer_0
  10
135.53497
  20
281.375
  0
VERTEX
  5
725
  8
Layer_0
  10
135.56123
  20
281.31125
  0
VERTEX
  5
726
  8
Layer_0
  10
135.62497
  20
281.285
  0
VERTEX
  5
727
  8
Layer_0
  10
142.62497
  20
281.285
  0
VERTEX
  5
728
  8
Layer_0
  10
142.68872
  20
281.31125
  0
VERTEX
  5
729
  8
Layer_0
  10
142.71497
  20
281.375
  0
VERTEX
  5
72a
  8
Layer_0
  10
142.71497
  20
284.785
  0
VERTEX
  5
72b
  8
Layer_0
  10
142.68121
  20
284.81876
  0
VERTEX
  5
72c
  8
Layer_0
  10
142.71497
  20
284.785
  0
VERTEX
  5
72d
  8
Layer_0
  10
149.53497
  20
284.785
  0
VERTEX
  5
72e
  8
Layer_0
  10
149.56873
  20
284.81876
  0
VERTEX
  5
72f
  8
Layer_0
  10
149.53497
  20
284.785
  0
VERTEX
  5
730
  8
Layer_0
  10
149.53497
  20
281.375
  0
VERTEX
  5
731
  8
Layer_0
  10
149.56123
  20
281.31125
  0
VERTEX
  5
732
  8
Layer_0
  10
149.62497
  20
281.285
  0
VERTEX
  5
733
  8
Layer_0
  10
156.62497
  20
281.285
  0
VERTEX
  5
734
  8
Layer_0
  10
156.68872
  20
281.31125
  0
VERTEX
  5
735
  8
Layer_0
  10
156.71497
  20
281.375
  0
VERTEX
  5
736
  8
Layer_0
  10
156.71497
  20
284.785
  0
VERTEX
  5
737
  8
Layer_0
  10
156.68121
  20
284.81876
  0
VERTEX
  5
738
  8
Layer_0
  10
156.71497
  20
284.785
  0
VERTEX
  5
739
  8
Layer_0
  10
163.53497
  20
284.785
  0
VERTEX
  5
73a
  8
Layer_0
  10
163.56873
  20
284.81876
  0
VERTEX
  5
73b
  8
Layer_0
  10
163.53497
  20
284.785
  0
VERTEX
  5
73c
  8
Layer_0
  10
163.53497
  20
281.375
  0
VERTEX
  5
73d
  8
Layer_0
  10
163.56123
  20
281.31125
  0
VERTEX
  5
73e
  8
Layer_0
  10
163.62497
  20
281.285
  0
VERTEX
  5
73f
  8
Layer_0
  10
170.62497
  20
281.285
  0
VERTEX
  5
740
  8
Layer_0
  10
170.68872
  20
281.31125
  0
VERTEX
  5
741
  8
Layer_0
  10
170.71497
  20
281.375
  0
VERTEX
  5
742
  8
Layer_0
  10
170.71497
  20
284.785
  0
VERTEX
  5
743
  8
Layer_0
  10
170.68121
  20
284.81876
  0
VERTEX
  5
744
  8
Layer_0
  10
170.71497
  20
284.785
  0
VERTEX
  5
745
  8
Layer_0
  10
177.53497
  20
284.785
  0
VERTEX
  5
746
  8
Layer_0
  10
177.56873
  20
284.81876
  0
VERTEX
  5
747
  8
Layer_0
  10
177.53497
  20
284.785
  0
VERTEX
  5
748
  8
Layer_0
  10
177.53497
  20
281.375
  0
VERTEX
  5
749
  8
Layer_0
  10
177.56123
  20
281.31125
  0
VERTEX
  5
74a
  8
Layer_0
  10
177.62497
  20
281.285
  0
VERTEX
  5
74b
  8
Layer_0
  10
184.62497
  20
281.285
  0
VERTEX
  5
74c
  8
Layer_0
  10
184.68872
  20
281.31125
  0
VERTEX
  5
74d
  8
Layer_0
  10
184.71497
  20
281.375
  0
VERTEX
  5
74e
  8
Layer_0
  10
184.71497
  20
284.785
  0
VERTEX
  5
74f
  8
Layer_0
  10
184.68121
  20
284.81876
  0
VERTEX
  5
750
  8
Layer_0
  10
184.71497
  20
284.785
  0
VERTEX
  5
751
  8
Layer_0
  10
191.53497
  20
284.785
  0
VERTEX
  5
752
  8
Layer_0
  10
191.56873
  20
284.81876
  0
VERTEX
  5
753
  8
Layer_0
  10
191.53497
  20
284.785
  0
VERTEX
  5
754
  8
Layer_0
  10
191.53497
  20
281.375
  0
VERTEX
  5
755
  8
Layer_0
  10
191.56122
  20
281.31125
  0
VERTEX
  5
756
  8
Layer_0
  10
191.62497
  20
281.285
  0
VERTEX
  5
757
  8
Layer_0
  10
198.62497
  20
281.285
  0
VERTEX
  5
758
  8
Layer_0
  10
198.68872
  20
281.31125
  0
VERTEX
  5
759
  8
Layer_0
  10
198.71497
  20
281.375
  0
VERTEX
  5
75a
  8
Layer_0
  10
198.71497
  20
284.785
  0
VERTEX
  5
75b
  8
Layer_0
  10
198.68121
  20
284.81876
  0
VERTEX
  5
75c
  8
Layer_0
  10
198.71497
  20
284.785
  0
VERTEX
  5
75d
  8
Layer_0
  10
205.53497
  20
284.785
  0
VERTEX
  5
75e
  8
Layer_0
  10
205.56873
  20
284.81876
  0
VERTEX
  5
75f
  8
Layer_0
  10
205.53497
  20
284.785
  0
VERTEX
  5
760
  8
Layer_0
  10
205.53497
  20
281.375
  0
VERTEX
  5
761
  8
Layer_0
  10
205.56122
  20
281.31125
  0
VERTEX
  5
762
  8
Layer_0
  10
205.62497
  20
281.285
  0
VERTEX
  5
763
  8
Layer_0
  10
212.62497
  20
281.285
  0
VERTEX
  5
764
  8
Layer_0
  10
212.68872
  20
281.31125
  0
VERTEX
  5
765
  8
Layer_0
  10
212.71497
  20
281.375
  0
VERTEX
  5
766
  8
Layer_0
  10
212.71497
  20
284.785
  0
VERTEX
  5
767
  8
Layer_0
  10
212.68121
  20
284.81876
  0
VERTEX
  5
768
  8
Layer_0
  10
212.71497
  20
284.785
  0
VERTEX
  5
769
  8
Layer_0
  10
219.53497
  20
284.785
  0
VERTEX
  5
76a
  8
Layer_0
  10
219.56873
  20
284.81876
  0
VERTEX
  5
76b
  8
Layer_0
  10
219.53497
  20
284.785
  0
VERTEX
  5
76c
  8
Layer_0
  10
219.53497
  20
281.375
  0
VERTEX
  5
76d
  8
Layer_0
  10
219.56122
  20
281.31125
  0
VERTEX
  5
76e
  8
Layer_0
  10
219.62497
  20
281.285
  0
VERTEX
  5
76f
  8
Layer_0
  10
226.62497
  20
281.285
  0
VERTEX
  5
770
  8
Layer_0
  10
226.68872
  20
281.31125
  0
VERTEX
  5
771
  8
Layer_0
  10
226.71497
  20
281.375
  0
VERTEX
  5
772
  8
Layer_0
  10
226.71497
  20
284.785
  0
VERTEX
  5
773
  8
Layer_0
  10
226.68121
  20
284.81876
  0
VERTEX
  5
774
  8
Layer_0
  10
226.71497
  20
284.785
  0
VERTEX
  5
775
  8
Layer_0
  10
233.53497
  20
284.785
  0
VERTEX
  5
776
  8
Layer_0
  10
233.56873
  20
284.81876
  0
VERTEX
  5
777
  8
Layer_0
  10
233.53497
  20
284.785
  0
VERTEX
  5
778
  8
Layer_0
  10
233.53497
  20
281.375
  0
VERTEX
  5
779
  8
Layer_0
  10
233.56122
  20
281.31125
  0
VERTEX
  5
77a
  8
Layer_0
  10
233.62497
  20
281.285
  0
VERTEX
  5
77b
  8
Layer_0
  10
240.62497
  20
281.285
  0
VERTEX
  5
77c
  8
Layer_0
  10
240.68872
  20
281.31125
  0
VERTEX
  5
77d
  8
Layer_0
  10
240.71497
  20
281.375
  0
VERTEX
  5
77e
  8
Layer_0
  10
240.71497
  20
284.785
  0
VERTEX
  5
77f
  8
Layer_0
  10
240.68121
  20
284.81876
  0
VERTEX
  5
780
  8
Layer_0
  10
240.71497
  20
284.785
  0
VERTEX
  5
781
  8
Layer_0
  10
247.53497
  20
284.785
  0
VERTEX
  5
782
  8
Layer_0
  10
247.56873
  20
284.81876
  0
VERTEX
  5
783
  8
Layer_0
  10
247.53497
  20
284.785
  0
VERTEX
  5
784
  8
Layer_0
  10
247.53497
  20
281.375
  0
VERTEX
  5
785
  8
Layer_0
  10
247.56122
  20
281.31125
  0
VERTEX
  5
786
  8
Layer_0
  10
247.62497
  20
281.285
  0
VERTEX
  5
787
  8
Layer_0
  10
258.62497
  20
281.285
  0
VERTEX
  5
788
  8
Layer_0
  10
258.68872
  20
281.31125
  0
VERTEX
  5
789
  8
Layer_0
  10
258.71497
  20
281.375
  0
VERTEX
  5
78a
  8
Layer_0
  10
258.71497
  20
292.375
  0
VERTEX
  5
78b
  8
Layer_0
  10
258.68872
  20
292.43875
  0
VERTEX
  5
78c
  8
Layer_0
  10
258.62497
  20
292.465
  0
VERTEX
  5
78d
  8
Layer_0
  10
255.21497
  20
292.465
  0
VERTEX
  5
78e
  8
Layer_0
  10
255.18121
  20
292.43124
  0
VERTEX
  5
78f
  8
Layer_0
  10
255.21497
  20
292.465
  0
VERTEX
  5
790
  8
Layer_0
  10
255.21497
  20
299.285
  0
VERTEX
  5
791
  8
Layer_0
  10
255.18121
  20
299.31876
  0
VERTEX
  5
792
  8
Layer_0
  10
255.21497
  20
299.285
  0
VERTEX
  5
793
  8
Layer_0
  10
258.62497
  20
299.285
  0
VERTEX
  5
794
  8
Layer_0
  10
258.68872
  20
299.31125
  0
VERTEX
  5
795
  8
Layer_0
  10
258.71497
  20
299.375
  0
VERTEX
  5
796
  8
Layer_0
  10
258.71497
  20
306.375
  0
VERTEX
  5
797
  8
Layer_0
  10
258.68872
  20
306.43875
  0
VERTEX
  5
798
  8
Layer_0
  10
258.62497
  20
306.465
  0
VERTEX
  5
799
  8
Layer_0
  10
255.21497
  20
306.465
  0
VERTEX
  5
79a
  8
Layer_0
  10
255.18121
  20
306.43124
  0
VERTEX
  5
79b
  8
Layer_0
  10
255.21497
  20
306.465
  0
VERTEX
  5
79c
  8
Layer_0
  10
255.21497
  20
313.285
  0
VERTEX
  5
79d
  8
Layer_0
  10
255.18121
  20
313.31876
  0
VERTEX
  5
79e
  8
Layer_0
  10
255.21497
  20
313.285
  0
VERTEX
  5
79f
  8
Layer_0
  10
258.62497
  20
313.285
  0
VERTEX
  5
7a0
  8
Layer_0
  10
258.68872
  20
313.31125
  0
VERTEX
  5
7a1
  8
Layer_0
  10
258.71497
  20
313.375
  0
VERTEX
  5
7a2
  8
Layer_0
  10
258.71497
  20
320.375
  0
VERTEX
  5
7a3
  8
Layer_0
  10
258.68872
  20
320.43875
  0
VERTEX
  5
7a4
  8
Layer_0
  10
258.62497
  20
320.465
  0
VERTEX
  5
7a5
  8
Layer_0
  10
255.21497
  20
320.465
  0
VERTEX
  5
7a6
  8
Layer_0
  10
255.18121
  20
320.43124
  0
VERTEX
  5
7a7
  8
Layer_0
  10
255.21497
  20
320.465
  0
VERTEX
  5
7a8
  8
Layer_0
  10
255.21497
  20
327.285
  0
VERTEX
  5
7a9
  8
Layer_0
  10
255.18121
  20
327.31876
  0
VERTEX
  5
7aa
  8
Layer_0
  10
255.21497
  20
327.285
  0
VERTEX
  5
7ab
  8
Layer_0
  10
258.62497
  20
327.285
  0
VERTEX
  5
7ac
  8
Layer_0
  10
258.68872
  20
327.31125
  0
VERTEX
  5
7ad
  8
Layer_0
  10
258.71497
  20
327.375
  0
VERTEX
  5
7ae
  8
Layer_0
  10
258.71497
  20
338.375
  0
VERTEX
  5
7af
  8
Layer_0
  10
258.68872
  20
338.43875
  0
VERTEX
  5
7b0
  8
Layer_0
  10
258.62497
  20
338.465
  0
VERTEX
  5
7b1
  8
Layer_0
  10
247.62497
  20
338.465
  0
VERTEX
  5
7b2
  8
Layer_0
  10
247.56122
  20
338.43875
  0
VERTEX
  5
7b3
  8
Layer_0
  10
247.53497
  20
338.375
  0
VERTEX
  5
7b4
  8
Layer_0
  10
247.53497
  20
334.965
  0
VERTEX
  5
7b5
  8
Layer_0
  10
247.56873
  20
334.93124
  0
VERTEX
  5
7b6
  8
Layer_0
  10
247.53497
  20
334.965
  0
VERTEX
  5
7b7
  8
Layer_0
  10
240.71497
  20
334.965
  0
VERTEX
  5
7b8
  8
Layer_0
  10
240.68121
  20
334.93124
  0
VERTEX
  5
7b9
  8
Layer_0
  10
240.71497
  20
334.965
  0
VERTEX
  5
7ba
  8
Layer_0
  10
240.71497
  20
338.375
  0
VERTEX
  5
7bb
  8
Layer_0
  10
240.68872
  20
338.43875
  0
VERTEX
  5
7bc
  8
Layer_0
  10
240.62497
  20
338.465
  0
VERTEX
  5
7bd
  8
Layer_0
  10
233.62497
  20
338.465
  0
VERTEX
  5
7be
  8
Layer_0
  10
233.56122
  20
338.43875
  0
VERTEX
  5
7bf
  8
Layer_0
  10
233.53497
  20
338.375
  0
VERTEX
  5
7c0
  8
Layer_0
  10
233.53497
  20
334.965
  0
VERTEX
  5
7c1
  8
Layer_0
  10
233.56873
  20
334.93124
  0
VERTEX
  5
7c2
  8
Layer_0
  10
233.53497
  20
334.965
  0
VERTEX
  5
7c3
  8
Layer_0
  10
226.71497
  20
334.965
  0
VERTEX
  5
7c4
  8
Layer_0
  10
226.68121
  20
334.93124
  0
VERTEX
  5
7c5
  8
Layer_0
  10
226.71497
  20
334.965
  0
VERTEX
  5
7c6
  8
Layer_0
  10
226.71497
  20
338.375
  0
VERTEX
  5
7c7
  8
Layer_0
  10
226.68872
  20
338.43875
  0
VERTEX
  5
7c8
  8
Layer_0
  10
226.62497
  20
338.465
  0
VERTEX
  5
7c9
  8
Layer_0
  10
219.62497
  20
338.465
  0
VERTEX
  5
7ca
  8
Layer_0
  10
219.56122
  20
338.43875
  0
VERTEX
  5
7cb
  8
Layer_0
  10
219.53497
  20
338.375
  0
VERTEX
  5
7cc
  8
Layer_0
  10
219.53497
  20
334.965
  0
VERTEX
  5
7cd
  8
Layer_0
  10
219.56873
  20
334.93124
  0
VERTEX
  5
7ce
  8
Layer_0
  10
219.53497
  20
334.965
  0
VERTEX
  5
7cf
  8
Layer_0
  10
212.71497
  20
334.965
  0
VERTEX
  5
7d0
  8
Layer_0
  10
212.68121
  20
334.93124
  0
VERTEX
  5
7d1
  8
Layer_0
  10
212.71497
  20
334.965
  0
VERTEX
  5
7d2
  8
Layer_0
  10
212.71497
  20
338.375
  0
VERTEX
  5
7d3
  8
Layer_0
  10
212.68872
  20
338.43875
  0
VERTEX
  5
7d4
  8
Layer_0
  10
212.62497
  20
338.465
  0
VERTEX
  5
7d5
  8
Layer_0
  10
205.62497
  20
338.465
  0
VERTEX
  5
7d6
  8
Layer_0
  10
205.56122
  20
338.43875
  0
VERTEX
  5
7d7
  8
Layer_0
  10
205.53497
  20
338.375
  0
VERTEX
  5
7d8
  8
Layer_0
  10
205.53497
  20
334.965
  0
VERTEX
  5
7d9
  8
Layer_0
  10
205.56873
  20
334.93124
  0
VERTEX
  5
7da
  8
Layer_0
  10
205.53497
  20
334.965
  0
VERTEX
  5
7db
  8
Layer_0
  10
198.71497
  20
334.965
  0
VERTEX
  5
7dc
  8
Layer_0
  10
198.68121
  20
334.93124
  0
VERTEX
  5
7dd
  8
Layer_0
  10
198.71497
  20
334.965
  0
VERTEX
  5
7de
  8
Layer_0
  10
198.71497
  20
338.375
  0
VERTEX
  5
7df
  8
Layer_0
  10
198.68872
  20
338.43875
  0
VERTEX
  5
7e0
  8
Layer_0
  10
198.62497
  20
338.465
  0
VERTEX
  5
7e1
  8
Layer_0
  10
191.62497
  20
338.465
  0
VERTEX
  5
7e2
  8
Layer_0
  10
191.56122
  20
338.43875
  0
VERTEX
  5
7e3
  8
Layer_0
  10
191.53497
  20
338.375
  0
VERTEX
  5
7e4
  8
Layer_0
  10
191.53497
  20
334.965
  0
VERTEX
  5
7e5
  8
Layer_0
  10
191.56873
  20
334.93124
  0
VERTEX
  5
7e6
  8
Layer_0
  10
191.53497
  20
334.965
  0
VERTEX
  5
7e7
  8
Layer_0
  10
184.71497
  20
334.965
  0
VERTEX
  5
7e8
  8
Layer_0
  10
184.68121
  20
334.93124
  0
VERTEX
  5
7e9
  8
Layer_0
  10
184.71497
  20
334.965
  0
VERTEX
  5
7ea
  8
Layer_0
  10
184.71497
  20
338.375
  0
VERTEX
  5
7eb
  8
Layer_0
  10
184.68872
  20
338.43875
  0
VERTEX
  5
7ec
  8
Layer_0
  10
184.62497
  20
338.465
  0
VERTEX
  5
7ed
  8
Layer_0
  10
177.62497
  20
338.465
  0
VERTEX
  5
7ee
  8
Layer_0
  10
177.56123
  20
338.43875
  0
VERTEX
  5
7ef
  8
Layer_0
  10
177.53497
  20
338.375
  0
VERTEX
  5
7f0
  8
Layer_0
  10
177.53497
  20
334.965
  0
VERTEX
  5
7f1
  8
Layer_0
  10
177.56873
  20
334.93124
  0
VERTEX
  5
7f2
  8
Layer_0
  10
177.53497
  20
334.965
  0
VERTEX
  5
7f3
  8
Layer_0
  10
170.71497
  20
334.965
  0
VERTEX
  5
7f4
  8
Layer_0
  10
170.68121
  20
334.93124
  0
VERTEX
  5
7f5
  8
Layer_0
  10
170.71497
  20
334.965
  0
VERTEX
  5
7f6
  8
Layer_0
  10
170.71497
  20
338.375
  0
VERTEX
  5
7f7
  8
Layer_0
  10
170.68872
  20
338.43875
  0
VERTEX
  5
7f8
  8
Layer_0
  10
170.62497
  20
338.465
  0
VERTEX
  5
7f9
  8
Layer_0
  10
163.62497
  20
338.465
  0
VERTEX
  5
7fa
  8
Layer_0
  10
163.56123
  20
338.43875
  0
VERTEX
  5
7fb
  8
Layer_0
  10
163.53497
  20
338.375
  0
VERTEX
  5
7fc
  8
Layer_0
  10
163.53497
  20
334.965
  0
VERTEX
  5
7fd
  8
Layer_0
  10
163.56873
  20
334.93124
  0
VERTEX
  5
7fe
  8
Layer_0
  10
163.53497
  20
334.965
  0
VERTEX
  5
7ff
  8
Layer_0
  10
156.71497
  20
334.965
  0
VERTEX
  5
800
  8
Layer_0
  10
156.68121
  20
334.93124
  0
VERTEX
  5
801
  8
Layer_0
  10
156.71497
  20
334.965
  0
VERTEX
  5
802
  8
Layer_0
  10
156.71497
  20
338.375
  0
VERTEX
  5
803
  8
Layer_0
  10
156.68872
  20
338.43875
  0
VERTEX
  5
804
  8
Layer_0
  10
156.62497
  20
338.465
  0
VERTEX
  5
805
  8
Layer_0
  10
149.62497
  20
338.465
  0
VERTEX
  5
806
  8
Layer_0
  10
149.56123
  20
338.43875
  0
VERTEX
  5
807
  8
Layer_0
  10
149.53497
  20
338.375
  0
VERTEX
  5
808
  8
Layer_0
  10
149.53497
  20
334.965
  0
VERTEX
  5
809
  8
Layer_0
  10
149.56873
  20
334.93124
  0
VERTEX
  5
80a
  8
Layer_0
  10
149.53497
  20
334.965
  0
VERTEX
  5
80b
  8
Layer_0
  10
142.71497
  20
334.965
  0
VERTEX
  5
80c
  8
Layer_0
  10
142.68121
  20
334.93124
  0
VERTEX
  5
80d
  8
Layer_0
  10
142.71497
  20
334.965
  0
VERTEX
  5
80e
  8
Layer_0
  10
142.71497
  20
338.375
  0
VERTEX
  5
80f
  8
Layer_0
  10
142.68872
  20
338.43875
  0
VERTEX
  5
810
  8
Layer_0
  10
142.62497
  20
338.465
  0
VERTEX
  5
811
  8
Layer_0
  10
135.62497
  20
338.465
  0
VERTEX
  5
812
  8
Layer_0
  10
135.56123
  20
338.43875
  0
VERTEX
  5
813
  8
Layer_0
  10
135.53497
  20
338.375
  0
VERTEX
  5
814
  8
Layer_0
  10
135.53497
  20
334.965
  0
VERTEX
  5
815
  8
Layer_0
  10
135.56873
  20
334.93124
  0
VERTEX
  5
816
  8
Layer_0
  10
135.53497
  20
334.965
  0
VERTEX
  5
817
  8
Layer_0
  10
128.71497
  20
334.965
  0
VERTEX
  5
818
  8
Layer_0
  10
128.68121
  20
334.93124
  0
VERTEX
  5
819
  8
Layer_0
  10
128.71497
  20
334.965
  0
VERTEX
  5
81a
  8
Layer_0
  10
128.71497
  20
338.375
  0
VERTEX
  5
81b
  8
Layer_0
  10
128.68872
  20
338.43875
  0
VERTEX
  5
81c
  8
Layer_0
  10
128.62497
  20
338.465
  0
VERTEX
  5
81d
  8
Layer_0
  10
121.62497
  20
338.465
  0
VERTEX
  5
81e
  8
Layer_0
  10
121.56123
  20
338.43875
  0
VERTEX
  5
81f
  8
Layer_0
  10
121.53497
  20
338.375
  0
VERTEX
  5
820
  8
Layer_0
  10
121.53497
  20
334.965
  0
VERTEX
  5
821
  8
Layer_0
  10
121.56873
  20
334.93124
  0
VERTEX
  5
822
  8
Layer_0
  10
121.53497
  20
334.965
  0
VERTEX
  5
823
  8
Layer_0
  10
114.71497
  20
334.965
  0
VERTEX
  5
824
  8
Layer_0
  10
114.68122
  20
334.93124
  0
VERTEX
  5
825
  8
Layer_0
  10
114.71497
  20
334.965
  0
VERTEX
  5
826
  8
Layer_0
  10
114.71497
  20
338.375
  0
VERTEX
  5
827
  8
Layer_0
  10
114.68872
  20
338.43875
  0
VERTEX
  5
828
  8
Layer_0
  10
114.62497
  20
338.465
  0
VERTEX
  5
829
  8
Layer_0
  10
107.62497
  20
338.465
  0
VERTEX
  5
82a
  8
Layer_0
  10
107.56123
  20
338.43875
  0
VERTEX
  5
82b
  8
Layer_0
  10
107.53497
  20
338.375
  0
VERTEX
  5
82c
  8
Layer_0
  10
107.53497
  20
334.965
  0
VERTEX
  5
82d
  8
Layer_0
  10
107.56873
  20
334.93124
  0
VERTEX
  5
82e
  8
Layer_0
  10
107.53497
  20
334.965
  0
VERTEX
  5
82f
  8
Layer_0
  10
100.71497
  20
334.965
  0
VERTEX
  5
830
  8
Layer_0
  10
100.68122
  20
334.93124
  0
VERTEX
  5
831
  8
Layer_0
  10
100.71497
  20
334.965
  0
VERTEX
  5
832
  8
Layer_0
  10
100.71497
  20
338.375
  0
VERTEX
  5
833
  8
Layer_0
  10
100.68872
  20
338.43875
  0
VERTEX
  5
834
  8
Layer_0
  10
100.62497
  20
338.465
  0
VERTEX
  5
835
  8
Layer_0
  10
93.624969
  20
338.465
  0
VERTEX
  5
836
  8
Layer_0
  10
93.561226
  20
338.43875
  0
VERTEX
  5
837
  8
Layer_0
  10
93.534973
  20
338.375
  0
VERTEX
  5
838
  8
Layer_0
  10
93.534973
  20
334.965
  0
VERTEX
  5
839
  8
Layer_0
  10
93.568726
  20
334.93124
  0
VERTEX
  5
83a
  8
Layer_0
  10
93.534973
  20
334.965
  0
VERTEX
  5
83b
  8
Layer_0
  10
86.714973
  20
334.965
  0
VERTEX
  5
83c
  8
Layer_0
  10
86.681221
  20
334.93124
  0
VERTEX
  5
83d
  8
Layer_0
  10
86.714973
  20
334.965
  0
VERTEX
  5
83e
  8
Layer_0
  10
86.714973
  20
338.375
  0
VERTEX
  5
83f
  8
Layer_0
  10
86.688721
  20
338.43875
  0
VERTEX
  5
840
  8
Layer_0
  10
86.624969
  20
338.465
  0
VERTEX
  5
841
  8
Layer_0
  10
79.624969
  20
338.465
  0
VERTEX
  5
842
  8
Layer_0
  10
79.561226
  20
338.43875
  0
VERTEX
  5
843
  8
Layer_0
  10
79.534973
  20
338.375
  0
VERTEX
  5
844
  8
Layer_0
  10
79.534973
  20
334.965
  0
VERTEX
  5
845
  8
Layer_0
  10
79.568726
  20
334.93124
  0
VERTEX
  5
846
  8
Layer_0
  10
79.534973
  20
334.965
  0
VERTEX
  5
847
  8
Layer_0
  10
72.714973
  20
334.965
  0
VERTEX
  5
848
  8
Layer_0
  10
72.681221
  20
334.93124
  0
VERTEX
  5
849
  8
Layer_0
  10
72.714973
  20
334.965
  0
VERTEX
  5
84a
  8
Layer_0
  10
72.714973
  20
338.375
  0
VERTEX
  5
84b
  8
Layer_0
  10
72.688721
  20
338.43875
  0
VERTEX
  5
84c
  8
Layer_0
  10
72.624969
  20
338.465
  0
VERTEX
  5
84d
  8
Layer_0
  10
61.624973
  20
338.465
  0
VERTEX
  5
84e
  8
Layer_0
  10
61.561226
  20
338.43875
  0
VERTEX
  5
84f
  8
Layer_0
  10
61.534973
  20
338.375
  0
VERTEX
  5
850
  8
Layer_0
  10
61.534973
  20
327.375
  0
VERTEX
  5
851
  8
Layer_0
  10
61.561226
  20
327.31125
  0
VERTEX
  5
852
  8
Layer_0
  10
61.624973
  20
327.285
  0
VERTEX
  5
853
  8
Layer_0
  10
65.034973
  20
327.285
  0
VERTEX
  5
854
  8
Layer_0
  10
65.068726
  20
327.31876
  0
VERTEX
  5
855
  8
Layer_0
  10
65.034973
  20
327.285
  0
VERTEX
  5
856
  8
Layer_0
  10
65.034973
  20
320.465
  0
VERTEX
  5
857
  8
Layer_0
  10
65.068726
  20
320.43124
  0
VERTEX
  5
858
  8
Layer_0
  10
65.034973
  20
320.465
  0
VERTEX
  5
859
  8
Layer_0
  10
61.624973
  20
320.465
  0
VERTEX
  5
85a
  8
Layer_0
  10
61.561226
  20
320.43875
  0
VERTEX
  5
85b
  8
Layer_0
  10
61.534973
  20
320.375
  0
VERTEX
  5
85c
  8
Layer_0
  10
61.534973
  20
313.375
  0
VERTEX
  5
85d
  8
Layer_0
  10
61.561226
  20
313.31125
  0
VERTEX
  5
85e
  8
Layer_0
  10
61.624973
  20
313.285
  0
VERTEX
  5
85f
  8
Layer_0
  10
65.034973
  20
313.285
  0
VERTEX
  5
860
  8
Layer_0
  10
65.068726
  20
313.31876
  0
VERTEX
  5
861
  8
Layer_0
  10
65.034973
  20
313.285
  0
VERTEX
  5
862
  8
Layer_0
  10
65.034973
  20
306.465
  0
VERTEX
  5
863
  8
Layer_0
  10
65.068726
  20
306.43124
  0
VERTEX
  5
864
  8
Layer_0
  10
65.034973
  20
306.465
  0
VERTEX
  5
865
  8
Layer_0
  10
61.624973
  20
306.465
  0
VERTEX
  5
866
  8
Layer_0
  10
61.561226
  20
306.43875
  0
VERTEX
  5
867
  8
Layer_0
  10
61.534973
  20
306.375
  0
VERTEX
  5
868
  8
Layer_0
  10
61.534973
  20
299.375
  0
VERTEX
  5
869
  8
Layer_0
  10
61.561226
  20
299.31125
  0
VERTEX
  5
86a
  8
Layer_0
  10
61.624973
  20
299.285
  0
VERTEX
  5
86b
  8
Layer_0
  10
65.034973
  20
299.285
  0
VERTEX
  5
86c
  8
Layer_0
  10
65.068726
  20
299.31876
  0
VERTEX
  5
86d
  8
Layer_0
  10
65.034973
  20
299.285
  0
VERTEX
  5
86e
  8
Layer_0
  10
65.034973
  20
292.465
  0
VERTEX
  5
86f
  8
Layer_0
  10
65.068726
  20
292.43124
  0
VERTEX
  5
870
  8
Layer_0
  10
65.034973
  20
292.465
  0
VERTEX
  5
871
  8
Layer_0
  10
61.624973
  20
292.465
  0
VERTEX
  5
872
  8
Layer_0
  10
61.561226
  20
292.43875
  0
VERTEX
  5
873
  8
Layer_0
  10
61.534973
  20
292.375
  0
VERTEX
  5
874
  8
Layer_0
  10
61.534973
  20
281.375
  0
VERTEX
  5
875
  8
Layer_0
  10
61.561226
  20
281.31125
  0
VERTEX
  5
876
  8
Layer_0
  10
61.624973
  20
281.285
  0
VERTEX
  5
877
  8
Layer_0
  10
65.124969
  20
281.285
  0
SEQEND
  0
POLYLINE
  5
879
  8
Layer_0
  62
0
  70
1
  66
1
  10
0
  20
0
  30
0
  0
VERTEX
  5
879
  8
Layer_0
  10
66.924957
  20
240.39999
  0
VERTEX
  5
87a
  8
Layer_0
  10
66.924957
  20
236.98999
  0
VERTEX
  5
87b
  8
Layer_0
  10
66.95871
  20
236.95624
  0
VERTEX
  5
87c
  8
Layer_0
  10
66.924957
  20
236.98999
  0
VERTEX
  5
87d
  8
Layer_0
  10
63.604965
  20
236.98999
  0
VERTEX
  5
87e
  8
Layer_0
  10
63.571217
  20
236.95624
  0
VERTEX
  5
87f
  8
Layer_0
  10
63.604965
  20
236.98999
  0
VERTEX
  5
880
  8
Layer_0
  10
63.604965
  20
243.81
  0
VERTEX
  5
881
  8
Layer_0
  10
63.571217
  20
243.84375
  0
VERTEX
  5
882
  8
Layer_0
  10
63.604965
  20
243.81
  0
VERTEX
  5
883
  8
Layer_0
  10
66.924957
  20
243.81
  0
VERTEX
  5
884
  8
Layer_0
  10
66.95871
  20
243.84375
  0
VERTEX
  5
885
  8
Layer_0
  10
66.924957
  20
243.81
  0
VERTEX
  5
886
  8
Layer_0
  10
66.924957
  20
240.39999
  0
SEQEND
  0
POLYLINE
  5
888
  8
Layer_0
  62
0
  70
1
  66
1
  10
0
  20
0
  30
0
  0
VERTEX
  5
888
  8
Layer_0
  10
66.924957
  20
254.39999
  0
VERTEX
  5
889
  8
Layer_0
  10
66.924957
  20
250.98999
  0
VERTEX
  5
88a
  8
Layer_0
  10
66.95871
  20
250.95624
  0
VERTEX
  5
88b
  8
Layer_0
  10
66.924957
  20
250.98999
  0
VERTEX
  5
88c
  8
Layer_0
  10
63.604965
  20
250.98999
  0
VERTEX
  5
88d
  8
Layer_0
  10
63.571217
  20
250.95624
  0
VERTEX
  5
88e
  8
Layer_0
  10
63.604965
  20
250.98999
  0
VERTEX
  5
88f
  8
Layer_0
  10
63.604965
  20
257.81
  0
VERTEX
  5
890
  8
Layer_0
  10
63.571217
  20
257.84375
  0
VERTEX
  5
891
  8
Layer_0
  10
63.604965
  20
257.81
  0
VERTEX
  5
892
  8
Layer_0
  10
66.924957
  20
257.81
  0
VERTEX
  5
893
  8
Layer_0
  10
66.95871
  20
257.84375
  0
VERTEX
  5
894
  8
Layer_0
  10
66.924957
  20
257.81
  0
VERTEX
  5
895
  8
Layer_0
  10
66.924957
  20
254.39999
  0
SEQEND
  0
POLYLINE
  5
897
  8
Layer_0
  62
0
  70
1
  66
1
  10
0
  20
0
  30
0
  0
VERTEX
  5
897
  8
Layer_0
  10
66.924957
  20
268.39999
  0
VERTEX
  5
898
  8
Layer_0
  10
66.924957
  20
264.98999
  0
VERTEX
  5
899
  8
Layer_0
  10
66.95871
  20
264.95624
  0
VERTEX
  5
89a
  8
Layer_0
  10
66.924957
  20
264.98999
  0
VERTEX
  5
89b
  8
Layer_0
  10
63.604965
  20
264.98999
  0
VERTEX
  5
89c
  8
Layer_0
  10
63.571217
  20
264.95624
  0
VERTEX
  5
89d
  8
Layer_0
  10
63.604965
  20
264.98999
  0
VERTEX
  5
89e
  8
Layer_0
  10
63.604965
  20
271.81
  0
VERTEX
  5
89f
  8
Layer_0
  10
63.571217
  20
271.84375
  0
VERTEX
  5
8a0
  8
Layer_0
  10
63.604965
  20
271.81
  0
VERTEX
  5
8a1
  8
Layer_0
  10
66.924957
  20
271.81
  0
VERTEX
  5
8a2
  8
Layer_0
  10
66.95871
  20
271.84375
  0
VERTEX
  5
8a3
  8
Layer_0
  10
66.924957
  20
271.81
  0
VERTEX
  5
8a4
  8
Layer_0
  10
66.924957
  20
268.39999
  0
SEQEND
  0
POLYLINE
  5
8a6
  8
Layer_0
  62
0
  70
1
  66
1
  10
0
  20
0
  30
0
  0
VERTEX
  5
8a6
  8
Layer_0
  10
61.764969
  20
229.75
  0
VERTEX
  5
8a7
  8
Layer_0
  10
290.80496
  20
229.75
  0
VERTEX
  5
8a8
  8
Layer_0
  10
290.86871
  20
229.77625
  0
VERTEX
  5
8a9
  8
Layer_0
  10
290.89496
  20
229.84
  0
VERTEX
  5
8aa
  8
Layer_0
  10
290.89496
  20
279.13998
  0
VERTEX
  5
8ab
  8
Layer_0
  10
290.86871
  20
279.20374
  0
VERTEX
  5
8ac
  8
Layer_0
  10
290.80496
  20
279.22998
  0
VERTEX
  5
8ad
  8
Layer_0
  10
61.764969
  20
279.22998
  0
VERTEX
  5
8ae
  8
Layer_0
  10
61.70121
  20
279.20374
  0
VERTEX
  5
8af
  8
Layer_0
  10
61.674957
  20
279.13998
  0
VERTEX
  5
8b0
  8
Layer_0
  10
61.674957
  20
229.84
  0
VERTEX
  5
8b1
  8
Layer_0
  10
61.70121
  20
229.77625
  0
VERTEX
  5
8b2
  8
Layer_0
  10
61.764969
  20
229.75
  0
SEQEND
  0
POLYLINE
  5
8b4
  8
Layer_0
  62
0
  66
1
  10
0
  20
0
  30
0
  0
VERTEX
  5
8b4
  8
Layer_0
  10
72.159958
  20
229.75
  0
VERTEX
  5
8b5
  8
Layer_0
  10
72.159958
  20
250.98999
  0
SEQEND
  0
POLYLINE
  5
8b7
  8
Layer_0
  62
0
  66
1
  10
0
  20
0
  30
0
  0
VERTEX
  5
8b7
  8
Layer_0
  10
72.159958
  20
257.98999
  0
VERTEX
  5
8b8
  8
Layer_0
  10
72.159958
  20
279.22998
  0
SEQEND
  0
POLYLINE
  5
8ba
  8
Layer_0
  62
0
  66
1
  10
0
  20
0
  30
0
  0
VERTEX
  5
8ba
  8
Layer_0
  10
74.784958
  20
272.22998
  0
VERTEX
  5
8bb
  8
Layer_0
  10
74.784958
  20
236.75
  0
SEQEND
  0
POLYLINE
  5
8bd
  8
Layer_0
  62
0
  66
1
  10
0
  20
0
  30
0
  0
VERTEX
  5
8bd
  8
Layer_0
  10
77.409958
  20
229.75
  0
VERTEX
  5
8be
  8
Layer_0
  10
77.409958
  20
250.98999
  0
SEQEND
  0
POLYLINE
  5
8c0
  8
Layer_0
  62
0
  66
1
  10
0
  20
0
  30
0
  0
VERTEX
  5
8c0
  8
Layer_0
  10
77.409958
  20
257.98999
  0
VERTEX
  5
8c1
  8
Layer_0
  10
77.409958
  20
279.22998
  0
SEQEND
  0
POLYLINE
  5
8c3
  8
Layer_0
  62
0
  66
1
  10
0
  20
0
  30
0
  0
VERTEX
  5
8c3
  8
Layer_0
  10
80.034958
  20
272.22998
  0
VERTEX
  5
8c4
  8
Layer_0
  10
80.034958
  20
236.75
  0
SEQEND
  0
POLYLINE
  5
8c6
  8
Layer_0
  62
0
  66
1
  10
0
  20
0
  30
0
  0
VERTEX
  5
8c6
  8
Layer_0
  10
82.659958
  20
229.75
  0
VERTEX
  5
8c7
  8
Layer_0
  10
82.659958
  20
250.98999
  0
SEQEND
  0
POLYLINE
  5
8c9
  8
Layer_0
  62
0
  66
1
  10
0
  20
0
  30
0
  0
VERTEX
  5
8c9
  8
Layer_0
  10
82.659958
  20
257.98999
  0
VERTEX
  5
8ca
  8
Layer_0
  10
82.659958
  20
279.22998
  0
SEQEND
  0
POLYLINE
  5
8cc
  8
Layer_0
  62
0
  66
1
  10
0
  20
0
  30
0
  0
VERTEX
  5
8cc
  8
Layer_0
  10
85.284958
  20
272.22998
  0
VERTEX
  5
8cd
  8
Layer_0
  10
85.284958
  20
236.75
  0
SEQEND
  0
POLYLINE
  5
8cf
  8
Layer_0
  62
0
  66
1
  10
0
  20
0
  30
0
  0
VERTEX
  5
8cf
  8
Layer_0
  10
87.909958
  20
229.75
  0
VERTEX
  5
8d0
  8
Layer_0
  10
87.909958
  20
250.98999
  0
SEQEND
  0
POLYLINE
  5
8d2
  8
Layer_0
  62
0
  66
1
  10
0
  20
0
  30
0
  0
VERTEX
  5
8d2
  8
Layer_0
  10
87.909958
  20
257.98999
  0
VERTEX
  5
8d3
  8
Layer_0
  10
87.909958
  20
279.22998
  0
SEQEND
  0
POLYLINE
  5
8d5
  8
Layer_0
  62
0
  66
1
  10
0
  20
0
  30
0
  0
VERTEX
  5
8d5
  8
Layer_0
  10
90.534958
  20
272.22998
  0
VERTEX
  5
8d6
  8
Layer_0
  10
90.534958
  20
236.75
  0
SEQEND
  0
POLYLINE
  5
8d8
  8
Layer_0
  62
0
  66
1
  10
0
  20
0
  30
0
  0
VERTEX
  5
8d8
  8
Layer_0
  10
93.159958
  20
229.75
  0
VERTEX
  5
8d9
  8
Layer_0
  10
93.159958
  20
250.98999
  0
SEQEND
  0
POLYLINE
  5
8db
  8
Layer_0
  62
0
  66
1
  10
0
  20
0
  30
0
  0
VERTEX
  5
8db
  8
Layer_0
  10
93.159958
  20
257.98999
  0
VERTEX
  5
8dc
  8
Layer_0
  10
93.159958
  20
279.22998
  0
SEQEND
  0
POLYLINE
  5
8de
  8
Layer_0
  62
0
  66
1
  10
0
  20
0
  30
0
  0
VERTEX
  5
8de
  8
Layer_0
  10
95.784958
  20
272.22998
  0
VERTEX
  5
8df
  8
Layer_0
  10
95.784958
  20
236.75
  0
SEQEND
  0
POLYLINE
  5
8e1
  8
Layer_0
  62
0
  66
1
  10
0
  20
0
  30
0
  0
VERTEX
  5
8e1
  8
Layer_0
  10
98.409958
  20
229.75
  0
VERTEX
  5
8e2
  8
Layer_0
  10
98.409958
  20
250.98999
  0
SEQEND
  0
POLYLINE
  5
8e4
  8
Layer_0
  62
0
  66
1
  10
0
  20
0
  30
0
  0
VERTEX
  5
8e4
  8
Layer_0
  10
98.409958
  20
257.98999
  0
VERTEX
  5
8e5
  8
Layer_0
  10
98.409958
  20
279.22998
  0
SEQEND
  0
POLYLINE
  5
8e7
  8
Layer_0
  62
0
  66
1
  10
0
  20
0
  30
0
  0
VERTEX
  5
8e7
  8
Layer_0
  10
101.03496
  20
272.22998
  0
VERTEX
  5
8e8
  8
Layer_0
  10
101.03496
  20
236.75
  0
SEQEND
  0
POLYLINE
  5
8ea
  8
Layer_0
  62
0
  66
1
  10
0
  20
0
  30
0
  0
VERTEX
  5
8ea
  8
Layer_0
  10
103.65996
  20
229.75
  0
VERTEX
  5
8eb
  8
Layer_0
  10
103.65996
  20
250.98999
  0
SEQEND
  0
POLYLINE
  5
8ed
  8
Layer_0
  62
0
  66
1
  10
0
  20
0
  30
0
  0
VERTEX
  5
8ed
  8
Layer_0
  10
103.65996
  20
257.98999
  0
VERTEX
  5
8ee
  8
Layer_0
  10
103.65996
  20
279.22998
  0
SEQEND
  0
POLYLINE
  5
8f0
  8
Layer_0
  62
0
  66
1
  10
0
  20
0
  30
0
  0
VERTEX
  5
8f0
  8
Layer_0
  10
106.28496
  20
272.22998
  0
VERTEX
  5
8f1
  8
Layer_0
  10
106.28496
  20
236.75
  0
SEQEND
  0
POLYLINE
  5
8f3
  8
Layer_0
  62
0
  66
1
  10
0
  20
0
  30
0
  0
VERTEX
  5
8f3
  8
Layer_0
  10
108.90997
  20
229.75
  0
VERTEX
  5
8f4
  8
Layer_0
  10
108.90997
  20
250.98999
  0
SEQEND
  0
POLYLINE
  5
8f6
  8
Layer_0
  62
0
  66
1
  10
0
  20
0
  30
0
  0
VERTEX
  5
8f6
  8
Layer_0
  10
108.90997
  20
257.98999
  0
VERTEX
  5
8f7
  8
Layer_0
  10
108.90997
  20
279.22998
  0
SEQEND
  0
POLYLINE
  5
8f9
  8
Layer_0
  62
0
  66
1
  10
0
  20
0
  30
0
  0
VERTEX
  5
8f9
  8
Layer_0
  10
111.53497
  20
272.22998
  0
VERTEX
  5
8fa
  8
Layer_0
  10
111.53497
  20
236.75
  0
SEQEND
  0
POLYLINE
  5
8fc
  8
Layer_0
  62
0
  66
1
  10
0
  20
0
  30
0
  0
VERTEX
  5
8fc
  8
Layer_0
  10
114.15997
  20
229.75
  0
VERTEX
  5
8fd
  8
Layer_0
  10
114.15997
  20
250.98999
  0
SEQEND
  0
POLYLINE
  5
8ff
  8
Layer_0
  62
0
  66
1
  10
0
  20
0
  30
0
  0
VERTEX
  5
8ff
  8
Layer_0
  10
114.15997
  20
257.98999
  0
VERTEX
  5
900
  8
Layer_0
  10
114.15997
  20
279.22998
  0
SEQEND
  0
POLYLINE
  5
902
  8
Layer_0
  62
0
  66
1
  10
0
  20
0
  30
0
  0
VERTEX
  5
902
  8
Layer_0
  10
116.78497
  20
272.22998
  0
VERTEX
  5
903
  8
Layer_0
  10
116.78497
  20
236.75
  0
SEQEND
  0
POLYLINE
  5
905
  8
Layer_0
  62
0
  66
1
  10
0
  20
0
  30
0
  0
VERTEX
  5
905
  8
Layer_0
  10
119.40997
  20
229.75
  0
VERTEX
  5
906
  8
Layer_0
  10
119.40997
  20
250.98999
  0
SEQEND
  0
POLYLINE
  5
908
  8
Layer_0
  62
0
  66
1
  10
0
  20
0
  30
0
  0
VERTEX
  5
908
  8
Layer_0
  10
119.40997
  20
257.98999
  0
VERTEX
  5
909
  8
Layer_0
  10
119.40997
  20
279.22998
  0
SEQEND
  0
POLYLINE
  5
90b
  8
Layer_0
  62
0
  66
1
  10
0
  20
0
  30
0
  0
VERTEX
  5
90b
  8
Layer_0
  10
122.03497
  20
272.22998
  0
VERTEX
  5
90c
  8
Layer_0
  10
122.03497
  20
236.75
  0
SEQEND
  0
POLYLINE
  5
90e
  8
Layer_0
  62
0
  66
1
  10
0
  20
0
  30
0
  0
VERTEX
  5
90e
  8
Layer_0
  10
124.65997
  20
229.75
  0
VERTEX
  5
90f
  8
Layer_0
  10
124.65997
  20
250.98999
  0
SEQEND
  0
POLYLINE
  5
911
  8
Layer_0
  62
0
  66
1
  10
0
  20
0
  30
0
  0
VERTEX
  5
911
  8
Layer_0
  10
124.65997
  20
257.98999
  0
VERTEX
  5
912
  8
Layer_0
  10
124.65997
  20
279.22998
  0
SEQEND
  0
POLYLINE
  5
914
  8
Layer_0
  62
0
  66
1
  10
0
  20
0
  30
0
  0
VERTEX
  5
914
  8
Layer_0
  10
127.28497
  20
272.22998
  0
VERTEX
  5
915
  8
Layer_0
  10
127.28497
  20
236.75
  0
SEQEND
  0
POLYLINE
  5
917
  8
Layer_0
  62
0
  66
1
  10
0
  20
0
  30
0
  0
VERTEX
  5
917
  8
Layer_0
  10
129.90997
  20
229.75
  0
VERTEX
  5
918
  8
Layer_0
  10
129.90997
  20
250.98999
  0
SEQEND
  0
POLYLINE
  5
91a
  8
Layer_0
  62
0
  66
1
  10
0
  20
0
  30
0
  0
VERTEX
  5
91a
  8
Layer_0
  10
129.90997
  20
257.98999
  0
VERTEX
  5
91b
  8
Layer_0
  10
129.90997
  20
279.22998
  0
SEQEND
  0
POLYLINE
  5
91d
  8
Layer_0
  62
0
  66
1
  10
0
  20
0
  30
0
  0
VERTEX
  5
91d
  8
Layer_0
  10
132.53497
  20
272.22998
  0
VERTEX
  5
91e
  8
Layer_0
  10
132.53497
  20
236.75
  0
SEQEND
  0
POLYLINE
  5
920
  8
Layer_0
  62
0
  66
1
  10
0
  20
0
  30
0
  0
VERTEX
  5
920
  8
Layer_0
  10
135.15997
  20
229.75
  0
VERTEX
  5
921
  8
Layer_0
  10
135.15997
  20
250.98999
  0
SEQEND
  0
POLYLINE
  5
923
  8
Layer_0
  62
0
  66
1
  10
0
  20
0
  30
0
  0
VERTEX
  5
923
  8
Layer_0
  10
135.15997
  20
257.98999
  0
VERTEX
  5
924
  8
Layer_0
  10
135.15997
  20
279.22998
  0
SEQEND
  0
POLYLINE
  5
926
  8
Layer_0
  62
0
  66
1
  10
0
  20
0
  30
0
  0
VERTEX
  5
926
  8
Layer_0
  10
137.78497
  20
272.22998
  0
VERTEX
  5
927
  8
Layer_0
  10
137.78497
  20
236.75
  0
SEQEND
  0
POLYLINE
  5
929
  8
Layer_0
  62
0
  66
1
  10
0
  20
0
  30
0
  0
VERTEX
  5
929
  8
Layer_0
  10
140.40997
  20
229.75
  0
VERTEX
  5
92a
  8
Layer_0
  10
140.40997
  20
250.98999
  0
SEQEND
  0
POLYLINE
  5
92c
  8
Layer_0
  62
0
  66
1
  10
0
  20
0
  30
0
  0
VERTEX
  5
92c
  8
Layer_0
  10
140.40997
  20
257.98999
  0
VERTEX
  5
92d
  8
Layer_0
  10
140.40997
  20
279.22998
  0
SEQEND
  0
POLYLINE
  5
92f
  8
Layer_0
  62
0
  66
1
  10
0
  20
0
  30
0
  0
VERTEX
  5
92f
  8
Layer_0
  10
143.03497
  20
272.22998
  0
VERTEX
  5
930
  8
Layer_0
  10
143.03497
  20
236.75
  0
SEQEND
  0
POLYLINE
  5
932
  8
Layer_0
  62
0
  66
1
  10
0
  20
0
  30
0
  0
VERTEX
  5
932
  8
Layer_0
  10
145.65997
  20
229.75
  0
VERTEX
  5
933
  8
Layer_0
  10
145.65997
  20
250.98999
  0
SEQEND
  0
POLYLINE
  5
935
  8
Layer_0
  62
0
  66
1
  10
0
  20
0
  30
0
  0
VERTEX
  5
935
  8
Layer_0
  10
145.65997
  20
257.98999
  0
VERTEX
  5
936
  8
Layer_0
  10
145.65997
  20
279.22998
  0
SEQEND
  0
POLYLINE
  5
938
  8
Layer_0
  62
0
  66
1
  10
0
  20
0
  30
0
  0
VERTEX
  5
938
  8
Layer_0
  10
148.28497
  20
272.22998
  0
VERTEX
  5
939
  8
Layer_0
  10
148.28497
  20
236.75
  0
SEQEND
  0
POLYLINE
  5
93b
  8
Layer_0
  62
0
  66
1
  10
0
  20
0
  30
0
  0
VERTEX
  5
93b
  8
Layer_0
  10
150.90997
  20
229.75
  0
VERTEX
  5
93c
  8
Layer_0
  10
150.90997
  20
250.98999
  0
SEQEND
  0
POLYLINE
  5
93e
  8
Layer_0
  62
0
  66
1
  10
0
  20
0
  30
0
  0
VERTEX
  5
93e
  8
Layer_0
  10
150.90997
  20
257.98999
  0
VERTEX
  5
93f
  8
Layer_0
  10
150.90997
  20
279.22998
  0
SEQEND
  0
POLYLINE
  5
941
  8
Layer_0
  62
0
  66
1
  10
0
  20
0
  30
0
  0
VERTEX
  5
941
  8
Layer_0
  10
153.53497
  20
272.22998
  0
VERTEX
  5
942
  8
Layer_0
  10
153.53497
  20
236.75
  0
SEQEND
  0
POLYLINE
  5
944
  8
Layer_0
  62
0
  66
1
  10
0
  20
0
  30
0
  0
VERTEX
  5
944
  8
Layer_0
  10
156.15997
  20
229.75
  0
VERTEX
  5
945
  8
Layer_0
  10
156.15997
  20
250.98999
  0
SEQEND
  0
POLYLINE
  5
947
  8
Layer_0
  62
0
  66
1
  10
0
  20
0
  30
0
  0
VERTEX
  5
947
  8
Layer_0
  10
156.15997
  20
257.98999
  0
VERTEX
  5
948
  8
Layer_0
  10
156.15997
  20
279.22998
  0
SEQEND
  0
POLYLINE
  5
94a
  8
Layer_0
  62
0
  66
1
  10
0
  20
0
  30
0
  0
VERTEX
  5
94a
  8
Layer_0
  10
158.78497
  20
272.22998
  0
VERTEX
  5
94b
  8
Layer_0
  10
158.78497
  20
236.75
  0
SEQEND
  0
POLYLINE
  5
94d
  8
Layer_0
  62
0
  66
1
  10
0
  20
0
  30
0
  0
VERTEX
  5
94d
  8
Layer_0
  10
161.40997
  20
229.75
  0
VERTEX
  5
94e
  8
Layer_0
  10
161.40997
  20
250.98999
  0
SEQEND
  0
POLYLINE
  5
950
  8
Layer_0
  62
0
  66
1
  10
0
  20
0
  30
0
  0
VERTEX
  5
950
  8
Layer_0
  10
161.40997
  20
257.98999
  0
VERTEX
  5
951
  8
Layer_0
  10
161.40997
  20
279.22998
  0
SEQEND
  0
POLYLINE
  5
953
  8
Layer_0
  62
0
  66
1
  10
0
  20
0
  30
0
  0
VERTEX
  5
953
  8
Layer_0
  10
164.03497
  20
272.22998
  0
VERTEX
  5
954
  8
Layer_0
  10
164.03497
  20
236.75
  0
SEQEND
  0
POLYLINE
  5
956
  8
Layer_0
  62
0
  66
1
  10
0
  20
0
  30
0
  0
VERTEX
  5
956
  8
Layer_0
  10
166.65997
  20
229.75
  0
VERTEX
  5
957
  8
Layer_0
  10
166.65997
  20
250.98999
  0
SEQEND
  0
POLYLINE
  5
959
  8
Layer_0
  62
0
  66
1
  10
0
  20
0
  30
0
  0
VERTEX
  5
959
  8
Layer_0
  10
166.65997
  20
257.98999
  0
VERTEX
  5
95a
  8
Layer_0
  10
166.65997
  20
279.22998
  0
SEQEND
  0
POLYLINE
  5
95c
  8
Layer_0
  62
0
  66
1
  10
0
  20
0
  30
0
  0
VERTEX
  5
95c
  8
Layer_0
  10
169.28497
  20
272.22998
  0
VERTEX
  5
95d
  8
Layer_0
  10
169.28497
  20
236.75
  0
SEQEND
  0
POLYLINE
  5
95f
  8
Layer_0
  62
0
  66
1
  10
0
  20
0
  30
0
  0
VERTEX
  5
95f
  8
Layer_0
  10
171.90997
  20
229.75
  0
VERTEX
  5
960
  8
Layer_0
  10
171.90997
  20
250.98999
  0
SEQEND
  0
POLYLINE
  5
962
  8
Layer_0
  62
0
  66
1
  10
0
  20
0
  30
0
  0
VERTEX
  5
962
  8
Layer_0
  10
171.90997
  20
257.98999
  0
VERTEX
  5
963
  8
Layer_0
  10
171.90997
  20
279.22998
  0
SEQEND
  0
POLYLINE
  5
965
  8
Layer_0
  62
0
  66
1
  10
0
  20
0
  30
0
  0
VERTEX
  5
965
  8
Layer_0
  10
174.53497
  20
272.22998
  0
VERTEX
  5
966
  8
Layer_0
  10
174.53497
  20
236.75
  0
SEQEND
  0
POLYLINE
  5
968
  8
Layer_0
  62
0
  66
1
  10
0
  20
0
  30
0
  0
VERTEX
  5
968
  8
Layer_0
  10
177.15997
  20
229.75
  0
VERTEX
  5
969
  8
Layer_0
  10
177.15997
  20
250.98999
  0
SEQEND
  0
POLYLINE
  5
96b
  8
Layer_0
  62
0
  66
1
  10
0
  20
0
  30
0
  0
VERTEX
  5
96b
  8
Layer_0
  10
177.15997
  20
257.98999
  0
VERTEX
  5
96c
  8
Layer_0
  10
177.15997
  20
279.22998
  0
SEQEND
  0
POLYLINE
  5
96e
  8
Layer_0
  62
0
  66
1
  10
0
  20
0
  30
0
  0
VERTEX
  5
96e
  8
Layer_0
  10
179.78497
  20
272.22998
  0
VERTEX
  5
96f
  8
Layer_0
  10
179.78497
  20
236.75
  0
SEQEND
  0
POLYLINE
  5
971
  8
Layer_0
  62
0
  66
1
  10
0
  20
0
  30
0
  0
VERTEX
  5
971
  8
Layer_0
  10
182.40997
  20
229.75
  0
VERTEX
  5
972
  8
Layer_0
  10
182.40997
  20
250.98999
  0
SEQEND
  0
POLYLINE
  5
974
  8
Layer_0
  62
0
  66
1
  10
0
  20
0
  30
0
  0
VERTEX
  5
974
  8
Layer_0
  10
182.40997
  20
257.98999
  0
VERTEX
  5
975
  8
Layer_0
  10
182.40997
  20
279.22998
  0
SEQEND
  0
POLYLINE
  5
977
  8
Layer_0
  62
0
  66
1
  10
0
  20
0
  30
0
  0
VERTEX
  5
977
  8
Layer_0
  10
185.03497
  20
272.22998
  0
VERTEX
  5
978
  8
Layer_0
  10
185.03497
  20
236.75
  0
SEQEND
  0
POLYLINE
  5
97a
  8
Layer_0
  62
0
  66
1
  10
0
  20
0
  30
0
  0
VERTEX
  5
97a
  8
Layer_0
  10
187.65997
  20
229.75
  0
VERTEX
  5
97b
  8
Layer_0
  10
187.65997
  20
250.98999
  0
SEQEND
  0
POLYLINE
  5
97d
  8
Layer_0
  62
0
  66
1
  10
0
  20
0
  30
0
  0
VERTEX
  5
97d
  8
Layer_0
  10
187.65997
  20
257.98999
  0
VERTEX
  5
97e
  8
Layer_0
  10
187.65997
  20
279.22998
  0
SEQEND
  0
POLYLINE
  5
980
  8
Layer_0
  62
0
  66
1
  10
0
  20
0
  30
0
  0
VERTEX
  5
980
  8
Layer_0
  10
190.28497
  20
272.22998
  0
VERTEX
  5
981
  8
Layer_0
  10
190.28497
  20
236.75
  0
SEQEND
  0
POLYLINE
  5
983
  8
Layer_0
  62
0
  66
1
  10
0
  20
0
  30
0
  0
VERTEX
  5
983
  8
Layer_0
  10
192.90997
  20
229.75
  0
VERTEX
  5
984
  8
Layer_0
  10
192.90997
  20
250.98999
  0
SEQEND
  0
POLYLINE
  5
986
  8
Layer_0
  62
0
  66
1
  10
0
  20
0
  30
0
  0
VERTEX
  5
986
  8
Layer_0
  10
192.90997
  20
257.98999
  0
VERTEX
  5
987
  8
Layer_0
  10
192.90997
  20
279.22998
  0
SEQEND
  0
POLYLINE
  5
989
  8
Layer_0
  62
0
  66
1
  10
0
  20
0
  30
0
  0
VERTEX
  5
989
  8
Layer_0
  10
195.53497
  20
272.22998
  0
VERTEX
  5
98a
  8
Layer_0
  10
195.53497
  20
236.75
  0
SEQEND
  0
POLYLINE
  5
98c
  8
Layer_0
  62
0
  66
1
  10
0
  20
0
  30
0
  0
VERTEX
  5
98c
  8
Layer_0
  10
198.15997
  20
229.75
  0
VERTEX
  5
98d
  8
Layer_0
  10
198.15997
  20
250.98999
  0
SEQEND
  0
POLYLINE
  5
98f
  8
Layer_0
  62
0
  66
1
  10
0
  20
0
  30
0
  0
VERTEX
  5
98f
  8
Layer_0
  10
198.15997
  20
257.98999
  0
VERTEX
  5
990
  8
Layer_0
  10
198.15997
  20
279.22998
  0
SEQEND
  0
POLYLINE
  5
992
  8
Layer_0
  62
0
  66
1
  10
0
  20
0
  30
0
  0
VERTEX
  5
992
  8
Layer_0
  10
200.78497
  20
272.22998
  0
VERTEX
  5
993
  8
Layer_0
  10
200.78497
  20
236.75
  0
SEQEND
  0
POLYLINE
  5
995
  8
Layer_0
  62
0
  66
1
  10
0
  20
0
  30
0
  0
VERTEX
  5
995
  8
Layer_0
  10
203.40997
  20
229.75
  0
VERTEX
  5
996
  8
Layer_0
  10
203.40997
  20
250.98999
  0
SEQEND
  0
POLYLINE
  5
998
  8
Layer_0
  62
0
  66
1
  10
0
  20
0
  30
0
  0
VERTEX
  5
998
  8
Layer_0
  10
203.40997
  20
257.98999
  0
VERTEX
  5
999
  8
Layer_0
  10
203.40997
  20
279.22998
  0
SEQEND
  0
POLYLINE
  5
99b
  8
Layer_0
  62
0
  66
1
  10
0
  20
0
  30
0
  0
VERTEX
  5
99b
  8
Layer_0
  10
206.03497
  20
272.22998
  0
VERTEX
  5
99c
  8
Layer_0
  10
206.03497
  20
236.75
  0
SEQEND
  0
POLYLINE
  5
99e
  8
Layer_0
  62
0
  66
1
  10
0
  20
0
  30
0
  0
VERTEX
  5
99e
  8
Layer_0
  10
208.65997
  20
229.75
  0
VERTEX
  5
99f
  8
Layer_0
  10
208.65997
  20
250.98999
  0
SEQEND
  0
POLYLINE
  5
9a1
  8
Layer_0
  62
0
  66
1
  10
0
  20
0
  30
0
  0
VERTEX
  5
9a1
  8
Layer_0
  10
208.65997
  20
257.98999
  0
VERTEX
  5
9a2
  8
Layer_0
  10
208.65997
  20
279.22998
  0
SEQEND
  0
POLYLINE
  5
9a4
  8
Layer_0
  62
0
  66
1
  10
0
  20
0
  30
0
  0
VERTEX
  5
9a4
  8
Layer_0
  10
211.28497
  20
272.22998
  0
VERTEX
  5
9a5
  8
Layer_0
  10
211.28497
  20
236.75
  0
SEQEND
  0
POLYLINE
  5
9a7
  8
Layer_0
  62
0
  66
1
  10
0
  20
0
  30
0
  0
VERTEX
  5
9a7
  8
Layer_0
  10
213.90997
  20
229.75
  0
VERTEX
  5
9a8
  8
Layer_0
  10
213.90997
  20
250.98999
  0
SEQEND
  0
POLYLINE
  5
9aa
  8
Layer_0
  62
0
  66
1
  10
0
  20
0
  30
0
  0
VERTEX
  5
9aa
  8
Layer_0
  10
213.90997
  20
257.98999
  0
VERTEX
  5
9ab
  8
Layer_0
  10
213.90997
  20
279.22998
  0
SEQEND
  0
POLYLINE
  5
9ad
  8
Layer_0
  62
0
  66
1
  10
0
  20
0
  30
0
  0
VERTEX
  5
9ad
  8
Layer_0
  10
216.53497
  20
272.22998
  0
VERTEX
  5
9ae
  8
Layer_0
  10
216.53497
  20
236.75
  0
SEQEND
  0
POLYLINE
  5
9b0
  8
Layer_0
  62
0
  66
1
  10
0
  20
0
  30
0
  0
VERTEX
  5
9b0
  8
Layer_0
  10
219.15997
  20
229.75
  0
VERTEX
  5
9b1
  8
Layer_0
  10
219.15997
  20
250.98999
  0
SEQEND
  0
POLYLINE
  5
9b3
  8
Layer_0
  62
0
  66
1
  10
0
  20
0
  30
0
  0
VERTEX
  5
9b3
  8
Layer_0
  10
219.15997
  20
257.98999
  0
VERTEX
  5
9b4
  8
Layer_0
  10
219.15997
  20
279.22998
  0
SEQEND
  0
POLYLINE
  5
9b6
  8
Layer_0
  62
0
  66
1
  10
0
  20
0
  30
0
  0
VERTEX
  5
9b6
  8
Layer_0
  10
221.78497
  20
272.22998
  0
VERTEX
  5
9b7
  8
Layer_0
  10
221.78497
  20
236.75
  0
SEQEND
  0
POLYLINE
  5
9b9
  8
Layer_0
  62
0
  66
1
  10
0
  20
0
  30
0
  0
VERTEX
  5
9b9
  8
Layer_0
  10
224.40997
  20
229.75
  0
VERTEX
  5
9ba
  8
Layer_0
  10
224.40997
  20
250.98999
  0
SEQEND
  0
POLYLINE
  5
9bc
  8
Layer_0
  62
0
  66
1
  10
0
  20
0
  30
0
  0
VERTEX
  5
9bc
  8
Layer_0
  10
224.40997
  20
257.98999
  0
VERTEX
  5
9bd
  8
Layer_0
  10
224.40997
  20
279.22998
  0
SEQEND
  0
POLYLINE
  5
9bf
  8
Layer_0
  62
0
  66
1
  10
0
  20
0
  30
0
  0
VERTEX
  5
9bf
  8
Layer_0
  10
227.03497
  20
272.22998
  0
VERTEX
  5
9c0
  8
Layer_0
  10
227.03497
  20
236.75
  0
SEQEND
  0
POLYLINE
  5
9c2
  8
Layer_0
  62
0
  66
1
  10
0
  20
0
  30
0
  0
VERTEX
  5
9c2
  8
Layer_0
  10
229.65997
  20
229.75
  0
VERTEX
  5
9c3
  8
Layer_0
  10
229.65997
  20
250.98999
  0
SEQEND
  0
POLYLINE
  5
9c5
  8
Layer_0
  62
0
  66
1
  10
0
  20
0
  30
0
  0
VERTEX
  5
9c5
  8
Layer_0
  10
229.65997
  20
257.98999
  0
VERTEX
  5
9c6
  8
Layer_0
  10
229.65997
  20
279.22998
  0
SEQEND
  0
POLYLINE
  5
9c8
  8
Layer_0
  62
0
  66
1
  10
0
  20
0
  30
0
  0
VERTEX
  5
9c8
  8
Layer_0
  10
232.28497
  20
272.22998
  0
VERTEX
  5
9c9
  8
Layer_0
  10
232.28497
  20
236.75
  0
SEQEND
  0
POLYLINE
  5
9cb
  8
Layer_0
  62
0
  66
1
  10
0
  20
0
  30
0
  0
VERTEX
  5
9cb
  8
Layer_0
  10
234.90997
  20
229.75
  0
VERTEX
  5
9cc
  8
Layer_0
  10
234.90997
  20
250.98999
  0
SEQEND
  0
POLYLINE
  5
9ce
  8
Layer_0
  62
0
  66
1
  10
0
  20
0
  30
0
  0
VERTEX
  5
9ce
  8
Layer_0
  10
234.90997
  20
257.98999
  0
VERTEX
  5
9cf
  8
Layer_0
  10
234.90997
  20
279.22998
  0
SEQEND
  0
POLYLINE
  5
9d1
  8
Layer_0
  62
0
  66
1
  10
0
  20
0
  30
0
  0
VERTEX
  5
9d1
  8
Layer_0
  10
237.53497
  20
272.22998
  0
VERTEX
  5
9d2
  8
Layer_0
  10
237.53497
  20
236.75
  0
SEQEND
  0
POLYLINE
  5
9d4
  8
Layer_0
  62
0
  66
1
  10
0
  20
0
  30
0
  0
VERTEX
  5
9d4
  8
Layer_0
  10
240.15997
  20
229.75
  0
VERTEX
  5
9d5
  8
Layer_0
  10
240.15997
  20
250.98999
  0
SEQEND
  0
POLYLINE
  5
9d7
  8
Layer_0
  62
0
  66
1
  10
0
  20
0
  30
0
  0
VERTEX
  5
9d7
  8
Layer_0
  10
240.15997
  20
257.98999
  0
VERTEX
  5
9d8
  8
Layer_0
  10
240.15997
  20
279.22998
  0
SEQEND
  0
POLYLINE
  5
9da
  8
Layer_0
  62
0
  66
1
  10
0
  20
0
  30
0
  0
VERTEX
  5
9da
  8
Layer_0
  10
242.78497
  20
272.22998
  0
VERTEX
  5
9db
  8
Layer_0
  10
242.78497
  20
236.75
  0
SEQEND
  0
POLYLINE
  5
9dd
  8
Layer_0
  62
0
  66
1
  10
0
  20
0
  30
0
  0
VERTEX
  5
9dd
  8
Layer_0
  10
245.40997
  20
229.75
  0
VERTEX
  5
9de
  8
Layer_0
  10
245.40997
  20
250.98999
  0
SEQEND
  0
POLYLINE
  5
9e0
  8
Layer_0
  62
0
  66
1
  10
0
  20
0
  30
0
  0
VERTEX
  5
9e0
  8
Layer_0
  10
245.40997
  20
257.98999
  0
VERTEX
  5
9e1
  8
Layer_0
  10
245.40997
  20
279.22998
  0
SEQEND
  0
POLYLINE
  5
9e3
  8
Layer_0
  62
0
  66
1
  10
0
  20
0
  30
0
  0
VERTEX
  5
9e3
  8
Layer_0
  10
248.03497
  20
272.22998
  0
VERTEX
  5
9e4
  8
Layer_0
  10
248.03497
  20
236.75
  0
SEQEND
  0
POLYLINE
  5
9e6
  8
Layer_0
  62
0
  66
1
  10
0
  20
0
  30
0
  0
VERTEX
  5
9e6
  8
Layer_0
  10
250.65997
  20
229.75
  0
VERTEX
  5
9e7
  8
Layer_0
  10
250.65997
  20
250.98999
  0
SEQEND
  0
POLYLINE
  5
9e9
  8
Layer_0
  62
0
  66
1
  10
0
  20
0
  30
0
  0
VERTEX
  5
9e9
  8
Layer_0
  10
250.65997
  20
257.98999
  0
VERTEX
  5
9ea
  8
Layer_0
  10
250.65997
  20
279.22998
  0
SEQEND
  0
POLYLINE
  5
9ec
  8
Layer_0
  62
0
  66
1
  10
0
  20
0
  30
0
  0
VERTEX
  5
9ec
  8
Layer_0
  10
253.28497
  20
272.22998
  0
VERTEX
  5
9ed
  8
Layer_0
  10
253.28497
  20
236.75
  0
SEQEND
  0
POLYLINE
  5
9ef
  8
Layer_0
  62
0
  66
1
  10
0
  20
0
  30
0
  0
VERTEX
  5
9ef
  8
Layer_0
  10
255.90997
  20
229.75
  0
VERTEX
  5
9f0
  8
Layer_0
  10
255.90997
  20
250.98999
  0
SEQEND
  0
POLYLINE
  5
9f2
  8
Layer_0
  62
0
  66
1
  10
0
  20
0
  30
0
  0
VERTEX
  5
9f2
  8
Layer_0
  10
255.90997
  20
257.98999
  0
VERTEX
  5
9f3
  8
Layer_0
  10
255.90997
  20
279.22998
  0
SEQEND
  0
POLYLINE
  5
9f5
  8
Layer_0
  62
0
  66
1
  10
0
  20
0
  30
0
  0
VERTEX
  5
9f5
  8
Layer_0
  10
258.53497
  20
272.22998
  0
VERTEX
  5
9f6
  8
Layer_0
  10
258.53497
  20
236.75
  0
SEQEND
  0
POLYLINE
  5
9f8
  8
Layer_0
  62
0
  66
1
  10
0
  20
0
  30
0
  0
VERTEX
  5
9f8
  8
Layer_0
  10
261.15997
  20
229.75
  0
VERTEX
  5
9f9
  8
Layer_0
  10
261.15997
  20
250.98999
  0
SEQEND
  0
POLYLINE
  5
9fb
  8
Layer_0
  62
0
  66
1
  10
0
  20
0
  30
0
  0
VERTEX
  5
9fb
  8
Layer_0
  10
261.15997
  20
257.98999
  0
VERTEX
  5
9fc
  8
Layer_0
  10
261.15997
  20
279.22998
  0
SEQEND
  0
POLYLINE
  5
9fe
  8
Layer_0
  62
0
  66
1
  10
0
  20
0
  30
0
  0
VERTEX
  5
9fe
  8
Layer_0
  10
263.78497
  20
272.22998
  0
VERTEX
  5
9ff
  8
Layer_0
  10
263.78497
  20
236.75
  0
SEQEND
  0
POLYLINE
  5
a01
  8
Layer_0
  62
0
  66
1
  10
0
  20
0
  30
0
  0
VERTEX
  5
a01
  8
Layer_0
  10
266.40997
  20
229.75
  0
VERTEX
  5
a02
  8
Layer_0
  10
266.40997
  20
250.98999
  0
SEQEND
  0
POLYLINE
  5
a04
  8
Layer_0
  62
0
  66
1
  10
0
  20
0
  30
0
  0
VERTEX
  5
a04
  8
Layer_0
  10
266.40997
  20
257.98999
  0
VERTEX
  5
a05
  8
Layer_0
  10
266.40997
  20
279.22998
  0
SEQEND
  0
POLYLINE
  5
a07
  8
Layer_0
  62
0
  66
1
  10
0
  20
0
  30
0
  0
VERTEX
  5
a07
  8
Layer_0
  10
269.03497
  20
272.22998
  0
VERTEX
  5
a08
  8
Layer_0
  10
269.03497
  20
236.75
  0
SEQEND
  0
POLYLINE
  5
a0a
  8
Layer_0
  62
0
  66
1
  10
0
  20
0
  30
0
  0
VERTEX
  5
a0a
  8
Layer_0
  10
271.65997
  20
229.75
  0
VERTEX
  5
a0b
  8
Layer_0
  10
271.65997
  20
250.98999
  0
SEQEND
  0
POLYLINE
  5
a0d
  8
Layer_0
  62
0
  66
1
  10
0
  20
0
  30
0
  0
VERTEX
  5
a0d
  8
Layer_0
  10
271.65997
  20
257.98999
  0
VERTEX
  5
a0e
  8
Layer_0
  10
271.65997
  20
279.22998
  0
SEQEND
  0
POLYLINE
  5
a10
  8
Layer_0
  62
0
  66
1
  10
0
  20
0
  30
0
  0
VERTEX
  5
a10
  8
Layer_0
  10
274.28497
  20
272.22998
  0
VERTEX
  5
a11
  8
Layer_0
  10
274.28497
  20
236.75
  0
SEQEND
  0
POLYLINE
  5
a13
  8
Layer_0
  62
0
  66
1
  10
0
  20
0
  30
0
  0
VERTEX
  5
a13
  8
Layer_0
  10
276.90997
  20
229.75
  0
VERTEX
  5
a14
  8
Layer_0
  10
276.90997
  20
250.98999
  0
SEQEND
  0
POLYLINE
  5
a16
  8
Layer_0
  62
0
  66
1
  10
0
  20
0
  30
0
  0
VERTEX
  5
a16
  8
Layer_0
  10
276.90997
  20
257.98999
  0
VERTEX
  5
a17
  8
Layer_0
  10
276.90997
  20
279.22998
  0
SEQEND
  0
POLYLINE
  5
a19
  8
Layer_0
  62
0
  66
1
  10
0
  20
0
  30
0
  0
VERTEX
  5
a19
  8
Layer_0
  10
279.53497
  20
272.22998
  0
VERTEX
  5
a1a
  8
Layer_0
  10
279.53497
  20
236.75
  0
SEQEND
  0
POLYLINE
  5
a1c
  8
Layer_0
  62
0
  66
1
  10
0
  20
0
  30
0
  0
VERTEX
  5
a1c
  8
Layer_0
  10
282.15997
  20
229.75
  0
VERTEX
  5
a1d
  8
Layer_0
  10
282.15997
  20
250.98999
  0
SEQEND
  0
POLYLINE
  5
a1f
  8
Layer_0
  62
0
  66
1
  10
0
  20
0
  30
0
  0
VERTEX
  5
a1f
  8
Layer_0
  10
282.15997
  20
257.98999
  0
VERTEX
  5
a20
  8
Layer_0
  10
282.15997
  20
279.22998
  0
SEQEND
  0
POLYLINE
  5
a22
  8
Layer_0
  62
0
  66
1
  10
0
  20
0
  30
0
  0
VERTEX
  5
a22
  8
Layer_0
  10
284.78497
  20
272.22998
  0
VERTEX
  5
a23
  8
Layer_0
  10
284.78497
  20
236.75
  0
SEQEND
  0
POLYLINE
  5
a25
  8
Layer_0
  62
0
  66
1
  10
0
  20
0
  30
0
  0
VERTEX
  5
a25
  8
Layer_0
  10
287.40997
  20
229.75
  0
VERTEX
  5
a26
  8
Layer_0
  10
287.40997
  20
250.98999
  0
SEQEND
  0
POLYLINE
  5
a28
  8
Layer_0
  62
0
  66
1
  10
0
  20
0
  30
0
  0
VERTEX
  5
a28
  8
Layer_0
  10
287.40997
  20
257.98999
  0
VERTEX
  5
a29
  8
Layer_0
  10
287.40997
  20
279.22998
  0
SEQEND
  0
POLYLINE
  5
a2b
  8
Layer_0
  62
0
  70
1
  66
1
  10
0
  20
0
  30
0
  0
VERTEX
  5
a2b
  8
Layer_0
  10
117.36497
  20
101.125
  0
VERTEX
  5
a2c
  8
Layer_0
  10
117.36496
  20
108.125
  0
VERTEX
  5
a2d
  8
Layer_0
  10
117.33871
  20
108.18878
  0
VERTEX
  5
a2e
  8
Layer_0
  10
117.27496
  20
108.215
  0
VERTEX
  5
a2f
  8
Layer_0
  10
74.974968
  20
108.215
  0
VERTEX
  5
a30
  8
Layer_0
  10
74.911217
  20
108.18878
  0
VERTEX
  5
a31
  8
Layer_0
  10
74.884964
  20
108.125
  0
VERTEX
  5
a32
  8
Layer_0
  10
74.884964
  20
101.125
  0
VERTEX
  5
a33
  8
Layer_0
  10
74.911217
  20
101.06125
  0
VERTEX
  5
a34
  8
Layer_0
  10
74.974968
  20
101.035
  0
VERTEX
  5
a35
  8
Layer_0
  10
78.534966
  20
101.035
  0
VERTEX
  5
a36
  8
Layer_0
  10
78.568718
  20
101.06876
  0
VERTEX
  5
a37
  8
Layer_0
  10
78.534966
  20
101.035
  0
VERTEX
  5
a38
  8
Layer_0
  10
78.534966
  20
97.625
  0
VERTEX
  5
a39
  8
Layer_0
  10
78.561218
  20
97.561249
  0
VERTEX
  5
a3a
  8
Layer_0
  10
78.624969
  20
97.535004
  0
VERTEX
  5
a3b
  8
Layer_0
  10
85.624969
  20
97.535004
  0
VERTEX
  5
a3c
  8
Layer_0
  10
85.688721
  20
97.561249
  0
VERTEX
  5
a3d
  8
Layer_0
  10
85.714966
  20
97.625
  0
VERTEX
  5
a3e
  8
Layer_0
  10
85.714966
  20
101.035
  0
VERTEX
  5
a3f
  8
Layer_0
  10
85.681213
  20
101.06876
  0
VERTEX
  5
a40
  8
Layer_0
  10
85.714966
  20
101.035
  0
VERTEX
  5
a41
  8
Layer_0
  10
92.534966
  20
101.035
  0
VERTEX
  5
a42
  8
Layer_0
  10
92.568718
  20
101.06876
  0
VERTEX
  5
a43
  8
Layer_0
  10
92.534966
  20
101.035
  0
VERTEX
  5
a44
  8
Layer_0
  10
92.534966
  20
97.625
  0
VERTEX
  5
a45
  8
Layer_0
  10
92.561218
  20
97.561249
  0
VERTEX
  5
a46
  8
Layer_0
  10
92.624969
  20
97.535004
  0
VERTEX
  5
a47
  8
Layer_0
  10
99.624969
  20
97.535004
  0
VERTEX
  5
a48
  8
Layer_0
  10
99.688721
  20
97.561249
  0
VERTEX
  5
a49
  8
Layer_0
  10
99.714966
  20
97.625
  0
VERTEX
  5
a4a
  8
Layer_0
  10
99.714966
  20
101.035
  0
VERTEX
  5
a4b
  8
Layer_0
  10
99.681213
  20
101.06876
  0
VERTEX
  5
a4c
  8
Layer_0
  10
99.714966
  20
101.035
  0
VERTEX
  5
a4d
  8
Layer_0
  10
106.53497
  20
101.035
  0
VERTEX
  5
a4e
  8
Layer_0
  10
106.56872
  20
101.06876
  0
VERTEX
  5
a4f
  8
Layer_0
  10
106.53497
  20
101.035
  0
VERTEX
  5
a50
  8
Layer_0
  10
106.53497
  20
97.625
  0
VERTEX
  5
a51
  8
Layer_0
  10
106.56122
  20
97.561249
  0
VERTEX
  5
a52
  8
Layer_0
  10
106.62497
  20
97.535004
  0
VERTEX
  5
a53
  8
Layer_0
  10
113.62497
  20
97.535004
  0
VERTEX
  5
a54
  8
Layer_0
  10
113.68872
  20
97.561249
  0
VERTEX
  5
a55
  8
Layer_0
  10
113.71497
  20
97.625
  0
VERTEX
  5
a56
  8
Layer_0
  10
113.71497
  20
101.035
  0
VERTEX
  5
a57
  8
Layer_0
  10
113.68121
  20
101.06876
  0
VERTEX
  5
a58
  8
Layer_0
  10
113.71497
  20
101.035
  0
VERTEX
  5
a59
  8
Layer_0
  10
117.27496
  20
101.035
  0
VERTEX
  5
a5a
  8
Layer_0
  10
117.33871
  20
101.06125
  0
VERTEX
  5
a5b
  8
Layer_0
  10
117.36497
  20
101.125
  0
SEQEND
  0
POLYLINE
  5
a5d
  8
Layer_0
  62
0
  70
1
  66
1
  10
0
  20
0
  30
0
  0
VERTEX
  5
a5d
  8
Layer_0
  10
126.03496
  20
107.54947
  0
VERTEX
  5
a5e
  8
Layer_0
  10
126.03496
  20
106.93347
  0
VERTEX
  5
a5f
  8
Layer_0
  10
126.06871
  20
106.89972
  0
VERTEX
  5
a60
  8
Layer_0
  10
126.03496
  20
106.93347
  0
VERTEX
  5
a61
  8
Layer_0
  10
122.62495
  20
106.93347
  0
VERTEX
  5
a62
  8
Layer_0
  10
122.5612
  20
106.90723
  0
VERTEX
  5
a63
  8
Layer_0
  10
122.53495
  20
106.84348
  0
VERTEX
  5
a64
  8
Layer_0
  10
122.53495
  20
99.843475
  0
VERTEX
  5
a65
  8
Layer_0
  10
122.5612
  20
99.78009
  0
VERTEX
  5
a66
  8
Layer_0
  10
122.62495
  20
99.753479
  0
VERTEX
  5
a67
  8
Layer_0
  10
126.03495
  20
99.753479
  0
VERTEX
  5
a68
  8
Layer_0
  10
126.0687
  20
99.787231
  0
VERTEX
  5
a69
  8
Layer_0
  10
126.03495
  20
99.753479
  0
VERTEX
  5
a6a
  8
Layer_0
  10
126.03495
  20
98.20047
  0
VERTEX
  5
a6b
  8
Layer_0
  10
126.0612
  20
98.136719
  0
VERTEX
  5
a6c
  8
Layer_0
  10
126.12495
  20
98.110474
  0
VERTEX
  5
a6d
  8
Layer_0
  10
133.62495
  20
98.110474
  0
VERTEX
  5
a6e
  8
Layer_0
  10
133.68871
  20
98.136719
  0
VERTEX
  5
a6f
  8
Layer_0
  10
133.71495
  20
98.20047
  0
VERTEX
  5
a70
  8
Layer_0
  10
133.71495
  20
99.860474
  0
VERTEX
  5
a71
  8
Layer_0
  10
133.6812
  20
99.894226
  0
VERTEX
  5
a72
  8
Layer_0
  10
133.71495
  20
99.860474
  0
VERTEX
  5
a73
  8
Layer_0
  10
140.53494
  20
99.860474
  0
VERTEX
  5
a74
  8
Layer_0
  10
140.5687
  20
99.894226
  0
VERTEX
  5
a75
  8
Layer_0
  10
140.53494
  20
99.860474
  0
VERTEX
  5
a76
  8
Layer_0
  10
140.53494
  20
98.20047
  0
VERTEX
  5
a77
  8
Layer_0
  10
140.5612
  20
98.136719
  0
VERTEX
  5
a78
  8
Layer_0
  10
140.62495
  20
98.110474
  0
VERTEX
  5
a79
  8
Layer_0
  10
147.62495
  20
98.110474
  0
VERTEX
  5
a7a
  8
Layer_0
  10
147.68871
  20
98.136719
  0
VERTEX
  5
a7b
  8
Layer_0
  10
147.71495
  20
98.20047
  0
VERTEX
  5
a7c
  8
Layer_0
  10
147.71495
  20
99.860474
  0
VERTEX
  5
a7d
  8
Layer_0
  10
147.6812
  20
99.894226
  0
VERTEX
  5
a7e
  8
Layer_0
  10
147.71495
  20
99.860474
  0
VERTEX
  5
a7f
  8
Layer_0
  10
154.53494
  20
99.860474
  0
VERTEX
  5
a80
  8
Layer_0
  10
154.5687
  20
99.894226
  0
VERTEX
  5
a81
  8
Layer_0
  10
154.53494
  20
99.860474
  0
VERTEX
  5
a82
  8
Layer_0
  10
154.53494
  20
98.20047
  0
VERTEX
  5
a83
  8
Layer_0
  10
154.5612
  20
98.136719
  0
VERTEX
  5
a84
  8
Layer_0
  10
154.62495
  20
98.110474
  0
VERTEX
  5
a85
  8
Layer_0
  10
161.62495
  20
98.110474
  0
VERTEX
  5
a86
  8
Layer_0
  10
161.68871
  20
98.136719
  0
VERTEX
  5
a87
  8
Layer_0
  10
161.71495
  20
98.20047
  0
VERTEX
  5
a88
  8
Layer_0
  10
161.71495
  20
99.860474
  0
VERTEX
  5
a89
  8
Layer_0
  10
161.6812
  20
99.894226
  0
VERTEX
  5
a8a
  8
Layer_0
  10
161.71495
  20
99.860474
  0
VERTEX
  5
a8b
  8
Layer_0
  10
168.53496
  20
99.860474
  0
VERTEX
  5
a8c
  8
Layer_0
  10
168.56871
  20
99.894226
  0
VERTEX
  5
a8d
  8
Layer_0
  10
168.53496
  20
99.860474
  0
VERTEX
  5
a8e
  8
Layer_0
  10
168.53496
  20
98.20047
  0
VERTEX
  5
a8f
  8
Layer_0
  10
168.5612
  20
98.136719
  0
VERTEX
  5
a90
  8
Layer_0
  10
168.62495
  20
98.110474
  0
VERTEX
  5
a91
  8
Layer_0
  10
176.12495
  20
98.110474
  0
VERTEX
  5
a92
  8
Layer_0
  10
176.18871
  20
98.136719
  0
VERTEX
  5
a93
  8
Layer_0
  10
176.21495
  20
98.20047
  0
VERTEX
  5
a94
  8
Layer_0
  10
176.21495
  20
99.753479
  0
VERTEX
  5
a95
  8
Layer_0
  10
176.1812
  20
99.787231
  0
VERTEX
  5
a96
  8
Layer_0
  10
176.21495
  20
99.753479
  0
VERTEX
  5
a97
  8
Layer_0
  10
179.62495
  20
99.753479
  0
VERTEX
  5
a98
  8
Layer_0
  10
179.68871
  20
99.78009
  0
VERTEX
  5
a99
  8
Layer_0
  10
179.71495
  20
99.843475
  0
VERTEX
  5
a9a
  8
Layer_0
  10
179.71495
  20
106.84348
  0
VERTEX
  5
a9b
  8
Layer_0
  10
179.68871
  20
106.90723
  0
VERTEX
  5
a9c
  8
Layer_0
  10
179.62495
  20
106.93347
  0
VERTEX
  5
a9d
  8
Layer_0
  10
176.21495
  20
106.93347
  0
VERTEX
  5
a9e
  8
Layer_0
  10
176.1812
  20
106.89972
  0
VERTEX
  5
a9f
  8
Layer_0
  10
176.21495
  20
106.93347
  0
VERTEX
  5
aa0
  8
Layer_0
  10
176.21495
  20
107.54947
  0
VERTEX
  5
aa1
  8
Layer_0
  10
176.18871
  20
107.61325
  0
VERTEX
  5
aa2
  8
Layer_0
  10
176.12495
  20
107.6395
  0
VERTEX
  5
aa3
  8
Layer_0
  10
126.12495
  20
107.6395
  0
VERTEX
  5
aa4
  8
Layer_0
  10
126.0612
  20
107.61325
  0
VERTEX
  5
aa5
  8
Layer_0
  10
126.03496
  20
107.54947
  0
SEQEND
  0
POLYLINE
  5
aa7
  8
Layer_0
  62
0
  70
1
  66
1
  10
0
  20
0
  30
0
  0
VERTEX
  5
aa7
  8
Layer_0
  10
185.03497
  20
107.08102
  0
VERTEX
  5
aa8
  8
Layer_0
  10
185.03497
  20
106.46503
  0
VERTEX
  5
aa9
  8
Layer_0
  10
185.06873
  20
106.43127
  0
VERTEX
  5
aaa
  8
Layer_0
  10
185.03497
  20
106.46503
  0
VERTEX
  5
aab
  8
Layer_0
  10
181.62498
  20
106.46503
  0
VERTEX
  5
aac
  8
Layer_0
  10
181.56123
  20
106.43878
  0
VERTEX
  5
aad
  8
Layer_0
  10
181.53497
  20
106.37503
  0
VERTEX
  5
aae
  8
Layer_0
  10
181.53497
  20
99.375031
  0
VERTEX
  5
aaf
  8
Layer_0
  10
181.56123
  20
99.311249
  0
VERTEX
  5
ab0
  8
Layer_0
  10
181.62498
  20
99.285004
  0
VERTEX
  5
ab1
  8
Layer_0
  10
185.03497
  20
99.285004
  0
VERTEX
  5
ab2
  8
Layer_0
  10
185.06873
  20
99.318756
  0
VERTEX
  5
ab3
  8
Layer_0
  10
185.03497
  20
99.285004
  0
VERTEX
  5
ab4
  8
Layer_0
  10
185.03497
  20
97.731018
  0
VERTEX
  5
ab5
  8
Layer_0
  10
185.06123
  20
97.667633
  0
VERTEX
  5
ab6
  8
Layer_0
  10
185.12498
  20
97.641022
  0
VERTEX
  5
ab7
  8
Layer_0
  10
192.62498
  20
97.641022
  0
VERTEX
  5
ab8
  8
Layer_0
  10
192.68874
  20
97.667633
  0
VERTEX
  5
ab9
  8
Layer_0
  10
192.71498
  20
97.731018
  0
VERTEX
  5
aba
  8
Layer_0
  10
192.71498
  20
99.391022
  0
VERTEX
  5
abb
  8
Layer_0
  10
192.68123
  20
99.424774
  0
VERTEX
  5
abc
  8
Layer_0
  10
192.71498
  20
99.391022
  0
VERTEX
  5
abd
  8
Layer_0
  10
199.53497
  20
99.391022
  0
VERTEX
  5
abe
  8
Layer_0
  10
199.56873
  20
99.424774
  0
VERTEX
  5
abf
  8
Layer_0
  10
199.53497
  20
99.391022
  0
VERTEX
  5
ac0
  8
Layer_0
  10
199.53497
  20
97.731018
  0
VERTEX
  5
ac1
  8
Layer_0
  10
199.56123
  20
97.667633
  0
VERTEX
  5
ac2
  8
Layer_0
  10
199.62498
  20
97.641022
  0
VERTEX
  5
ac3
  8
Layer_0
  10
206.62498
  20
97.641022
  0
VERTEX
  5
ac4
  8
Layer_0
  10
206.68874
  20
97.667633
  0
VERTEX
  5
ac5
  8
Layer_0
  10
206.71498
  20
97.731018
  0
VERTEX
  5
ac6
  8
Layer_0
  10
206.71498
  20
99.391022
  0
VERTEX
  5
ac7
  8
Layer_0
  10
206.68123
  20
99.424774
  0
VERTEX
  5
ac8
  8
Layer_0
  10
206.71498
  20
99.391022
  0
VERTEX
  5
ac9
  8
Layer_0
  10
213.53497
  20
99.391022
  0
VERTEX
  5
aca
  8
Layer_0
  10
213.56873
  20
99.424774
  0
VERTEX
  5
acb
  8
Layer_0
  10
213.53497
  20
99.391022
  0
VERTEX
  5
acc
  8
Layer_0
  10
213.53497
  20
97.731018
  0
VERTEX
  5
acd
  8
Layer_0
  10
213.56123
  20
97.667633
  0
VERTEX
  5
ace
  8
Layer_0
  10
213.62498
  20
97.641022
  0
VERTEX
  5
acf
  8
Layer_0
  10
220.62498
  20
97.641022
  0
VERTEX
  5
ad0
  8
Layer_0
  10
220.68874
  20
97.667633
  0
VERTEX
  5
ad1
  8
Layer_0
  10
220.71498
  20
97.731018
  0
VERTEX
  5
ad2
  8
Layer_0
  10
220.71498
  20
99.391022
  0
VERTEX
  5
ad3
  8
Layer_0
  10
220.68123
  20
99.424774
  0
VERTEX
  5
ad4
  8
Layer_0
  10
220.71498
  20
99.391022
  0
VERTEX
  5
ad5
  8
Layer_0
  10
227.53497
  20
99.391022
  0
VERTEX
  5
ad6
  8
Layer_0
  10
227.56873
  20
99.424774
  0
VERTEX
  5
ad7
  8
Layer_0
  10
227.53497
  20
99.391022
  0
VERTEX
  5
ad8
  8
Layer_0
  10
227.53497
  20
97.731018
  0
VERTEX
  5
ad9
  8
Layer_0
  10
227.56123
  20
97.667633
  0
VERTEX
  5
ada
  8
Layer_0
  10
227.62498
  20
97.641022
  0
VERTEX
  5
adb
  8
Layer_0
  10
235.12498
  20
97.641022
  0
VERTEX
  5
adc
  8
Layer_0
  10
235.18874
  20
97.667633
  0
VERTEX
  5
add
  8
Layer_0
  10
235.21498
  20
97.731018
  0
VERTEX
  5
ade
  8
Layer_0
  10
235.21498
  20
99.285004
  0
VERTEX
  5
adf
  8
Layer_0
  10
235.18123
  20
99.318756
  0
VERTEX
  5
ae0
  8
Layer_0
  10
235.21498
  20
99.285004
  0
VERTEX
  5
ae1
  8
Layer_0
  10
238.62498
  20
99.285004
  0
VERTEX
  5
ae2
  8
Layer_0
  10
238.68874
  20
99.311249
  0
VERTEX
  5
ae3
  8
Layer_0
  10
238.71498
  20
99.375031
  0
VERTEX
  5
ae4
  8
Layer_0
  10
238.71498
  20
106.37503
  0
VERTEX
  5
ae5
  8
Layer_0
  10
238.68874
  20
106.43878
  0
VERTEX
  5
ae6
  8
Layer_0
  10
238.62498
  20
106.46503
  0
VERTEX
  5
ae7
  8
Layer_0
  10
235.21498
  20
106.46503
  0
VERTEX
  5
ae8
  8
Layer_0
  10
235.18123
  20
106.43127
  0
VERTEX
  5
ae9
  8
Layer_0
  10
235.21498
  20
106.46503
  0
VERTEX
  5
aea
  8
Layer_0
  10
235.21498
  20
107.08102
  0
VERTEX
  5
aeb
  8
Layer_0
  10
235.21498
  20
106.26901
  0
VERTEX
  5
aec
  8
Layer_0
  10
235.18874
  20
106.3324
  0
VERTEX
  5
aed
  8
Layer_0
  10
235.12498
  20
106.35901
  0
VERTEX
  5
aee
  8
Layer_0
  10
227.71498
  20
106.35901
  0
VERTEX
  5
aef
  8
Layer_0
  10
227.68123
  20
106.32526
  0
VERTEX
  5
af0
  8
Layer_0
  10
227.71498
  20
106.35901
  0
VERTEX
  5
af1
  8
Layer_0
  10
227.71498
  20
108.01901
  0
VERTEX
  5
af2
  8
Layer_0
  10
227.68874
  20
108.0824
  0
VERTEX
  5
af3
  8
Layer_0
  10
227.62498
  20
108.10901
  0
VERTEX
  5
af4
  8
Layer_0
  10
220.62498
  20
108.10901
  0
VERTEX
  5
af5
  8
Layer_0
  10
220.56123
  20
108.0824
  0
VERTEX
  5
af6
  8
Layer_0
  10
220.53497
  20
108.01901
  0
VERTEX
  5
af7
  8
Layer_0
  10
220.53497
  20
106.35901
  0
VERTEX
  5
af8
  8
Layer_0
  10
220.56873
  20
106.32526
  0
VERTEX
  5
af9
  8
Layer_0
  10
220.53497
  20
106.35901
  0
VERTEX
  5
afa
  8
Layer_0
  10
213.71498
  20
106.35901
  0
VERTEX
  5
afb
  8
Layer_0
  10
213.68123
  20
106.32526
  0
VERTEX
  5
afc
  8
Layer_0
  10
213.71498
  20
106.35901
  0
VERTEX
  5
afd
  8
Layer_0
  10
213.71498
  20
108.01901
  0
VERTEX
  5
afe
  8
Layer_0
  10
213.68874
  20
108.0824
  0
VERTEX
  5
aff
  8
Layer_0
  10
213.62498
  20
108.10901
  0
VERTEX
  5
b00
  8
Layer_0
  10
206.62498
  20
108.10901
  0
VERTEX
  5
b01
  8
Layer_0
  10
206.56123
  20
108.0824
  0
VERTEX
  5
b02
  8
Layer_0
  10
206.53497
  20
108.01901
  0
VERTEX
  5
b03
  8
Layer_0
  10
206.53497
  20
106.35901
  0
VERTEX
  5
b04
  8
Layer_0
  10
206.56873
  20
106.32526
  0
VERTEX
  5
b05
  8
Layer_0
  10
206.53497
  20
106.35901
  0
VERTEX
  5
b06
  8
Layer_0
  10
199.71498
  20
106.35901
  0
VERTEX
  5
b07
  8
Layer_0
  10
199.68123
  20
106.32526
  0
VERTEX
  5
b08
  8
Layer_0
  10
199.71498
  20
106.35901
  0
VERTEX
  5
b09
  8
Layer_0
  10
199.71498
  20
108.01901
  0
VERTEX
  5
b0a
  8
Layer_0
  10
199.68874
  20
108.0824
  0
VERTEX
  5
b0b
  8
Layer_0
  10
199.62498
  20
108.10901
  0
VERTEX
  5
b0c
  8
Layer_0
  10
192.62498
  20
108.10901
  0
VERTEX
  5
b0d
  8
Layer_0
  10
192.56123
  20
108.0824
  0
VERTEX
  5
b0e
  8
Layer_0
  10
192.53497
  20
108.01901
  0
VERTEX
  5
b0f
  8
Layer_0
  10
192.53497
  20
106.35901
  0
VERTEX
  5
b10
  8
Layer_0
  10
192.56873
  20
106.32526
  0
VERTEX
  5
b11
  8
Layer_0
  10
192.53497
  20
106.35901
  0
VERTEX
  5
b12
  8
Layer_0
  10
185.12498
  20
106.35901
  0
VERTEX
  5
b13
  8
Layer_0
  10
185.06123
  20
106.3324
  0
VERTEX
  5
b14
  8
Layer_0
  10
185.03497
  20
106.26901
  0
VERTEX
  5
b15
  8
Layer_0
  10
185.03497
  20
107.08102
  0
SEQEND
  0
POLYLINE
  5
b17
  8
Layer_0
  62
0
  70
1
  66
1
  10
0
  20
0
  30
0
  0
VERTEX
  5
b17
  8
Layer_0
  10
303.03497
  20
121.84299
  0
VERTEX
  5
b18
  8
Layer_0
  10
303.03497
  20
121.22699
  0
VERTEX
  5
b19
  8
Layer_0
  10
303.06873
  20
121.19324
  0
VERTEX
  5
b1a
  8
Layer_0
  10
303.03497
  20
121.22699
  0
VERTEX
  5
b1b
  8
Layer_0
  10
299.62497
  20
121.22699
  0
VERTEX
  5
b1c
  8
Layer_0
  10
299.56122
  20
121.20074
  0
VERTEX
  5
b1d
  8
Layer_0
  10
299.53497
  20
121.13699
  0
VERTEX
  5
b1e
  8
Layer_0
  10
299.53497
  20
114.13699
  0
VERTEX
  5
b1f
  8
Layer_0
  10
299.56122
  20
114.07324
  0
VERTEX
  5
b20
  8
Layer_0
  10
299.62497
  20
114.047
  0
VERTEX
  5
b21
  8
Layer_0
  10
303.03497
  20
114.047
  0
VERTEX
  5
b22
  8
Layer_0
  10
303.06873
  20
114.08075
  0
VERTEX
  5
b23
  8
Layer_0
  10
303.03497
  20
114.047
  0
VERTEX
  5
b24
  8
Layer_0
  10
303.03497
  20
112.97
  0
VERTEX
  5
b25
  8
Layer_0
  10
303.06122
  20
112.90662
  0
VERTEX
  5
b26
  8
Layer_0
  10
303.12497
  20
112.88
  0
VERTEX
  5
b27
  8
Layer_0
  10
310.62497
  20
112.88
  0
VERTEX
  5
b28
  8
Layer_0
  10
310.68872
  20
112.90662
  0
VERTEX
  5
b29
  8
Layer_0
  10
310.71497
  20
112.97
  0
VERTEX
  5
b2a
  8
Layer_0
  10
310.71497
  20
113.78598
  0
VERTEX
  5
b2b
  8
Layer_0
  10
310.68121
  20
113.81973
  0
VERTEX
  5
b2c
  8
Layer_0
  10
310.71497
  20
113.78598
  0
VERTEX
  5
b2d
  8
Layer_0
  10
317.53497
  20
113.78598
  0
VERTEX
  5
b2e
  8
Layer_0
  10
317.56873
  20
113.81973
  0
VERTEX
  5
b2f
  8
Layer_0
  10
317.53497
  20
113.78598
  0
VERTEX
  5
b30
  8
Layer_0
  10
317.53497
  20
112.97
  0
VERTEX
  5
b31
  8
Layer_0
  10
317.56122
  20
112.90662
  0
VERTEX
  5
b32
  8
Layer_0
  10
317.62497
  20
112.88
  0
VERTEX
  5
b33
  8
Layer_0
  10
324.62497
  20
112.88
  0
VERTEX
  5
b34
  8
Layer_0
  10
324.68872
  20
112.90662
  0
VERTEX
  5
b35
  8
Layer_0
  10
324.71497
  20
112.97
  0
VERTEX
  5
b36
  8
Layer_0
  10
324.71497
  20
113.78598
  0
VERTEX
  5
b37
  8
Layer_0
  10
324.68121
  20
113.81973
  0
VERTEX
  5
b38
  8
Layer_0
  10
324.71497
  20
113.78598
  0
VERTEX
  5
b39
  8
Layer_0
  10
331.53497
  20
113.78598
  0
VERTEX
  5
b3a
  8
Layer_0
  10
331.56873
  20
113.81973
  0
VERTEX
  5
b3b
  8
Layer_0
  10
331.53497
  20
113.78598
  0
VERTEX
  5
b3c
  8
Layer_0
  10
331.53497
  20
112.97
  0
VERTEX
  5
b3d
  8
Layer_0
  10
331.56122
  20
112.90662
  0
VERTEX
  5
b3e
  8
Layer_0
  10
331.62497
  20
112.88
  0
VERTEX
  5
b3f
  8
Layer_0
  10
338.62497
  20
112.88
  0
VERTEX
  5
b40
  8
Layer_0
  10
338.68872
  20
112.90662
  0
VERTEX
  5
b41
  8
Layer_0
  10
338.71497
  20
112.97
  0
VERTEX
  5
b42
  8
Layer_0
  10
338.71497
  20
113.78598
  0
VERTEX
  5
b43
  8
Layer_0
  10
338.68121
  20
113.81973
  0
VERTEX
  5
b44
  8
Layer_0
  10
338.71497
  20
113.78598
  0
VERTEX
  5
b45
  8
Layer_0
  10
345.53497
  20
113.78598
  0
VERTEX
  5
b46
  8
Layer_0
  10
345.56873
  20
113.81973
  0
VERTEX
  5
b47
  8
Layer_0
  10
345.53497
  20
113.78598
  0
VERTEX
  5
b48
  8
Layer_0
  10
345.53497
  20
112.97
  0
VERTEX
  5
b49
  8
Layer_0
  10
345.56122
  20
112.90662
  0
VERTEX
  5
b4a
  8
Layer_0
  10
345.62497
  20
112.88
  0
VERTEX
  5
b4b
  8
Layer_0
  10
353.12497
  20
112.88
  0
VERTEX
  5
b4c
  8
Layer_0
  10
353.18872
  20
112.90662
  0
VERTEX
  5
b4d
  8
Layer_0
  10
353.21497
  20
112.97
  0
VERTEX
  5
b4e
  8
Layer_0
  10
353.21497
  20
114.047
  0
VERTEX
  5
b4f
  8
Layer_0
  10
353.18121
  20
114.08075
  0
VERTEX
  5
b50
  8
Layer_0
  10
353.21497
  20
114.047
  0
VERTEX
  5
b51
  8
Layer_0
  10
356.62497
  20
114.047
  0
VERTEX
  5
b52
  8
Layer_0
  10
356.68872
  20
114.07324
  0
VERTEX
  5
b53
  8
Layer_0
  10
356.71497
  20
114.13699
  0
VERTEX
  5
b54
  8
Layer_0
  10
356.71497
  20
121.13699
  0
VERTEX
  5
b55
  8
Layer_0
  10
356.68872
  20
121.20074
  0
VERTEX
  5
b56
  8
Layer_0
  10
356.62497
  20
121.22699
  0
VERTEX
  5
b57
  8
Layer_0
  10
353.21497
  20
121.22699
  0
VERTEX
  5
b58
  8
Layer_0
  10
353.18121
  20
121.19324
  0
VERTEX
  5
b59
  8
Layer_0
  10
353.21497
  20
121.22699
  0
VERTEX
  5
b5a
  8
Layer_0
  10
353.21497
  20
121.84299
  0
VERTEX
  5
b5b
  8
Layer_0
  10
353.21497
  20
121.03
  0
VERTEX
  5
b5c
  8
Layer_0
  10
353.18872
  20
121.09375
  0
VERTEX
  5
b5d
  8
Layer_0
  10
353.12497
  20
121.12
  0
VERTEX
  5
b5e
  8
Layer_0
  10
345.71497
  20
121.12
  0
VERTEX
  5
b5f
  8
Layer_0
  10
345.68121
  20
121.08624
  0
VERTEX
  5
b60
  8
Layer_0
  10
345.71497
  20
121.12
  0
VERTEX
  5
b61
  8
Layer_0
  10
345.71497
  20
122.78
  0
VERTEX
  5
b62
  8
Layer_0
  10
345.68872
  20
122.84375
  0
VERTEX
  5
b63
  8
Layer_0
  10
345.62497
  20
122.87
  0
VERTEX
  5
b64
  8
Layer_0
  10
338.62497
  20
122.87
  0
VERTEX
  5
b65
  8
Layer_0
  10
338.56122
  20
122.84375
  0
VERTEX
  5
b66
  8
Layer_0
  10
338.53497
  20
122.78
  0
VERTEX
  5
b67
  8
Layer_0
  10
338.53497
  20
121.12
  0
VERTEX
  5
b68
  8
Layer_0
  10
338.56873
  20
121.08624
  0
VERTEX
  5
b69
  8
Layer_0
  10
338.53497
  20
121.12
  0
VERTEX
  5
b6a
  8
Layer_0
  10
331.71497
  20
121.12
  0
VERTEX
  5
b6b
  8
Layer_0
  10
331.68121
  20
121.08624
  0
VERTEX
  5
b6c
  8
Layer_0
  10
331.71497
  20
121.12
  0
VERTEX
  5
b6d
  8
Layer_0
  10
331.71497
  20
122.78
  0
VERTEX
  5
b6e
  8
Layer_0
  10
331.68872
  20
122.84375
  0
VERTEX
  5
b6f
  8
Layer_0
  10
331.62497
  20
122.87
  0
VERTEX
  5
b70
  8
Layer_0
  10
324.62497
  20
122.87
  0
VERTEX
  5
b71
  8
Layer_0
  10
324.56122
  20
122.84375
  0
VERTEX
  5
b72
  8
Layer_0
  10
324.53497
  20
122.78
  0
VERTEX
  5
b73
  8
Layer_0
  10
324.53497
  20
121.12
  0
VERTEX
  5
b74
  8
Layer_0
  10
324.56873
  20
121.08624
  0
VERTEX
  5
b75
  8
Layer_0
  10
324.53497
  20
121.12
  0
VERTEX
  5
b76
  8
Layer_0
  10
317.71497
  20
121.12
  0
VERTEX
  5
b77
  8
Layer_0
  10
317.68121
  20
121.08624
  0
VERTEX
  5
b78
  8
Layer_0
  10
317.71497
  20
121.12
  0
VERTEX
  5
b79
  8
Layer_0
  10
317.71497
  20
122.78
  0
VERTEX
  5
b7a
  8
Layer_0
  10
317.68872
  20
122.84375
  0
VERTEX
  5
b7b
  8
Layer_0
  10
317.62497
  20
122.87
  0
VERTEX
  5
b7c
  8
Layer_0
  10
310.62497
  20
122.87
  0
VERTEX
  5
b7d
  8
Layer_0
  10
310.56122
  20
122.84375
  0
VERTEX
  5
b7e
  8
Layer_0
  10
310.53497
  20
122.78
  0
VERTEX
  5
b7f
  8
Layer_0
  10
310.53497
  20
121.12
  0
VERTEX
  5
b80
  8
Layer_0
  10
310.56873
  20
121.08624
  0
VERTEX
  5
b81
  8
Layer_0
  10
310.53497
  20
121.12
  0
VERTEX
  5
b82
  8
Layer_0
  10
303.12497
  20
121.12
  0
VERTEX
  5
b83
  8
Layer_0
  10
303.06122
  20
121.09375
  0
VERTEX
  5
b84
  8
Layer_0
  10
303.03497
  20
121.03
  0
VERTEX
  5
b85
  8
Layer_0
  10
303.03497
  20
121.84299
  0
SEQEND
  0
POLYLINE
  5
b87
  8
Layer_0
  62
0
  70
1
  66
1
  10
0
  20
0
  30
0
  0
VERTEX
  5
b87
  8
Layer_0
  10
301.03497
  20
267.87448
  0
VERTEX
  5
b88
  8
Layer_0
  10
301.03497
  20
264.46448
  0
VERTEX
  5
b89
  8
Layer_0
  10
301.06873
  20
264.43073
  0
VERTEX
  5
b8a
  8
Layer_0
  10
301.03497
  20
264.46448
  0
VERTEX
  5
b8b
  8
Layer_0
  10
297.625
  20
264.46448
  0
VERTEX
  5
b8c
  8
Layer_0
  10
297.56122
  20
264.43823
  0
VERTEX
  5
b8d
  8
Layer_0
  10
297.53497
  20
264.37448
  0
VERTEX
  5
b8e
  8
Layer_0
  10
297.53497
  20
257.37448
  0
VERTEX
  5
b8f
  8
Layer_0
  10
297.56122
  20
257.3111
  0
VERTEX
  5
b90
  8
Layer_0
  10
297.62497
  20
257.28448
  0
VERTEX
  5
b91
  8
Layer_0
  10
301.03497
  20
257.28448
  0
VERTEX
  5
b92
  8
Layer_0
  10
301.06873
  20
257.31824
  0
VERTEX
  5
b93
  8
Layer_0
  10
301.03497
  20
257.28448
  0
VERTEX
  5
b94
  8
Layer_0
  10
301.03497
  20
250.46448
  0
VERTEX
  5
b95
  8
Layer_0
  10
301.06873
  20
250.43073
  0
VERTEX
  5
b96
  8
Layer_0
  10
301.03497
  20
250.46448
  0
VERTEX
  5
b97
  8
Layer_0
  10
297.62497
  20
250.46448
  0
VERTEX
  5
b98
  8
Layer_0
  10
297.56122
  20
250.43823
  0
VERTEX
  5
b99
  8
Layer_0
  10
297.53497
  20
250.37448
  0
VERTEX
  5
b9a
  8
Layer_0
  10
297.53497
  20
243.37451
  0
VERTEX
  5
b9b
  8
Layer_0
  10
297.56122
  20
243.31113
  0
VERTEX
  5
b9c
  8
Layer_0
  10
297.62497
  20
243.28448
  0
VERTEX
  5
b9d
  8
Layer_0
  10
301.03497
  20
243.28448
  0
VERTEX
  5
b9e
  8
Layer_0
  10
301.06873
  20
243.31824
  0
VERTEX
  5
b9f
  8
Layer_0
  10
301.03497
  20
243.28448
  0
VERTEX
  5
ba0
  8
Layer_0
  10
301.03497
  20
236.46448
  0
VERTEX
  5
ba1
  8
Layer_0
  10
301.06873
  20
236.43074
  0
VERTEX
  5
ba2
  8
Layer_0
  10
301.03497
  20
236.46448
  0
VERTEX
  5
ba3
  8
Layer_0
  10
297.62497
  20
236.46448
  0
VERTEX
  5
ba4
  8
Layer_0
  10
297.56122
  20
236.43823
  0
VERTEX
  5
ba5
  8
Layer_0
  10
297.53497
  20
236.37451
  0
VERTEX
  5
ba6
  8
Layer_0
  10
297.53497
  20
229.37451
  0
VERTEX
  5
ba7
  8
Layer_0
  10
297.56122
  20
229.31113
  0
VERTEX
  5
ba8
  8
Layer_0
  10
297.62497
  20
229.28448
  0
VERTEX
  5
ba9
  8
Layer_0
  10
301.03497
  20
229.28448
  0
VERTEX
  5
baa
  8
Layer_0
  10
301.06873
  20
229.31824
  0
VERTEX
  5
bab
  8
Layer_0
  10
301.03497
  20
229.28448
  0
VERTEX
  5
bac
  8
Layer_0
  10
301.03497
  20
222.46448
  0
VERTEX
  5
bad
  8
Layer_0
  10
301.06873
  20
222.43074
  0
VERTEX
  5
bae
  8
Layer_0
  10
301.03497
  20
222.46448
  0
VERTEX
  5
baf
  8
Layer_0
  10
297.62497
  20
222.46448
  0
VERTEX
  5
bb0
  8
Layer_0
  10
297.56122
  20
222.43823
  0
VERTEX
  5
bb1
  8
Layer_0
  10
297.53497
  20
222.37451
  0
VERTEX
  5
bb2
  8
Layer_0
  10
297.53497
  20
215.37451
  0
VERTEX
  5
bb3
  8
Layer_0
  10
297.56122
  20
215.31113
  0
VERTEX
  5
bb4
  8
Layer_0
  10
297.62497
  20
215.28448
  0
VERTEX
  5
bb5
  8
Layer_0
  10
301.03497
  20
215.28448
  0
VERTEX
  5
bb6
  8
Layer_0
  10
301.06873
  20
215.31824
  0
VERTEX
  5
bb7
  8
Layer_0
  10
301.03497
  20
215.28448
  0
VERTEX
  5
bb8
  8
Layer_0
  10
301.03497
  20
208.46448
  0
VERTEX
  5
bb9
  8
Layer_0
  10
301.06873
  20
208.43074
  0
VERTEX
  5
bba
  8
Layer_0
  10
301.03497
  20
208.46448
  0
VERTEX
  5
bbb
  8
Layer_0
  10
297.62497
  20
208.46448
  0
VERTEX
  5
bbc
  8
Layer_0
  10
297.56122
  20
208.43823
  0
VERTEX
  5
bbd
  8
Layer_0
  10
297.53497
  20
208.37451
  0
VERTEX
  5
bbe
  8
Layer_0
  10
297.53497
  20
201.37451
  0
VERTEX
  5
bbf
  8
Layer_0
  10
297.56122
  20
201.31113
  0
VERTEX
  5
bc0
  8
Layer_0
  10
297.62497
  20
201.28448
  0
VERTEX
  5
bc1
  8
Layer_0
  10
301.03497
  20
201.28448
  0
VERTEX
  5
bc2
  8
Layer_0
  10
301.06873
  20
201.31824
  0
VERTEX
  5
bc3
  8
Layer_0
  10
301.03497
  20
201.28448
  0
VERTEX
  5
bc4
  8
Layer_0
  10
301.03497
  20
194.46448
  0
VERTEX
  5
bc5
  8
Layer_0
  10
301.06873
  20
194.43074
  0
VERTEX
  5
bc6
  8
Layer_0
  10
301.03497
  20
194.46448
  0
VERTEX
  5
bc7
  8
Layer_0
  10
297.62497
  20
194.46448
  0
VERTEX
  5
bc8
  8
Layer_0
  10
297.56122
  20
194.43823
  0
VERTEX
  5
bc9
  8
Layer_0
  10
297.53497
  20
194.37451
  0
VERTEX
  5
bca
  8
Layer_0
  10
297.53497
  20
187.37451
  0
VERTEX
  5
bcb
  8
Layer_0
  10
297.56122
  20
187.31113
  0
VERTEX
  5
bcc
  8
Layer_0
  10
297.62497
  20
187.28448
  0
VERTEX
  5
bcd
  8
Layer_0
  10
301.03497
  20
187.28448
  0
VERTEX
  5
bce
  8
Layer_0
  10
301.06873
  20
187.31824
  0
VERTEX
  5
bcf
  8
Layer_0
  10
301.03497
  20
187.28448
  0
VERTEX
  5
bd0
  8
Layer_0
  10
301.03497
  20
180.46448
  0
VERTEX
  5
bd1
  8
Layer_0
  10
301.06873
  20
180.43074
  0
VERTEX
  5
bd2
  8
Layer_0
  10
301.03497
  20
180.46448
  0
VERTEX
  5
bd3
  8
Layer_0
  10
297.62497
  20
180.46448
  0
VERTEX
  5
bd4
  8
Layer_0
  10
297.56122
  20
180.43823
  0
VERTEX
  5
bd5
  8
Layer_0
  10
297.53497
  20
180.37451
  0
VERTEX
  5
bd6
  8
Layer_0
  10
297.53497
  20
173.37451
  0
VERTEX
  5
bd7
  8
Layer_0
  10
297.56122
  20
173.31113
  0
VERTEX
  5
bd8
  8
Layer_0
  10
297.62497
  20
173.28448
  0
VERTEX
  5
bd9
  8
Layer_0
  10
301.03497
  20
173.28448
  0
VERTEX
  5
bda
  8
Layer_0
  10
301.06873
  20
173.31824
  0
VERTEX
  5
bdb
  8
Layer_0
  10
301.03497
  20
173.28448
  0
VERTEX
  5
bdc
  8
Layer_0
  10
301.03497
  20
166.46448
  0
VERTEX
  5
bdd
  8
Layer_0
  10
301.06873
  20
166.43074
  0
VERTEX
  5
bde
  8
Layer_0
  10
301.03497
  20
166.46448
  0
VERTEX
  5
bdf
  8
Layer_0
  10
297.62497
  20
166.46448
  0
VERTEX
  5
be0
  8
Layer_0
  10
297.56122
  20
166.43823
  0
VERTEX
  5
be1
  8
Layer_0
  10
297.53497
  20
166.37451
  0
VERTEX
  5
be2
  8
Layer_0
  10
297.53497
  20
159.37451
  0
VERTEX
  5
be3
  8
Layer_0
  10
297.56122
  20
159.31113
  0
VERTEX
  5
be4
  8
Layer_0
  10
297.62497
  20
159.28448
  0
VERTEX
  5
be5
  8
Layer_0
  10
301.03497
  20
159.28448
  0
VERTEX
  5
be6
  8
Layer_0
  10
301.06873
  20
159.31824
  0
VERTEX
  5
be7
  8
Layer_0
  10
301.03497
  20
159.28448
  0
VERTEX
  5
be8
  8
Layer_0
  10
301.03497
  20
152.46448
  0
VERTEX
  5
be9
  8
Layer_0
  10
301.06873
  20
152.43074
  0
VERTEX
  5
bea
  8
Layer_0
  10
301.03497
  20
152.46448
  0
VERTEX
  5
beb
  8
Layer_0
  10
297.62497
  20
152.46448
  0
VERTEX
  5
bec
  8
Layer_0
  10
297.56122
  20
152.43823
  0
VERTEX
  5
bed
  8
Layer_0
  10
297.53497
  20
152.37451
  0
VERTEX
  5
bee
  8
Layer_0
  10
297.53497
  20
145.37451
  0
VERTEX
  5
bef
  8
Layer_0
  10
297.56122
  20
145.31113
  0
VERTEX
  5
bf0
  8
Layer_0
  10
297.62497
  20
145.28448
  0
VERTEX
  5
bf1
  8
Layer_0
  10
301.03497
  20
145.28448
  0
VERTEX
  5
bf2
  8
Layer_0
  10
301.06873
  20
145.31824
  0
VERTEX
  5
bf3
  8
Layer_0
  10
301.03497
  20
145.28448
  0
VERTEX
  5
bf4
  8
Layer_0
  10
301.03497
  20
138.46448
  0
VERTEX
  5
bf5
  8
Layer_0
  10
301.06873
  20
138.43073
  0
VERTEX
  5
bf6
  8
Layer_0
  10
301.03497
  20
138.46448
  0
VERTEX
  5
bf7
  8
Layer_0
  10
297.62497
  20
138.46448
  0
VERTEX
  5
bf8
  8
Layer_0
  10
297.56122
  20
138.43823
  0
VERTEX
  5
bf9
  8
Layer_0
  10
297.53497
  20
138.37451
  0
VERTEX
  5
bfa
  8
Layer_0
  10
297.53497
  20
131.37451
  0
VERTEX
  5
bfb
  8
Layer_0
  10
297.56122
  20
131.31113
  0
VERTEX
  5
bfc
  8
Layer_0
  10
297.62497
  20
131.28448
  0
VERTEX
  5
bfd
  8
Layer_0
  10
301.03494
  20
131.28448
  0
VERTEX
  5
bfe
  8
Layer_0
  10
301.0687
  20
131.31824
  0
VERTEX
  5
bff
  8
Layer_0
  10
301.03494
  20
131.28448
  0
VERTEX
  5
c00
  8
Layer_0
  10
301.03494
  20
127.87451
  0
VERTEX
  5
c01
  8
Layer_0
  10
301.03494
  20
128.3205
  0
VERTEX
  5
c02
  8
Layer_0
  10
301.06119
  20
128.25674
  0
VERTEX
  5
c03
  8
Layer_0
  10
301.12494
  20
128.23047
  0
VERTEX
  5
c04
  8
Layer_0
  10
308.53494
  20
128.23047
  0
VERTEX
  5
c05
  8
Layer_0
  10
308.5687
  20
128.26422
  0
VERTEX
  5
c06
  8
Layer_0
  10
308.53494
  20
128.23047
  0
VERTEX
  5
c07
  8
Layer_0
  10
308.53494
  20
127.41449
  0
VERTEX
  5
c08
  8
Layer_0
  10
308.56119
  20
127.35074
  0
VERTEX
  5
c09
  8
Layer_0
  10
308.62494
  20
127.32446
  0
VERTEX
  5
c0a
  8
Layer_0
  10
315.62494
  20
127.32446
  0
VERTEX
  5
c0b
  8
Layer_0
  10
315.68872
  20
127.35074
  0
VERTEX
  5
c0c
  8
Layer_0
  10
315.71497
  20
127.41449
  0
VERTEX
  5
c0d
  8
Layer_0
  10
315.71497
  20
128.23047
  0
VERTEX
  5
c0e
  8
Layer_0
  10
315.68121
  20
128.26422
  0
VERTEX
  5
c0f
  8
Layer_0
  10
315.71497
  20
128.23047
  0
VERTEX
  5
c10
  8
Layer_0
  10
322.53494
  20
128.23047
  0
VERTEX
  5
c11
  8
Layer_0
  10
322.5687
  20
128.26422
  0
VERTEX
  5
c12
  8
Layer_0
  10
322.53494
  20
128.23047
  0
VERTEX
  5
c13
  8
Layer_0
  10
322.53494
  20
127.41449
  0
VERTEX
  5
c14
  8
Layer_0
  10
322.56119
  20
127.35074
  0
VERTEX
  5
c15
  8
Layer_0
  10
322.62494
  20
127.32446
  0
VERTEX
  5
c16
  8
Layer_0
  10
329.62494
  20
127.32446
  0
VERTEX
  5
c17
  8
Layer_0
  10
329.68872
  20
127.35074
  0
VERTEX
  5
c18
  8
Layer_0
  10
329.71497
  20
127.41449
  0
VERTEX
  5
c19
  8
Layer_0
  10
329.71497
  20
128.23047
  0
VERTEX
  5
c1a
  8
Layer_0
  10
329.68121
  20
128.26422
  0
VERTEX
  5
c1b
  8
Layer_0
  10
329.71497
  20
128.23047
  0
VERTEX
  5
c1c
  8
Layer_0
  10
336.53494
  20
128.23047
  0
VERTEX
  5
c1d
  8
Layer_0
  10
336.5687
  20
128.26422
  0
VERTEX
  5
c1e
  8
Layer_0
  10
336.53494
  20
128.23047
  0
VERTEX
  5
c1f
  8
Layer_0
  10
336.53494
  20
127.41449
  0
VERTEX
  5
c20
  8
Layer_0
  10
336.56119
  20
127.35074
  0
VERTEX
  5
c21
  8
Layer_0
  10
336.62494
  20
127.32446
  0
VERTEX
  5
c22
  8
Layer_0
  10
343.62494
  20
127.32446
  0
VERTEX
  5
c23
  8
Layer_0
  10
343.68872
  20
127.35074
  0
VERTEX
  5
c24
  8
Layer_0
  10
343.71497
  20
127.41449
  0
VERTEX
  5
c25
  8
Layer_0
  10
343.71497
  20
128.23047
  0
VERTEX
  5
c26
  8
Layer_0
  10
343.68121
  20
128.26422
  0
VERTEX
  5
c27
  8
Layer_0
  10
343.71497
  20
128.23047
  0
VERTEX
  5
c28
  8
Layer_0
  10
351.12497
  20
128.23047
  0
VERTEX
  5
c29
  8
Layer_0
  10
351.18872
  20
128.25674
  0
VERTEX
  5
c2a
  8
Layer_0
  10
351.21497
  20
128.3205
  0
VERTEX
  5
c2b
  8
Layer_0
  10
351.21497
  20
127.87451
  0
VERTEX
  5
c2c
  8
Layer_0
  10
351.21497
  20
131.28448
  0
VERTEX
  5
c2d
  8
Layer_0
  10
351.18121
  20
131.31824
  0
VERTEX
  5
c2e
  8
Layer_0
  10
351.21497
  20
131.28448
  0
VERTEX
  5
c2f
  8
Layer_0
  10
354.62497
  20
131.28448
  0
VERTEX
  5
c30
  8
Layer_0
  10
354.68872
  20
131.31113
  0
VERTEX
  5
c31
  8
Layer_0
  10
354.71497
  20
131.37451
  0
VERTEX
  5
c32
  8
Layer_0
  10
354.71497
  20
138.37451
  0
VERTEX
  5
c33
  8
Layer_0
  10
354.68872
  20
138.43823
  0
VERTEX
  5
c34
  8
Layer_0
  10
354.62497
  20
138.46448
  0
VERTEX
  5
c35
  8
Layer_0
  10
351.21497
  20
138.46448
  0
VERTEX
  5
c36
  8
Layer_0
  10
351.18121
  20
138.43073
  0
VERTEX
  5
c37
  8
Layer_0
  10
351.21497
  20
138.46448
  0
VERTEX
  5
c38
  8
Layer_0
  10
351.21497
  20
145.28448
  0
VERTEX
  5
c39
  8
Layer_0
  10
351.18121
  20
145.31824
  0
VERTEX
  5
c3a
  8
Layer_0
  10
351.21497
  20
145.28448
  0
VERTEX
  5
c3b
  8
Layer_0
  10
354.62497
  20
145.28448
  0
VERTEX
  5
c3c
  8
Layer_0
  10
354.68872
  20
145.31113
  0
VERTEX
  5
c3d
  8
Layer_0
  10
354.71497
  20
145.37451
  0
VERTEX
  5
c3e
  8
Layer_0
  10
354.71497
  20
152.37451
  0
VERTEX
  5
c3f
  8
Layer_0
  10
354.68872
  20
152.43823
  0
VERTEX
  5
c40
  8
Layer_0
  10
354.62497
  20
152.46448
  0
VERTEX
  5
c41
  8
Layer_0
  10
351.21497
  20
152.46448
  0
VERTEX
  5
c42
  8
Layer_0
  10
351.18121
  20
152.43074
  0
VERTEX
  5
c43
  8
Layer_0
  10
351.21497
  20
152.46448
  0
VERTEX
  5
c44
  8
Layer_0
  10
351.21497
  20
159.28448
  0
VERTEX
  5
c45
  8
Layer_0
  10
351.18121
  20
159.31824
  0
VERTEX
  5
c46
  8
Layer_0
  10
351.21497
  20
159.28448
  0
VERTEX
  5
c47
  8
Layer_0
  10
354.62497
  20
159.28448
  0
VERTEX
  5
c48
  8
Layer_0
  10
354.68872
  20
159.31113
  0
VERTEX
  5
c49
  8
Layer_0
  10
354.71497
  20
159.37451
  0
VERTEX
  5
c4a
  8
Layer_0
  10
354.71497
  20
166.37451
  0
VERTEX
  5
c4b
  8
Layer_0
  10
354.68872
  20
166.43823
  0
VERTEX
  5
c4c
  8
Layer_0
  10
354.62497
  20
166.46448
  0
VERTEX
  5
c4d
  8
Layer_0
  10
351.21497
  20
166.46448
  0
VERTEX
  5
c4e
  8
Layer_0
  10
351.18121
  20
166.43074
  0
VERTEX
  5
c4f
  8
Layer_0
  10
351.21497
  20
166.46448
  0
VERTEX
  5
c50
  8
Layer_0
  10
351.21497
  20
173.28448
  0
VERTEX
  5
c51
  8
Layer_0
  10
351.18121
  20
173.31824
  0
VERTEX
  5
c52
  8
Layer_0
  10
351.21497
  20
173.28448
  0
VERTEX
  5
c53
  8
Layer_0
  10
354.62497
  20
173.28448
  0
VERTEX
  5
c54
  8
Layer_0
  10
354.68872
  20
173.31113
  0
VERTEX
  5
c55
  8
Layer_0
  10
354.71497
  20
173.37451
  0
VERTEX
  5
c56
  8
Layer_0
  10
354.71497
  20
180.37451
  0
VERTEX
  5
c57
  8
Layer_0
  10
354.68872
  20
180.43823
  0
VERTEX
  5
c58
  8
Layer_0
  10
354.62497
  20
180.46448
  0
VERTEX
  5
c59
  8
Layer_0
  10
351.21497
  20
180.46448
  0
VERTEX
  5
c5a
  8
Layer_0
  10
351.18121
  20
180.43074
  0
VERTEX
  5
c5b
  8
Layer_0
  10
351.21497
  20
180.46448
  0
VERTEX
  5
c5c
  8
Layer_0
  10
351.21497
  20
187.28448
  0
VERTEX
  5
c5d
  8
Layer_0
  10
351.18121
  20
187.31824
  0
VERTEX
  5
c5e
  8
Layer_0
  10
351.21497
  20
187.28448
  0
VERTEX
  5
c5f
  8
Layer_0
  10
354.62497
  20
187.28448
  0
VERTEX
  5
c60
  8
Layer_0
  10
354.68872
  20
187.31113
  0
VERTEX
  5
c61
  8
Layer_0
  10
354.71497
  20
187.37451
  0
VERTEX
  5
c62
  8
Layer_0
  10
354.71497
  20
194.37451
  0
VERTEX
  5
c63
  8
Layer_0
  10
354.68872
  20
194.43823
  0
VERTEX
  5
c64
  8
Layer_0
  10
354.62497
  20
194.46448
  0
VERTEX
  5
c65
  8
Layer_0
  10
351.21497
  20
194.46448
  0
VERTEX
  5
c66
  8
Layer_0
  10
351.18121
  20
194.43074
  0
VERTEX
  5
c67
  8
Layer_0
  10
351.21497
  20
194.46448
  0
VERTEX
  5
c68
  8
Layer_0
  10
351.21497
  20
201.28448
  0
VERTEX
  5
c69
  8
Layer_0
  10
351.18121
  20
201.31824
  0
VERTEX
  5
c6a
  8
Layer_0
  10
351.21497
  20
201.28448
  0
VERTEX
  5
c6b
  8
Layer_0
  10
354.62497
  20
201.28448
  0
VERTEX
  5
c6c
  8
Layer_0
  10
354.68872
  20
201.31113
  0
VERTEX
  5
c6d
  8
Layer_0
  10
354.71497
  20
201.37451
  0
VERTEX
  5
c6e
  8
Layer_0
  10
354.71497
  20
208.37451
  0
VERTEX
  5
c6f
  8
Layer_0
  10
354.68872
  20
208.43823
  0
VERTEX
  5
c70
  8
Layer_0
  10
354.62497
  20
208.46448
  0
VERTEX
  5
c71
  8
Layer_0
  10
351.21497
  20
208.46448
  0
VERTEX
  5
c72
  8
Layer_0
  10
351.18121
  20
208.43074
  0
VERTEX
  5
c73
  8
Layer_0
  10
351.21497
  20
208.46448
  0
VERTEX
  5
c74
  8
Layer_0
  10
351.21497
  20
215.28448
  0
VERTEX
  5
c75
  8
Layer_0
  10
351.18121
  20
215.31824
  0
VERTEX
  5
c76
  8
Layer_0
  10
351.21497
  20
215.28448
  0
VERTEX
  5
c77
  8
Layer_0
  10
354.62497
  20
215.28448
  0
VERTEX
  5
c78
  8
Layer_0
  10
354.68872
  20
215.31113
  0
VERTEX
  5
c79
  8
Layer_0
  10
354.71497
  20
215.37451
  0
VERTEX
  5
c7a
  8
Layer_0
  10
354.71497
  20
222.37451
  0
VERTEX
  5
c7b
  8
Layer_0
  10
354.68872
  20
222.43823
  0
VERTEX
  5
c7c
  8
Layer_0
  10
354.62497
  20
222.46448
  0
VERTEX
  5
c7d
  8
Layer_0
  10
351.21497
  20
222.46448
  0
VERTEX
  5
c7e
  8
Layer_0
  10
351.18121
  20
222.43074
  0
VERTEX
  5
c7f
  8
Layer_0
  10
351.21497
  20
222.46448
  0
VERTEX
  5
c80
  8
Layer_0
  10
351.21497
  20
229.28448
  0
VERTEX
  5
c81
  8
Layer_0
  10
351.18121
  20
229.31824
  0
VERTEX
  5
c82
  8
Layer_0
  10
351.21497
  20
229.28448
  0
VERTEX
  5
c83
  8
Layer_0
  10
354.62497
  20
229.28448
  0
VERTEX
  5
c84
  8
Layer_0
  10
354.68872
  20
229.31113
  0
VERTEX
  5
c85
  8
Layer_0
  10
354.71497
  20
229.37451
  0
VERTEX
  5
c86
  8
Layer_0
  10
354.71497
  20
236.37451
  0
VERTEX
  5
c87
  8
Layer_0
  10
354.68872
  20
236.43823
  0
VERTEX
  5
c88
  8
Layer_0
  10
354.62497
  20
236.46448
  0
VERTEX
  5
c89
  8
Layer_0
  10
351.21497
  20
236.46448
  0
VERTEX
  5
c8a
  8
Layer_0
  10
351.18121
  20
236.43074
  0
VERTEX
  5
c8b
  8
Layer_0
  10
351.21497
  20
236.46448
  0
VERTEX
  5
c8c
  8
Layer_0
  10
351.21497
  20
243.28448
  0
VERTEX
  5
c8d
  8
Layer_0
  10
351.18121
  20
243.31824
  0
VERTEX
  5
c8e
  8
Layer_0
  10
351.21497
  20
243.28448
  0
VERTEX
  5
c8f
  8
Layer_0
  10
354.62497
  20
243.28448
  0
VERTEX
  5
c90
  8
Layer_0
  10
354.68872
  20
243.31113
  0
VERTEX
  5
c91
  8
Layer_0
  10
354.71497
  20
243.37451
  0
VERTEX
  5
c92
  8
Layer_0
  10
354.71497
  20
250.37448
  0
VERTEX
  5
c93
  8
Layer_0
  10
354.68872
  20
250.43823
  0
VERTEX
  5
c94
  8
Layer_0
  10
354.62497
  20
250.46448
  0
VERTEX
  5
c95
  8
Layer_0
  10
351.21497
  20
250.46448
  0
VERTEX
  5
c96
  8
Layer_0
  10
351.18121
  20
250.43073
  0
VERTEX
  5
c97
  8
Layer_0
  10
351.21497
  20
250.46448
  0
VERTEX
  5
c98
  8
Layer_0
  10
351.21497
  20
257.28448
  0
VERTEX
  5
c99
  8
Layer_0
  10
351.18121
  20
257.31824
  0
VERTEX
  5
c9a
  8
Layer_0
  10
351.21497
  20
257.28448
  0
VERTEX
  5
c9b
  8
Layer_0
  10
354.62497
  20
257.28448
  0
VERTEX
  5
c9c
  8
Layer_0
  10
354.68872
  20
257.3111
  0
VERTEX
  5
c9d
  8
Layer_0
  10
354.71497
  20
257.37448
  0
VERTEX
  5
c9e
  8
Layer_0
  10
354.71497
  20
264.37448
  0
VERTEX
  5
c9f
  8
Layer_0
  10
354.68872
  20
264.43823
  0
VERTEX
  5
ca0
  8
Layer_0
  10
354.62497
  20
264.46448
  0
VERTEX
  5
ca1
  8
Layer_0
  10
351.21497
  20
264.46448
  0
VERTEX
  5
ca2
  8
Layer_0
  10
351.18121
  20
264.43073
  0
VERTEX
  5
ca3
  8
Layer_0
  10
351.21497
  20
264.46448
  0
VERTEX
  5
ca4
  8
Layer_0
  10
351.21497
  20
267.87448
  0
VERTEX
  5
ca5
  8
Layer_0
  10
351.21497
  20
267.4295
  0
VERTEX
  5
ca6
  8
Layer_0
  10
351.18872
  20
267.49323
  0
VERTEX
  5
ca7
  8
Layer_0
  10
351.12497
  20
267.5195
  0
VERTEX
  5
ca8
  8
Layer_0
  10
343.71497
  20
267.5195
  0
VERTEX
  5
ca9
  8
Layer_0
  10
343.68121
  20
267.48575
  0
VERTEX
  5
caa
  8
Layer_0
  10
343.71497
  20
267.5195
  0
VERTEX
  5
cab
  8
Layer_0
  10
343.71497
  20
268.33548
  0
VERTEX
  5
cac
  8
Layer_0
  10
343.68872
  20
268.39923
  0
VERTEX
  5
cad
  8
Layer_0
  10
343.62497
  20
268.42551
  0
VERTEX
  5
cae
  8
Layer_0
  10
336.62497
  20
268.42551
  0
VERTEX
  5
caf
  8
Layer_0
  10
336.56122
  20
268.39923
  0
VERTEX
  5
cb0
  8
Layer_0
  10
336.53497
  20
268.33548
  0
VERTEX
  5
cb1
  8
Layer_0
  10
336.53497
  20
267.5195
  0
VERTEX
  5
cb2
  8
Layer_0
  10
336.56873
  20
267.48575
  0
VERTEX
  5
cb3
  8
Layer_0
  10
336.53497
  20
267.5195
  0
VERTEX
  5
cb4
  8
Layer_0
  10
329.71497
  20
267.5195
  0
VERTEX
  5
cb5
  8
Layer_0
  10
329.68121
  20
267.48575
  0
VERTEX
  5
cb6
  8
Layer_0
  10
329.71497
  20
267.5195
  0
VERTEX
  5
cb7
  8
Layer_0
  10
329.71497
  20
268.33548
  0
VERTEX
  5
cb8
  8
Layer_0
  10
329.68872
  20
268.39923
  0
VERTEX
  5
cb9
  8
Layer_0
  10
329.62497
  20
268.42551
  0
VERTEX
  5
cba
  8
Layer_0
  10
322.62497
  20
268.42551
  0
VERTEX
  5
cbb
  8
Layer_0
  10
322.56122
  20
268.39923
  0
VERTEX
  5
cbc
  8
Layer_0
  10
322.53497
  20
268.33548
  0
VERTEX
  5
cbd
  8
Layer_0
  10
322.53497
  20
267.5195
  0
VERTEX
  5
cbe
  8
Layer_0
  10
322.56873
  20
267.48575
  0
VERTEX
  5
cbf
  8
Layer_0
  10
322.53497
  20
267.5195
  0
VERTEX
  5
cc0
  8
Layer_0
  10
315.71497
  20
267.5195
  0
VERTEX
  5
cc1
  8
Layer_0
  10
315.68121
  20
267.48575
  0
VERTEX
  5
cc2
  8
Layer_0
  10
315.71497
  20
267.5195
  0
VERTEX
  5
cc3
  8
Layer_0
  10
315.71497
  20
268.33548
  0
VERTEX
  5
cc4
  8
Layer_0
  10
315.68872
  20
268.39923
  0
VERTEX
  5
cc5
  8
Layer_0
  10
315.62497
  20
268.42551
  0
VERTEX
  5
cc6
  8
Layer_0
  10
308.62497
  20
268.42551
  0
VERTEX
  5
cc7
  8
Layer_0
  10
308.56122
  20
268.39923
  0
VERTEX
  5
cc8
  8
Layer_0
  10
308.53497
  20
268.33548
  0
VERTEX
  5
cc9
  8
Layer_0
  10
308.53497
  20
267.5195
  0
VERTEX
  5
cca
  8
Layer_0
  10
308.56873
  20
267.48575
  0
VERTEX
  5
ccb
  8
Layer_0
  10
308.53497
  20
267.5195
  0
VERTEX
  5
ccc
  8
Layer_0
  10
301.12497
  20
267.5195
  0
VERTEX
  5
ccd
  8
Layer_0
  10
301.06122
  20
267.49323
  0
VERTEX
  5
cce
  8
Layer_0
  10
301.03497
  20
267.4295
  0
VERTEX
  5
ccf
  8
Layer_0
  10
301.03497
  20
267.87448
  0
SEQEND
  0
POLYLINE
  5
cd1
  8
Layer_0
  62
0
  70
1
  66
1
  10
0
  20
0
  30
0
  0
VERTEX
  5
cd1
  8
Layer_0
  10
261.93243
  20
110.78497
  0
VERTEX
  5
cd2
  8
Layer_0
  10
262.54846
  20
110.78497
  0
VERTEX
  5
cd3
  8
Layer_0
  10
262.58221
  20
110.81873
  0
VERTEX
  5
cd4
  8
Layer_0
  10
262.54846
  20
110.78497
  0
VERTEX
  5
cd5
  8
Layer_0
  10
262.54846
  20
107.37497
  0
VERTEX
  5
cd6
  8
Layer_0
  10
262.57471
  20
107.31122
  0
VERTEX
  5
cd7
  8
Layer_0
  10
262.63843
  20
107.28497
  0
VERTEX
  5
cd8
  8
Layer_0
  10
269.63843
  20
107.28497
  0
VERTEX
  5
cd9
  8
Layer_0
  10
269.70218
  20
107.31122
  0
VERTEX
  5
cda
  8
Layer_0
  10
269.72845
  20
107.37497
  0
VERTEX
  5
cdb
  8
Layer_0
  10
269.72845
  20
110.78497
  0
VERTEX
  5
cdc
  8
Layer_0
  10
269.6947
  20
110.81873
  0
VERTEX
  5
cdd
  8
Layer_0
  10
269.72845
  20
110.78497
  0
VERTEX
  5
cde
  8
Layer_0
  10
270.34442
  20
110.78497
  0
VERTEX
  5
cdf
  8
Layer_0
  10
269.53241
  20
110.78497
  0
VERTEX
  5
ce0
  8
Layer_0
  10
269.59579
  20
110.81122
  0
VERTEX
  5
ce1
  8
Layer_0
  10
269.62244
  20
110.87497
  0
VERTEX
  5
ce2
  8
Layer_0
  10
269.62244
  20
118.28497
  0
VERTEX
  5
ce3
  8
Layer_0
  10
269.58868
  20
118.31873
  0
VERTEX
  5
ce4
  8
Layer_0
  10
269.62244
  20
118.28497
  0
VERTEX
  5
ce5
  8
Layer_0
  10
271.28241
  20
118.28497
  0
VERTEX
  5
ce6
  8
Layer_0
  10
271.34579
  20
118.31122
  0
VERTEX
  5
ce7
  8
Layer_0
  10
271.37244
  20
118.37497
  0
VERTEX
  5
ce8
  8
Layer_0
  10
271.37244
  20
125.37497
  0
VERTEX
  5
ce9
  8
Layer_0
  10
271.34579
  20
125.43872
  0
VERTEX
  5
cea
  8
Layer_0
  10
271.28241
  20
125.46497
  0
VERTEX
  5
ceb
  8
Layer_0
  10
269.62244
  20
125.46497
  0
VERTEX
  5
cec
  8
Layer_0
  10
269.58868
  20
125.43121
  0
VERTEX
  5
ced
  8
Layer_0
  10
269.62244
  20
125.46497
  0
VERTEX
  5
cee
  8
Layer_0
  10
269.62244
  20
132.28497
  0
VERTEX
  5
cef
  8
Layer_0
  10
269.58868
  20
132.31873
  0
VERTEX
  5
cf0
  8
Layer_0
  10
269.62244
  20
132.28497
  0
VERTEX
  5
cf1
  8
Layer_0
  10
271.28241
  20
132.28497
  0
VERTEX
  5
cf2
  8
Layer_0
  10
271.34579
  20
132.31122
  0
VERTEX
  5
cf3
  8
Layer_0
  10
271.37244
  20
132.37497
  0
VERTEX
  5
cf4
  8
Layer_0
  10
271.37244
  20
139.37497
  0
VERTEX
  5
cf5
  8
Layer_0
  10
271.34579
  20
139.43872
  0
VERTEX
  5
cf6
  8
Layer_0
  10
271.28241
  20
139.46497
  0
VERTEX
  5
cf7
  8
Layer_0
  10
269.62244
  20
139.46497
  0
VERTEX
  5
cf8
  8
Layer_0
  10
269.58868
  20
139.43121
  0
VERTEX
  5
cf9
  8
Layer_0
  10
269.62244
  20
139.46497
  0
VERTEX
  5
cfa
  8
Layer_0
  10
269.62244
  20
146.28497
  0
VERTEX
  5
cfb
  8
Layer_0
  10
269.58868
  20
146.31873
  0
VERTEX
  5
cfc
  8
Layer_0
  10
269.62244
  20
146.28497
  0
VERTEX
  5
cfd
  8
Layer_0
  10
271.28241
  20
146.28497
  0
VERTEX
  5
cfe
  8
Layer_0
  10
271.34579
  20
146.31122
  0
VERTEX
  5
cff
  8
Layer_0
  10
271.37244
  20
146.37497
  0
VERTEX
  5
d00
  8
Layer_0
  10
271.37244
  20
153.37497
  0
VERTEX
  5
d01
  8
Layer_0
  10
271.34579
  20
153.43871
  0
VERTEX
  5
d02
  8
Layer_0
  10
271.28241
  20
153.46497
  0
VERTEX
  5
d03
  8
Layer_0
  10
269.62244
  20
153.46497
  0
VERTEX
  5
d04
  8
Layer_0
  10
269.58868
  20
153.43121
  0
VERTEX
  5
d05
  8
Layer_0
  10
269.62244
  20
153.46497
  0
VERTEX
  5
d06
  8
Layer_0
  10
269.62244
  20
160.87497
  0
VERTEX
  5
d07
  8
Layer_0
  10
269.59579
  20
160.93872
  0
VERTEX
  5
d08
  8
Layer_0
  10
269.53241
  20
160.96497
  0
VERTEX
  5
d09
  8
Layer_0
  10
270.34442
  20
160.96497
  0
VERTEX
  5
d0a
  8
Layer_0
  10
269.72845
  20
160.96497
  0
VERTEX
  5
d0b
  8
Layer_0
  10
269.6947
  20
160.93121
  0
VERTEX
  5
d0c
  8
Layer_0
  10
269.72845
  20
160.96497
  0
VERTEX
  5
d0d
  8
Layer_0
  10
269.72845
  20
164.37497
  0
VERTEX
  5
d0e
  8
Layer_0
  10
269.70218
  20
164.43872
  0
VERTEX
  5
d0f
  8
Layer_0
  10
269.63843
  20
164.46497
  0
VERTEX
  5
d10
  8
Layer_0
  10
262.63843
  20
164.46497
  0
VERTEX
  5
d11
  8
Layer_0
  10
262.57471
  20
164.43872
  0
VERTEX
  5
d12
  8
Layer_0
  10
262.54846
  20
164.37497
  0
VERTEX
  5
d13
  8
Layer_0
  10
262.54846
  20
160.96497
  0
VERTEX
  5
d14
  8
Layer_0
  10
262.58221
  20
160.93121
  0
VERTEX
  5
d15
  8
Layer_0
  10
262.54846
  20
160.96497
  0
VERTEX
  5
d16
  8
Layer_0
  10
261.47144
  20
160.96497
  0
VERTEX
  5
d17
  8
Layer_0
  10
261.40808
  20
160.93872
  0
VERTEX
  5
d18
  8
Layer_0
  10
261.38147
  20
160.87497
  0
VERTEX
  5
d19
  8
Layer_0
  10
261.38147
  20
153.37497
  0
VERTEX
  5
d1a
  8
Layer_0
  10
261.40808
  20
153.31122
  0
VERTEX
  5
d1b
  8
Layer_0
  10
261.47144
  20
153.28497
  0
VERTEX
  5
d1c
  8
Layer_0
  10
262.28741
  20
153.28497
  0
VERTEX
  5
d1d
  8
Layer_0
  10
262.32117
  20
153.31873
  0
VERTEX
  5
d1e
  8
Layer_0
  10
262.28741
  20
153.28497
  0
VERTEX
  5
d1f
  8
Layer_0
  10
262.28741
  20
146.46497
  0
VERTEX
  5
d20
  8
Layer_0
  10
262.32117
  20
146.43121
  0
VERTEX
  5
d21
  8
Layer_0
  10
262.28741
  20
146.46497
  0
VERTEX
  5
d22
  8
Layer_0
  10
261.47144
  20
146.46497
  0
VERTEX
  5
d23
  8
Layer_0
  10
261.40808
  20
146.43872
  0
VERTEX
  5
d24
  8
Layer_0
  10
261.38147
  20
146.37497
  0
VERTEX
  5
d25
  8
Layer_0
  10
261.38147
  20
139.37497
  0
VERTEX
  5
d26
  8
Layer_0
  10
261.40808
  20
139.31122
  0
VERTEX
  5
d27
  8
Layer_0
  10
261.47144
  20
139.28497
  0
VERTEX
  5
d28
  8
Layer_0
  10
262.28741
  20
139.28497
  0
VERTEX
  5
d29
  8
Layer_0
  10
262.32117
  20
139.31873
  0
VERTEX
  5
d2a
  8
Layer_0
  10
262.28741
  20
139.28497
  0
VERTEX
  5
d2b
  8
Layer_0
  10
262.28741
  20
132.46497
  0
VERTEX
  5
d2c
  8
Layer_0
  10
262.32117
  20
132.43121
  0
VERTEX
  5
d2d
  8
Layer_0
  10
262.28741
  20
132.46497
  0
VERTEX
  5
d2e
  8
Layer_0
  10
261.47144
  20
132.46497
  0
VERTEX
  5
d2f
  8
Layer_0
  10
261.40808
  20
132.43872
  0
VERTEX
  5
d30
  8
Layer_0
  10
261.38147
  20
132.37497
  0
VERTEX
  5
d31
  8
Layer_0
  10
261.38147
  20
125.37497
  0
VERTEX
  5
d32
  8
Layer_0
  10
261.40808
  20
125.31122
  0
VERTEX
  5
d33
  8
Layer_0
  10
261.47144
  20
125.28497
  0
VERTEX
  5
d34
  8
Layer_0
  10
262.28741
  20
125.28497
  0
VERTEX
  5
d35
  8
Layer_0
  10
262.32117
  20
125.31873
  0
VERTEX
  5
d36
  8
Layer_0
  10
262.28741
  20
125.28497
  0
VERTEX
  5
d37
  8
Layer_0
  10
262.28741
  20
118.46497
  0
VERTEX
  5
d38
  8
Layer_0
  10
262.32117
  20
118.43121
  0
VERTEX
  5
d39
  8
Layer_0
  10
262.28741
  20
118.46497
  0
VERTEX
  5
d3a
  8
Layer_0
  10
261.47144
  20
118.46497
  0
VERTEX
  5
d3b
  8
Layer_0
  10
261.40808
  20
118.43872
  0
VERTEX
  5
d3c
  8
Layer_0
  10
261.38147
  20
118.37497
  0
VERTEX
  5
d3d
  8
Layer_0
  10
261.38147
  20
110.87497
  0
VERTEX
  5
d3e
  8
Layer_0
  10
261.40808
  20
110.81122
  0
VERTEX
  5
d3f
  8
Layer_0
  10
261.47144
  20
110.78497
  0
VERTEX
  5
d40
  8
Layer_0
  10
261.93243
  20
110.78497
  0
SEQEND
  0
POLYLINE
  5
d42
  8
Layer_0
  62
0
  70
1
  66
1
  10
0
  20
0
  30
0
  0
VERTEX
  5
d42
  8
Layer_0
  10
274.14941
  20
110.78497
  0
VERTEX
  5
d43
  8
Layer_0
  10
274.76544
  20
110.78497
  0
VERTEX
  5
d44
  8
Layer_0
  10
274.79919
  20
110.81873
  0
VERTEX
  5
d45
  8
Layer_0
  10
274.76544
  20
110.78497
  0
VERTEX
  5
d46
  8
Layer_0
  10
274.76544
  20
107.37497
  0
VERTEX
  5
d47
  8
Layer_0
  10
274.79169
  20
107.31122
  0
VERTEX
  5
d48
  8
Layer_0
  10
274.85547
  20
107.28497
  0
VERTEX
  5
d49
  8
Layer_0
  10
281.85547
  20
107.28497
  0
VERTEX
  5
d4a
  8
Layer_0
  10
281.91919
  20
107.31122
  0
VERTEX
  5
d4b
  8
Layer_0
  10
281.94543
  20
107.37497
  0
VERTEX
  5
d4c
  8
Layer_0
  10
281.94543
  20
110.78497
  0
VERTEX
  5
d4d
  8
Layer_0
  10
281.91168
  20
110.81873
  0
VERTEX
  5
d4e
  8
Layer_0
  10
281.94543
  20
110.78497
  0
VERTEX
  5
d4f
  8
Layer_0
  10
282.56146
  20
110.78497
  0
VERTEX
  5
d50
  8
Layer_0
  10
281.74945
  20
110.78497
  0
VERTEX
  5
d51
  8
Layer_0
  10
281.81317
  20
110.81122
  0
VERTEX
  5
d52
  8
Layer_0
  10
281.83942
  20
110.87497
  0
VERTEX
  5
d53
  8
Layer_0
  10
281.83942
  20
118.28497
  0
VERTEX
  5
d54
  8
Layer_0
  10
281.80566
  20
118.31873
  0
VERTEX
  5
d55
  8
Layer_0
  10
281.83942
  20
118.28497
  0
VERTEX
  5
d56
  8
Layer_0
  10
283.49945
  20
118.28497
  0
VERTEX
  5
d57
  8
Layer_0
  10
283.56317
  20
118.31122
  0
VERTEX
  5
d58
  8
Layer_0
  10
283.58942
  20
118.37497
  0
VERTEX
  5
d59
  8
Layer_0
  10
283.58942
  20
125.37497
  0
VERTEX
  5
d5a
  8
Layer_0
  10
283.56317
  20
125.43872
  0
VERTEX
  5
d5b
  8
Layer_0
  10
283.49945
  20
125.46497
  0
VERTEX
  5
d5c
  8
Layer_0
  10
281.83942
  20
125.46497
  0
VERTEX
  5
d5d
  8
Layer_0
  10
281.80566
  20
125.43121
  0
VERTEX
  5
d5e
  8
Layer_0
  10
281.83942
  20
125.46497
  0
VERTEX
  5
d5f
  8
Layer_0
  10
281.83942
  20
132.28497
  0
VERTEX
  5
d60
  8
Layer_0
  10
281.80566
  20
132.31873
  0
VERTEX
  5
d61
  8
Layer_0
  10
281.83942
  20
132.28497
  0
VERTEX
  5
d62
  8
Layer_0
  10
283.49945
  20
132.28497
  0
VERTEX
  5
d63
  8
Layer_0
  10
283.56317
  20
132.31122
  0
VERTEX
  5
d64
  8
Layer_0
  10
283.58942
  20
132.37497
  0
VERTEX
  5
d65
  8
Layer_0
  10
283.58942
  20
139.37497
  0
VERTEX
  5
d66
  8
Layer_0
  10
283.56317
  20
139.43872
  0
VERTEX
  5
d67
  8
Layer_0
  10
283.49945
  20
139.46497
  0
VERTEX
  5
d68
  8
Layer_0
  10
281.83942
  20
139.46497
  0
VERTEX
  5
d69
  8
Layer_0
  10
281.80566
  20
139.43121
  0
VERTEX
  5
d6a
  8
Layer_0
  10
281.83942
  20
139.46497
  0
VERTEX
  5
d6b
  8
Layer_0
  10
281.83942
  20
146.28497
  0
VERTEX
  5
d6c
  8
Layer_0
  10
281.80566
  20
146.31873
  0
VERTEX
  5
d6d
  8
Layer_0
  10
281.83942
  20
146.28497
  0
VERTEX
  5
d6e
  8
Layer_0
  10
283.49945
  20
146.28497
  0
VERTEX
  5
d6f
  8
Layer_0
  10
283.56317
  20
146.31122
  0
VERTEX
  5
d70
  8
Layer_0
  10
283.58942
  20
146.37497
  0
VERTEX
  5
d71
  8
Layer_0
  10
283.58942
  20
153.37497
  0
VERTEX
  5
d72
  8
Layer_0
  10
283.56317
  20
153.43871
  0
VERTEX
  5
d73
  8
Layer_0
  10
283.49945
  20
153.46497
  0
VERTEX
  5
d74
  8
Layer_0
  10
281.83942
  20
153.46497
  0
VERTEX
  5
d75
  8
Layer_0
  10
281.80566
  20
153.43121
  0
VERTEX
  5
d76
  8
Layer_0
  10
281.83942
  20
153.46497
  0
VERTEX
  5
d77
  8
Layer_0
  10
281.83942
  20
160.87497
  0
VERTEX
  5
d78
  8
Layer_0
  10
281.81317
  20
160.93872
  0
VERTEX
  5
d79
  8
Layer_0
  10
281.74945
  20
160.96497
  0
VERTEX
  5
d7a
  8
Layer_0
  10
282.56146
  20
160.96497
  0
VERTEX
  5
d7b
  8
Layer_0
  10
281.94543
  20
160.96497
  0
VERTEX
  5
d7c
  8
Layer_0
  10
281.91168
  20
160.93121
  0
VERTEX
  5
d7d
  8
Layer_0
  10
281.94543
  20
160.96497
  0
VERTEX
  5
d7e
  8
Layer_0
  10
281.94543
  20
164.37497
  0
VERTEX
  5
d7f
  8
Layer_0
  10
281.91919
  20
164.43872
  0
VERTEX
  5
d80
  8
Layer_0
  10
281.85547
  20
164.46497
  0
VERTEX
  5
d81
  8
Layer_0
  10
274.85547
  20
164.46497
  0
VERTEX
  5
d82
  8
Layer_0
  10
274.79169
  20
164.43872
  0
VERTEX
  5
d83
  8
Layer_0
  10
274.76544
  20
164.37497
  0
VERTEX
  5
d84
  8
Layer_0
  10
274.76544
  20
160.96497
  0
VERTEX
  5
d85
  8
Layer_0
  10
274.79919
  20
160.93121
  0
VERTEX
  5
d86
  8
Layer_0
  10
274.76544
  20
160.96497
  0
VERTEX
  5
d87
  8
Layer_0
  10
273.21246
  20
160.96497
  0
VERTEX
  5
d88
  8
Layer_0
  10
273.14868
  20
160.93872
  0
VERTEX
  5
d89
  8
Layer_0
  10
273.12244
  20
160.87497
  0
VERTEX
  5
d8a
  8
Layer_0
  10
273.12244
  20
153.37497
  0
VERTEX
  5
d8b
  8
Layer_0
  10
273.14868
  20
153.31122
  0
VERTEX
  5
d8c
  8
Layer_0
  10
273.21246
  20
153.28497
  0
VERTEX
  5
d8d
  8
Layer_0
  10
274.87244
  20
153.28497
  0
VERTEX
  5
d8e
  8
Layer_0
  10
274.90619
  20
153.31873
  0
VERTEX
  5
d8f
  8
Layer_0
  10
274.87244
  20
153.28497
  0
VERTEX
  5
d90
  8
Layer_0
  10
274.87244
  20
146.46497
  0
VERTEX
  5
d91
  8
Layer_0
  10
274.90619
  20
146.43121
  0
VERTEX
  5
d92
  8
Layer_0
  10
274.87244
  20
146.46497
  0
VERTEX
  5
d93
  8
Layer_0
  10
273.21246
  20
146.46497
  0
VERTEX
  5
d94
  8
Layer_0
  10
273.14868
  20
146.43872
  0
VERTEX
  5
d95
  8
Layer_0
  10
273.12244
  20
146.37497
  0
VERTEX
  5
d96
  8
Layer_0
  10
273.12244
  20
139.37497
  0
VERTEX
  5
d97
  8
Layer_0
  10
273.14868
  20
139.31122
  0
VERTEX
  5
d98
  8
Layer_0
  10
273.21246
  20
139.28497
  0
VERTEX
  5
d99
  8
Layer_0
  10
274.87244
  20
139.28497
  0
VERTEX
  5
d9a
  8
Layer_0
  10
274.90619
  20
139.31873
  0
VERTEX
  5
d9b
  8
Layer_0
  10
274.87244
  20
139.28497
  0
VERTEX
  5
d9c
  8
Layer_0
  10
274.87244
  20
132.46497
  0
VERTEX
  5
d9d
  8
Layer_0
  10
274.90619
  20
132.43121
  0
VERTEX
  5
d9e
  8
Layer_0
  10
274.87244
  20
132.46497
  0
VERTEX
  5
d9f
  8
Layer_0
  10
273.21246
  20
132.46497
  0
VERTEX
  5
da0
  8
Layer_0
  10
273.14868
  20
132.43872
  0
VERTEX
  5
da1
  8
Layer_0
  10
273.12244
  20
132.37497
  0
VERTEX
  5
da2
  8
Layer_0
  10
273.12244
  20
125.37497
  0
VERTEX
  5
da3
  8
Layer_0
  10
273.14868
  20
125.31122
  0
VERTEX
  5
da4
  8
Layer_0
  10
273.21246
  20
125.28497
  0
VERTEX
  5
da5
  8
Layer_0
  10
274.87244
  20
125.28497
  0
VERTEX
  5
da6
  8
Layer_0
  10
274.90619
  20
125.31873
  0
VERTEX
  5
da7
  8
Layer_0
  10
274.87244
  20
125.28497
  0
VERTEX
  5
da8
  8
Layer_0
  10
274.87244
  20
118.46497
  0
VERTEX
  5
da9
  8
Layer_0
  10
274.90619
  20
118.43121
  0
VERTEX
  5
daa
  8
Layer_0
  10
274.87244
  20
118.46497
  0
VERTEX
  5
dab
  8
Layer_0
  10
273.21246
  20
118.46497
  0
VERTEX
  5
dac
  8
Layer_0
  10
273.14868
  20
118.43872
  0
VERTEX
  5
dad
  8
Layer_0
  10
273.12244
  20
118.37497
  0
VERTEX
  5
dae
  8
Layer_0
  10
273.12244
  20
110.87497
  0
VERTEX
  5
daf
  8
Layer_0
  10
273.14868
  20
110.81122
  0
VERTEX
  5
db0
  8
Layer_0
  10
273.21246
  20
110.78497
  0
VERTEX
  5
db1
  8
Layer_0
  10
274.14941
  20
110.78497
  0
SEQEND
  0
POLYLINE
  5
db3
  8
Layer_0
  62
0
  70
1
  66
1
  10
0
  20
0
  30
0
  0
VERTEX
  5
db3
  8
Layer_0
  10
286.36743
  20
110.78497
  0
VERTEX
  5
db4
  8
Layer_0
  10
286.98242
  20
110.78497
  0
VERTEX
  5
db5
  8
Layer_0
  10
287.01617
  20
110.81873
  0
VERTEX
  5
db6
  8
Layer_0
  10
286.98242
  20
110.78497
  0
VERTEX
  5
db7
  8
Layer_0
  10
286.98242
  20
107.37497
  0
VERTEX
  5
db8
  8
Layer_0
  10
287.00906
  20
107.31122
  0
VERTEX
  5
db9
  8
Layer_0
  10
287.07245
  20
107.28497
  0
VERTEX
  5
dba
  8
Layer_0
  10
294.07245
  20
107.28497
  0
VERTEX
  5
dbb
  8
Layer_0
  10
294.13617
  20
107.31122
  0
VERTEX
  5
dbc
  8
Layer_0
  10
294.16241
  20
107.37497
  0
VERTEX
  5
dbd
  8
Layer_0
  10
294.16241
  20
110.78497
  0
VERTEX
  5
dbe
  8
Layer_0
  10
294.12866
  20
110.81873
  0
VERTEX
  5
dbf
  8
Layer_0
  10
294.16241
  20
110.78497
  0
VERTEX
  5
dc0
  8
Layer_0
  10
294.77844
  20
110.78497
  0
VERTEX
  5
dc1
  8
Layer_0
  10
294.84219
  20
110.81122
  0
VERTEX
  5
dc2
  8
Layer_0
  10
294.86847
  20
110.87497
  0
VERTEX
  5
dc3
  8
Layer_0
  10
294.86847
  20
160.87497
  0
VERTEX
  5
dc4
  8
Layer_0
  10
294.84219
  20
160.93872
  0
VERTEX
  5
dc5
  8
Layer_0
  10
294.77844
  20
160.96497
  0
VERTEX
  5
dc6
  8
Layer_0
  10
294.16241
  20
160.96497
  0
VERTEX
  5
dc7
  8
Layer_0
  10
294.12866
  20
160.93121
  0
VERTEX
  5
dc8
  8
Layer_0
  10
294.16241
  20
160.96497
  0
VERTEX
  5
dc9
  8
Layer_0
  10
294.16241
  20
164.37497
  0
VERTEX
  5
dca
  8
Layer_0
  10
294.13617
  20
164.43872
  0
VERTEX
  5
dcb
  8
Layer_0
  10
294.07245
  20
164.46497
  0
VERTEX
  5
dcc
  8
Layer_0
  10
287.07245
  20
164.46497
  0
VERTEX
  5
dcd
  8
Layer_0
  10
287.00906
  20
164.43872
  0
VERTEX
  5
dce
  8
Layer_0
  10
286.98242
  20
164.37497
  0
VERTEX
  5
dcf
  8
Layer_0
  10
286.98242
  20
160.96497
  0
VERTEX
  5
dd0
  8
Layer_0
  10
287.01617
  20
160.93121
  0
VERTEX
  5
dd1
  8
Layer_0
  10
286.98242
  20
160.96497
  0
VERTEX
  5
dd2
  8
Layer_0
  10
285.42944
  20
160.96497
  0
VERTEX
  5
dd3
  8
Layer_0
  10
285.36569
  20
160.93872
  0
VERTEX
  5
dd4
  8
Layer_0
  10
285.33942
  20
160.87497
  0
VERTEX
  5
dd5
  8
Layer_0
  10
285.33942
  20
153.37497
  0
VERTEX
  5
dd6
  8
Layer_0
  10
285.36569
  20
153.31122
  0
VERTEX
  5
dd7
  8
Layer_0
  10
285.42944
  20
153.28497
  0
VERTEX
  5
dd8
  8
Layer_0
  10
287.08942
  20
153.28497
  0
VERTEX
  5
dd9
  8
Layer_0
  10
287.12317
  20
153.31873
  0
VERTEX
  5
dda
  8
Layer_0
  10
287.08942
  20
153.28497
  0
VERTEX
  5
ddb
  8
Layer_0
  10
287.08942
  20
146.46497
  0
VERTEX
  5
ddc
  8
Layer_0
  10
287.12317
  20
146.43121
  0
VERTEX
  5
ddd
  8
Layer_0
  10
287.08942
  20
146.46497
  0
VERTEX
  5
dde
  8
Layer_0
  10
285.42944
  20
146.46497
  0
VERTEX
  5
ddf
  8
Layer_0
  10
285.36569
  20
146.43872
  0
VERTEX
  5
de0
  8
Layer_0
  10
285.33942
  20
146.37497
  0
VERTEX
  5
de1
  8
Layer_0
  10
285.33942
  20
139.37497
  0
VERTEX
  5
de2
  8
Layer_0
  10
285.36569
  20
139.31122
  0
VERTEX
  5
de3
  8
Layer_0
  10
285.42944
  20
139.28497
  0
VERTEX
  5
de4
  8
Layer_0
  10
287.08942
  20
139.28497
  0
VERTEX
  5
de5
  8
Layer_0
  10
287.12317
  20
139.31873
  0
VERTEX
  5
de6
  8
Layer_0
  10
287.08942
  20
139.28497
  0
VERTEX
  5
de7
  8
Layer_0
  10
287.08942
  20
132.46497
  0
VERTEX
  5
de8
  8
Layer_0
  10
287.12317
  20
132.43121
  0
VERTEX
  5
de9
  8
Layer_0
  10
287.08942
  20
132.46497
  0
VERTEX
  5
dea
  8
Layer_0
  10
285.42944
  20
132.46497
  0
VERTEX
  5
deb
  8
Layer_0
  10
285.36569
  20
132.43872
  0
VERTEX
  5
dec
  8
Layer_0
  10
285.33942
  20
132.37497
  0
VERTEX
  5
ded
  8
Layer_0
  10
285.33942
  20
125.37497
  0
VERTEX
  5
dee
  8
Layer_0
  10
285.36569
  20
125.31122
  0
VERTEX
  5
def
  8
Layer_0
  10
285.42944
  20
125.28497
  0
VERTEX
  5
df0
  8
Layer_0
  10
287.08942
  20
125.28497
  0
VERTEX
  5
df1
  8
Layer_0
  10
287.12317
  20
125.31873
  0
VERTEX
  5
df2
  8
Layer_0
  10
287.08942
  20
125.28497
  0
VERTEX
  5
df3
  8
Layer_0
  10
287.08942
  20
118.46497
  0
VERTEX
  5
df4
  8
Layer_0
  10
287.12317
  20
118.43121
  0
VERTEX
  5
df5
  8
Layer_0
  10
287.08942
  20
118.46497
  0
VERTEX
  5
df6
  8
Layer_0
  10
285.42944
  20
118.46497
  0
VERTEX
  5
df7
  8
Layer_0
  10
285.36569
  20
118.43872
  0
VERTEX
  5
df8
  8
Layer_0
  10
285.33942
  20
118.37497
  0
VERTEX
  5
df9
  8
Layer_0
  10
285.33942
  20
110.87497
  0
VERTEX
  5
dfa
  8
Layer_0
  10
285.36569
  20
110.81122
  0
VERTEX
  5
dfb
  8
Layer_0
  10
285.42944
  20
110.78497
  0
VERTEX
  5
dfc
  8
Layer_0
  10
286.36743
  20
110.78497
  0
SEQEND
  0
POLYLINE
  5
dfe
  8
Layer_0
  62
0
  70
1
  66
1
  10
0
  20
0
  30
0
  0
VERTEX
  5
dfe
  8
Layer_0
  10
86.124939
  20
84.785034
  0
VERTEX
  5
dff
  8
Layer_0
  10
226.12494
  20
84.784973
  0
VERTEX
  5
e00
  8
Layer_0
  10
227.42749
  20
84.827789
  0
VERTEX
  5
e01
  8
Layer_0
  10
228.72021
  20
84.955444
  0
VERTEX
  5
e02
  8
Layer_0
  10
229.99908
  20
85.166931
  0
VERTEX
  5
e03
  8
Layer_0
  10
231.26007
  20
85.46109
  0
VERTEX
  5
e04
  8
Layer_0
  10
232.49918
  20
85.836853
  0
VERTEX
  5
e05
  8
Layer_0
  10
233.71239
  20
86.293152
  0
VERTEX
  5
e06
  8
Layer_0
  10
234.89566
  20
86.828888
  0
VERTEX
  5
e07
  8
Layer_0
  10
236.04498
  20
87.442932
  0
VERTEX
  5
e08
  8
Layer_0
  10
237.15152
  20
88.131134
  0
VERTEX
  5
e09
  8
Layer_0
  10
238.20721
  20
88.888
  0
VERTEX
  5
e0a
  8
Layer_0
  10
239.20906
  20
89.71051
  0
VERTEX
  5
e0b
  8
Layer_0
  10
240.1541
  20
90.595825
  0
VERTEX
  5
e0c
  8
Layer_0
  10
241.03937
  20
91.540894
  0
VERTEX
  5
e0d
  8
Layer_0
  10
241.86191
  20
92.542725
  0
VERTEX
  5
e0e
  8
Layer_0
  10
242.61876
  20
93.598389
  0
VERTEX
  5
e0f
  8
Layer_0
  10
243.30695
  20
94.704956
  0
VERTEX
  5
e10
  8
Layer_0
  10
243.92102
  20
95.854309
  0
VERTEX
  5
e11
  8
Layer_0
  10
244.45676
  20
97.037537
  0
VERTEX
  5
e12
  8
Layer_0
  10
244.91306
  20
98.250732
  0
VERTEX
  5
e13
  8
Layer_0
  10
245.28885
  20
99.489807
  0
VERTEX
  5
e14
  8
Layer_0
  10
245.58301
  20
100.75079
  0
VERTEX
  5
e15
  8
Layer_0
  10
245.79448
  20
102.02966
  0
VERTEX
  5
e16
  8
Layer_0
  10
245.92216
  20
103.32239
  0
VERTEX
  5
e17
  8
Layer_0
  10
245.96497
  20
104.62494
  0
VERTEX
  5
e18
  8
Layer_0
  10
245.93869
  20
104.68869
  0
VERTEX
  5
e19
  8
Layer_0
  10
245.87494
  20
104.71494
  0
VERTEX
  5
e1a
  8
Layer_0
  10
242.37494
  20
104.71497
  0
VERTEX
  5
e1b
  8
Layer_0
  10
242.31122
  20
104.68872
  0
VERTEX
  5
e1c
  8
Layer_0
  10
242.28497
  20
104.62494
  0
VERTEX
  5
e1d
  8
Layer_0
  10
242.25009
  20
103.56403
  0
VERTEX
  5
e1e
  8
Layer_0
  10
242.14609
  20
102.51111
  0
VERTEX
  5
e1f
  8
Layer_0
  10
241.97385
  20
101.46954
  0
VERTEX
  5
e20
  8
Layer_0
  10
241.73422
  20
100.44244
  0
VERTEX
  5
e21
  8
Layer_0
  10
241.42813
  20
99.433228
  0
VERTEX
  5
e22
  8
Layer_0
  10
241.05646
  20
98.445038
  0
VERTEX
  5
e23
  8
Layer_0
  10
240.6201
  20
97.481171
  0
VERTEX
  5
e24
  8
Layer_0
  10
240.11993
  20
96.544952
  0
VERTEX
  5
e25
  8
Layer_0
  10
239.55945
  20
95.643555
  0
VERTEX
  5
e26
  8
Layer_0
  10
238.94302
  20
94.7836
  0
VERTEX
  5
e27
  8
Layer_0
  10
238.2731
  20
93.96756
  0
VERTEX
  5
e28
  8
Layer_0
  10
237.55206
  20
93.197815
  0
VERTEX
  5
e29
  8
Layer_0
  10
236.78232
  20
92.476776
  0
VERTEX
  5
e2a
  8
Layer_0
  10
235.96631
  20
91.806854
  0
VERTEX
  5
e2b
  8
Layer_0
  10
235.10637
  20
91.19043
  0
VERTEX
  5
e2c
  8
Layer_0
  10
234.20496
  20
90.629944
  0
VERTEX
  5
e2d
  8
Layer_0
  10
233.26871
  20
90.129822
  0
VERTEX
  5
e2e
  8
Layer_0
  10
232.30487
  20
89.693451
  0
VERTEX
  5
e2f
  8
Layer_0
  10
231.31671
  20
89.321777
  0
VERTEX
  5
e30
  8
Layer_0
  10
230.30746
  20
89.015717
  0
VERTEX
  5
e31
  8
Layer_0
  10
229.28041
  20
88.776123
  0
VERTEX
  5
e32
  8
Layer_0
  10
228.2388
  20
88.603851
  0
VERTEX
  5
e33
  8
Layer_0
  10
227.18588
  20
88.499817
  0
VERTEX
  5
e34
  8
Layer_0
  10
226.12494
  20
88.464966
  0
VERTEX
  5
e35
  8
Layer_0
  10
86.124939
  20
88.465057
  0
VERTEX
  5
e36
  8
Layer_0
  10
85.064003
  20
88.499939
  0
VERTEX
  5
e37
  8
Layer_0
  10
84.011108
  20
88.603912
  0
VERTEX
  5
e38
  8
Layer_0
  10
82.969505
  20
88.776184
  0
VERTEX
  5
e39
  8
Layer_0
  10
81.942459
  20
89.015808
  0
VERTEX
  5
e3a
  8
Layer_0
  10
80.933228
  20
89.321899
  0
VERTEX
  5
e3b
  8
Layer_0
  10
79.945061
  20
89.693573
  0
VERTEX
  5
e3c
  8
Layer_0
  10
78.981232
  20
90.129944
  0
VERTEX
  5
e3d
  8
Layer_0
  10
78.044983
  20
90.630066
  0
VERTEX
  5
e3e
  8
Layer_0
  10
77.143539
  20
91.190552
  0
VERTEX
  5
e3f
  8
Layer_0
  10
76.283607
  20
91.806976
  0
VERTEX
  5
e40
  8
Layer_0
  10
75.467575
  20
92.476898
  0
VERTEX
  5
e41
  8
Layer_0
  10
74.697838
  20
93.197937
  0
VERTEX
  5
e42
  8
Layer_0
  10
73.976807
  20
93.967682
  0
VERTEX
  5
e43
  8
Layer_0
  10
73.306885
  20
94.783691
  0
VERTEX
  5
e44
  8
Layer_0
  10
72.69046
  20
95.643616
  0
VERTEX
  5
e45
  8
Layer_0
  10
72.129944
  20
96.545044
  0
VERTEX
  5
e46
  8
Layer_0
  10
71.629807
  20
97.481293
  0
VERTEX
  5
e47
  8
Layer_0
  10
71.193459
  20
98.44516
  0
VERTEX
  5
e48
  8
Layer_0
  10
70.8218
  20
99.43335
  0
VERTEX
  5
e49
  8
Layer_0
  10
70.515717
  20
100.44257
  0
VERTEX
  5
e4a
  8
Layer_0
  10
70.2761
  20
101.4696
  0
VERTEX
  5
e4b
  8
Layer_0
  10
70.103844
  20
102.5112
  0
VERTEX
  5
e4c
  8
Layer_0
  10
69.999832
  20
103.56409
  0
VERTEX
  5
e4d
  8
Layer_0
  10
69.964966
  20
104.62506
  0
VERTEX
  5
e4e
  8
Layer_0
  10
69.938698
  20
104.68881
  0
VERTEX
  5
e4f
  8
Layer_0
  10
69.874939
  20
104.71506
  0
VERTEX
  5
e50
  8
Layer_0
  10
66.374939
  20
104.71506
  0
VERTEX
  5
e51
  8
Layer_0
  10
66.311211
  20
104.68881
  0
VERTEX
  5
e52
  8
Layer_0
  10
66.284973
  20
104.62506
  0
VERTEX
  5
e53
  8
Layer_0
  10
66.327774
  20
103.32251
  0
VERTEX
  5
e54
  8
Layer_0
  10
66.45546
  20
102.02979
  0
VERTEX
  5
e55
  8
Layer_0
  10
66.666916
  20
100.75092
  0
VERTEX
  5
e56
  8
Layer_0
  10
66.96109
  20
99.489929
  0
VERTEX
  5
e57
  8
Layer_0
  10
67.336861
  20
98.250854
  0
VERTEX
  5
e58
  8
Layer_0
  10
67.793152
  20
97.037659
  0
VERTEX
  5
e59
  8
Layer_0
  10
68.328873
  20
95.854431
  0
VERTEX
  5
e5a
  8
Layer_0
  10
68.942932
  20
94.705078
  0
VERTEX
  5
e5b
  8
Layer_0
  10
69.631134
  20
93.598511
  0
VERTEX
  5
e5c
  8
Layer_0
  10
70.387993
  20
92.542847
  0
VERTEX
  5
e5d
  8
Layer_0
  10
71.210556
  20
91.541016
  0
VERTEX
  5
e5e
  8
Layer_0
  10
72.095833
  20
90.595947
  0
VERTEX
  5
e5f
  8
Layer_0
  10
73.040878
  20
89.710632
  0
VERTEX
  5
e60
  8
Layer_0
  10
74.042725
  20
88.888123
  0
VERTEX
  5
e61
  8
Layer_0
  10
75.098404
  20
88.131256
  0
VERTEX
  5
e62
  8
Layer_0
  10
76.204956
  20
87.443054
  0
VERTEX
  5
e63
  8
Layer_0
  10
77.354271
  20
86.828979
  0
VERTEX
  5
e64
  8
Layer_0
  10
78.537537
  20
86.293274
  0
VERTEX
  5
e65
  8
Layer_0
  10
79.750732
  20
85.836975
  0
VERTEX
  5
e66
  8
Layer_0
  10
80.98983
  20
85.461182
  0
VERTEX
  5
e67
  8
Layer_0
  10
82.250816
  20
85.166992
  0
VERTEX
  5
e68
  8
Layer_0
  10
83.529686
  20
84.955505
  0
VERTEX
  5
e69
  8
Layer_0
  10
84.822403
  20
84.82785
  0
VERTEX
  5
e6a
  8
Layer_0
  10
86.124939
  20
84.785034
  0
SEQEND
  0
POLYLINE
  5
e6c
  8
Layer_0
  62
0
  70
1
  66
1
  10
0
  20
0
  30
0
  0
VERTEX
  5
e6c
  8
Layer_0
  10
86.124939
  20
79.535034
  0
VERTEX
  5
e6d
  8
Layer_0
  10
226.12494
  20
79.534973
  0
VERTEX
  5
e6e
  8
Layer_0
  10
227.06485
  20
79.550415
  0
VERTEX
  5
e6f
  8
Layer_0
  10
228.00194
  20
79.596619
  0
VERTEX
  5
e70
  8
Layer_0
  10
228.93549
  20
79.673431
  0
VERTEX
  5
e71
  8
Layer_0
  10
229.86478
  20
79.780579
  0
VERTEX
  5
e72
  8
Layer_0
  10
230.78909
  20
79.917908
  0
VERTEX
  5
e73
  8
Layer_0
  10
231.70769
  20
80.085266
  0
VERTEX
  5
e74
  8
Layer_0
  10
232.61984
  20
80.282379
  0
VERTEX
  5
e75
  8
Layer_0
  10
233.52484
  20
80.509094
  0
VERTEX
  5
e76
  8
Layer_0
  10
234.42197
  20
80.765198
  0
VERTEX
  5
e77
  8
Layer_0
  10
235.31046
  20
81.050537
  0
VERTEX
  5
e78
  8
Layer_0
  10
236.18961
  20
81.364899
  0
VERTEX
  5
e79
  8
Layer_0
  10
237.05872
  20
81.708069
  0
VERTEX
  5
e7a
  8
Layer_0
  10
237.91702
  20
82.079834
  0
VERTEX
  5
e7b
  8
Layer_0
  10
238.76382
  20
82.480042
  0
VERTEX
  5
e7c
  8
Layer_0
  10
239.59839
  20
82.908478
  0
VERTEX
  5
e7d
  8
Layer_0
  10
240.41998
  20
83.36496
  0
VERTEX
  5
e7e
  8
Layer_0
  10
241.22614
  20
83.848389
  0
VERTEX
  5
e7f
  8
Layer_0
  10
242.01447
  20
84.356995
  0
VERTEX
  5
e80
  8
Layer_0
  10
242.78447
  20
84.89032
  0
VERTEX
  5
e81
  8
Layer_0
  10
243.53561
  20
85.447845
  0
VERTEX
  5
e82
  8
Layer_0
  10
244.26736
  20
86.028992
  0
VERTEX
  5
e83
  8
Layer_0
  10
244.97919
  20
86.63324
  0
VERTEX
  5
e84
  8
Layer_0
  10
245.67055
  20
87.260071
  0
VERTEX
  5
e85
  8
Layer_0
  10
246.34094
  20
87.908936
  0
VERTEX
  5
e86
  8
Layer_0
  10
246.98982
  20
88.579346
  0
VERTEX
  5
e87
  8
Layer_0
  10
247.61664
  20
89.270721
  0
VERTEX
  5
e88
  8
Layer_0
  10
248.22089
  20
89.982544
  0
VERTEX
  5
e89
  8
Layer_0
  10
248.80203
  20
90.714294
  0
VERTEX
  5
e8a
  8
Layer_0
  10
249.35954
  20
91.465454
  0
VERTEX
  5
e8b
  8
Layer_0
  10
249.89288
  20
92.235474
  0
VERTEX
  5
e8c
  8
Layer_0
  10
250.40152
  20
93.023834
  0
VERTEX
  5
e8d
  8
Layer_0
  10
250.88495
  20
93.829956
  0
VERTEX
  5
e8e
  8
Layer_0
  10
251.34145
  20
94.65155
  0
VERTEX
  5
e8f
  8
Layer_0
  10
251.7699
  20
95.486084
  0
VERTEX
  5
e90
  8
Layer_0
  10
252.17012
  20
96.332886
  0
VERTEX
  5
e91
  8
Layer_0
  10
252.5419
  20
97.191193
  0
VERTEX
  5
e92
  8
Layer_0
  10
252.88507
  20
98.060303
  0
VERTEX
  5
e93
  8
Layer_0
  10
253.1994
  20
98.939453
  0
VERTEX
  5
e94
  8
Layer_0
  10
253.48473
  20
99.827942
  0
VERTEX
  5
e95
  8
Layer_0
  10
253.74084
  20
100.72504
  0
VERTEX
  5
e96
  8
Layer_0
  10
253.96756
  20
101.63004
  0
VERTEX
  5
e97
  8
Layer_0
  10
254.16469
  20
102.54218
  0
VERTEX
  5
e98
  8
Layer_0
  10
254.332
  20
103.46082
  0
VERTEX
  5
e99
  8
Layer_0
  10
254.46936
  20
104.38513
  0
VERTEX
  5
e9a
  8
Layer_0
  10
254.57651
  20
105.31442
  0
VERTEX
  5
e9b
  8
Layer_0
  10
254.65329
  20
106.24796
  0
VERTEX
  5
e9c
  8
Layer_0
  10
254.69952
  20
107.18506
  0
VERTEX
  5
e9d
  8
Layer_0
  10
254.71497
  20
108.12494
  0
VERTEX
  5
e9e
  8
Layer_0
  10
254.68869
  20
108.18869
  0
VERTEX
  5
e9f
  8
Layer_0
  10
254.62494
  20
108.21494
  0
VERTEX
  5
ea0
  8
Layer_0
  10
251.12494
  20
108.21494
  0
VERTEX
  5
ea1
  8
Layer_0
  10
251.06122
  20
108.18869
  0
VERTEX
  5
ea2
  8
Layer_0
  10
251.03497
  20
108.12494
  0
VERTEX
  5
ea3
  8
Layer_0
  10
251.02151
  20
107.30603
  0
VERTEX
  5
ea4
  8
Layer_0
  10
250.98126
  20
106.48956
  0
VERTEX
  5
ea5
  8
Layer_0
  10
250.91435
  20
105.67618
  0
VERTEX
  5
ea6
  8
Layer_0
  10
250.82098
  20
104.86652
  0
VERTEX
  5
ea7
  8
Layer_0
  10
250.70129
  20
104.06122
  0
VERTEX
  5
ea8
  8
Layer_0
  10
250.55551
  20
103.26086
  0
VERTEX
  5
ea9
  8
Layer_0
  10
250.38376
  20
102.46616
  0
VERTEX
  5
eaa
  8
Layer_0
  10
250.18622
  20
101.67767
  0
VERTEX
  5
eab
  8
Layer_0
  10
249.96306
  20
100.89606
  0
VERTEX
  5
eac
  8
Layer_0
  10
249.71446
  20
100.12195
  0
VERTEX
  5
ead
  8
Layer_0
  10
249.44058
  20
99.355957
  0
VERTEX
  5
eae
  8
Layer_0
  10
249.14157
  20
98.598694
  0
VERTEX
  5
eaf
  8
Layer_0
  10
248.81766
  20
97.850861
  0
VERTEX
  5
eb0
  8
Layer_0
  10
248.46895
  20
97.113037
  0
VERTEX
  5
eb1
  8
Layer_0
  10
248.09566
  20
96.385864
  0
VERTEX
  5
eb2
  8
Layer_0
  10
247.69794
  20
95.669952
  0
VERTEX
  5
eb3
  8
Layer_0
  10
247.27673
  20
94.967529
  0
VERTEX
  5
eb4
  8
Layer_0
  10
246.83359
  20
94.280609
  0
VERTEX
  5
eb5
  8
Layer_0
  10
246.3689
  20
93.60968
  0
VERTEX
  5
eb6
  8
Layer_0
  10
245.88318
  20
92.95517
  0
VERTEX
  5
eb7
  8
Layer_0
  10
245.37686
  20
92.317596
  0
VERTEX
  5
eb8
  8
Layer_0
  10
244.8504
  20
91.697418
  0
VERTEX
  5
eb9
  8
Layer_0
  10
244.30429
  20
91.095062
  0
VERTEX
  5
eba
  8
Layer_0
  10
243.73895
  20
90.510956
  0
VERTEX
  5
ebb
  8
Layer_0
  10
243.15488
  20
89.945618
  0
VERTEX
  5
ebc
  8
Layer_0
  10
242.55251
  20
89.399506
  0
VERTEX
  5
ebd
  8
Layer_0
  10
241.93231
  20
88.873047
  0
VERTEX
  5
ebe
  8
Layer_0
  10
241.29474
  20
88.36673
  0
VERTEX
  5
ebf
  8
Layer_0
  10
240.64026
  20
87.881012
  0
VERTEX
  5
ec0
  8
Layer_0
  10
239.96933
  20
87.416321
  0
VERTEX
  5
ec1
  8
Layer_0
  10
239.28241
  20
86.973145
  0
VERTEX
  5
ec2
  8
Layer_0
  10
238.57996
  20
86.551941
  0
VERTEX
  5
ec3
  8
Layer_0
  10
237.86404
  20
86.154205
  0
VERTEX
  5
ec4
  8
Layer_0
  10
237.13687
  20
85.780945
  0
VERTEX
  5
ec5
  8
Layer_0
  10
236.39903
  20
85.432251
  0
VERTEX
  5
ec6
  8
Layer_0
  10
235.65118
  20
85.108307
  0
VERTEX
  5
ec7
  8
Layer_0
  10
234.89395
  20
84.809326
  0
VERTEX
  5
ec8
  8
Layer_0
  10
234.12794
  20
84.535461
  0
VERTEX
  5
ec9
  8
Layer_0
  10
233.35382
  20
84.286865
  0
VERTEX
  5
eca
  8
Layer_0
  10
232.57222
  20
84.063721
  0
VERTEX
  5
ecb
  8
Layer_0
  10
231.78372
  20
83.86618
  0
VERTEX
  5
ecc
  8
Layer_0
  10
230.989
  20
83.694427
  0
VERTEX
  5
ecd
  8
Layer_0
  10
230.18866
  20
83.548645
  0
VERTEX
  5
ece
  8
Layer_0
  10
229.38336
  20
83.428955
  0
VERTEX
  5
ecf
  8
Layer_0
  10
228.5737
  20
83.335571
  0
VERTEX
  5
ed0
  8
Layer_0
  10
227.76033
  20
83.268677
  0
VERTEX
  5
ed1
  8
Layer_0
  10
226.94386
  20
83.228394
  0
VERTEX
  5
ed2
  8
Layer_0
  10
226.12494
  20
83.214966
  0
VERTEX
  5
ed3
  8
Layer_0
  10
86.124939
  20
83.215057
  0
VERTEX
  5
ed4
  8
Layer_0
  10
85.30603
  20
83.228516
  0
VERTEX
  5
ed5
  8
Layer_0
  10
84.489563
  20
83.268799
  0
VERTEX
  5
ed6
  8
Layer_0
  10
83.676201
  20
83.335693
  0
VERTEX
  5
ed7
  8
Layer_0
  10
82.866547
  20
83.429077
  0
VERTEX
  5
ed8
  8
Layer_0
  10
82.061234
  20
83.548767
  0
VERTEX
  5
ed9
  8
Layer_0
  10
81.26091
  20
83.69455
  0
VERTEX
  5
eda
  8
Layer_0
  10
80.466187
  20
83.866302
  0
VERTEX
  5
edb
  8
Layer_0
  10
79.677711
  20
84.063812
  0
VERTEX
  5
edc
  8
Layer_0
  10
78.896103
  20
84.286957
  0
VERTEX
  5
edd
  8
Layer_0
  10
78.121979
  20
84.535553
  0
VERTEX
  5
ede
  8
Layer_0
  10
77.355988
  20
84.809418
  0
VERTEX
  5
edf
  8
Layer_0
  10
76.598755
  20
85.108429
  0
VERTEX
  5
ee0
  8
Layer_0
  10
75.850906
  20
85.432373
  0
VERTEX
  5
ee1
  8
Layer_0
  10
75.113075
  20
85.781067
  0
VERTEX
  5
ee2
  8
Layer_0
  10
74.385887
  20
86.154327
  0
VERTEX
  5
ee3
  8
Layer_0
  10
73.669983
  20
86.552063
  0
VERTEX
  5
ee4
  8
Layer_0
  10
72.967522
  20
86.973267
  0
VERTEX
  5
ee5
  8
Layer_0
  10
72.280594
  20
87.416443
  0
VERTEX
  5
ee6
  8
Layer_0
  10
71.609665
  20
87.881134
  0
VERTEX
  5
ee7
  8
Layer_0
  10
70.955177
  20
88.366852
  0
VERTEX
  5
ee8
  8
Layer_0
  10
70.317612
  20
88.873169
  0
VERTEX
  5
ee9
  8
Layer_0
  10
69.697403
  20
89.399628
  0
VERTEX
  5
eea
  8
Layer_0
  10
69.095032
  20
89.94574
  0
VERTEX
  5
eeb
  8
Layer_0
  10
68.510948
  20
90.511078
  0
VERTEX
  5
eec
  8
Layer_0
  10
67.945618
  20
91.095184
  0
VERTEX
  5
eed
  8
Layer_0
  10
67.399498
  20
91.69754
  0
VERTEX
  5
eee
  8
Layer_0
  10
66.873047
  20
92.317719
  0
VERTEX
  5
eef
  8
Layer_0
  10
66.36673
  20
92.955292
  0
VERTEX
  5
ef0
  8
Layer_0
  10
65.880997
  20
93.609802
  0
VERTEX
  5
ef1
  8
Layer_0
  10
65.416321
  20
94.280731
  0
VERTEX
  5
ef2
  8
Layer_0
  10
64.973145
  20
94.967651
  0
VERTEX
  5
ef3
  8
Layer_0
  10
64.551941
  20
95.670074
  0
VERTEX
  5
ef4
  8
Layer_0
  10
64.154236
  20
96.385986
  0
VERTEX
  5
ef5
  8
Layer_0
  10
63.780945
  20
97.113159
  0
VERTEX
  5
ef6
  8
Layer_0
  10
63.432251
  20
97.850983
  0
VERTEX
  5
ef7
  8
Layer_0
  10
63.10833
  20
98.598816
  0
VERTEX
  5
ef8
  8
Layer_0
  10
62.809345
  20
99.356079
  0
VERTEX
  5
ef9
  8
Layer_0
  10
62.535469
  20
100.12207
  0
VERTEX
  5
efa
  8
Layer_0
  10
62.286865
  20
100.89618
  0
VERTEX
  5
efb
  8
Layer_0
  10
62.063713
  20
101.6778
  0
VERTEX
  5
efc
  8
Layer_0
  10
61.866177
  20
102.46628
  0
VERTEX
  5
efd
  8
Layer_0
  10
61.694427
  20
103.26099
  0
VERTEX
  5
efe
  8
Layer_0
  10
61.548637
  20
104.06134
  0
VERTEX
  5
eff
  8
Layer_0
  10
61.428967
  20
104.86664
  0
VERTEX
  5
f00
  8
Layer_0
  10
61.335594
  20
105.6763
  0
VERTEX
  5
f01
  8
Layer_0
  10
61.268692
  20
106.48969
  0
VERTEX
  5
f02
  8
Layer_0
  10
61.228424
  20
107.30615
  0
VERTEX
  5
f03
  8
Layer_0
  10
61.214966
  20
108.12506
  0
VERTEX
  5
f04
  8
Layer_0
  10
61.188698
  20
108.18881
  0
VERTEX
  5
f05
  8
Layer_0
  10
61.124939
  20
108.21506
  0
VERTEX
  5
f06
  8
Layer_0
  10
57.624939
  20
108.21506
  0
VERTEX
  5
f07
  8
Layer_0
  10
57.561211
  20
108.18881
  0
VERTEX
  5
f08
  8
Layer_0
  10
57.534973
  20
108.12506
  0
VERTEX
  5
f09
  8
Layer_0
  10
57.550423
  20
107.18518
  0
VERTEX
  5
f0a
  8
Layer_0
  10
57.596634
  20
106.24808
  0
VERTEX
  5
f0b
  8
Layer_0
  10
57.67342
  20
105.31454
  0
VERTEX
  5
f0c
  8
Layer_0
  10
57.780579
  20
104.38525
  0
VERTEX
  5
f0d
  8
Layer_0
  10
57.917923
  20
103.46094
  0
VERTEX
  5
f0e
  8
Layer_0
  10
58.085251
  20
102.5423
  0
VERTEX
  5
f0f
  8
Layer_0
  10
58.282372
  20
101.63016
  0
VERTEX
  5
f10
  8
Layer_0
  10
58.509087
  20
100.72516
  0
VERTEX
  5
f11
  8
Layer_0
  10
58.765205
  20
99.828064
  0
VERTEX
  5
f12
  8
Layer_0
  10
59.050529
  20
98.939575
  0
VERTEX
  5
f13
  8
Layer_0
  10
59.364872
  20
98.060425
  0
VERTEX
  5
f14
  8
Layer_0
  10
59.708027
  20
97.191315
  0
VERTEX
  5
f15
  8
Layer_0
  10
60.079803
  20
96.333008
  0
VERTEX
  5
f16
  8
Layer_0
  10
60.480011
  20
95.486206
  0
VERTEX
  5
f17
  8
Layer_0
  10
60.908451
  20
94.651672
  0
VERTEX
  5
f18
  8
Layer_0
  10
61.364929
  20
93.830078
  0
VERTEX
  5
f19
  8
Layer_0
  10
61.848347
  20
93.023956
  0
VERTEX
  5
f1a
  8
Layer_0
  10
62.356991
  20
92.235596
  0
VERTEX
  5
f1b
  8
Layer_0
  10
62.890331
  20
91.465576
  0
VERTEX
  5
f1c
  8
Layer_0
  10
63.447842
  20
90.714417
  0
VERTEX
  5
f1d
  8
Layer_0
  10
64.028992
  20
89.982666
  0
VERTEX
  5
f1e
  8
Layer_0
  10
64.63324
  20
89.270844
  0
VERTEX
  5
f1f
  8
Layer_0
  10
65.260071
  20
88.579468
  0
VERTEX
  5
f20
  8
Layer_0
  10
65.908943
  20
87.909058
  0
VERTEX
  5
f21
  8
Layer_0
  10
66.57933
  20
87.260193
  0
VERTEX
  5
f22
  8
Layer_0
  10
67.270706
  20
86.633362
  0
VERTEX
  5
f23
  8
Layer_0
  10
67.982544
  20
86.029114
  0
VERTEX
  5
f24
  8
Layer_0
  10
68.714294
  20
85.447968
  0
VERTEX
  5
f25
  8
Layer_0
  10
69.465439
  20
84.890442
  0
VERTEX
  5
f26
  8
Layer_0
  10
70.235458
  20
84.357117
  0
VERTEX
  5
f27
  8
Layer_0
  10
71.023804
  20
83.84845
  0
VERTEX
  5
f28
  8
Layer_0
  10
71.829956
  20
83.365051
  0
VERTEX
  5
f29
  8
Layer_0
  10
72.651558
  20
82.908569
  0
VERTEX
  5
f2a
  8
Layer_0
  10
73.486115
  20
82.480103
  0
VERTEX
  5
f2b
  8
Layer_0
  10
74.332916
  20
82.079895
  0
VERTEX
  5
f2c
  8
Layer_0
  10
75.191223
  20
81.70813
  0
VERTEX
  5
f2d
  8
Layer_0
  10
76.060318
  20
81.36496
  0
VERTEX
  5
f2e
  8
Layer_0
  10
76.939484
  20
81.050629
  0
VERTEX
  5
f2f
  8
Layer_0
  10
77.827972
  20
80.76532
  0
VERTEX
  5
f30
  8
Layer_0
  10
78.725082
  20
80.509155
  0
VERTEX
  5
f31
  8
Layer_0
  10
79.630074
  20
80.28244
  0
VERTEX
  5
f32
  8
Layer_0
  10
80.542229
  20
80.085327
  0
VERTEX
  5
f33
  8
Layer_0
  10
81.460815
  20
79.917969
  0
VERTEX
  5
f34
  8
Layer_0
  10
82.385117
  20
79.78064
  0
VERTEX
  5
f35
  8
Layer_0
  10
83.314407
  20
79.673492
  0
VERTEX
  5
f36
  8
Layer_0
  10
84.247955
  20
79.59668
  0
VERTEX
  5
f37
  8
Layer_0
  10
85.185043
  20
79.550476
  0
VERTEX
  5
f38
  8
Layer_0
  10
86.124939
  20
79.535034
  0
SEQEND
  0
POLYLINE
  5
f3a
  8
Layer_0
  62
0
  70
1
  66
1
  10
0
  20
0
  30
0
  0
VERTEX
  5
f3a
  8
Layer_0
  10
367.21494
  20
118.875
  0
VERTEX
  5
f3b
  8
Layer_0
  10
367.21503
  20
258.875
  0
VERTEX
  5
f3c
  8
Layer_0
  10
367.17221
  20
260.17755
  0
VERTEX
  5
f3d
  8
Layer_0
  10
367.04456
  20
261.47028
  0
VERTEX
  5
f3e
  8
Layer_0
  10
366.83307
  20
262.74915
  0
VERTEX
  5
f3f
  8
Layer_0
  10
366.53888
  20
264.01013
  0
VERTEX
  5
f40
  8
Layer_0
  10
366.16309
  20
265.24924
  0
VERTEX
  5
f41
  8
Layer_0
  10
365.70679
  20
266.46246
  0
VERTEX
  5
f42
  8
Layer_0
  10
365.17108
  20
267.64572
  0
VERTEX
  5
f43
  8
Layer_0
  10
364.55701
  20
268.79504
  0
VERTEX
  5
f44
  8
Layer_0
  10
363.8688
  20
269.90158
  0
VERTEX
  5
f45
  8
Layer_0
  10
363.11197
  20
270.95728
  0
VERTEX
  5
f46
  8
Layer_0
  10
362.28943
  20
271.95911
  0
VERTEX
  5
f47
  8
Layer_0
  10
361.40417
  20
272.90417
  0
VERTEX
  5
f48
  8
Layer_0
  10
360.45911
  20
273.78943
  0
VERTEX
  5
f49
  8
Layer_0
  10
359.45728
  20
274.61197
  0
VERTEX
  5
f4a
  8
Layer_0
  10
358.40155
  20
275.36884
  0
VERTEX
  5
f4b
  8
Layer_0
  10
357.29501
  20
276.05701
  0
VERTEX
  5
f4c
  8
Layer_0
  10
356.14569
  20
276.67108
  0
VERTEX
  5
f4d
  8
Layer_0
  10
354.96246
  20
277.20682
  0
VERTEX
  5
f4e
  8
Layer_0
  10
353.74927
  20
277.66312
  0
VERTEX
  5
f4f
  8
Layer_0
  10
352.51016
  20
278.03891
  0
VERTEX
  5
f50
  8
Layer_0
  10
351.24915
  20
278.33307
  0
VERTEX
  5
f51
  8
Layer_0
  10
349.97028
  20
278.54456
  0
VERTEX
  5
f52
  8
Layer_0
  10
348.67755
  20
278.67224
  0
VERTEX
  5
f53
  8
Layer_0
  10
347.375
  20
278.71503
  0
VERTEX
  5
f54
  8
Layer_0
  10
347.31128
  20
278.68875
  0
VERTEX
  5
f55
  8
Layer_0
  10
347.28503
  20
278.625
  0
VERTEX
  5
f56
  8
Layer_0
  10
347.28503
  20
275.125
  0
VERTEX
  5
f57
  8
Layer_0
  10
347.31128
  20
275.06128
  0
VERTEX
  5
f58
  8
Layer_0
  10
347.375
  20
275.03503
  0
VERTEX
  5
f59
  8
Layer_0
  10
348.43597
  20
275.00015
  0
VERTEX
  5
f5a
  8
Layer_0
  10
349.48889
  20
274.89615
  0
VERTEX
  5
f5b
  8
Layer_0
  10
350.53046
  20
274.72391
  0
VERTEX
  5
f5c
  8
Layer_0
  10
351.55753
  20
274.48428
  0
VERTEX
  5
f5d
  8
Layer_0
  10
352.56674
  20
274.17819
  0
VERTEX
  5
f5e
  8
Layer_0
  10
353.5549
  20
273.80652
  0
VERTEX
  5
f5f
  8
Layer_0
  10
354.51877
  20
273.37018
  0
VERTEX
  5
f60
  8
Layer_0
  10
355.45502
  20
272.87
  0
VERTEX
  5
f61
  8
Layer_0
  10
356.35645
  20
272.30951
  0
VERTEX
  5
f62
  8
Layer_0
  10
357.21637
  20
271.69308
  0
VERTEX
  5
f63
  8
Layer_0
  10
358.03241
  20
271.02316
  0
VERTEX
  5
f64
  8
Layer_0
  10
358.80212
  20
270.30212
  0
VERTEX
  5
f65
  8
Layer_0
  10
359.52316
  20
269.53238
  0
VERTEX
  5
f66
  8
Layer_0
  10
360.19308
  20
268.71637
  0
VERTEX
  5
f67
  8
Layer_0
  10
360.80951
  20
267.85645
  0
VERTEX
  5
f68
  8
Layer_0
  10
361.37
  20
266.95502
  0
VERTEX
  5
f69
  8
Layer_0
  10
361.87012
  20
266.01877
  0
VERTEX
  5
f6a
  8
Layer_0
  10
362.30649
  20
265.05493
  0
VERTEX
  5
f6b
  8
Layer_0
  10
362.67816
  20
264.06677
  0
VERTEX
  5
f6c
  8
Layer_0
  10
362.98425
  20
263.05753
  0
VERTEX
  5
f6d
  8
Layer_0
  10
363.22388
  20
262.03046
  0
VERTEX
  5
f6e
  8
Layer_0
  10
363.39615
  20
260.98886
  0
VERTEX
  5
f6f
  8
Layer_0
  10
363.50012
  20
259.93594
  0
VERTEX
  5
f70
  8
Layer_0
  10
363.535
  20
258.875
  0
VERTEX
  5
f71
  8
Layer_0
  10
363.53494
  20
118.875
  0
VERTEX
  5
f72
  8
Layer_0
  10
363.50006
  20
117.81409
  0
VERTEX
  5
f73
  8
Layer_0
  10
363.39609
  20
116.76117
  0
VERTEX
  5
f74
  8
Layer_0
  10
363.22382
  20
115.7196
  0
VERTEX
  5
f75
  8
Layer_0
  10
362.98419
  20
114.69254
  0
VERTEX
  5
f76
  8
Layer_0
  10
362.6781
  20
113.68329
  0
VERTEX
  5
f77
  8
Layer_0
  10
362.30643
  20
112.69513
  0
VERTEX
  5
f78
  8
Layer_0
  10
361.87006
  20
111.73129
  0
VERTEX
  5
f79
  8
Layer_0
  10
361.36993
  20
110.79504
  0
VERTEX
  5
f7a
  8
Layer_0
  10
360.80945
  20
109.89362
  0
VERTEX
  5
f7b
  8
Layer_0
  10
360.19302
  20
109.03366
  0
VERTEX
  5
f7c
  8
Layer_0
  10
359.5231
  20
108.21762
  0
VERTEX
  5
f7d
  8
Layer_0
  10
358.80206
  20
107.44788
  0
VERTEX
  5
f7e
  8
Layer_0
  10
358.03232
  20
106.72684
  0
VERTEX
  5
f7f
  8
Layer_0
  10
357.21628
  20
106.05692
  0
VERTEX
  5
f80
  8
Layer_0
  10
356.35632
  20
105.44049
  0
VERTEX
  5
f81
  8
Layer_0
  10
355.45493
  20
104.88
  0
VERTEX
  5
f82
  8
Layer_0
  10
354.51871
  20
104.37988
  0
VERTEX
  5
f83
  8
Layer_0
  10
353.55484
  20
103.94351
  0
VERTEX
  5
f84
  8
Layer_0
  10
352.56665
  20
103.57184
  0
VERTEX
  5
f85
  8
Layer_0
  10
351.55743
  20
103.26578
  0
VERTEX
  5
f86
  8
Layer_0
  10
350.5304
  20
103.02618
  0
VERTEX
  5
f87
  8
Layer_0
  10
349.4888
  20
102.85391
  0
VERTEX
  5
f88
  8
Layer_0
  10
348.43591
  20
102.74988
  0
VERTEX
  5
f89
  8
Layer_0
  10
347.37494
  20
102.71503
  0
VERTEX
  5
f8a
  8
Layer_0
  10
347.31119
  20
102.68875
  0
VERTEX
  5
f8b
  8
Layer_0
  10
347.28494
  20
102.625
  0
VERTEX
  5
f8c
  8
Layer_0
  10
347.28494
  20
99.125
  0
VERTEX
  5
f8d
  8
Layer_0
  10
347.31119
  20
99.061279
  0
VERTEX
  5
f8e
  8
Layer_0
  10
347.37494
  20
99.035034
  0
VERTEX
  5
f8f
  8
Layer_0
  10
348.67749
  20
99.07785
  0
VERTEX
  5
f90
  8
Layer_0
  10
349.97021
  20
99.205505
  0
VERTEX
  5
f91
  8
Layer_0
  10
351.24908
  20
99.416992
  0
VERTEX
  5
f92
  8
Layer_0
  10
352.51007
  20
99.711151
  0
VERTEX
  5
f93
  8
Layer_0
  10
353.74915
  20
100.08691
  0
VERTEX
  5
f94
  8
Layer_0
  10
354.96234
  20
100.54321
  0
VERTEX
  5
f95
  8
Layer_0
  10
356.14557
  20
101.07895
  0
VERTEX
  5
f96
  8
Layer_0
  10
357.29492
  20
101.69299
  0
VERTEX
  5
f97
  8
Layer_0
  10
358.40149
  20
102.3812
  0
VERTEX
  5
f98
  8
Layer_0
  10
359.45715
  20
103.13806
  0
VERTEX
  5
f99
  8
Layer_0
  10
360.45898
  20
103.96057
  0
VERTEX
  5
f9a
  8
Layer_0
  10
361.40405
  20
104.84589
  0
VERTEX
  5
f9b
  8
Layer_0
  10
362.28937
  20
105.79095
  0
VERTEX
  5
f9c
  8
Layer_0
  10
363.11188
  20
106.79279
  0
VERTEX
  5
f9d
  8
Layer_0
  10
363.86874
  20
107.84845
  0
VERTEX
  5
f9e
  8
Layer_0
  10
364.55695
  20
108.95502
  0
VERTEX
  5
f9f
  8
Layer_0
  10
365.17099
  20
110.10437
  0
VERTEX
  5
fa0
  8
Layer_0
  10
365.70673
  20
111.2876
  0
VERTEX
  5
fa1
  8
Layer_0
  10
366.16302
  20
112.50079
  0
VERTEX
  5
fa2
  8
Layer_0
  10
366.53882
  20
113.7399
  0
VERTEX
  5
fa3
  8
Layer_0
  10
366.83298
  20
115.00092
  0
VERTEX
  5
fa4
  8
Layer_0
  10
367.04443
  20
116.27975
  0
VERTEX
  5
fa5
  8
Layer_0
  10
367.17212
  20
117.57248
  0
VERTEX
  5
fa6
  8
Layer_0
  10
367.21494
  20
118.875
  0
SEQEND
  0
POLYLINE
  5
fa8
  8
Layer_0
  62
0
  70
1
  66
1
  10
0
  20
0
  30
0
  0
VERTEX
  5
fa8
  8
Layer_0
  10
372.46494
  20
118.875
  0
VERTEX
  5
fa9
  8
Layer_0
  10
372.46503
  20
258.875
  0
VERTEX
  5
faa
  8
Layer_0
  10
372.44958
  20
259.81491
  0
VERTEX
  5
fab
  8
Layer_0
  10
372.40338
  20
260.75201
  0
VERTEX
  5
fac
  8
Layer_0
  10
372.32657
  20
261.68555
  0
VERTEX
  5
fad
  8
Layer_0
  10
372.21942
  20
262.61484
  0
VERTEX
  5
fae
  8
Layer_0
  10
372.08209
  20
263.53915
  0
VERTEX
  5
faf
  8
Layer_0
  10
371.91473
  20
264.45776
  0
VERTEX
  5
fb0
  8
Layer_0
  10
371.71762
  20
265.3699
  0
VERTEX
  5
fb1
  8
Layer_0
  10
371.49091
  20
266.2749
  0
VERTEX
  5
fb2
  8
Layer_0
  10
371.23474
  20
267.17203
  0
VERTEX
  5
fb3
  8
Layer_0
  10
370.94943
  20
268.06052
  0
VERTEX
  5
fb4
  8
Layer_0
  10
370.6351
  20
268.93967
  0
VERTEX
  5
fb5
  8
Layer_0
  10
370.29193
  20
269.80878
  0
VERTEX
  5
fb6
  8
Layer_0
  10
369.92017
  20
270.66708
  0
VERTEX
  5
fb7
  8
Layer_0
  10
369.51996
  20
271.51389
  0
VERTEX
  5
fb8
  8
Layer_0
  10
369.09149
  20
272.34845
  0
VERTEX
  5
fb9
  8
Layer_0
  10
368.63501
  20
273.17004
  0
VERTEX
  5
fba
  8
Layer_0
  10
368.15161
  20
273.9762
  0
VERTEX
  5
fbb
  8
Layer_0
  10
367.64294
  20
274.76453
  0
VERTEX
  5
fbc
  8
Layer_0
  10
367.10962
  20
275.53455
  0
VERTEX
  5
fbd
  8
Layer_0
  10
366.55209
  20
276.28568
  0
VERTEX
  5
fbe
  8
Layer_0
  10
365.97095
  20
277.01743
  0
VERTEX
  5
fbf
  8
Layer_0
  10
365.3667
  20
277.72925
  0
VERTEX
  5
fc0
  8
Layer_0
  10
364.73987
  20
278.42062
  0
VERTEX
  5
fc1
  8
Layer_0
  10
364.091
  20
279.091
  0
VERTEX
  5
fc2
  8
Layer_0
  10
363.42059
  20
279.73987
  0
VERTEX
  5
fc3
  8
Layer_0
  10
362.72925
  20
280.3667
  0
VERTEX
  5
fc4
  8
Layer_0
  10
362.01743
  20
280.97095
  0
VERTEX
  5
fc5
  8
Layer_0
  10
361.28568
  20
281.55209
  0
VERTEX
  5
fc6
  8
Layer_0
  10
360.53455
  20
282.10962
  0
VERTEX
  5
fc7
  8
Layer_0
  10
359.76453
  20
282.64294
  0
VERTEX
  5
fc8
  8
Layer_0
  10
358.97617
  20
283.15158
  0
VERTEX
  5
fc9
  8
Layer_0
  10
358.17004
  20
283.63501
  0
VERTEX
  5
fca
  8
Layer_0
  10
357.34845
  20
284.09149
  0
VERTEX
  5
fcb
  8
Layer_0
  10
356.51385
  20
284.51996
  0
VERTEX
  5
fcc
  8
Layer_0
  10
355.66708
  20
284.92017
  0
VERTEX
  5
fcd
  8
Layer_0
  10
354.80878
  20
285.29193
  0
VERTEX
  5
fce
  8
Layer_0
  10
353.93967
  20
285.6351
  0
VERTEX
  5
fcf
  8
Layer_0
  10
353.06049
  20
285.94946
  0
VERTEX
  5
fd0
  8
Layer_0
  10
352.172
  20
286.2348
  0
VERTEX
  5
fd1
  8
Layer_0
  10
351.2749
  20
286.49091
  0
VERTEX
  5
fd2
  8
Layer_0
  10
350.3699
  20
286.71762
  0
VERTEX
  5
fd3
  8
Layer_0
  10
349.45776
  20
286.91473
  0
VERTEX
  5
fd4
  8
Layer_0
  10
348.53915
  20
287.08209
  0
VERTEX
  5
fd5
  8
Layer_0
  10
347.61487
  20
287.21942
  0
VERTEX
  5
fd6
  8
Layer_0
  10
346.68558
  20
287.3266
  0
VERTEX
  5
fd7
  8
Layer_0
  10
345.75201
  20
287.40338
  0
VERTEX
  5
fd8
  8
Layer_0
  10
344.81491
  20
287.44958
  0
VERTEX
  5
fd9
  8
Layer_0
  10
343.87503
  20
287.46503
  0
VERTEX
  5
fda
  8
Layer_0
  10
343.81128
  20
287.43875
  0
VERTEX
  5
fdb
  8
Layer_0
  10
343.78503
  20
287.375
  0
VERTEX
  5
fdc
  8
Layer_0
  10
343.78503
  20
283.875
  0
VERTEX
  5
fdd
  8
Layer_0
  10
343.81128
  20
283.81128
  0
VERTEX
  5
fde
  8
Layer_0
  10
343.87503
  20
283.78503
  0
VERTEX
  5
fdf
  8
Layer_0
  10
344.69391
  20
283.77158
  0
VERTEX
  5
fe0
  8
Layer_0
  10
345.51038
  20
283.73132
  0
VERTEX
  5
fe1
  8
Layer_0
  10
346.32376
  20
283.6644
  0
VERTEX
  5
fe2
  8
Layer_0
  10
347.13342
  20
283.57104
  0
VERTEX
  5
fe3
  8
Layer_0
  10
347.93872
  20
283.45135
  0
VERTEX
  5
fe4
  8
Layer_0
  10
348.73907
  20
283.30557
  0
VERTEX
  5
fe5
  8
Layer_0
  10
349.53378
  20
283.13382
  0
VERTEX
  5
fe6
  8
Layer_0
  10
350.32227
  20
282.93628
  0
VERTEX
  5
fe7
  8
Layer_0
  10
351.10388
  20
282.71313
  0
VERTEX
  5
fe8
  8
Layer_0
  10
351.87799
  20
282.46454
  0
VERTEX
  5
fe9
  8
Layer_0
  10
352.64398
  20
282.19064
  0
VERTEX
  5
fea
  8
Layer_0
  10
353.40125
  20
281.89166
  0
VERTEX
  5
feb
  8
Layer_0
  10
354.14908
  20
281.56772
  0
VERTEX
  5
fec
  8
Layer_0
  10
354.88693
  20
281.21902
  0
VERTEX
  5
fed
  8
Layer_0
  10
355.61407
  20
280.8457
  0
VERTEX
  5
fee
  8
Layer_0
  10
356.33002
  20
280.448
  0
VERTEX
  5
fef
  8
Layer_0
  10
357.03247
  20
280.02679
  0
VERTEX
  5
ff0
  8
Layer_0
  10
357.71939
  20
279.58365
  0
VERTEX
  5
ff1
  8
Layer_0
  10
358.39032
  20
279.11896
  0
VERTEX
  5
ff2
  8
Layer_0
  10
359.0448
  20
278.63324
  0
VERTEX
  5
ff3
  8
Layer_0
  10
359.68237
  20
278.12692
  0
VERTEX
  5
ff4
  8
Layer_0
  10
360.30255
  20
277.60046
  0
VERTEX
  5
ff5
  8
Layer_0
  10
360.90494
  20
277.05435
  0
VERTEX
  5
ff6
  8
Layer_0
  10
361.48901
  20
276.48901
  0
VERTEX
  5
ff7
  8
Layer_0
  10
362.05435
  20
275.90494
  0
VERTEX
  5
ff8
  8
Layer_0
  10
362.60046
  20
275.30255
  0
VERTEX
  5
ff9
  8
Layer_0
  10
363.12695
  20
274.68237
  0
VERTEX
  5
ffa
  8
Layer_0
  10
363.63327
  20
274.0448
  0
VERTEX
  5
ffb
  8
Layer_0
  10
364.11899
  20
273.39032
  0
VERTEX
  5
ffc
  8
Layer_0
  10
364.58368
  20
272.71939
  0
VERTEX
  5
ffd
  8
Layer_0
  10
365.02686
  20
272.03247
  0
VERTEX
  5
ffe
  8
Layer_0
  10
365.44803
  20
271.33002
  0
VERTEX
  5
fff
  8
Layer_0
  10
365.84573
  20
270.61411
  0
VERTEX
  5
1000
  8
Layer_0
  10
366.21899
  20
269.88693
  0
VERTEX
  5
1001
  8
Layer_0
  10
366.56769
  20
269.14911
  0
VERTEX
  5
1002
  8
Layer_0
  10
366.89163
  20
268.40125
  0
VERTEX
  5
1003
  8
Layer_0
  10
367.19064
  20
267.64401
  0
VERTEX
  5
1004
  8
Layer_0
  10
367.46451
  20
266.87799
  0
VERTEX
  5
1005
  8
Layer_0
  10
367.7131
  20
266.10388
  0
VERTEX
  5
1006
  8
Layer_0
  10
367.93625
  20
265.32227
  0
VERTEX
  5
1007
  8
Layer_0
  10
368.13376
  20
264.53378
  0
VERTEX
  5
1008
  8
Layer_0
  10
368.30551
  20
263.73907
  0
VERTEX
  5
1009
  8
Layer_0
  10
368.45129
  20
262.93872
  0
VERTEX
  5
100a
  8
Layer_0
  10
368.57098
  20
262.13342
  0
VERTEX
  5
100b
  8
Layer_0
  10
368.66437
  20
261.32376
  0
VERTEX
  5
100c
  8
Layer_0
  10
368.73126
  20
260.51038
  0
VERTEX
  5
100d
  8
Layer_0
  10
368.77155
  20
259.69391
  0
VERTEX
  5
100e
  8
Layer_0
  10
368.785
  20
258.875
  0
VERTEX
  5
100f
  8
Layer_0
  10
368.78494
  20
118.875
  0
VERTEX
  5
1010
  8
Layer_0
  10
368.77148
  20
118.05609
  0
VERTEX
  5
1011
  8
Layer_0
  10
368.7312
  20
117.23962
  0
VERTEX
  5
1012
  8
Layer_0
  10
368.66431
  20
116.42624
  0
VERTEX
  5
1013
  8
Layer_0
  10
368.57092
  20
115.61661
  0
VERTEX
  5
1014
  8
Layer_0
  10
368.45123
  20
114.81131
  0
VERTEX
  5
1015
  8
Layer_0
  10
368.30545
  20
114.01099
  0
VERTEX
  5
1016
  8
Layer_0
  10
368.1337
  20
113.21628
  0
VERTEX
  5
1017
  8
Layer_0
  10
367.93619
  20
112.4278
  0
VERTEX
  5
1018
  8
Layer_0
  10
367.71304
  20
111.64618
  0
VERTEX
  5
1019
  8
Layer_0
  10
367.46445
  20
110.87207
  0
VERTEX
  5
101a
  8
Layer_0
  10
367.19058
  20
110.10608
  0
VERTEX
  5
101b
  8
Layer_0
  10
366.89157
  20
109.34882
  0
VERTEX
  5
101c
  8
Layer_0
  10
366.56763
  20
108.60098
  0
VERTEX
  5
101d
  8
Layer_0
  10
366.21893
  20
107.86313
  0
VERTEX
  5
101e
  8
Layer_0
  10
365.84567
  20
107.13599
  0
VERTEX
  5
101f
  8
Layer_0
  10
365.44794
  20
106.42004
  0
VERTEX
  5
1020
  8
Layer_0
  10
365.02673
  20
105.71759
  0
VERTEX
  5
1021
  8
Layer_0
  10
364.58356
  20
105.03067
  0
VERTEX
  5
1022
  8
Layer_0
  10
364.11887
  20
104.35974
  0
VERTEX
  5
1023
  8
Layer_0
  10
363.63315
  20
103.70526
  0
VERTEX
  5
1024
  8
Layer_0
  10
363.12683
  20
103.06769
  0
VERTEX
  5
1025
  8
Layer_0
  10
362.60037
  20
102.44751
  0
VERTEX
  5
1026
  8
Layer_0
  10
362.05426
  20
101.84512
  0
VERTEX
  5
1027
  8
Layer_0
  10
361.48892
  20
101.26102
  0
VERTEX
  5
1028
  8
Layer_0
  10
360.90482
  20
100.69568
  0
VERTEX
  5
1029
  8
Layer_0
  10
360.30246
  20
100.14957
  0
VERTEX
  5
102a
  8
Layer_0
  10
359.68228
  20
99.623108
  0
VERTEX
  5
102b
  8
Layer_0
  10
359.04471
  20
99.116791
  0
VERTEX
  5
102c
  8
Layer_0
  10
358.3902
  20
98.631073
  0
VERTEX
  5
102d
  8
Layer_0
  10
357.71927
  20
98.166382
  0
VERTEX
  5
102e
  8
Layer_0
  10
357.03235
  20
97.723206
  0
VERTEX
  5
102f
  8
Layer_0
  10
356.32993
  20
97.302002
  0
VERTEX
  5
1030
  8
Layer_0
  10
355.61401
  20
96.904266
  0
VERTEX
  5
1031
  8
Layer_0
  10
354.88684
  20
96.531006
  0
VERTEX
  5
1032
  8
Layer_0
  10
354.14902
  20
96.182312
  0
VERTEX
  5
1033
  8
Layer_0
  10
353.40118
  20
95.858368
  0
VERTEX
  5
1034
  8
Layer_0
  10
352.64392
  20
95.559387
  0
VERTEX
  5
1035
  8
Layer_0
  10
351.87793
  20
95.285522
  0
VERTEX
  5
1036
  8
Layer_0
  10
351.10382
  20
95.036926
  0
VERTEX
  5
1037
  8
Layer_0
  10
350.3222
  20
94.813782
  0
VERTEX
  5
1038
  8
Layer_0
  10
349.53372
  20
94.616241
  0
VERTEX
  5
1039
  8
Layer_0
  10
348.73901
  20
94.444489
  0
VERTEX
  5
103a
  8
Layer_0
  10
347.93866
  20
94.298706
  0
VERTEX
  5
103b
  8
Layer_0
  10
347.13336
  20
94.179016
  0
VERTEX
  5
103c
  8
Layer_0
  10
346.3237
  20
94.085632
  0
VERTEX
  5
103d
  8
Layer_0
  10
345.51031
  20
94.018738
  0
VERTEX
  5
103e
  8
Layer_0
  10
344.69385
  20
93.978455
  0
VERTEX
  5
103f
  8
Layer_0
  10
343.87494
  20
93.965027
  0
VERTEX
  5
1040
  8
Layer_0
  10
343.81116
  20
93.938751
  0
VERTEX
  5
1041
  8
Layer_0
  10
343.78491
  20
93.875
  0
VERTEX
  5
1042
  8
Layer_0
  10
343.78491
  20
90.375
  0
VERTEX
  5
1043
  8
Layer_0
  10
343.81116
  20
90.311279
  0
VERTEX
  5
1044
  8
Layer_0
  10
343.87494
  20
90.285034
  0
VERTEX
  5
1045
  8
Layer_0
  10
344.81482
  20
90.300476
  0
VERTEX
  5
1046
  8
Layer_0
  10
345.75192
  20
90.34668
  0
VERTEX
  5
1047
  8
Layer_0
  10
346.68546
  20
90.423492
  0
VERTEX
  5
1048
  8
Layer_0
  10
347.61475
  20
90.53064
  0
VERTEX
  5
1049
  8
Layer_0
  10
348.53906
  20
90.667969
  0
VERTEX
  5
104a
  8
Layer_0
  10
349.45764
  20
90.835327
  0
VERTEX
  5
104b
  8
Layer_0
  10
350.36981
  20
91.03244
  0
VERTEX
  5
104c
  8
Layer_0
  10
351.27478
  20
91.259155
  0
VERTEX
  5
104d
  8
Layer_0
  10
352.17188
  20
91.515259
  0
VERTEX
  5
104e
  8
Layer_0
  10
353.06036
  20
91.800598
  0
VERTEX
  5
104f
  8
Layer_0
  10
353.93954
  20
92.11496
  0
VERTEX
  5
1050
  8
Layer_0
  10
354.80865
  20
92.458099
  0
VERTEX
  5
1051
  8
Layer_0
  10
355.66696
  20
92.829865
  0
VERTEX
  5
1052
  8
Layer_0
  10
356.51373
  20
93.230042
  0
VERTEX
  5
1053
  8
Layer_0
  10
357.34833
  20
93.658508
  0
VERTEX
  5
1054
  8
Layer_0
  10
358.16992
  20
94.11499
  0
VERTEX
  5
1055
  8
Layer_0
  10
358.97604
  20
94.598389
  0
VERTEX
  5
1056
  8
Layer_0
  10
359.7644
  20
95.107056
  0
VERTEX
  5
1057
  8
Layer_0
  10
360.53442
  20
95.640381
  0
VERTEX
  5
1058
  8
Layer_0
  10
361.28558
  20
96.197906
  0
VERTEX
  5
1059
  8
Layer_0
  10
362.01733
  20
96.779053
  0
VERTEX
  5
105a
  8
Layer_0
  10
362.72916
  20
97.383301
  0
VERTEX
  5
105b
  8
Layer_0
  10
363.42053
  20
98.010132
  0
VERTEX
  5
105c
  8
Layer_0
  10
364.09094
  20
98.658997
  0
VERTEX
  5
105d
  8
Layer_0
  10
364.73981
  20
99.329407
  0
VERTEX
  5
105e
  8
Layer_0
  10
365.36664
  20
100.02078
  0
VERTEX
  5
105f
  8
Layer_0
  10
365.97089
  20
100.7326
  0
VERTEX
  5
1060
  8
Layer_0
  10
366.55203
  20
101.46436
  0
VERTEX
  5
1061
  8
Layer_0
  10
367.10956
  20
102.21552
  0
VERTEX
  5
1062
  8
Layer_0
  10
367.64288
  20
102.98553
  0
VERTEX
  5
1063
  8
Layer_0
  10
368.15155
  20
103.7739
  0
VERTEX
  5
1064
  8
Layer_0
  10
368.63495
  20
104.58002
  0
VERTEX
  5
1065
  8
Layer_0
  10
369.09143
  20
105.40161
  0
VERTEX
  5
1066
  8
Layer_0
  10
369.5199
  20
106.23621
  0
VERTEX
  5
1067
  8
Layer_0
  10
369.9201
  20
107.08298
  0
VERTEX
  5
1068
  8
Layer_0
  10
370.29187
  20
107.94128
  0
VERTEX
  5
1069
  8
Layer_0
  10
370.63504
  20
108.81039
  0
VERTEX
  5
106a
  8
Layer_0
  10
370.94934
  20
109.68958
  0
VERTEX
  5
106b
  8
Layer_0
  10
371.23468
  20
110.57806
  0
VERTEX
  5
106c
  8
Layer_0
  10
371.49081
  20
111.47516
  0
VERTEX
  5
106d
  8
Layer_0
  10
371.71753
  20
112.38013
  0
VERTEX
  5
106e
  8
Layer_0
  10
371.91467
  20
113.2923
  0
VERTEX
  5
106f
  8
Layer_0
  10
372.08197
  20
114.21088
  0
VERTEX
  5
1070
  8
Layer_0
  10
372.21933
  20
115.13519
  0
VERTEX
  5
1071
  8
Layer_0
  10
372.32648
  20
116.06448
  0
VERTEX
  5
1072
  8
Layer_0
  10
372.40326
  20
116.99802
  0
VERTEX
  5
1073
  8
Layer_0
  10
372.44946
  20
117.93512
  0
VERTEX
  5
1074
  8
Layer_0
  10
372.46494
  20
118.875
  0
SEQEND
  0
ENDSEC
  0
EOF
