0
SECTION
2
HEADER
9
$INSUNITS
70
4
9
$ACADVER
1
AC1014
9
$HANDSEED
5
FFFF
0
ENDSEC
0
SECTION
2
TABLES
0
TABLE
2
VPORT
5
8
100
AcDbSymbolTable
0
ENDTAB
0
TABLE
2
LTYPE
5
5
100
AcDbSymbolTable
0
LTYPE
5
14
100
AcDbSymbolTableRecord
100
AcDbLinetypeTableRecord
2
BYBLOCK
70
0
0
LTYPE
5
15
100
AcDbSymbolTableRecord
100
AcDbLinetypeTableRecord
2
BYLAYER
70
0
0
ENDTAB
0
TABLE
2
LAYER
5
2
100
AcDbSymbolTable
70
2
0
LAYER
5
50
100
AcDbSymbolTableRecord
100
AcDbLayerTableRecord
2
0
70
0
6
CONTINUOUS
0
ENDTAB
0
TABLE
2
STYLE
5
3
100
AcDbSymbolTable
70
1
0
STYLE
5
11
100
AcDbSymbolTableRecord
100
AcDbTextStyleTableRecord
2
STANDARD
70
0
0
ENDTAB
0
TABLE
2
VIEW
5
6
100
AcDbSymbolTable
70
0
0
ENDTAB
0
TABLE
2
UCS
5
7
100
AcDbSymbolTable
70
0
0
ENDTAB
0
TABLE
2
APPID
5
9
100
AcDbSymbolTable
70
2
0
APPID
5
12
100
AcDbSymbolTableRecord
100
AcDbRegAppTableRecord
2
ACAD
70
0
0
ENDTAB
0
TABLE
2
DIMSTYLE
5
A
100
AcDbSymbolTable
70
1
0
ENDTAB
0
TABLE
2
BLOCK_RECORD
5
1
100
AcDbSymbolTable
70
1
0
BLOCK_RECORD
5
1F
100
AcDbSymbolTableRecord
100
AcDbBlockTableRecord
2
*MODEL_SPACE
0
BLOCK_RECORD
5
1B
100
AcDbSymbolTableRecord
100
AcDbBlockTableRecord
2
*PAPER_SPACE
0
ENDTAB
0
ENDSEC
0
SECTION
2
BLOCKS
0
BLOCK
5
20
100
AcDbEntity
100
AcDbBlockBegin
2
*MODEL_SPACE
0
ENDBLK
5
21
100
AcDbEntity
100
AcDbBlockEnd
0
BLOCK
5
1C
100
AcDbEntity
100
AcDbBlockBegin
2
*PAPER_SPACE
0
ENDBLK
5
1D
100
AcDbEntity
100
AcDbBlockEnd
0
ENDSEC
0
SECTION
2
ENTITIES
0
CIRCLE
5
100
100
AcDbEntity
8
0
100
AcDbCircle
10
49.000002056360231
20
-14.000000372529033
30
0
40
9.375
210
0
220
0
230
1
0
CIRCLE
5
101
100
AcDbEntity
8
0
100
AcDbCircle
10
-4.9999979436397624
20
25.000000298023224
30
0
40
9.375
210
0
220
0
230
1
0
CIRCLE
5
102
100
AcDbEntity
8
0
100
AcDbCircle
10
-50
20
52.000000521540642
30
0
40
9.375
210
0
220
0
230
1
0
CIRCLE
5
103
100
AcDbEntity
8
0
100
AcDbCircle
10
-4.9999979436397712
20
-14.000000372529055
30
0
40
9.3749999999999982
210
0
220
0
230
1
0
CIRCLE
5
104
100
AcDbEntity
8
0
100
AcDbCircle
10
49.000002056360245
20
25.000000298023224
30
0
40
9.375
210
0
220
0
230
1
0
LWPOLYLINE
5
105
100
AcDbEntity
8
0
100
AcDbPolyline
90
6
70
1
43
0.0
10
1.5155465129830077
20
42.625000149011612
10
-1.5155424002625288
20
42.625000149011612
10
-3.0310868568852984
20
40.000000149011612
10
-1.5155424002625302
20
37.375000149011612
10
1.515546512983007
20
37.375000149011612
10
3.031090969605776
20
40.000000149011612
0
CIRCLE
5
106
100
AcDbEntity
8
0
100
AcDbCircle
10
-50
20
25.000000521540642
30
0
40
9.0000000000000036
210
0
220
0
230
1
0
LWPOLYLINE
5
107
100
AcDbEntity
8
0
100
AcDbPolyline
90
6
70
1
43
0.0
10
1.5155454848028882
20
2.6250001490116097
10
-1.5155434284426477
20
2.6250001490116115
10
-3.0310878850654155
20
1.4901161304869959e-07
10
-1.5155434284426494
20
-2.6249998509883863
10
1.5155454848028844
20
-2.6249998509883881
10
3.0310899414256531
20
1.4901160971803051e-07
0
CIRCLE
5
108
100
AcDbEntity
8
0
100
AcDbCircle
10
-44.500000000000014
20
-26.999999850988424
30
0
40
1.5000000000000036
210
0
220
0
230
1
0
CIRCLE
5
109
100
AcDbEntity
8
0
100
AcDbCircle
10
-72
20
60.850000521540643
30
0
40
1.5000000000000036
210
0
220
0
230
1
0
CIRCLE
5
110
100
AcDbEntity
8
0
100
AcDbCircle
10
72.000001028180122
20
15.00000037252903
30
0
40
1.5000000000000036
210
0
220
0
230
1
0
CIRCLE
5
111
100
AcDbEntity
8
0
100
AcDbCircle
10
-71.999998971819878
20
15.00000037252903
30
0
40
1.5000000000000036
210
0
220
0
230
1
0
CIRCLE
5
112
100
AcDbEntity
8
0
100
AcDbCircle
10
-71.999998971819878
20
35.000000670552254
30
0
40
1.5000000000000036
210
0
220
0
230
1
0
CIRCLE
5
113
100
AcDbEntity
8
0
100
AcDbCircle
10
72.000001028180122
20
35.000000149011612
30
0
40
1.5000000000000036
210
0
220
0
230
1
0
LINE
5
114
100
AcDbEntity
8
0
100
AcDbLine
10
-69
20
55.850000521540643
30
0
11
-69
21
40.00000074505806
31
0
0
LINE
5
115
100
AcDbEntity
8
0
100
AcDbLine
10
-69
20
40.00000074505806
30
0
11
-74.999998971819878
21
40.00000074505806
31
0
0
LINE
5
116
100
AcDbEntity
8
0
100
AcDbLine
10
-74.999998971819878
20
40.00000074505806
30
0
11
-74.999998971819878
21
30.000000596046448
31
0
0
LINE
5
117
100
AcDbEntity
8
0
100
AcDbLine
10
-74.999998971819878
20
30.000000596046448
30
0
11
-69
21
30.000000596046448
31
0
0
LINE
5
118
100
AcDbEntity
8
0
100
AcDbLine
10
-69
20
30.000000596046448
30
0
11
-69
21
20.000000447034836
31
0
0
LINE
5
119
100
AcDbEntity
8
0
100
AcDbLine
10
-69
20
20.000000447034836
30
0
11
-74.999998971819878
21
20.000000447034836
31
0
0
LINE
5
120
100
AcDbEntity
8
0
100
AcDbLine
10
-74.999998971819878
20
20.000000447034836
30
0
11
-74.999998971819878
21
10.000000298023224
31
0
0
LINE
5
121
100
AcDbEntity
8
0
100
AcDbLine
10
-74.999998971819878
20
10.000000298023224
30
0
11
-69
21
10.000000298023224
31
0
0
LINE
5
122
100
AcDbEntity
8
0
100
AcDbLine
10
-69
20
10.000000298023224
30
0
11
-69
21
-18.999999850988424
31
0
0
ARC
5
123
100
AcDbEntity
8
0
100
AcDbCircle
10
-69
20
-21.499999850988431
30
0
40
2.5000000000000089
210
0
220
0
230
1
100
AcDbArc
50
90
51
180
0
LINE
5
124
100
AcDbEntity
8
0
100
AcDbLine
10
-71.5
20
-21.499999850988424
30
0
11
-71.5
21
-30.000000372529058
31
0
0
ARC
5
125
100
AcDbEntity
8
0
100
AcDbCircle
10
-66.5
20
-30.000000372529051
30
0
40
5.0000000000000089
210
0
220
0
230
1
100
AcDbArc
50
180
51
270
0
LINE
5
126
100
AcDbEntity
8
0
100
AcDbLine
10
-66.5
20
-35.000000372529058
30
0
11
72.500002056360216
21
-34.999999850988182
31
0
0
ARC
5
127
100
AcDbEntity
8
0
100
AcDbCircle
10
72.500002056360216
20
-30.000000372529062
30
0
40
4.9999994784591184
210
0
220
0
230
1
100
AcDbArc
50
-90
51
0
0
LINE
5
128
100
AcDbEntity
8
0
100
AcDbLine
10
77.500002056360216
20
-30.000000372529062
30
0
11
77.500002056360231
21
-21.500000372529033
31
0
0
ARC
5
129
100
AcDbEntity
8
0
100
AcDbCircle
10
75.000002056360231
20
-21.50000037252903
30
0
40
2.5
210
0
220
0
230
1
100
AcDbArc
50
0
51
89.999999658490225
0
LINE
5
130
100
AcDbEntity
8
0
100
AcDbLine
10
75.000002071261406
20
-19.00000037252903
30
0
11
75.000002071261406
21
2.9802322387695312e-07
31
0
0
LINE
5
131
100
AcDbEntity
8
0
100
AcDbLine
10
75.000002071261406
20
2.9802322387695312e-07
30
0
11
70.000002071261406
21
2.9802322387695312e-07
31
0
0
LINE
5
132
100
AcDbEntity
8
0
100
AcDbLine
10
70.000002071261406
20
2.9802322387695312e-07
30
0
11
70.000002071261406
21
10.000000298023224
31
0
0
LINE
5
133
100
AcDbEntity
8
0
100
AcDbLine
10
70.000002071261406
20
10.000000298023224
30
0
11
75.000001028180122
21
10.000000298023224
31
0
0
LINE
5
134
100
AcDbEntity
8
0
100
AcDbLine
10
75.000001028180122
20
10.000000298023224
30
0
11
75.000001028180122
21
20.000000447034836
31
0
0
LINE
5
135
100
AcDbEntity
8
0
100
AcDbLine
10
75.000001028180122
20
20.000000447034836
30
0
11
69.000002056360245
21
20.000000447034836
31
0
0
LINE
5
136
100
AcDbEntity
8
0
100
AcDbLine
10
69.000002056360245
20
20.000000447034836
30
0
11
69.000002056360245
21
30.000000149011612
31
0
0
LINE
5
137
100
AcDbEntity
8
0
100
AcDbLine
10
69.000002056360245
20
30.000000149011612
30
0
11
75.000001028180122
21
30.000000149011612
31
0
0
LINE
5
138
100
AcDbEntity
8
0
100
AcDbLine
10
75.000001028180122
20
30.000000149011612
30
0
11
75.000001028180122
21
40.000000149011612
31
0
0
LINE
5
139
100
AcDbEntity
8
0
100
AcDbLine
10
75.000001028180122
20
40.000000149011612
30
0
11
69.000001028180122
21
40.000000149011612
31
0
0
LINE
5
140
100
AcDbEntity
8
0
100
AcDbLine
10
69.000001028180122
20
40.000000149011612
30
0
11
69.000001028180122
21
50.000000149011612
31
0
0
LINE
5
141
100
AcDbEntity
8
0
100
AcDbLine
10
69.000001028180122
20
50.000000149011612
30
0
11
-25.482863090581436
21
50.000000149011612
31
0
0
ARC
5
142
100
AcDbEntity
8
0
100
AcDbCircle
10
-25.482863090581439
20
55.000000149011612
30
0
40
5.0000000000000009
210
0
220
0
230
1
100
AcDbArc
50
186.97622505262223
51
270.00000000000006
0
ARC
5
143
100
AcDbEntity
8
0
100
AcDbCircle
10
-50
20
52.000000521540642
30
0
40
19.699999999999996
210
0
220
-0
230
1
100
AcDbArc
50
6.9762250526222447
51
90
0
LINE
5
144
100
AcDbEntity
8
0
100
AcDbLine
10
-50
20
71.700000521540645
30
0
11
-69
21
71.700000521540645
31
0
0
LINE
5
145
100
AcDbEntity
8
0
100
AcDbLine
10
-69
20
71.700000521540645
30
0
11
-69
21
65.850000521540636
31
0
0
LINE
5
146
100
AcDbEntity
8
0
100
AcDbLine
10
-69
20
65.850000521540636
30
0
11
-75
21
65.850000521540636
31
0
0
LINE
5
147
100
AcDbEntity
8
0
100
AcDbLine
10
-75
20
65.850000521540636
30
0
11
-75
21
55.850000521540643
31
0
0
LINE
5
148
100
AcDbEntity
8
0
100
AcDbLine
10
-75
20
55.850000521540643
30
0
11
-69
21
55.850000521540643
31
0
0
LINE
5
149
100
AcDbEntity
8
0
100
AcDbLine
10
72.500002056360231
20
-24.000000372529033
30
0
11
72.500002056360216
21
-30.000000372529062
31
0
0
LINE
5
150
100
AcDbEntity
8
0
100
AcDbLine
10
72.500002056360216
20
-30.000000372529062
30
0
11
66.500002056360231
21
-30.000000372529033
31
0
0
LINE
5
151
100
AcDbEntity
8
0
100
AcDbLine
10
66.500002056360231
20
-30.000000372529033
30
0
11
66.500002056360231
21
-24.000000372529033
31
0
0
LINE
5
152
100
AcDbEntity
8
0
100
AcDbLine
10
66.500002056360231
20
-24.000000372529033
30
0
11
72.500002056360231
21
-24.000000372529033
31
0
0
LWPOLYLINE
5
153
100
AcDbEntity
8
0
100
AcDbPolyline
90
4
70
1
43
0.0
10
-22.499997943639777
20
-24.000000372529058
10
-28.499997943639777
20
-24.000000372529058
10
-28.499997943639777
20
-30.000000372529062
10
-22.499997943639777
20
-30.000000372529062
0
LINE
5
154
100
AcDbEntity
8
0
100
AcDbLine
10
-66.5
20
-30.000000372529051
30
0
11
-66.5
21
-23.999999850988424
31
0
0
LINE
5
155
100
AcDbEntity
8
0
100
AcDbLine
10
-66.5
20
-23.999999850988424
30
0
11
-60.500000000000007
21
-23.999999850988424
31
0
0
LINE
5
156
100
AcDbEntity
8
0
100
AcDbLine
10
-60.500000000000007
20
-23.999999850988424
30
0
11
-60.500000000000007
21
-29.999999850988424
31
0
0
LINE
5
157
100
AcDbEntity
8
0
100
AcDbLine
10
-60.500000000000007
20
-29.999999850988424
30
0
11
-66.5
21
-30.000000372529051
31
0
0
ENDSEC
0
SECTION
2
OBJECTS
0
DICTIONARY
5
C
100
AcDbDictionary
3
ACAD_GROUP
350
D
3
ACAD_MLINESTYLE
350
17
0
DICTIONARY
5
D
100
AcDbDictionary
0
DICTIONARY
5
1A
330
C
100
AcDbDictionary
0
DICTIONARY
5
17
100
AcDbDictionary
0
ENDSEC
0
EOF
