999
dxfrw 0.5.13
0
SECTION
2
HEADER
9
$ACADVER
1
AC1015
9
$HANDSEED
5
20000
9
$DWGCODEPAGE
3
ANSI_1252
9
$INSBASE
10
0
20
0
30
0
9
$EXTMIN
10
2.66541016721
20
1.99881520215
30
0
9
$EXTMAX
10
352.456593917
20
115.417914488
30
0
9
$LIMMIN
10
0
20
0
9
$LIMMAX
10
12
20
9
9
$ORTHOMODE
70
1
9
$LTSCALE
40
1
9
$TEXTSTYLE
7
Standard
9
$CLAYER
8
0
9
$DIMASZ
40
0.18
9
$DIMLFAC
40
1
9
$DIMSCALE
40
1
9
$DIMEXO
40
0.0625
9
$DIMEXE
40
0.18
9
$DIMTXT
40
0.18
9
$DIMTSZ
40
0
9
$DIMAUNIT
70
0
9
$DIMADEC
70
0
9
$DIMLUNIT
70
2
9
$DIMSTYLE
2
Standard
9
$DIMGAP
40
0.09
9
$DIMTIH
70
1
9
$LUNITS
70
2
9
$LUPREC
70
4
9
$AUNITS
70
0
9
$AUPREC
70
0
9
$SPLINESEGS
70
8
9
$GRIDMODE
70
1
9
$SNAPSTYLE
70
0
9
$GRIDUNIT
10
0
20
0
9
$PINSBASE
10
0
20
0
30
0
9
$PLIMMIN
10
0
20
0
9
$PLIMMAX
10
12
20
9
9
$INSUNITS
70
4
9
$PSVPSCALE
40
0
0
ENDSEC
0
SECTION
2
CLASSES
0
ENDSEC
0
SECTION
2
TABLES
0
TABLE
2
VPORT
5
8
330
0
100
AcDbSymbolTable
70
1
0
VPORT
5
31
330
2
100
AcDbSymbolTableRecord
100
AcDbViewportTableRecord
2
*ACTIVE
70
0
10
0
20
0
11
1
21
1
12
212.699731344
22
88.7581585682
13
0
23
0
14
10
24
10
15
10
25
10
16
0
26
0
36
1
17
0
27
0
37
0
40
261.74327842
41
1.70264765784
42
50
43
0
44
0
50
0
51
0
71
0
72
100
73
1
74
3
75
0
76
1
77
0
78
0
281
0
65
1
110
0
120
0
130
0
111
1
121
0
131
0
112
0
122
1
132
0
79
0
146
0
0
ENDTAB
0
TABLE
2
LTYPE
5
5
330
0
100
AcDbSymbolTable
70
4
0
LTYPE
5
14
330
5
100
AcDbSymbolTableRecord
100
AcDbLinetypeTableRecord
2
ByBlock
70
0
3

72
65
73
0
40
0
0
LTYPE
5
15
330
5
100
AcDbSymbolTableRecord
100
AcDbLinetypeTableRecord
2
ByLayer
70
0
3

72
65
73
0
40
0
0
LTYPE
5
16
330
5
100
AcDbSymbolTableRecord
100
AcDbLinetypeTableRecord
2
Continuous
70
0
3
Solid line
72
65
73
0
40
0
0
LTYPE
5
32
330
5
100
AcDbSymbolTableRecord
100
AcDbLinetypeTableRecord
2
DOT
70
0
3
Dot . . . . . . . . . . . . . . . . . . . . . .
72
65
73
2
40
6.35
49
0
74
0
49
-6.35
74
0
0
LTYPE
5
33
330
5
100
AcDbSymbolTableRecord
100
AcDbLinetypeTableRecord
2
DOT2
70
0
3
Dot (.5x) .....................................
72
65
73
2
40
3.175
49
0
74
0
49
-3.175
74
0
0
LTYPE
5
34
330
5
100
AcDbSymbolTableRecord
100
AcDbLinetypeTableRecord
2
DOTX2
70
0
3
Dot (2x) .  .  .  .  .  .  .  .  .  .  .  .  .
72
65
73
2
40
12.7
49
0
74
0
49
-12.7
74
0
0
LTYPE
5
35
330
5
100
AcDbSymbolTableRecord
100
AcDbLinetypeTableRecord
2
DASHED
70
0
3
Dot . . . . . . . . . . . . . . . . . . . . . .
72
65
73
2
40
19.05
49
12.7
74
0
49
-6.35
74
0
0
LTYPE
5
36
330
5
100
AcDbSymbolTableRecord
100
AcDbLinetypeTableRecord
2
DASHED2
70
0
3
Dashed (.5x) _ _ _ _ _ _ _ _ _ _ _ _ _ _ _ _ _
72
65
73
2
40
9.525
49
6.35
74
0
49
-3.175
74
0
0
LTYPE
5
37
330
5
100
AcDbSymbolTableRecord
100
AcDbLinetypeTableRecord
2
DASHEDX2
70
0
3
Dashed (2x) ____  ____  ____  ____  ____  ___
72
65
73
2
40
38.1
49
25.4
74
0
49
-12.7
74
0
0
LTYPE
5
38
330
5
100
AcDbSymbolTableRecord
100
AcDbLinetypeTableRecord
2
DASHDOT
70
0
3
Dash dot __ . __ . __ . __ . __ . __ . __ . __
72
65
73
4
40
25.4
49
12.7
74
0
49
-6.35
74
0
49
0
74
0
49
-6.35
74
0
0
LTYPE
5
39
330
5
100
AcDbSymbolTableRecord
100
AcDbLinetypeTableRecord
2
DASHDOT2
70
0
3
Dash dot (.5x) _._._._._._._._._._._._._._._.
72
65
73
4
40
12.7
49
6.35
74
0
49
-3.175
74
0
49
0
74
0
49
-3.175
74
0
0
LTYPE
5
3A
330
5
100
AcDbSymbolTableRecord
100
AcDbLinetypeTableRecord
2
DASHDOTX2
70
0
3
Dash dot (2x) ____  .  ____  .  ____  .  ___
72
65
73
4
40
50.8
49
25.4
74
0
49
-12.7
74
0
49
0
74
0
49
-12.7
74
0
0
LTYPE
5
3B
330
5
100
AcDbSymbolTableRecord
100
AcDbLinetypeTableRecord
2
DIVIDE
70
0
3
Divide ____ . . ____ . . ____ . . ____ . . ____
72
65
73
6
40
31.75
49
12.7
74
0
49
-6.35
74
0
49
0
74
0
49
-6.35
74
0
49
0
74
0
49
-6.35
74
0
0
LTYPE
5
3C
330
5
100
AcDbSymbolTableRecord
100
AcDbLinetypeTableRecord
2
DIVIDE2
70
0
3
Divide (.5x) __..__..__..__..__..__..__..__.._
72
65
73
6
40
15.875
49
6.35
74
0
49
-3.175
74
0
49
0
74
0
49
-3.175
74
0
49
0
74
0
49
-3.175
74
0
0
LTYPE
5
3D
330
5
100
AcDbSymbolTableRecord
100
AcDbLinetypeTableRecord
2
DIVIDEX2
70
0
3
Divide (2x) ________  .  .  ________  .  .  _
72
65
73
6
40
63.5
49
25.4
74
0
49
-12.7
74
0
49
0
74
0
49
-12.7
74
0
49
0
74
0
49
-12.7
74
0
0
LTYPE
5
3E
330
5
100
AcDbSymbolTableRecord
100
AcDbLinetypeTableRecord
2
BORDER
70
0
3
Border __ __ . __ __ . __ __ . __ __ . __ __ .
72
65
73
6
40
44.45
49
12.7
74
0
49
-6.35
74
0
49
12.7
74
0
49
-6.35
74
0
49
0
74
0
49
-6.35
74
0
0
LTYPE
5
3F
330
5
100
AcDbSymbolTableRecord
100
AcDbLinetypeTableRecord
2
BORDER2
70
0
3
Border (.5x) __.__.__.__.__.__.__.__.__.__.__.
72
65
73
6
40
22.225
49
6.35
74
0
49
-3.175
74
0
49
6.35
74
0
49
-3.175
74
0
49
0
74
0
49
-3.175
74
0
0
LTYPE
5
40
330
5
100
AcDbSymbolTableRecord
100
AcDbLinetypeTableRecord
2
BORDERX2
70
0
3
Border (2x) ____  ____  .  ____  ____  .  ___
72
65
73
6
40
88.9
49
25.4
74
0
49
-12.7
74
0
49
25.4
74
0
49
-12.7
74
0
49
0
74
0
49
-12.7
74
0
0
LTYPE
5
41
330
5
100
AcDbSymbolTableRecord
100
AcDbLinetypeTableRecord
2
CENTER
70
0
3
Center ____ _ ____ _ ____ _ ____ _ ____ _ ____
72
65
73
4
40
50.8
49
31.75
74
0
49
-6.35
74
0
49
6.35
74
0
49
-6.35
74
0
0
LTYPE
5
42
330
5
100
AcDbSymbolTableRecord
100
AcDbLinetypeTableRecord
2
CENTER2
70
0
3
Center (.5x) ___ _ ___ _ ___ _ ___ _ ___ _ ___
72
65
73
4
40
28.575
49
19.05
74
0
49
-3.175
74
0
49
3.175
74
0
49
-3.175
74
0
0
LTYPE
5
43
330
5
100
AcDbSymbolTableRecord
100
AcDbLinetypeTableRecord
2
CENTERX2
70
0
3
Center (2x) ________  __  ________  __  _____
72
65
73
4
40
101.6
49
63.5
74
0
49
-12.7
74
0
49
12.7
74
0
49
-12.7
74
0
0
ENDTAB
0
TABLE
2
LAYER
5
2
330
0
100
AcDbSymbolTable
70
1
0
LAYER
5
10
330
2
100
AcDbSymbolTableRecord
100
AcDbLayerTableRecord
2
0
70
0
62
255
6
CONTINUOUS
370
-3
390
F
0
LAYER
5
44
330
2
100
AcDbSymbolTableRecord
100
AcDbLayerTableRecord
2
cortes
70
0
62
1
6
CONTINUOUS
370
-3
390
F
0
LAYER
5
45
330
2
100
AcDbSymbolTableRecord
100
AcDbLayerTableRecord
2
furos
70
0
62
5
6
CONTINUOUS
370
-3
390
F
0
ENDTAB
0
TABLE
2
STYLE
5
3
330
0
100
AcDbSymbolTable
70
3
0
STYLE
5
46
330
2
100
AcDbSymbolTableRecord
100
AcDbTextStyleTableRecord
2
Standard
70
0
40
0
41
1
50
0
71
0
42
1
3
txt
4

0
ENDTAB
0
TABLE
2
VIEW
5
6
330
0
100
AcDbSymbolTable
70
0
0
ENDTAB
0
TABLE
2
UCS
5
7
330
0
100
AcDbSymbolTable
70
0
0
ENDTAB
0
TABLE
2
APPID
5
9
330
0
100
AcDbSymbolTable
70
1
0
APPID
5
12
330
9
100
AcDbSymbolTableRecord
100
AcDbRegAppTableRecord
2
ACAD
70
0
0
APPID
5
47
330
9
100
AcDbSymbolTableRecord
100
AcDbRegAppTableRecord
2
LibreCad
70
0
0
ENDTAB
0
TABLE
2
DIMSTYLE
5
A
330
0
100
AcDbSymbolTable
70
1
100
AcDbDimStyleTable
71
1
0
DIMSTYLE
105
48
330
A
100
AcDbSymbolTableRecord
100
AcDbDimStyleTableRecord
2
Standard
70
0
40
1
41
0.18
42
0.0625
43
0.38
44
0.18
45
0
46
0
47
0
48
0
140
0.18
141
0.09
142
0
143
25.4
144
1
145
0
146
1
147
0.09
148
0
71
0
72
0
73
0
74
1
75
0
76
0
77
0
78
0
79
0
170
0
171
2
172
0
173
0
174
0
175
0
176
0
177
0
178
0
179
0
271
4
272
4
273
2
274
2
275
0
276
0
277
2
278
46
279
0
280
0
281
0
282
0
283
1
284
0
285
0
286
0
288
0
289
3
340
Standard
341

371
-2
372
-2
0
ENDTAB
0
TABLE
2
BLOCK_RECORD
5
1
330
0
100
AcDbSymbolTable
70
2
0
BLOCK_RECORD
5
1F
330
1
100
AcDbSymbolTableRecord
100
AcDbBlockTableRecord
2
*Model_Space
0
BLOCK_RECORD
5
1E
330
1
100
AcDbSymbolTableRecord
100
AcDbBlockTableRecord
2
*Paper_Space
0
BLOCK_RECORD
5
49
330
1
100
AcDbSymbolTableRecord
100
AcDbBlockTableRecord
2
suporte-0
0
ENDTAB
0
ENDSEC
0
SECTION
2
BLOCKS
0
BLOCK
5
20
330
1F
100
AcDbEntity
8
0
100
AcDbBlockBegin
2
*Model_Space
70
0
10
0
20
0
30
0
3
*Model_Space
1

0
ENDBLK
5
21
330
1F
100
AcDbEntity
8
0
100
AcDbBlockEnd
0
BLOCK
5
1C
330
1B
100
AcDbEntity
8
0
100
AcDbBlockBegin
2
*Paper_Space
70
0
10
0
20
0
30
0
3
*Paper_Space
1

0
ENDBLK
5
1D
330
1F
100
AcDbEntity
8
0
100
AcDbBlockEnd
0
BLOCK
5
4A
330
49
100
AcDbEntity
8
0
100
AcDbBlockBegin
2
suporte-0
70
0
10
0
20
0
3
suporte-0
1

0
LINE
5
4C
100
AcDbEntity
8
0
6
ByLayer
62
178
370
-1
100
AcDbLine
10
29.2817160019
20
85.1217809926
11
28.8065550987
21
84.8205378576
0
LINE
5
4D
100
AcDbEntity
8
0
6
ByLayer
62
178
370
-1
100
AcDbLine
10
28.5906264642
20
84.6865800655
11
28.0845499844
21
84.440805653
0
LINE
5
4E
100
AcDbEntity
8
0
6
ByLayer
62
178
370
-1
100
AcDbLine
10
28.8065550987
20
84.8205378576
11
28.5906264642
21
84.6865800655
0
LINE
5
4F
100
AcDbEntity
8
0
6
ByLayer
62
178
370
-1
100
AcDbLine
10
27.853775292
20
84.3344419984
11
27.3232077266
21
84.1473099165
0
LINE
5
50
100
AcDbEntity
8
0
6
ByLayer
62
178
370
-1
100
AcDbLine
10
28.0845499844
20
84.440805653
11
27.853775292
21
84.3344419984
0
LINE
5
51
100
AcDbEntity
8
0
6
ByLayer
62
178
370
-1
100
AcDbLine
10
27.0810963609
20
84.0701563173
11
26.532809215
21
83.9440611614
0
LINE
5
52
100
AcDbEntity
8
0
6
ByLayer
62
178
370
-1
100
AcDbLine
10
27.3232077266
20
84.1473099165
11
27.0810963609
21
84.0701563173
0
LINE
5
53
100
AcDbEntity
8
0
6
ByLayer
62
178
370
-1
100
AcDbLine
10
26.283042912
20
83.8972971778
11
25.7240296974
21
83.8338454487
0
LINE
5
54
100
AcDbEntity
8
0
6
ByLayer
62
178
370
-1
100
AcDbLine
10
26.532809215
20
83.9440611614
11
26.283042912
21
83.8972971778
0
LINE
5
55
100
AcDbEntity
8
0
6
ByLayer
62
178
370
-1
100
AcDbLine
10
25.4704065538
20
83.8181764258
11
24.9078051954
21
83.8181764258
0
LINE
5
56
100
AcDbEntity
8
0
6
ByLayer
62
178
370
-1
100
AcDbLine
10
25.7240296974
20
83.8338454487
11
25.4704065538
21
83.8181764258
0
LWPOLYLINE
5
57
100
AcDbEntity
8
cortes
6
ByLayer
62
256
370
-1
100
AcDbPolyline
90
12
70
1
43
0
10
8.33154710041
20
7.25670885024
10
8.33154710041
20
14.2567088502
42
-0.344113940136
10
5.13840238975
20
46.4274015567
42
0.303056593161
10
5.13840238975
20
54.1991986808
42
-0.344113940136
10
8.33154710041
20
86.3698913873
10
8.33154710041
20
93.3698913873
10
-8.45882993358
20
96.5271762435
42
0.287765767695
10
-11.4268746829
20
95.3605210022
42
0.0481136647213
10
-12.5388831633
20
93.5042857178
42
0.211445772203
10
-12.5388831633
20
7.12231451975
42
0.0481136647213
10
-11.4268746829
20
5.26607923534
42
0.287765767695
10
-8.45882993358
20
4.09942399405
0
LWPOLYLINE
5
58
100
AcDbEntity
8
cortes
6
ByLayer
62
256
370
-1
100
AcDbPolyline
90
56
70
1
43
0
10
36.7749108527
20
8.4149488017
10
36.7749108527
20
16.5576168866
42
0.142397285738
10
34.830538602
20
22.5463339472
42
-0.0807998463111
10
31.2861507134
20
29.9586214131
42
-0.0558088191181
10
30.464691527
20
33.7367285552
42
-0.113407273287
10
30.9704578779
20
37.6336135158
42
-0.0572009761467
10
33.1779794638
20
41.7576318798
42
0.0440498831813
10
35.9027008339
20
46.5418369882
42
0.122723453335
10
36.5311335035
20
49.8917585757
42
0.116591526474
10
35.5268968147
20
53.2457574154
42
-0.0209774496752
10
34.5094833066
20
54.8563078114
42
-0.259596656115
10
34.4831169069
20
57.2022672343
42
-0.0835734849435
10
35.3531016722
20
58.3434983128
42
-0.0520123538819
10
36.9622804965
20
59.5135432682
42
-0.0137192905931
10
38.9187279313
20
60.5681906398
42
0.0982221638674
10
41.2111087672
20
62.2075589991
42
0.0388409246606
10
43.2743004024
20
64.7647028094
42
0.0441765368234
10
44.3642764472
20
66.6998718133
42
0.0627991057605
10
45.1062251918
20
69.1049761292
42
0.0727625370036
10
45.1589963207
20
70.9545221592
42
0.0337483928837
10
44.8747566203
20
72.4799979945
42
0.780370000135
10
43.4045080173
20
72.6325784355
42
-0.0216189094624
10
42.8183159154
20
70.9053080032
42
-0.120462421645
10
41.8651839085
20
69.6385255849
42
-0.154853283563
10
36.8603013096
20
67.7688238278
42
-0.428614328772
10
29.8745274345
20
74.4031575883
42
-0.0995058868675
10
30.5596568722
20
77.835518092
42
-0.0451438316354
10
31.9653647217
20
80.4990773005
42
0.0284808914039
10
33.4794164531
20
83.150276892
42
0.0639220806116
10
33.9612742857
20
84.9278124364
42
0.0431269512064
10
34.0448175754
20
87.2276725602
42
0.121800655317
10
33.3503836547
20
89.78048216
42
0.736148581854
10
32.1417776413
20
89.7599566793
42
-0.159853175893
10
30.1153522884
20
85.8343526517
42
-0.137166744736
10
26.806952788
20
84.0071087393
42
-0.422792637737
10
18.3551449584
20
89.3548240394
42
0.839806295853
10
16.9670374417
20
89.4709832149
42
0.0419871782305
10
16.8136863916
20
89.0496587613
42
0.0303861265649
10
16.5414533614
20
87.7363308817
42
0.071942128508
10
16.5414533614
20
84.7395831823
42
0.103692277434
10
17.550479945
20
81.9777679008
42
0.0604132575098
10
19.8948278793
20
79.0644993259
42
0.291206756
10
18.4325813008
20
75.5881908238
42
0.135750551072
10
22.3299770405
20
68.8098028332
42
-0.240887684995
10
23.9372987397
20
61.5343619727
42
-0.760667411895
10
10.3508524431
20
60.4126606486
42
0.713947332975
10
8.66172914199
20
60.1720805159
42
0.26568394775
10
10.1593908014
20
52.9058362155
42
0.0302650157352
10
15.8266032622
20
47.2130466153
42
-0.116361811834
10
18.8258804439
20
42.9397498732
42
-0.121042307482
10
19.7595673587
20
36.2844319802
42
-0.0624251911363
10
18.2290392803
20
29.634547972
42
-0.0147079541911
10
15.7241612862
20
23.36899214
42
0.0372381812633
10
13.9408071467
20
18.2510279005
42
0.0530431534709
10
13.676441473
20
16.5576168866
10
13.676441473
20
8.4149488017
0
LWPOLYLINE
5
59
100
AcDbEntity
8
furos
6
ByLayer
62
256
370
-1
100
AcDbPolyline
90
4
70
1
43
0
10
92.7456922818
20
15.4149488017
10
116.594161662
20
15.4149488017
10
116.594161662
20
11.4149488017
10
92.7456922818
20
11.4149488017
0
LWPOLYLINE
5
5A
100
AcDbEntity
8
cortes
6
ByLayer
62
256
370
-1
100
AcDbPolyline
90
4
70
1
43
0
10
75.5760382209
20
22.9925642164
10
133.763815722
20
22.9925642164
10
133.763815722
20
34.9925642164
10
75.5760382209
20
34.9925642164
0
LWPOLYLINE
5
5B
100
AcDbEntity
8
cortes
6
ByLayer
62
256
370
-1
100
AcDbPolyline
90
4
70
1
43
0
10
84.7316376106
20
8.4149488017
10
124.608216333
20
8.4149488017
10
124.608216333
20
18.4149488017
10
84.7316376106
20
18.4149488017
0
LWPOLYLINE
5
5C
100
AcDbEntity
8
furos
6
ByLayer
62
256
370
-1
100
AcDbPolyline
90
4
70
1
43
0
10
23.2212745305
20
38.9757483063
10
27.2212745305
20
38.9757483063
10
27.2212745305
20
16.4149488017
10
23.2212745305
20
16.4149488017
0
LINE
5
5D
100
AcDbEntity
8
0
6
ByLayer
62
178
370
-1
100
AcDbLine
10
65.7535240334
20
85.1217809926
11
65.2783631302
21
84.8205378576
0
LINE
5
5E
100
AcDbEntity
8
0
6
ByLayer
62
178
370
-1
100
AcDbLine
10
65.0624344957
20
84.6865800655
11
64.5563580159
21
84.440805653
0
LINE
5
5F
100
AcDbEntity
8
0
6
ByLayer
62
178
370
-1
100
AcDbLine
10
65.2783631302
20
84.8205378576
11
65.0624344957
21
84.6865800655
0
LINE
5
60
100
AcDbEntity
8
0
6
ByLayer
62
178
370
-1
100
AcDbLine
10
64.3255833235
20
84.3344419984
11
63.7950157581
21
84.1473099165
0
LINE
5
61
100
AcDbEntity
8
0
6
ByLayer
62
178
370
-1
100
AcDbLine
10
64.5563580159
20
84.440805653
11
64.3255833235
21
84.3344419984
0
LINE
5
62
100
AcDbEntity
8
0
6
ByLayer
62
178
370
-1
100
AcDbLine
10
63.5529043924
20
84.0701563173
11
63.0046172465
21
83.9440611614
0
LINE
5
63
100
AcDbEntity
8
0
6
ByLayer
62
178
370
-1
100
AcDbLine
10
63.7950157581
20
84.1473099165
11
63.5529043924
21
84.0701563173
0
LINE
5
64
100
AcDbEntity
8
0
6
ByLayer
62
178
370
-1
100
AcDbLine
10
62.7548509435
20
83.8972971778
11
62.195837729
21
83.8338454487
0
LINE
5
65
100
AcDbEntity
8
0
6
ByLayer
62
178
370
-1
100
AcDbLine
10
63.0046172465
20
83.9440611614
11
62.7548509435
21
83.8972971778
0
LINE
5
66
100
AcDbEntity
8
0
6
ByLayer
62
178
370
-1
100
AcDbLine
10
61.9422145853
20
83.8181764258
11
61.3796132269
21
83.8181764258
0
LINE
5
67
100
AcDbEntity
8
0
6
ByLayer
62
178
370
-1
100
AcDbLine
10
62.195837729
20
83.8338454487
11
61.9422145853
21
83.8181764258
0
LWPOLYLINE
5
68
100
AcDbEntity
8
cortes
6
ByLayer
62
256
370
-1
100
AcDbPolyline
90
56
70
1
43
0
10
73.2467188842
20
8.4149488017
10
73.2467188842
20
16.5576168866
42
0.142397285738
10
71.3023466336
20
22.5463339472
42
-0.0807998463111
10
67.7579587449
20
29.9586214131
42
-0.0558088191181
10
66.9364995585
20
33.7367285552
42
-0.113407273287
10
67.4422659094
20
37.6336135158
42
-0.0572009761467
10
69.6497874953
20
41.7576318798
42
0.0440498831813
10
72.3745088654
20
46.5418369882
42
0.122723453335
10
73.002941535
20
49.8917585757
42
0.116591526474
10
71.9987048463
20
53.2457574154
42
-0.0209774496752
10
70.9812913381
20
54.8563078114
42
-0.259596656115
10
70.9549249384
20
57.2022672343
42
-0.0835734849435
10
71.8249097037
20
58.3434983128
42
-0.0520123538819
10
73.434088528
20
59.5135432682
42
-0.0137192905931
10
75.3905359629
20
60.5681906398
42
0.0982221638674
10
77.6829167987
20
62.2075589991
42
0.0388409246606
10
79.7461084339
20
64.7647028094
42
0.0441765368234
10
80.8360844787
20
66.6998718133
42
0.0627991057605
10
81.5780332233
20
69.1049761292
42
0.0727625370036
10
81.6308043522
20
70.9545221592
42
0.0337483928837
10
81.3465646518
20
72.4799979945
42
0.780370000135
10
79.8763160488
20
72.6325784355
42
-0.0216189094624
10
79.2901239469
20
70.9053080032
42
-0.120462421645
10
78.33699194
20
69.6385255849
42
-0.154853283563
10
73.3321093411
20
67.7688238278
42
-0.428614328772
10
66.346335466
20
74.4031575883
42
-0.0995058868675
10
67.0314649037
20
77.835518092
42
-0.0451438316354
10
68.4371727532
20
80.4990773005
42
0.0284808914039
10
69.9512244846
20
83.150276892
42
0.0639220806116
10
70.4330823172
20
84.9278124364
42
0.0431269512064
10
70.516625607
20
87.2276725602
42
0.121800655317
10
69.8221916862
20
89.78048216
42
0.736148581854
10
68.6135856728
20
89.7599566793
42
-0.159853175893
10
66.5871603199
20
85.8343526517
42
-0.137166744736
10
63.2787608195
20
84.0071087393
42
-0.422792637737
10
54.8269529899
20
89.3548240394
42
0.839806295853
10
53.4388454733
20
89.4709832149
42
0.0419871782305
10
53.2854944231
20
89.0496587613
42
0.0303861265649
10
53.0132613929
20
87.7363308817
42
0.071942128508
10
53.0132613929
20
84.7395831823
42
0.103692277434
10
54.0222879765
20
81.9777679008
42
0.0604132575098
10
56.3666359108
20
79.0644993259
42
0.291206756
10
54.9043893323
20
75.5881908238
42
0.135750551072
10
58.801785072
20
68.8098028332
42
-0.240887684995
10
60.4091067712
20
61.5343619727
42
-0.760667411895
10
46.8226604746
20
60.4126606486
42
0.713947332975
10
45.1335371735
20
60.1720805159
42
0.26568394775
10
46.6311988329
20
52.9058362155
42
0.0302650157352
10
52.2984112937
20
47.2130466153
42
-0.116361811834
10
55.2976884754
20
42.9397498732
42
-0.121042307482
10
56.2313753902
20
36.2844319802
42
-0.0624251911363
10
54.7008473118
20
29.634547972
42
-0.0147079541911
10
52.1959693177
20
23.36899214
42
0.0372381812633
10
50.4126151782
20
18.2510279005
42
0.0530431534709
10
50.1482495045
20
16.5576168866
10
50.1482495045
20
8.4149488017
0
LWPOLYLINE
5
69
100
AcDbEntity
8
furos
6
ByLayer
62
256
370
-1
100
AcDbPolyline
90
4
70
1
43
0
10
59.693082562
20
38.9757483063
10
63.693082562
20
38.9757483063
10
63.693082562
20
16.4149488017
10
59.693082562
20
16.4149488017
0
LWPOLYLINE
5
6A
100
AcDbEntity
8
furos
6
ByLayer
62
256
370
-1
100
AcDbPolyline
90
4
70
1
43
0
10
92.7456922818
20
30.9925642164
10
116.594161662
20
30.9925642164
10
116.594161662
20
26.9925642164
10
92.7456922818
20
26.9925642164
0
LWPOLYLINE
5
6B
100
AcDbEntity
8
cortes
6
ByLayer
62
256
370
-1
100
AcDbPolyline
90
4
70
1
43
0
10
75.5760382209
20
39.0313152676
10
133.763815722
20
39.0313152676
10
133.763815722
20
51.0313152676
10
75.5760382209
20
51.0313152676
0
LWPOLYLINE
5
6C
100
AcDbEntity
8
furos
6
ByLayer
62
256
370
-1
100
AcDbPolyline
90
4
70
1
43
0
10
92.7456922818
20
47.0313152676
10
116.594161662
20
47.0313152676
10
116.594161662
20
43.0313152676
10
92.7456922818
20
43.0313152676
0
LWPOLYLINE
5
6D
100
AcDbEntity
8
cortes
6
ByLayer
62
256
370
-1
100
AcDbPolyline
90
4
70
1
43
0
10
84.7316376106
20
56.0867784667
10
124.608216333
20
56.0867784667
10
124.608216333
20
66.0867784667
10
84.7316376106
20
66.0867784667
0
LWPOLYLINE
5
6E
100
AcDbEntity
8
furos
6
ByLayer
62
256
370
-1
100
AcDbPolyline
90
4
70
1
43
0
10
92.7456922818
20
63.0867784667
10
116.594161662
20
63.0867784667
10
116.594161662
20
59.0867784667
10
92.7456922818
20
59.0867784667
0
ENDBLK
5
4B
330
49
100
AcDbEntity
8
0
100
AcDbBlockEnd
0
ENDSEC
0
SECTION
2
ENTITIES
0
LINE
5
6F
100
AcDbEntity
8
0
6
ByLayer
62
7
370
-1
100
AcDbLine
10
125.426010229
20
11.6665310324
11
125.901171133
21
11.9677741674
0
LINE
5
70
100
AcDbEntity
8
0
6
ByLayer
62
7
370
-1
100
AcDbLine
10
126.117099767
20
12.1017319595
11
126.623176247
21
12.347506372
0
LINE
5
71
100
AcDbEntity
8
0
6
ByLayer
62
7
370
-1
100
AcDbLine
10
125.901171133
20
11.9677741674
11
126.117099767
21
12.1017319595
0
LINE
5
72
100
AcDbEntity
8
0
6
ByLayer
62
7
370
-1
100
AcDbLine
10
126.853950939
20
12.4538700265
11
127.384518505
21
12.6410021085
0
LINE
5
73
100
AcDbEntity
8
0
6
ByLayer
62
7
370
-1
100
AcDbLine
10
126.623176247
20
12.347506372
11
126.853950939
21
12.4538700265
0
LINE
5
74
100
AcDbEntity
8
0
6
ByLayer
62
7
370
-1
100
AcDbLine
10
127.62662987
20
12.7181557077
11
128.174917016
21
12.8442508636
0
LINE
5
75
100
AcDbEntity
8
0
6
ByLayer
62
7
370
-1
100
AcDbLine
10
127.384518505
20
12.6410021085
11
127.62662987
21
12.7181557077
0
LINE
5
76
100
AcDbEntity
8
0
6
ByLayer
62
7
370
-1
100
AcDbLine
10
128.424683319
20
12.8910148472
11
128.983696534
21
12.9544665763
0
LINE
5
77
100
AcDbEntity
8
0
6
ByLayer
62
7
370
-1
100
AcDbLine
10
128.174917016
20
12.8442508636
11
128.424683319
21
12.8910148472
0
LINE
5
78
100
AcDbEntity
8
0
6
ByLayer
62
7
370
-1
100
AcDbLine
10
129.237319678
20
12.9701355992
11
129.799921036
21
12.9701355992
0
LINE
5
79
100
AcDbEntity
8
0
6
ByLayer
62
7
370
-1
100
AcDbLine
10
128.983696534
20
12.9544665763
11
129.237319678
21
12.9701355992
0
LWPOLYLINE
5
7A
100
AcDbEntity
8
cortes
6
ByLayer
62
256
370
-1
100
AcDbPolyline
90
12
70
1
43
0
10
111.17555735
20
7.25670885024
10
111.17555735
20
14.2567088502
42
-0.344113940136
10
107.98241264
20
46.4274015567
42
0.303056593161
10
107.98241264
20
54.1991986808
42
-0.344113940136
10
111.17555735
20
86.3698913873
10
111.17555735
20
93.3698913873
10
94.3851803164
20
96.5271762435
42
0.287765767695
10
91.4171355671
20
95.3605210022
42
0.0481136647213
10
90.3051270868
20
93.5042857178
42
0.211445772203
10
90.3051270868
20
7.12231451975
42
0.0481136647213
10
91.4171355671
20
5.26607923534
42
0.287765767695
10
94.3851803164
20
4.09942399405
0
LWPOLYLINE
5
7B
100
AcDbEntity
8
cortes
6
ByLayer
62
256
370
-1
100
AcDbPolyline
90
56
70
1
43
0
10
117.932815379
20
88.3733632233
10
117.932815379
20
80.2306951384
42
0.142397285738
10
119.877187629
20
74.2419780778
42
-0.0807998463111
10
123.421575518
20
66.8296906119
42
-0.0558088191181
10
124.243034704
20
63.0515834698
42
-0.113407273287
10
123.737268353
20
59.1546985092
42
-0.0572009761467
10
121.529746768
20
55.0306801452
42
0.0440498831813
10
118.805025397
20
50.2464750367
42
0.122723453335
10
118.176592728
20
46.8965534493
42
0.116591526474
10
119.180829417
20
43.5425546096
42
-0.0209774496752
10
120.198242925
20
41.9320042136
42
-0.259596656115
10
120.224609324
20
39.5860447906
42
-0.0835734849435
10
119.354624559
20
38.4448137121
42
-0.0520123538819
10
117.745445735
20
37.2747687568
42
-0.0137192905931
10
115.7889983
20
36.2201213852
42
0.0982221638674
10
113.496617464
20
34.5807530259
42
0.0388409246606
10
111.433425829
20
32.0236092156
42
0.0441765368234
10
110.343449784
20
30.0884402117
42
0.0627991057605
10
109.601501039
20
27.6833358958
42
0.0727625370036
10
109.548729911
20
25.8337898658
42
0.0337483928837
10
109.832969611
20
24.3083140305
42
0.780370000135
10
111.303218214
20
24.1557335895
42
-0.0216189094624
10
111.889410316
20
25.8830040218
42
-0.120462421645
10
112.842542323
20
27.1497864401
42
-0.154853283563
10
117.847424922
20
29.0194881972
42
-0.428614328772
10
124.833198797
20
22.3851544367
42
-0.0995058868675
10
124.148069359
20
18.952793933
42
-0.0451438316354
10
122.74236151
20
16.2892347245
42
0.0284808914039
10
121.228309778
20
13.638035133
42
0.0639220806116
10
120.746451946
20
11.8604995886
42
0.0431269512064
10
120.662908656
20
9.56063946483
42
0.121800655317
10
121.357342577
20
7.00782986495
42
0.736148581854
10
122.56594859
20
7.02835534566
42
-0.159853175893
10
124.592373943
20
10.9539593732
42
-0.137166744736
10
127.900773443
20
12.7812032857
42
-0.422792637737
10
136.352581273
20
7.43348798563
42
0.839806295853
10
137.74068879
20
7.3173288101
42
0.0419871782305
10
137.89403984
20
7.73865326364
42
0.0303861265649
10
138.16627287
20
9.05198114326
42
0.071942128508
10
138.16627287
20
12.0487288427
42
0.103692277434
10
137.157246286
20
14.8105441241
42
0.0604132575098
10
134.812898352
20
17.7238126991
42
0.291206756
10
136.275144931
20
21.2001212012
42
0.135750551072
10
132.377749191
20
27.9785091918
42
-0.240887684995
10
130.770427492
20
35.2539500523
42
-0.760667411895
10
144.356873788
20
36.3756513764
42
0.713947332975
10
146.045997089
20
36.6162315091
42
0.26568394775
10
144.54833543
20
43.8824758095
42
0.0302650157352
10
138.881122969
20
49.5752654097
42
-0.116361811834
10
135.881845787
20
53.8485621518
42
-0.121042307482
10
134.948158873
20
60.5038800448
42
-0.0624251911363
10
136.478686951
20
67.153764053
42
-0.0147079541911
10
138.983564945
20
73.419319885
42
0.0372381812633
10
140.766919085
20
78.5372841245
42
0.0530431534709
10
141.031284758
20
80.2306951384
10
141.031284758
20
88.3733632233
0
LWPOLYLINE
5
7C
100
AcDbEntity
8
furos
6
ByLayer
62
256
370
-1
100
AcDbPolyline
90
4
70
1
43
0
10
11.4606424858
20
39.8613392531
10
11.4606424858
20
16.0128698733
10
7.46064248582
20
16.0128698733
10
7.46064248582
20
39.8613392531
0
LWPOLYLINE
5
7D
100
AcDbEntity
8
cortes
6
ByLayer
62
256
370
-1
100
AcDbPolyline
90
4
70
1
43
0
10
4.46064248582
20
47.8753939243
10
4.46064248582
20
7.99881520215
10
14.4606424858
20
7.99881520215
10
14.4606424858
20
47.8753939243
0
LWPOLYLINE
5
7E
100
AcDbEntity
8
furos
6
ByLayer
62
256
370
-1
100
AcDbPolyline
90
4
70
1
43
0
10
131.486451701
20
57.7755929292
10
127.486451701
20
57.7755929292
10
127.486451701
20
80.3733632233
10
131.486451701
20
80.3733632233
0
LINE
5
7F
100
AcDbEntity
8
0
6
ByLayer
62
7
370
-1
100
AcDbLine
10
166.512625032
20
85.1217809926
11
166.037464129
21
84.8205378576
0
LINE
5
80
100
AcDbEntity
8
0
6
ByLayer
62
7
370
-1
100
AcDbLine
10
165.821535495
20
84.6865800655
11
165.315459015
21
84.440805653
0
LINE
5
81
100
AcDbEntity
8
0
6
ByLayer
62
7
370
-1
100
AcDbLine
10
166.037464129
20
84.8205378576
11
165.821535495
21
84.6865800655
0
LINE
5
82
100
AcDbEntity
8
0
6
ByLayer
62
7
370
-1
100
AcDbLine
10
165.084684322
20
84.3344419984
11
164.554116757
21
84.1473099165
0
LINE
5
83
100
AcDbEntity
8
0
6
ByLayer
62
7
370
-1
100
AcDbLine
10
165.315459015
20
84.440805653
11
165.084684322
21
84.3344419984
0
LINE
5
84
100
AcDbEntity
8
0
6
ByLayer
62
7
370
-1
100
AcDbLine
10
164.312005391
20
84.0701563173
11
163.763718246
21
83.9440611614
0
LINE
5
85
100
AcDbEntity
8
0
6
ByLayer
62
7
370
-1
100
AcDbLine
10
164.554116757
20
84.1473099165
11
164.312005391
21
84.0701563173
0
LINE
5
86
100
AcDbEntity
8
0
6
ByLayer
62
7
370
-1
100
AcDbLine
10
163.513951942
20
83.8972971778
11
162.954938728
21
83.8338454487
0
LINE
5
87
100
AcDbEntity
8
0
6
ByLayer
62
7
370
-1
100
AcDbLine
10
163.763718246
20
83.9440611614
11
163.513951942
21
83.8972971778
0
LINE
5
88
100
AcDbEntity
8
0
6
ByLayer
62
7
370
-1
100
AcDbLine
10
162.701315584
20
83.8181764258
11
162.138714226
21
83.8181764258
0
LINE
5
89
100
AcDbEntity
8
0
6
ByLayer
62
7
370
-1
100
AcDbLine
10
162.954938728
20
83.8338454487
11
162.701315584
21
83.8181764258
0
LWPOLYLINE
5
8A
100
AcDbEntity
8
cortes
6
ByLayer
62
256
370
-1
100
AcDbPolyline
90
56
70
1
43
0
10
168.751566625
20
8.4149488017
10
168.751566625
20
16.5576168866
42
0.142397285738
10
166.807194374
20
22.5463339472
42
-0.0807998463111
10
163.262806485
20
29.9586214131
42
-0.0558088191181
10
162.441347299
20
33.7367285552
42
-0.113407273287
10
162.94711365
20
37.6336135158
42
-0.0572009761467
10
165.154635236
20
41.7576318798
42
0.0440498831813
10
167.879356606
20
46.5418369882
42
0.122723453335
10
168.507789275
20
49.8917585757
42
0.116591526474
10
167.503552587
20
53.2457574154
42
-0.0209774496752
10
166.486139079
20
54.8563078114
42
-0.259596656115
10
166.459772679
20
57.2022672343
42
-0.0835734849435
10
167.329757444
20
58.3434983128
42
-0.0520123538819
10
168.938936269
20
59.5135432682
42
-0.0137192905931
10
170.895383703
20
60.5681906398
42
0.0982221638674
10
173.187764539
20
62.2075589991
42
0.0388409246606
10
175.250956174
20
64.7647028094
42
0.0441765368234
10
176.340932219
20
66.6998718133
42
0.0627991057605
10
177.082880964
20
69.1049761292
42
0.0727625370036
10
177.135652093
20
70.9545221592
42
0.0337483928837
10
176.851412392
20
72.4799979945
42
0.780370000135
10
175.381163789
20
72.6325784355
42
-0.0216189094624
10
174.794971687
20
70.9053080032
42
-0.120462421645
10
173.841839681
20
69.6385255849
42
-0.154853283563
10
168.836957082
20
67.7688238278
42
-0.428614328772
10
161.851183207
20
74.4031575883
42
-0.0995058868675
10
162.536312644
20
77.835518092
42
-0.0451438316354
10
163.942020494
20
80.4990773005
42
0.0284808914039
10
165.456072225
20
83.150276892
42
0.0639220806116
10
165.937930058
20
84.9278124364
42
0.0431269512064
10
166.021473347
20
87.2276725602
42
0.121800655317
10
165.327039427
20
89.78048216
42
0.736148581854
10
164.118433413
20
89.7599566793
42
-0.159853175893
10
162.09200806
20
85.8343526517
42
-0.137166744736
10
158.78360856
20
84.0071087393
42
-0.422792637737
10
150.33180073
20
89.3548240394
42
0.839806295853
10
148.943693214
20
89.4709832149
42
0.0419871782305
10
148.790342164
20
89.0496587613
42
0.0303861265649
10
148.518109133
20
87.7363308817
42
0.071942128508
10
148.518109133
20
84.7395831823
42
0.103692277434
10
149.527135717
20
81.9777679008
42
0.0604132575098
10
151.871483651
20
79.0644993259
42
0.291206756
10
150.409237073
20
75.5881908238
42
0.135750551072
10
154.306632812
20
68.8098028332
42
-0.240887684995
10
155.913954512
20
61.5343619727
42
-0.760667411895
10
142.327508215
20
60.4126606486
42
0.713947332975
10
140.638384914
20
60.1720805159
42
0.26568394775
10
142.136046573
20
52.9058362155
42
0.0302650157352
10
147.803259034
20
47.2130466153
42
-0.116361811834
10
150.802536216
20
42.9397498732
42
-0.121042307482
10
151.736223131
20
36.2844319802
42
-0.0624251911363
10
150.205695052
20
29.634547972
42
-0.0147079541911
10
147.700817058
20
23.36899214
42
0.0372381812633
10
145.917462919
20
18.2510279005
42
0.0530431534709
10
145.653097245
20
16.5576168866
10
145.653097245
20
8.4149488017
0
LWPOLYLINE
5
8B
100
AcDbEntity
8
cortes
6
ByLayer
62
256
370
-1
100
AcDbPolyline
90
4
70
1
43
0
10
14.4606424858
20
52.22223648
10
14.4606424858
20
92.0988152022
10
4.46064248582
20
92.0988152022
10
4.46064248582
20
52.22223648
0
LWPOLYLINE
5
8C
100
AcDbEntity
8
furos
6
ByLayer
62
256
370
-1
100
AcDbPolyline
90
4
70
1
43
0
10
7.46064248582
20
60.2362911512
10
7.46064248582
20
84.084760531
10
11.4606424858
20
84.084760531
10
11.4606424858
20
60.2362911512
0
LWPOLYLINE
5
8D
100
AcDbEntity
8
furos
6
ByLayer
62
256
370
-1
100
AcDbPolyline
90
4
70
1
43
0
10
35.6302965467
20
93.0988152022
10
59.4787659264
20
93.0988152022
10
59.4787659264
20
89.0988152022
10
35.6302965467
20
89.0988152022
0
LWPOLYLINE
5
8E
100
AcDbEntity
8
furos
6
ByLayer
62
256
370
-1
100
AcDbPolyline
90
4
70
1
43
0
10
35.6302965467
20
10.9988152022
10
59.4787659264
20
10.9988152022
10
59.4787659264
20
6.99881520215
10
35.6302965467
20
6.99881520215
0
LWPOLYLINE
5
8F
100
AcDbEntity
8
furos
6
ByLayer
62
256
370
-1
100
AcDbPolyline
90
4
70
1
43
0
10
155.197930302
20
39.0127190958
10
159.197930302
20
39.0127190958
10
159.197930302
20
16.4149488017
10
155.197930302
20
16.4149488017
0
LWPOLYLINE
5
90
100
AcDbEntity
8
cortes
6
ByLayer
62
256
370
-1
100
AcDbPolyline
90
8
70
1
43
0
10
22.4606424858
20
98.0988152022
10
72.6606424858
20
98.0988152022
42
-0.414213562373
10
76.6606424858
20
94.0988152022
10
76.6606424858
20
5.99881520215
42
-0.414213562373
10
72.6606424858
20
1.99881520215
10
22.4606424858
20
1.99881520215
42
-0.414213562373
10
18.4606424858
20
5.99881520215
10
18.4606424858
20
94.0988152022
42
-0.414213562373
0
LWPOLYLINE
5
91
100
AcDbEntity
8
cortes
6
ByLayer
62
256
370
-1
100
AcDbPolyline
90
4
70
1
43
0
10
70.8531876687
20
103.417914488
10
129.04096517
20
103.417914488
10
129.04096517
20
115.417914488
10
70.8531876687
20
115.417914488
0
LWPOLYLINE
5
92
100
AcDbEntity
8
furos
6
ByLayer
62
256
370
-1
100
AcDbPolyline
90
4
70
1
43
0
10
88.0228417296
20
111.417914488
10
111.871311109
20
111.417914488
10
111.871311109
20
107.417914488
10
88.0228417296
20
107.417914488
0
LWPOLYLINE
5
93
100
AcDbEntity
8
cortes
6
ByLayer
62
256
370
-1
100
AcDbPolyline
90
4
70
1
43
0
10
2.66541016721
20
103.417914488
10
60.8531876687
20
103.417914488
10
60.8531876687
20
115.417914488
10
2.66541016721
20
115.417914488
0
LWPOLYLINE
5
94
100
AcDbEntity
8
furos
6
ByLayer
62
256
370
-1
100
AcDbPolyline
90
4
70
1
43
0
10
19.8350642281
20
111.417914488
10
43.6835336078
20
111.417914488
10
43.6835336078
20
107.417914488
10
19.8350642281
20
107.417914488
0
ENDSEC
0
SECTION
2
OBJECTS
0
DICTIONARY
5
C
330
0
100
AcDbDictionary
281
1
3
ACAD_GROUP
350
D
0
DICTIONARY
5
D
330
C
100
AcDbDictionary
281
1
0
ENDSEC
0
EOF
