  0
SECTION
  2
BLOCKS
  0
ENDSEC
  0
SECTION
  2
ENTITIES
  0
LINE
  8
0
 10
194.026
 20
44.7001
 11
194.403
 21
44.7136
  0
LINE
  8
0
 10
194.403
 20
44.7136
 11
194.778
 21
44.7507
  0
LINE
  8
0
 10
194.778
 20
44.7507
 11
195.15
 21
44.8113
  0
LINE
  8
0
 10
195.15
 20
44.8113
 11
195.518
 21
44.8951
  0
LINE
  8
0
 10
195.518
 20
44.8951
 11
195.879
 21
45.0019
  0
LINE
  8
0
 10
195.879
 20
45.0019
 11
196.233
 21
45.1311
  0
LINE
  8
0
 10
196.233
 20
45.1311
 11
196.579
 21
45.2823
  0
LINE
  8
0
 10
196.579
 20
45.2823
 11
196.914
 21
45.4549
  0
LINE
  8
0
 10
196.914
 20
45.4549
 11
197.237
 21
45.6482
  0
LINE
  8
0
 10
197.237
 20
45.6482
 11
197.548
 21
45.8615
  0
LINE
  8
0
 10
197.548
 20
45.8615
 11
197.845
 21
46.0938
  0
LINE
  8
0
 10
197.845
 20
46.0938
 11
198.126
 21
46.3443
  0
LINE
  8
0
 10
198.126
 20
46.3443
 11
217.374
 21
64.5927
  0
LINE
  8
0
 10
217.374
 20
64.5927
 11
217.623
 21
64.8755
  0
LINE
  8
0
 10
217.623
 20
64.8755
 11
217.854
 21
65.1733
  0
LINE
  8
0
 10
217.854
 20
65.1733
 11
218.066
 21
65.485
  0
LINE
  8
0
 10
218.066
 20
65.485
 11
218.258
 21
65.8095
  0
LINE
  8
0
 10
218.258
 20
65.8095
 11
218.429
 21
66.1453
  0
LINE
  8
0
 10
218.429
 20
66.1453
 11
218.579
 21
66.4913
  0
LINE
  8
0
 10
218.579
 20
66.4913
 11
218.706
 21
66.8459
  0
LINE
  8
0
 10
218.706
 20
66.8459
 11
218.811
 21
67.2079
  0
LINE
  8
0
 10
218.811
 20
67.2079
 11
218.894
 21
67.5757
  0
LINE
  8
0
 10
218.894
 20
67.5757
 11
218.953
 21
67.948
  0
LINE
  8
0
 10
218.953
 20
67.948
 11
218.988
 21
68.3233
  0
LINE
  8
0
 10
218.988
 20
68.3233
 11
219
 21
68.7
  0
LINE
  8
0
 10
219
 20
68.7
 11
218.993
 21
304.98
  0
LINE
  8
0
 10
218.993
 20
304.98
 11
218.964
 21
305.356
  0
LINE
  8
0
 10
218.964
 20
305.356
 11
218.911
 21
305.729
  0
LINE
  8
0
 10
218.911
 20
305.729
 11
218.835
 21
306.098
  0
LINE
  8
0
 10
218.835
 20
306.098
 11
210.111
 21
342.492
  0
LINE
  8
0
 10
210.111
 20
342.492
 11
210.006
 21
342.854
  0
LINE
  8
0
 10
210.006
 20
342.854
 11
209.879
 21
343.209
  0
LINE
  8
0
 10
209.879
 20
343.209
 11
209.729
 21
343.555
  0
LINE
  8
0
 10
209.729
 20
343.555
 11
209.558
 21
343.891
  0
LINE
  8
0
 10
209.558
 20
343.891
 11
209.366
 21
344.215
  0
LINE
  8
0
 10
209.366
 20
344.215
 11
209.154
 21
344.527
  0
LINE
  8
0
 10
209.154
 20
344.527
 11
208.923
 21
344.825
  0
LINE
  8
0
 10
208.923
 20
344.825
 11
208.674
 21
345.107
  0
LINE
  8
0
 10
208.674
 20
345.107
 11
208.407
 21
345.374
  0
LINE
  8
0
 10
208.407
 20
345.374
 11
208.125
 21
345.623
  0
LINE
  8
0
 10
208.125
 20
345.623
 11
207.827
 21
345.854
  0
LINE
  8
0
 10
207.827
 20
345.854
 11
207.515
 21
346.066
  0
LINE
  8
0
 10
207.515
 20
346.066
 11
207.191
 21
346.258
  0
LINE
  8
0
 10
207.191
 20
346.258
 11
206.855
 21
346.429
  0
LINE
  8
0
 10
206.855
 20
346.429
 11
206.509
 21
346.579
  0
LINE
  8
0
 10
206.509
 20
346.579
 11
206.154
 21
346.706
  0
LINE
  8
0
 10
206.154
 20
346.706
 11
205.792
 21
346.812
  0
LINE
  8
0
 10
205.792
 20
346.812
 11
205.424
 21
346.894
  0
LINE
  8
0
 10
205.424
 20
346.894
 11
205.052
 21
346.953
  0
LINE
  8
0
 10
205.052
 20
346.953
 11
204.677
 21
346.988
  0
LINE
  8
0
 10
204.677
 20
346.988
 11
204.3
 21
347
  0
LINE
  8
0
 10
204.3
 20
347
 11
173.88
 21
346.999
  0
LINE
  8
0
 10
173.88
 20
346.999
 11
173.504
 21
346.979
  0
LINE
  8
0
 10
173.504
 20
346.979
 11
173.13
 21
346.937
  0
LINE
  8
0
 10
173.13
 20
346.937
 11
172.758
 21
346.87
  0
LINE
  8
0
 10
172.758
 20
346.87
 11
172.392
 21
346.781
  0
LINE
  8
0
 10
172.392
 20
346.781
 11
172.033
 21
346.668
  0
LINE
  8
0
 10
172.033
 20
346.668
 11
171.681
 21
346.534
  0
LINE
  8
0
 10
171.681
 20
346.534
 11
171.338
 21
346.377
  0
LINE
  8
0
 10
171.338
 20
346.377
 11
171.005
 21
346.199
  0
LINE
  8
0
 10
171.005
 20
346.199
 11
170.685
 21
346.001
  0
LINE
  8
0
 10
170.685
 20
346.001
 11
170.377
 21
345.783
  0
LINE
  8
0
 10
170.377
 20
345.783
 11
170.084
 21
345.546
  0
LINE
  8
0
 10
170.084
 20
345.546
 11
169.806
 21
345.291
  0
LINE
  8
0
 10
169.806
 20
345.291
 11
169.545
 21
345.019
  0
LINE
  8
0
 10
169.545
 20
345.019
 11
169.302
 21
344.732
  0
LINE
  8
0
 10
169.302
 20
344.732
 11
169.077
 21
344.429
  0
LINE
  8
0
 10
169.077
 20
344.429
 11
168.871
 21
344.113
  0
LINE
  8
0
 10
168.871
 20
344.113
 11
168.686
 21
343.785
  0
LINE
  8
0
 10
168.686
 20
343.785
 11
168.521
 21
343.446
  0
LINE
  8
0
 10
168.521
 20
343.446
 11
168.378
 21
343.097
  0
LINE
  8
0
 10
168.378
 20
343.097
 11
168.258
 21
342.74
  0
LINE
  8
0
 10
168.258
 20
342.74
 11
157.189
 21
306.192
  0
LINE
  8
0
 10
157.189
 20
306.192
 11
157.106
 21
305.824
  0
LINE
  8
0
 10
157.106
 20
305.824
 11
157.047
 21
305.452
  0
LINE
  8
0
 10
157.047
 20
305.452
 11
157.012
 21
305.077
  0
LINE
  8
0
 10
157.012
 20
305.077
 11
157.009
 21
305
  0
LINE
  8
0
 10
157.009
 20
305
 11
188
 21
305
  0
LINE
  8
0
 10
188
 20
305
 11
188
 21
293
  0
LINE
  8
0
 10
188
 20
293
 11
168
 21
293
  0
LINE
  8
0
 10
168
 20
293
 11
168
 21
81
  0
LINE
  8
0
 10
168
 20
81
 11
188
 21
81
  0
LINE
  8
0
 10
188
 20
81
 11
188
 21
69
  0
LINE
  8
0
 10
188
 20
69
 11
157.002
 21
69
  0
LINE
  8
0
 10
157.002
 20
69
 11
157.002
 21
68.5374
  0
LINE
  8
0
 10
157.002
 20
68.5374
 11
157.024
 21
68.1611
  0
LINE
  8
0
 10
157.024
 20
68.1611
 11
157.07
 21
67.787
  0
LINE
  8
0
 10
157.07
 20
67.787
 11
157.139
 21
67.4164
  0
LINE
  8
0
 10
157.139
 20
67.4164
 11
157.231
 21
67.0509
  0
LINE
  8
0
 10
157.231
 20
67.0509
 11
157.346
 21
66.6919
  0
LINE
  8
0
 10
157.346
 20
66.6919
 11
157.483
 21
66.3409
  0
LINE
  8
0
 10
157.483
 20
66.3409
 11
157.642
 21
65.9991
  0
LINE
  8
0
 10
157.642
 20
65.9991
 11
157.822
 21
65.6681
  0
LINE
  8
0
 10
157.822
 20
65.6681
 11
158.023
 21
65.3489
  0
LINE
  8
0
 10
158.023
 20
65.3489
 11
158.243
 21
65.043
  0
LINE
  8
0
 10
158.243
 20
65.043
 11
158.482
 21
64.7516
  0
LINE
  8
0
 10
158.482
 20
64.7516
 11
158.739
 21
64.4757
  0
LINE
  8
0
 10
158.739
 20
64.4757
 11
159.013
 21
64.2165
  0
LINE
  8
0
 10
159.013
 20
64.2165
 11
159.302
 21
63.975
  0
LINE
  8
0
 10
159.302
 20
63.975
 11
182.473
 21
45.8459
  0
LINE
  8
0
 10
182.473
 20
45.8459
 11
182.785
 21
45.634
  0
LINE
  8
0
 10
182.785
 20
45.634
 11
183.109
 21
45.4422
  0
LINE
  8
0
 10
183.109
 20
45.4422
 11
183.445
 21
45.271
  0
LINE
  8
0
 10
183.445
 20
45.271
 11
183.791
 21
45.1214
  0
LINE
  8
0
 10
183.791
 20
45.1214
 11
184.146
 21
44.9937
  0
LINE
  8
0
 10
184.146
 20
44.9937
 11
184.508
 21
44.8885
  0
LINE
  8
0
 10
184.508
 20
44.8885
 11
184.876
 21
44.8063
  0
LINE
  8
0
 10
184.876
 20
44.8063
 11
185.248
 21
44.7473
  0
LINE
  8
0
 10
185.248
 20
44.7473
 11
185.623
 21
44.7119
  0
LINE
  8
0
 10
185.623
 20
44.7119
 11
186
 21
44.7
  0
LINE
  8
0
 10
186
 20
44.7
 11
194.026
 21
44.7001
  0
LINE
  8
0
 10
173.406
 20
340.003
 11
173.312
 21
340.012
  0
LINE
  8
0
 10
173.312
 20
340.012
 11
173.219
 21
340.027
  0
LINE
  8
0
 10
173.219
 20
340.027
 11
173.127
 21
340.047
  0
LINE
  8
0
 10
173.127
 20
340.047
 11
173.036
 21
340.073
  0
LINE
  8
0
 10
173.036
 20
340.073
 11
172.948
 21
340.105
  0
LINE
  8
0
 10
172.948
 20
340.105
 11
172.861
 21
340.143
  0
LINE
  8
0
 10
172.861
 20
340.143
 11
172.777
 21
340.186
  0
LINE
  8
0
 10
172.777
 20
340.186
 11
172.696
 21
340.234
  0
LINE
  8
0
 10
172.696
 20
340.234
 11
172.618
 21
340.286
  0
LINE
  8
0
 10
172.618
 20
340.286
 11
172.544
 21
340.344
  0
LINE
  8
0
 10
172.544
 20
340.344
 11
172.473
 21
340.407
  0
LINE
  8
0
 10
172.473
 20
340.407
 11
172.407
 21
340.473
  0
LINE
  8
0
 10
172.407
 20
340.473
 11
172.344
 21
340.544
  0
LINE
  8
0
 10
172.344
 20
340.544
 11
172.286
 21
340.618
  0
LINE
  8
0
 10
172.286
 20
340.618
 11
172.234
 21
340.696
  0
LINE
  8
0
 10
172.234
 20
340.696
 11
172.186
 21
340.777
  0
LINE
  8
0
 10
172.186
 20
340.777
 11
172.143
 21
340.861
  0
LINE
  8
0
 10
172.143
 20
340.861
 11
172.105
 21
340.948
  0
LINE
  8
0
 10
172.105
 20
340.948
 11
172.073
 21
341.036
  0
LINE
  8
0
 10
172.073
 20
341.036
 11
172.047
 21
341.127
  0
LINE
  8
0
 10
172.047
 20
341.127
 11
172.027
 21
341.219
  0
LINE
  8
0
 10
172.027
 20
341.219
 11
172.012
 21
341.312
  0
LINE
  8
0
 10
172.012
 20
341.312
 11
172.003
 21
341.406
  0
LINE
  8
0
 10
172.003
 20
341.406
 11
172
 21
341.5
  0
LINE
  8
0
 10
172
 20
341.5
 11
172.003
 21
341.594
  0
LINE
  8
0
 10
172.003
 20
341.594
 11
172.012
 21
341.688
  0
LINE
  8
0
 10
172.012
 20
341.688
 11
172.027
 21
341.781
  0
LINE
  8
0
 10
172.027
 20
341.781
 11
172.047
 21
341.873
  0
LINE
  8
0
 10
172.047
 20
341.873
 11
172.073
 21
341.964
  0
LINE
  8
0
 10
172.073
 20
341.964
 11
172.105
 21
342.052
  0
LINE
  8
0
 10
172.105
 20
342.052
 11
172.143
 21
342.139
  0
LINE
  8
0
 10
172.143
 20
342.139
 11
172.186
 21
342.223
  0
LINE
  8
0
 10
172.186
 20
342.223
 11
172.234
 21
342.304
  0
LINE
  8
0
 10
172.234
 20
342.304
 11
172.286
 21
342.382
  0
LINE
  8
0
 10
172.286
 20
342.382
 11
172.344
 21
342.456
  0
LINE
  8
0
 10
172.344
 20
342.456
 11
172.407
 21
342.527
  0
LINE
  8
0
 10
172.407
 20
342.527
 11
172.473
 21
342.593
  0
LINE
  8
0
 10
172.473
 20
342.593
 11
172.544
 21
342.656
  0
LINE
  8
0
 10
172.544
 20
342.656
 11
172.618
 21
342.714
  0
LINE
  8
0
 10
172.618
 20
342.714
 11
172.696
 21
342.766
  0
LINE
  8
0
 10
172.696
 20
342.766
 11
172.777
 21
342.814
  0
LINE
  8
0
 10
172.777
 20
342.814
 11
172.861
 21
342.857
  0
LINE
  8
0
 10
172.861
 20
342.857
 11
172.948
 21
342.895
  0
LINE
  8
0
 10
172.948
 20
342.895
 11
173.036
 21
342.927
  0
LINE
  8
0
 10
173.036
 20
342.927
 11
173.127
 21
342.953
  0
LINE
  8
0
 10
173.127
 20
342.953
 11
173.219
 21
342.973
  0
LINE
  8
0
 10
173.219
 20
342.973
 11
173.312
 21
342.988
  0
LINE
  8
0
 10
173.312
 20
342.988
 11
173.406
 21
342.997
  0
LINE
  8
0
 10
173.406
 20
342.997
 11
173.5
 21
343
  0
LINE
  8
0
 10
173.5
 20
343
 11
173.594
 21
342.997
  0
LINE
  8
0
 10
173.594
 20
342.997
 11
173.688
 21
342.988
  0
LINE
  8
0
 10
173.688
 20
342.988
 11
173.781
 21
342.973
  0
LINE
  8
0
 10
173.781
 20
342.973
 11
173.873
 21
342.953
  0
LINE
  8
0
 10
173.873
 20
342.953
 11
173.964
 21
342.927
  0
LINE
  8
0
 10
173.964
 20
342.927
 11
174.052
 21
342.895
  0
LINE
  8
0
 10
174.052
 20
342.895
 11
174.139
 21
342.857
  0
LINE
  8
0
 10
174.139
 20
342.857
 11
174.223
 21
342.814
  0
LINE
  8
0
 10
174.223
 20
342.814
 11
174.304
 21
342.766
  0
LINE
  8
0
 10
174.304
 20
342.766
 11
174.382
 21
342.714
  0
LINE
  8
0
 10
174.382
 20
342.714
 11
174.456
 21
342.656
  0
LINE
  8
0
 10
174.456
 20
342.656
 11
174.527
 21
342.593
  0
LINE
  8
0
 10
174.527
 20
342.593
 11
174.593
 21
342.527
  0
LINE
  8
0
 10
174.593
 20
342.527
 11
174.656
 21
342.456
  0
LINE
  8
0
 10
174.656
 20
342.456
 11
174.714
 21
342.382
  0
LINE
  8
0
 10
174.714
 20
342.382
 11
174.766
 21
342.304
  0
LINE
  8
0
 10
174.766
 20
342.304
 11
174.814
 21
342.223
  0
LINE
  8
0
 10
174.814
 20
342.223
 11
174.857
 21
342.139
  0
LINE
  8
0
 10
174.857
 20
342.139
 11
174.895
 21
342.052
  0
LINE
  8
0
 10
174.895
 20
342.052
 11
174.927
 21
341.964
  0
LINE
  8
0
 10
174.927
 20
341.964
 11
174.953
 21
341.873
  0
LINE
  8
0
 10
174.953
 20
341.873
 11
174.973
 21
341.781
  0
LINE
  8
0
 10
174.973
 20
341.781
 11
174.988
 21
341.688
  0
LINE
  8
0
 10
174.988
 20
341.688
 11
174.997
 21
341.594
  0
LINE
  8
0
 10
174.997
 20
341.594
 11
175
 21
341.5
  0
LINE
  8
0
 10
175
 20
341.5
 11
174.997
 21
341.406
  0
LINE
  8
0
 10
174.997
 20
341.406
 11
174.988
 21
341.312
  0
LINE
  8
0
 10
174.988
 20
341.312
 11
174.973
 21
341.219
  0
LINE
  8
0
 10
174.973
 20
341.219
 11
174.953
 21
341.127
  0
LINE
  8
0
 10
174.953
 20
341.127
 11
174.927
 21
341.036
  0
LINE
  8
0
 10
174.927
 20
341.036
 11
174.895
 21
340.948
  0
LINE
  8
0
 10
174.895
 20
340.948
 11
174.857
 21
340.861
  0
LINE
  8
0
 10
174.857
 20
340.861
 11
174.814
 21
340.777
  0
LINE
  8
0
 10
174.814
 20
340.777
 11
174.766
 21
340.696
  0
LINE
  8
0
 10
174.766
 20
340.696
 11
174.714
 21
340.618
  0
LINE
  8
0
 10
174.714
 20
340.618
 11
174.656
 21
340.544
  0
LINE
  8
0
 10
174.656
 20
340.544
 11
174.593
 21
340.473
  0
LINE
  8
0
 10
174.593
 20
340.473
 11
174.527
 21
340.407
  0
LINE
  8
0
 10
174.527
 20
340.407
 11
174.456
 21
340.344
  0
LINE
  8
0
 10
174.456
 20
340.344
 11
174.382
 21
340.286
  0
LINE
  8
0
 10
174.382
 20
340.286
 11
174.304
 21
340.234
  0
LINE
  8
0
 10
174.304
 20
340.234
 11
174.223
 21
340.186
  0
LINE
  8
0
 10
174.223
 20
340.186
 11
174.139
 21
340.143
  0
LINE
  8
0
 10
174.139
 20
340.143
 11
174.052
 21
340.105
  0
LINE
  8
0
 10
174.052
 20
340.105
 11
173.964
 21
340.073
  0
LINE
  8
0
 10
173.964
 20
340.073
 11
173.873
 21
340.047
  0
LINE
  8
0
 10
173.873
 20
340.047
 11
173.781
 21
340.027
  0
LINE
  8
0
 10
173.781
 20
340.027
 11
173.688
 21
340.012
  0
LINE
  8
0
 10
173.688
 20
340.012
 11
173.594
 21
340.003
  0
LINE
  8
0
 10
173.594
 20
340.003
 11
173.5
 21
340
  0
LINE
  8
0
 10
173.5
 20
340
 11
173.406
 21
340.003
  0
LINE
  8
0
 10
204.406
 20
340.003
 11
204.312
 21
340.012
  0
LINE
  8
0
 10
204.312
 20
340.012
 11
204.219
 21
340.027
  0
LINE
  8
0
 10
204.219
 20
340.027
 11
204.127
 21
340.047
  0
LINE
  8
0
 10
204.127
 20
340.047
 11
204.036
 21
340.073
  0
LINE
  8
0
 10
204.036
 20
340.073
 11
203.948
 21
340.105
  0
LINE
  8
0
 10
203.948
 20
340.105
 11
203.861
 21
340.143
  0
LINE
  8
0
 10
203.861
 20
340.143
 11
203.777
 21
340.186
  0
LINE
  8
0
 10
203.777
 20
340.186
 11
203.696
 21
340.234
  0
LINE
  8
0
 10
203.696
 20
340.234
 11
203.618
 21
340.286
  0
LINE
  8
0
 10
203.618
 20
340.286
 11
203.544
 21
340.344
  0
LINE
  8
0
 10
203.544
 20
340.344
 11
203.473
 21
340.407
  0
LINE
  8
0
 10
203.473
 20
340.407
 11
203.407
 21
340.473
  0
LINE
  8
0
 10
203.407
 20
340.473
 11
203.344
 21
340.544
  0
LINE
  8
0
 10
203.344
 20
340.544
 11
203.286
 21
340.618
  0
LINE
  8
0
 10
203.286
 20
340.618
 11
203.234
 21
340.696
  0
LINE
  8
0
 10
203.234
 20
340.696
 11
203.186
 21
340.777
  0
LINE
  8
0
 10
203.186
 20
340.777
 11
203.143
 21
340.861
  0
LINE
  8
0
 10
203.143
 20
340.861
 11
203.105
 21
340.948
  0
LINE
  8
0
 10
203.105
 20
340.948
 11
203.073
 21
341.036
  0
LINE
  8
0
 10
203.073
 20
341.036
 11
203.047
 21
341.127
  0
LINE
  8
0
 10
203.047
 20
341.127
 11
203.027
 21
341.219
  0
LINE
  8
0
 10
203.027
 20
341.219
 11
203.012
 21
341.312
  0
LINE
  8
0
 10
203.012
 20
341.312
 11
203.003
 21
341.406
  0
LINE
  8
0
 10
203.003
 20
341.406
 11
203
 21
341.5
  0
LINE
  8
0
 10
203
 20
341.5
 11
203.003
 21
341.594
  0
LINE
  8
0
 10
203.003
 20
341.594
 11
203.012
 21
341.688
  0
LINE
  8
0
 10
203.012
 20
341.688
 11
203.027
 21
341.781
  0
LINE
  8
0
 10
203.027
 20
341.781
 11
203.047
 21
341.873
  0
LINE
  8
0
 10
203.047
 20
341.873
 11
203.073
 21
341.964
  0
LINE
  8
0
 10
203.073
 20
341.964
 11
203.105
 21
342.052
  0
LINE
  8
0
 10
203.105
 20
342.052
 11
203.143
 21
342.139
  0
LINE
  8
0
 10
203.143
 20
342.139
 11
203.186
 21
342.223
  0
LINE
  8
0
 10
203.186
 20
342.223
 11
203.234
 21
342.304
  0
LINE
  8
0
 10
203.234
 20
342.304
 11
203.286
 21
342.382
  0
LINE
  8
0
 10
203.286
 20
342.382
 11
203.344
 21
342.456
  0
LINE
  8
0
 10
203.344
 20
342.456
 11
203.407
 21
342.527
  0
LINE
  8
0
 10
203.407
 20
342.527
 11
203.473
 21
342.593
  0
LINE
  8
0
 10
203.473
 20
342.593
 11
203.544
 21
342.656
  0
LINE
  8
0
 10
203.544
 20
342.656
 11
203.618
 21
342.714
  0
LINE
  8
0
 10
203.618
 20
342.714
 11
203.696
 21
342.766
  0
LINE
  8
0
 10
203.696
 20
342.766
 11
203.777
 21
342.814
  0
LINE
  8
0
 10
203.777
 20
342.814
 11
203.861
 21
342.857
  0
LINE
  8
0
 10
203.861
 20
342.857
 11
203.948
 21
342.895
  0
LINE
  8
0
 10
203.948
 20
342.895
 11
204.036
 21
342.927
  0
LINE
  8
0
 10
204.036
 20
342.927
 11
204.127
 21
342.953
  0
LINE
  8
0
 10
204.127
 20
342.953
 11
204.219
 21
342.973
  0
LINE
  8
0
 10
204.219
 20
342.973
 11
204.312
 21
342.988
  0
LINE
  8
0
 10
204.312
 20
342.988
 11
204.406
 21
342.997
  0
LINE
  8
0
 10
204.406
 20
342.997
 11
204.5
 21
343
  0
LINE
  8
0
 10
204.5
 20
343
 11
204.594
 21
342.997
  0
LINE
  8
0
 10
204.594
 20
342.997
 11
204.688
 21
342.988
  0
LINE
  8
0
 10
204.688
 20
342.988
 11
204.781
 21
342.973
  0
LINE
  8
0
 10
204.781
 20
342.973
 11
204.873
 21
342.953
  0
LINE
  8
0
 10
204.873
 20
342.953
 11
204.964
 21
342.927
  0
LINE
  8
0
 10
204.964
 20
342.927
 11
205.052
 21
342.895
  0
LINE
  8
0
 10
205.052
 20
342.895
 11
205.139
 21
342.857
  0
LINE
  8
0
 10
205.139
 20
342.857
 11
205.223
 21
342.814
  0
LINE
  8
0
 10
205.223
 20
342.814
 11
205.304
 21
342.766
  0
LINE
  8
0
 10
205.304
 20
342.766
 11
205.382
 21
342.714
  0
LINE
  8
0
 10
205.382
 20
342.714
 11
205.456
 21
342.656
  0
LINE
  8
0
 10
205.456
 20
342.656
 11
205.527
 21
342.593
  0
LINE
  8
0
 10
205.527
 20
342.593
 11
205.593
 21
342.527
  0
LINE
  8
0
 10
205.593
 20
342.527
 11
205.656
 21
342.456
  0
LINE
  8
0
 10
205.656
 20
342.456
 11
205.714
 21
342.382
  0
LINE
  8
0
 10
205.714
 20
342.382
 11
205.766
 21
342.304
  0
LINE
  8
0
 10
205.766
 20
342.304
 11
205.814
 21
342.223
  0
LINE
  8
0
 10
205.814
 20
342.223
 11
205.857
 21
342.139
  0
LINE
  8
0
 10
205.857
 20
342.139
 11
205.895
 21
342.052
  0
LINE
  8
0
 10
205.895
 20
342.052
 11
205.927
 21
341.964
  0
LINE
  8
0
 10
205.927
 20
341.964
 11
205.953
 21
341.873
  0
LINE
  8
0
 10
205.953
 20
341.873
 11
205.973
 21
341.781
  0
LINE
  8
0
 10
205.973
 20
341.781
 11
205.988
 21
341.688
  0
LINE
  8
0
 10
205.988
 20
341.688
 11
205.997
 21
341.594
  0
LINE
  8
0
 10
205.997
 20
341.594
 11
206
 21
341.5
  0
LINE
  8
0
 10
206
 20
341.5
 11
205.997
 21
341.406
  0
LINE
  8
0
 10
205.997
 20
341.406
 11
205.988
 21
341.312
  0
LINE
  8
0
 10
205.988
 20
341.312
 11
205.973
 21
341.219
  0
LINE
  8
0
 10
205.973
 20
341.219
 11
205.953
 21
341.127
  0
LINE
  8
0
 10
205.953
 20
341.127
 11
205.927
 21
341.036
  0
LINE
  8
0
 10
205.927
 20
341.036
 11
205.895
 21
340.948
  0
LINE
  8
0
 10
205.895
 20
340.948
 11
205.857
 21
340.861
  0
LINE
  8
0
 10
205.857
 20
340.861
 11
205.814
 21
340.777
  0
LINE
  8
0
 10
205.814
 20
340.777
 11
205.766
 21
340.696
  0
LINE
  8
0
 10
205.766
 20
340.696
 11
205.714
 21
340.618
  0
LINE
  8
0
 10
205.714
 20
340.618
 11
205.656
 21
340.544
  0
LINE
  8
0
 10
205.656
 20
340.544
 11
205.593
 21
340.473
  0
LINE
  8
0
 10
205.593
 20
340.473
 11
205.527
 21
340.407
  0
LINE
  8
0
 10
205.527
 20
340.407
 11
205.456
 21
340.344
  0
LINE
  8
0
 10
205.456
 20
340.344
 11
205.382
 21
340.286
  0
LINE
  8
0
 10
205.382
 20
340.286
 11
205.304
 21
340.234
  0
LINE
  8
0
 10
205.304
 20
340.234
 11
205.223
 21
340.186
  0
LINE
  8
0
 10
205.223
 20
340.186
 11
205.139
 21
340.143
  0
LINE
  8
0
 10
205.139
 20
340.143
 11
205.052
 21
340.105
  0
LINE
  8
0
 10
205.052
 20
340.105
 11
204.964
 21
340.073
  0
LINE
  8
0
 10
204.964
 20
340.073
 11
204.873
 21
340.047
  0
LINE
  8
0
 10
204.873
 20
340.047
 11
204.781
 21
340.027
  0
LINE
  8
0
 10
204.781
 20
340.027
 11
204.688
 21
340.012
  0
LINE
  8
0
 10
204.688
 20
340.012
 11
204.594
 21
340.003
  0
LINE
  8
0
 10
204.594
 20
340.003
 11
204.5
 21
340
  0
LINE
  8
0
 10
204.5
 20
340
 11
204.406
 21
340.003
  0
LINE
  8
0
 10
188.309
 20
315.022
 11
187.621
 21
315.087
  0
LINE
  8
0
 10
187.621
 20
315.087
 11
186.939
 21
315.195
  0
LINE
  8
0
 10
186.939
 20
315.195
 11
186.264
 21
315.346
  0
LINE
  8
0
 10
186.264
 20
315.346
 11
185.601
 21
315.538
  0
LINE
  8
0
 10
185.601
 20
315.538
 11
184.951
 21
315.772
  0
LINE
  8
0
 10
184.951
 20
315.772
 11
184.316
 21
316.047
  0
LINE
  8
0
 10
184.316
 20
316.047
 11
183.701
 21
316.361
  0
LINE
  8
0
 10
183.701
 20
316.361
 11
183.106
 21
316.712
  0
LINE
  8
0
 10
183.106
 20
316.712
 11
182.534
 21
317.101
  0
LINE
  8
0
 10
182.534
 20
317.101
 11
181.988
 21
317.524
  0
LINE
  8
0
 10
181.988
 20
317.524
 11
181.47
 21
317.981
  0
LINE
  8
0
 10
181.47
 20
317.981
 11
180.981
 21
318.47
  0
LINE
  8
0
 10
180.981
 20
318.47
 11
180.524
 21
318.988
  0
LINE
  8
0
 10
180.524
 20
318.988
 11
180.101
 21
319.534
  0
LINE
  8
0
 10
180.101
 20
319.534
 11
179.712
 21
320.106
  0
LINE
  8
0
 10
179.712
 20
320.106
 11
179.361
 21
320.701
  0
LINE
  8
0
 10
179.361
 20
320.701
 11
179.047
 21
321.316
  0
LINE
  8
0
 10
179.047
 20
321.316
 11
178.772
 21
321.951
  0
LINE
  8
0
 10
178.772
 20
321.951
 11
178.538
 21
322.601
  0
LINE
  8
0
 10
178.538
 20
322.601
 11
178.346
 21
323.264
  0
LINE
  8
0
 10
178.346
 20
323.264
 11
178.195
 21
323.939
  0
LINE
  8
0
 10
178.195
 20
323.939
 11
178.087
 21
324.621
  0
LINE
  8
0
 10
178.087
 20
324.621
 11
178.022
 21
325.309
  0
LINE
  8
0
 10
178.022
 20
325.309
 11
178
 21
326
  0
LINE
  8
0
 10
178
 20
326
 11
178.022
 21
326.691
  0
LINE
  8
0
 10
178.022
 20
326.691
 11
178.087
 21
327.379
  0
LINE
  8
0
 10
178.087
 20
327.379
 11
178.195
 21
328.061
  0
LINE
  8
0
 10
178.195
 20
328.061
 11
178.346
 21
328.736
  0
LINE
  8
0
 10
178.346
 20
328.736
 11
178.538
 21
329.399
  0
LINE
  8
0
 10
178.538
 20
329.399
 11
178.772
 21
330.049
  0
LINE
  8
0
 10
178.772
 20
330.049
 11
179.047
 21
330.684
  0
LINE
  8
0
 10
179.047
 20
330.684
 11
179.361
 21
331.299
  0
LINE
  8
0
 10
179.361
 20
331.299
 11
179.712
 21
331.894
  0
LINE
  8
0
 10
179.712
 20
331.894
 11
180.101
 21
332.466
  0
LINE
  8
0
 10
180.101
 20
332.466
 11
180.524
 21
333.012
  0
LINE
  8
0
 10
180.524
 20
333.012
 11
180.981
 21
333.53
  0
LINE
  8
0
 10
180.981
 20
333.53
 11
181.47
 21
334.019
  0
LINE
  8
0
 10
181.47
 20
334.019
 11
181.988
 21
334.476
  0
LINE
  8
0
 10
181.988
 20
334.476
 11
182.534
 21
334.899
  0
LINE
  8
0
 10
182.534
 20
334.899
 11
183.106
 21
335.288
  0
LINE
  8
0
 10
183.106
 20
335.288
 11
183.701
 21
335.639
  0
LINE
  8
0
 10
183.701
 20
335.639
 11
184.316
 21
335.953
  0
LINE
  8
0
 10
184.316
 20
335.953
 11
184.951
 21
336.228
  0
LINE
  8
0
 10
184.951
 20
336.228
 11
185.601
 21
336.462
  0
LINE
  8
0
 10
185.601
 20
336.462
 11
186.264
 21
336.654
  0
LINE
  8
0
 10
186.264
 20
336.654
 11
186.939
 21
336.805
  0
LINE
  8
0
 10
186.939
 20
336.805
 11
187.621
 21
336.913
  0
LINE
  8
0
 10
187.621
 20
336.913
 11
188.309
 21
336.978
  0
LINE
  8
0
 10
188.309
 20
336.978
 11
189
 21
337
  0
LINE
  8
0
 10
189
 20
337
 11
189.691
 21
336.978
  0
LINE
  8
0
 10
189.691
 20
336.978
 11
190.379
 21
336.913
  0
LINE
  8
0
 10
190.379
 20
336.913
 11
191.061
 21
336.805
  0
LINE
  8
0
 10
191.061
 20
336.805
 11
191.736
 21
336.654
  0
LINE
  8
0
 10
191.736
 20
336.654
 11
192.399
 21
336.462
  0
LINE
  8
0
 10
192.399
 20
336.462
 11
193.049
 21
336.228
  0
LINE
  8
0
 10
193.049
 20
336.228
 11
193.684
 21
335.953
  0
LINE
  8
0
 10
193.684
 20
335.953
 11
194.299
 21
335.639
  0
LINE
  8
0
 10
194.299
 20
335.639
 11
194.894
 21
335.288
  0
LINE
  8
0
 10
194.894
 20
335.288
 11
195.466
 21
334.899
  0
LINE
  8
0
 10
195.466
 20
334.899
 11
196.012
 21
334.476
  0
LINE
  8
0
 10
196.012
 20
334.476
 11
196.53
 21
334.019
  0
LINE
  8
0
 10
196.53
 20
334.019
 11
197.019
 21
333.53
  0
LINE
  8
0
 10
197.019
 20
333.53
 11
197.476
 21
333.012
  0
LINE
  8
0
 10
197.476
 20
333.012
 11
197.899
 21
332.466
  0
LINE
  8
0
 10
197.899
 20
332.466
 11
198.288
 21
331.894
  0
LINE
  8
0
 10
198.288
 20
331.894
 11
198.639
 21
331.299
  0
LINE
  8
0
 10
198.639
 20
331.299
 11
198.953
 21
330.684
  0
LINE
  8
0
 10
198.953
 20
330.684
 11
199.228
 21
330.049
  0
LINE
  8
0
 10
199.228
 20
330.049
 11
199.462
 21
329.399
  0
LINE
  8
0
 10
199.462
 20
329.399
 11
199.654
 21
328.736
  0
LINE
  8
0
 10
199.654
 20
328.736
 11
199.805
 21
328.061
  0
LINE
  8
0
 10
199.805
 20
328.061
 11
199.913
 21
327.379
  0
LINE
  8
0
 10
199.913
 20
327.379
 11
199.978
 21
326.691
  0
LINE
  8
0
 10
199.978
 20
326.691
 11
200
 21
326
  0
LINE
  8
0
 10
200
 20
326
 11
199.978
 21
325.309
  0
LINE
  8
0
 10
199.978
 20
325.309
 11
199.913
 21
324.621
  0
LINE
  8
0
 10
199.913
 20
324.621
 11
199.805
 21
323.939
  0
LINE
  8
0
 10
199.805
 20
323.939
 11
199.654
 21
323.264
  0
LINE
  8
0
 10
199.654
 20
323.264
 11
199.462
 21
322.601
  0
LINE
  8
0
 10
199.462
 20
322.601
 11
199.228
 21
321.951
  0
LINE
  8
0
 10
199.228
 20
321.951
 11
198.953
 21
321.316
  0
LINE
  8
0
 10
198.953
 20
321.316
 11
198.639
 21
320.701
  0
LINE
  8
0
 10
198.639
 20
320.701
 11
198.288
 21
320.106
  0
LINE
  8
0
 10
198.288
 20
320.106
 11
197.899
 21
319.534
  0
LINE
  8
0
 10
197.899
 20
319.534
 11
197.476
 21
318.988
  0
LINE
  8
0
 10
197.476
 20
318.988
 11
197.019
 21
318.47
  0
LINE
  8
0
 10
197.019
 20
318.47
 11
196.53
 21
317.981
  0
LINE
  8
0
 10
196.53
 20
317.981
 11
196.012
 21
317.524
  0
LINE
  8
0
 10
196.012
 20
317.524
 11
195.466
 21
317.101
  0
LINE
  8
0
 10
195.466
 20
317.101
 11
194.894
 21
316.712
  0
LINE
  8
0
 10
194.894
 20
316.712
 11
194.299
 21
316.361
  0
LINE
  8
0
 10
194.299
 20
316.361
 11
193.684
 21
316.047
  0
LINE
  8
0
 10
193.684
 20
316.047
 11
193.049
 21
315.772
  0
LINE
  8
0
 10
193.049
 20
315.772
 11
192.399
 21
315.538
  0
LINE
  8
0
 10
192.399
 20
315.538
 11
191.736
 21
315.346
  0
LINE
  8
0
 10
191.736
 20
315.346
 11
191.061
 21
315.195
  0
LINE
  8
0
 10
191.061
 20
315.195
 11
190.379
 21
315.087
  0
LINE
  8
0
 10
190.379
 20
315.087
 11
189.691
 21
315.022
  0
LINE
  8
0
 10
189.691
 20
315.022
 11
189
 21
315
  0
LINE
  8
0
 10
189
 20
315
 11
188.309
 21
315.022
  0
LINE
  8
0
 10
173.406
 20
309.003
 11
173.312
 21
309.012
  0
LINE
  8
0
 10
173.312
 20
309.012
 11
173.219
 21
309.027
  0
LINE
  8
0
 10
173.219
 20
309.027
 11
173.127
 21
309.047
  0
LINE
  8
0
 10
173.127
 20
309.047
 11
173.036
 21
309.073
  0
LINE
  8
0
 10
173.036
 20
309.073
 11
172.948
 21
309.105
  0
LINE
  8
0
 10
172.948
 20
309.105
 11
172.861
 21
309.143
  0
LINE
  8
0
 10
172.861
 20
309.143
 11
172.777
 21
309.186
  0
LINE
  8
0
 10
172.777
 20
309.186
 11
172.696
 21
309.234
  0
LINE
  8
0
 10
172.696
 20
309.234
 11
172.618
 21
309.286
  0
LINE
  8
0
 10
172.618
 20
309.286
 11
172.544
 21
309.344
  0
LINE
  8
0
 10
172.544
 20
309.344
 11
172.473
 21
309.407
  0
LINE
  8
0
 10
172.473
 20
309.407
 11
172.407
 21
309.473
  0
LINE
  8
0
 10
172.407
 20
309.473
 11
172.344
 21
309.544
  0
LINE
  8
0
 10
172.344
 20
309.544
 11
172.286
 21
309.618
  0
LINE
  8
0
 10
172.286
 20
309.618
 11
172.234
 21
309.696
  0
LINE
  8
0
 10
172.234
 20
309.696
 11
172.186
 21
309.777
  0
LINE
  8
0
 10
172.186
 20
309.777
 11
172.143
 21
309.861
  0
LINE
  8
0
 10
172.143
 20
309.861
 11
172.105
 21
309.948
  0
LINE
  8
0
 10
172.105
 20
309.948
 11
172.073
 21
310.036
  0
LINE
  8
0
 10
172.073
 20
310.036
 11
172.047
 21
310.127
  0
LINE
  8
0
 10
172.047
 20
310.127
 11
172.027
 21
310.219
  0
LINE
  8
0
 10
172.027
 20
310.219
 11
172.012
 21
310.312
  0
LINE
  8
0
 10
172.012
 20
310.312
 11
172.003
 21
310.406
  0
LINE
  8
0
 10
172.003
 20
310.406
 11
172
 21
310.5
  0
LINE
  8
0
 10
172
 20
310.5
 11
172.003
 21
310.594
  0
LINE
  8
0
 10
172.003
 20
310.594
 11
172.012
 21
310.688
  0
LINE
  8
0
 10
172.012
 20
310.688
 11
172.027
 21
310.781
  0
LINE
  8
0
 10
172.027
 20
310.781
 11
172.047
 21
310.873
  0
LINE
  8
0
 10
172.047
 20
310.873
 11
172.073
 21
310.964
  0
LINE
  8
0
 10
172.073
 20
310.964
 11
172.105
 21
311.052
  0
LINE
  8
0
 10
172.105
 20
311.052
 11
172.143
 21
311.139
  0
LINE
  8
0
 10
172.143
 20
311.139
 11
172.186
 21
311.223
  0
LINE
  8
0
 10
172.186
 20
311.223
 11
172.234
 21
311.304
  0
LINE
  8
0
 10
172.234
 20
311.304
 11
172.286
 21
311.382
  0
LINE
  8
0
 10
172.286
 20
311.382
 11
172.344
 21
311.456
  0
LINE
  8
0
 10
172.344
 20
311.456
 11
172.407
 21
311.527
  0
LINE
  8
0
 10
172.407
 20
311.527
 11
172.473
 21
311.593
  0
LINE
  8
0
 10
172.473
 20
311.593
 11
172.544
 21
311.656
  0
LINE
  8
0
 10
172.544
 20
311.656
 11
172.618
 21
311.714
  0
LINE
  8
0
 10
172.618
 20
311.714
 11
172.696
 21
311.766
  0
LINE
  8
0
 10
172.696
 20
311.766
 11
172.777
 21
311.814
  0
LINE
  8
0
 10
172.777
 20
311.814
 11
172.861
 21
311.857
  0
LINE
  8
0
 10
172.861
 20
311.857
 11
172.948
 21
311.895
  0
LINE
  8
0
 10
172.948
 20
311.895
 11
173.036
 21
311.927
  0
LINE
  8
0
 10
173.036
 20
311.927
 11
173.127
 21
311.953
  0
LINE
  8
0
 10
173.127
 20
311.953
 11
173.219
 21
311.973
  0
LINE
  8
0
 10
173.219
 20
311.973
 11
173.312
 21
311.988
  0
LINE
  8
0
 10
173.312
 20
311.988
 11
173.406
 21
311.997
  0
LINE
  8
0
 10
173.406
 20
311.997
 11
173.5
 21
312
  0
LINE
  8
0
 10
173.5
 20
312
 11
173.594
 21
311.997
  0
LINE
  8
0
 10
173.594
 20
311.997
 11
173.688
 21
311.988
  0
LINE
  8
0
 10
173.688
 20
311.988
 11
173.781
 21
311.973
  0
LINE
  8
0
 10
173.781
 20
311.973
 11
173.873
 21
311.953
  0
LINE
  8
0
 10
173.873
 20
311.953
 11
173.964
 21
311.927
  0
LINE
  8
0
 10
173.964
 20
311.927
 11
174.052
 21
311.895
  0
LINE
  8
0
 10
174.052
 20
311.895
 11
174.139
 21
311.857
  0
LINE
  8
0
 10
174.139
 20
311.857
 11
174.223
 21
311.814
  0
LINE
  8
0
 10
174.223
 20
311.814
 11
174.304
 21
311.766
  0
LINE
  8
0
 10
174.304
 20
311.766
 11
174.382
 21
311.714
  0
LINE
  8
0
 10
174.382
 20
311.714
 11
174.456
 21
311.656
  0
LINE
  8
0
 10
174.456
 20
311.656
 11
174.527
 21
311.593
  0
LINE
  8
0
 10
174.527
 20
311.593
 11
174.593
 21
311.527
  0
LINE
  8
0
 10
174.593
 20
311.527
 11
174.656
 21
311.456
  0
LINE
  8
0
 10
174.656
 20
311.456
 11
174.714
 21
311.382
  0
LINE
  8
0
 10
174.714
 20
311.382
 11
174.766
 21
311.304
  0
LINE
  8
0
 10
174.766
 20
311.304
 11
174.814
 21
311.223
  0
LINE
  8
0
 10
174.814
 20
311.223
 11
174.857
 21
311.139
  0
LINE
  8
0
 10
174.857
 20
311.139
 11
174.895
 21
311.052
  0
LINE
  8
0
 10
174.895
 20
311.052
 11
174.927
 21
310.964
  0
LINE
  8
0
 10
174.927
 20
310.964
 11
174.953
 21
310.873
  0
LINE
  8
0
 10
174.953
 20
310.873
 11
174.973
 21
310.781
  0
LINE
  8
0
 10
174.973
 20
310.781
 11
174.988
 21
310.688
  0
LINE
  8
0
 10
174.988
 20
310.688
 11
174.997
 21
310.594
  0
LINE
  8
0
 10
174.997
 20
310.594
 11
175
 21
310.5
  0
LINE
  8
0
 10
175
 20
310.5
 11
174.997
 21
310.406
  0
LINE
  8
0
 10
174.997
 20
310.406
 11
174.988
 21
310.312
  0
LINE
  8
0
 10
174.988
 20
310.312
 11
174.973
 21
310.219
  0
LINE
  8
0
 10
174.973
 20
310.219
 11
174.953
 21
310.127
  0
LINE
  8
0
 10
174.953
 20
310.127
 11
174.927
 21
310.036
  0
LINE
  8
0
 10
174.927
 20
310.036
 11
174.895
 21
309.948
  0
LINE
  8
0
 10
174.895
 20
309.948
 11
174.857
 21
309.861
  0
LINE
  8
0
 10
174.857
 20
309.861
 11
174.814
 21
309.777
  0
LINE
  8
0
 10
174.814
 20
309.777
 11
174.766
 21
309.696
  0
LINE
  8
0
 10
174.766
 20
309.696
 11
174.714
 21
309.618
  0
LINE
  8
0
 10
174.714
 20
309.618
 11
174.656
 21
309.544
  0
LINE
  8
0
 10
174.656
 20
309.544
 11
174.593
 21
309.473
  0
LINE
  8
0
 10
174.593
 20
309.473
 11
174.527
 21
309.407
  0
LINE
  8
0
 10
174.527
 20
309.407
 11
174.456
 21
309.344
  0
LINE
  8
0
 10
174.456
 20
309.344
 11
174.382
 21
309.286
  0
LINE
  8
0
 10
174.382
 20
309.286
 11
174.304
 21
309.234
  0
LINE
  8
0
 10
174.304
 20
309.234
 11
174.223
 21
309.186
  0
LINE
  8
0
 10
174.223
 20
309.186
 11
174.139
 21
309.143
  0
LINE
  8
0
 10
174.139
 20
309.143
 11
174.052
 21
309.105
  0
LINE
  8
0
 10
174.052
 20
309.105
 11
173.964
 21
309.073
  0
LINE
  8
0
 10
173.964
 20
309.073
 11
173.873
 21
309.047
  0
LINE
  8
0
 10
173.873
 20
309.047
 11
173.781
 21
309.027
  0
LINE
  8
0
 10
173.781
 20
309.027
 11
173.688
 21
309.012
  0
LINE
  8
0
 10
173.688
 20
309.012
 11
173.594
 21
309.003
  0
LINE
  8
0
 10
173.594
 20
309.003
 11
173.5
 21
309
  0
LINE
  8
0
 10
173.5
 20
309
 11
173.406
 21
309.003
  0
LINE
  8
0
 10
204.406
 20
309.003
 11
204.312
 21
309.012
  0
LINE
  8
0
 10
204.312
 20
309.012
 11
204.219
 21
309.027
  0
LINE
  8
0
 10
204.219
 20
309.027
 11
204.127
 21
309.047
  0
LINE
  8
0
 10
204.127
 20
309.047
 11
204.036
 21
309.073
  0
LINE
  8
0
 10
204.036
 20
309.073
 11
203.948
 21
309.105
  0
LINE
  8
0
 10
203.948
 20
309.105
 11
203.861
 21
309.143
  0
LINE
  8
0
 10
203.861
 20
309.143
 11
203.777
 21
309.186
  0
LINE
  8
0
 10
203.777
 20
309.186
 11
203.696
 21
309.234
  0
LINE
  8
0
 10
203.696
 20
309.234
 11
203.618
 21
309.286
  0
LINE
  8
0
 10
203.618
 20
309.286
 11
203.544
 21
309.344
  0
LINE
  8
0
 10
203.544
 20
309.344
 11
203.473
 21
309.407
  0
LINE
  8
0
 10
203.473
 20
309.407
 11
203.407
 21
309.473
  0
LINE
  8
0
 10
203.407
 20
309.473
 11
203.344
 21
309.544
  0
LINE
  8
0
 10
203.344
 20
309.544
 11
203.286
 21
309.618
  0
LINE
  8
0
 10
203.286
 20
309.618
 11
203.234
 21
309.696
  0
LINE
  8
0
 10
203.234
 20
309.696
 11
203.186
 21
309.777
  0
LINE
  8
0
 10
203.186
 20
309.777
 11
203.143
 21
309.861
  0
LINE
  8
0
 10
203.143
 20
309.861
 11
203.105
 21
309.948
  0
LINE
  8
0
 10
203.105
 20
309.948
 11
203.073
 21
310.036
  0
LINE
  8
0
 10
203.073
 20
310.036
 11
203.047
 21
310.127
  0
LINE
  8
0
 10
203.047
 20
310.127
 11
203.027
 21
310.219
  0
LINE
  8
0
 10
203.027
 20
310.219
 11
203.012
 21
310.312
  0
LINE
  8
0
 10
203.012
 20
310.312
 11
203.003
 21
310.406
  0
LINE
  8
0
 10
203.003
 20
310.406
 11
203
 21
310.5
  0
LINE
  8
0
 10
203
 20
310.5
 11
203.003
 21
310.594
  0
LINE
  8
0
 10
203.003
 20
310.594
 11
203.012
 21
310.688
  0
LINE
  8
0
 10
203.012
 20
310.688
 11
203.027
 21
310.781
  0
LINE
  8
0
 10
203.027
 20
310.781
 11
203.047
 21
310.873
  0
LINE
  8
0
 10
203.047
 20
310.873
 11
203.073
 21
310.964
  0
LINE
  8
0
 10
203.073
 20
310.964
 11
203.105
 21
311.052
  0
LINE
  8
0
 10
203.105
 20
311.052
 11
203.143
 21
311.139
  0
LINE
  8
0
 10
203.143
 20
311.139
 11
203.186
 21
311.223
  0
LINE
  8
0
 10
203.186
 20
311.223
 11
203.234
 21
311.304
  0
LINE
  8
0
 10
203.234
 20
311.304
 11
203.286
 21
311.382
  0
LINE
  8
0
 10
203.286
 20
311.382
 11
203.344
 21
311.456
  0
LINE
  8
0
 10
203.344
 20
311.456
 11
203.407
 21
311.527
  0
LINE
  8
0
 10
203.407
 20
311.527
 11
203.473
 21
311.593
  0
LINE
  8
0
 10
203.473
 20
311.593
 11
203.544
 21
311.656
  0
LINE
  8
0
 10
203.544
 20
311.656
 11
203.618
 21
311.714
  0
LINE
  8
0
 10
203.618
 20
311.714
 11
203.696
 21
311.766
  0
LINE
  8
0
 10
203.696
 20
311.766
 11
203.777
 21
311.814
  0
LINE
  8
0
 10
203.777
 20
311.814
 11
203.861
 21
311.857
  0
LINE
  8
0
 10
203.861
 20
311.857
 11
203.948
 21
311.895
  0
LINE
  8
0
 10
203.948
 20
311.895
 11
204.036
 21
311.927
  0
LINE
  8
0
 10
204.036
 20
311.927
 11
204.127
 21
311.953
  0
LINE
  8
0
 10
204.127
 20
311.953
 11
204.219
 21
311.973
  0
LINE
  8
0
 10
204.219
 20
311.973
 11
204.312
 21
311.988
  0
LINE
  8
0
 10
204.312
 20
311.988
 11
204.406
 21
311.997
  0
LINE
  8
0
 10
204.406
 20
311.997
 11
204.5
 21
312
  0
LINE
  8
0
 10
204.5
 20
312
 11
204.594
 21
311.997
  0
LINE
  8
0
 10
204.594
 20
311.997
 11
204.688
 21
311.988
  0
LINE
  8
0
 10
204.688
 20
311.988
 11
204.781
 21
311.973
  0
LINE
  8
0
 10
204.781
 20
311.973
 11
204.873
 21
311.953
  0
LINE
  8
0
 10
204.873
 20
311.953
 11
204.964
 21
311.927
  0
LINE
  8
0
 10
204.964
 20
311.927
 11
205.052
 21
311.895
  0
LINE
  8
0
 10
205.052
 20
311.895
 11
205.139
 21
311.857
  0
LINE
  8
0
 10
205.139
 20
311.857
 11
205.223
 21
311.814
  0
LINE
  8
0
 10
205.223
 20
311.814
 11
205.304
 21
311.766
  0
LINE
  8
0
 10
205.304
 20
311.766
 11
205.382
 21
311.714
  0
LINE
  8
0
 10
205.382
 20
311.714
 11
205.456
 21
311.656
  0
LINE
  8
0
 10
205.456
 20
311.656
 11
205.527
 21
311.593
  0
LINE
  8
0
 10
205.527
 20
311.593
 11
205.593
 21
311.527
  0
LINE
  8
0
 10
205.593
 20
311.527
 11
205.656
 21
311.456
  0
LINE
  8
0
 10
205.656
 20
311.456
 11
205.714
 21
311.382
  0
LINE
  8
0
 10
205.714
 20
311.382
 11
205.766
 21
311.304
  0
LINE
  8
0
 10
205.766
 20
311.304
 11
205.814
 21
311.223
  0
LINE
  8
0
 10
205.814
 20
311.223
 11
205.857
 21
311.139
  0
LINE
  8
0
 10
205.857
 20
311.139
 11
205.895
 21
311.052
  0
LINE
  8
0
 10
205.895
 20
311.052
 11
205.927
 21
310.964
  0
LINE
  8
0
 10
205.927
 20
310.964
 11
205.953
 21
310.873
  0
LINE
  8
0
 10
205.953
 20
310.873
 11
205.973
 21
310.781
  0
LINE
  8
0
 10
205.973
 20
310.781
 11
205.988
 21
310.688
  0
LINE
  8
0
 10
205.988
 20
310.688
 11
205.997
 21
310.594
  0
LINE
  8
0
 10
205.997
 20
310.594
 11
206
 21
310.5
  0
LINE
  8
0
 10
206
 20
310.5
 11
205.997
 21
310.406
  0
LINE
  8
0
 10
205.997
 20
310.406
 11
205.988
 21
310.312
  0
LINE
  8
0
 10
205.988
 20
310.312
 11
205.973
 21
310.219
  0
LINE
  8
0
 10
205.973
 20
310.219
 11
205.953
 21
310.127
  0
LINE
  8
0
 10
205.953
 20
310.127
 11
205.927
 21
310.036
  0
LINE
  8
0
 10
205.927
 20
310.036
 11
205.895
 21
309.948
  0
LINE
  8
0
 10
205.895
 20
309.948
 11
205.857
 21
309.861
  0
LINE
  8
0
 10
205.857
 20
309.861
 11
205.814
 21
309.777
  0
LINE
  8
0
 10
205.814
 20
309.777
 11
205.766
 21
309.696
  0
LINE
  8
0
 10
205.766
 20
309.696
 11
205.714
 21
309.618
  0
LINE
  8
0
 10
205.714
 20
309.618
 11
205.656
 21
309.544
  0
LINE
  8
0
 10
205.656
 20
309.544
 11
205.593
 21
309.473
  0
LINE
  8
0
 10
205.593
 20
309.473
 11
205.527
 21
309.407
  0
LINE
  8
0
 10
205.527
 20
309.407
 11
205.456
 21
309.344
  0
LINE
  8
0
 10
205.456
 20
309.344
 11
205.382
 21
309.286
  0
LINE
  8
0
 10
205.382
 20
309.286
 11
205.304
 21
309.234
  0
LINE
  8
0
 10
205.304
 20
309.234
 11
205.223
 21
309.186
  0
LINE
  8
0
 10
205.223
 20
309.186
 11
205.139
 21
309.143
  0
LINE
  8
0
 10
205.139
 20
309.143
 11
205.052
 21
309.105
  0
LINE
  8
0
 10
205.052
 20
309.105
 11
204.964
 21
309.073
  0
LINE
  8
0
 10
204.964
 20
309.073
 11
204.873
 21
309.047
  0
LINE
  8
0
 10
204.873
 20
309.047
 11
204.781
 21
309.027
  0
LINE
  8
0
 10
204.781
 20
309.027
 11
204.688
 21
309.012
  0
LINE
  8
0
 10
204.688
 20
309.012
 11
204.594
 21
309.003
  0
LINE
  8
0
 10
204.594
 20
309.003
 11
204.5
 21
309
  0
LINE
  8
0
 10
204.5
 20
309
 11
204.406
 21
309.003
  0
LINE
  8
0
 10
208.5
 20
277
 11
208.5
 21
293
  0
LINE
  8
0
 10
208.5
 20
293
 11
211.5
 21
293
  0
LINE
  8
0
 10
211.5
 20
293
 11
211.5
 21
277
  0
LINE
  8
0
 10
211.5
 20
277
 11
208.5
 21
277
  0
LINE
  8
0
 10
193
 20
91
 11
192.686
 21
91.0099
  0
LINE
  8
0
 10
192.686
 20
91.0099
 11
192.373
 21
91.0394
  0
LINE
  8
0
 10
192.373
 20
91.0394
 11
192.063
 21
91.0886
  0
LINE
  8
0
 10
192.063
 20
91.0886
 11
191.757
 21
91.1571
  0
LINE
  8
0
 10
191.757
 20
91.1571
 11
191.455
 21
91.2447
  0
LINE
  8
0
 10
191.455
 20
91.2447
 11
191.159
 21
91.3511
  0
LINE
  8
0
 10
191.159
 20
91.3511
 11
190.871
 21
91.4759
  0
LINE
  8
0
 10
190.871
 20
91.4759
 11
190.591
 21
91.6185
  0
LINE
  8
0
 10
190.591
 20
91.6185
 11
190.321
 21
91.7784
  0
LINE
  8
0
 10
190.321
 20
91.7784
 11
190.061
 21
91.9549
  0
LINE
  8
0
 10
190.061
 20
91.9549
 11
189.813
 21
92.1474
  0
LINE
  8
0
 10
189.813
 20
92.1474
 11
189.577
 21
92.3552
  0
LINE
  8
0
 10
189.577
 20
92.3552
 11
189.355
 21
92.5773
  0
LINE
  8
0
 10
189.355
 20
92.5773
 11
189.147
 21
92.8129
  0
LINE
  8
0
 10
189.147
 20
92.8129
 11
188.955
 21
93.0611
  0
LINE
  8
0
 10
188.955
 20
93.0611
 11
188.778
 21
93.3209
  0
LINE
  8
0
 10
188.778
 20
93.3209
 11
188.618
 21
93.5912
  0
LINE
  8
0
 10
188.618
 20
93.5912
 11
188.476
 21
93.8711
  0
LINE
  8
0
 10
188.476
 20
93.8711
 11
188.351
 21
94.1594
  0
LINE
  8
0
 10
188.351
 20
94.1594
 11
188.245
 21
94.4549
  0
LINE
  8
0
 10
188.245
 20
94.4549
 11
188.157
 21
94.7566
  0
LINE
  8
0
 10
188.157
 20
94.7566
 11
188.089
 21
95.0631
  0
LINE
  8
0
 10
188.089
 20
95.0631
 11
188.039
 21
95.3733
  0
LINE
  8
0
 10
188.039
 20
95.3733
 11
188.01
 21
95.6861
  0
LINE
  8
0
 10
188.01
 20
95.6861
 11
188
 21
96
  0
LINE
  8
0
 10
188
 20
96
 11
188
 21
278
  0
LINE
  8
0
 10
188
 20
278
 11
188.01
 21
278.314
  0
LINE
  8
0
 10
188.01
 20
278.314
 11
188.039
 21
278.627
  0
LINE
  8
0
 10
188.039
 20
278.627
 11
188.089
 21
278.937
  0
LINE
  8
0
 10
188.089
 20
278.937
 11
188.157
 21
279.243
  0
LINE
  8
0
 10
188.157
 20
279.243
 11
188.245
 21
279.545
  0
LINE
  8
0
 10
188.245
 20
279.545
 11
188.351
 21
279.841
  0
LINE
  8
0
 10
188.351
 20
279.841
 11
188.476
 21
280.129
  0
LINE
  8
0
 10
188.476
 20
280.129
 11
188.618
 21
280.409
  0
LINE
  8
0
 10
188.618
 20
280.409
 11
188.778
 21
280.679
  0
LINE
  8
0
 10
188.778
 20
280.679
 11
188.955
 21
280.939
  0
LINE
  8
0
 10
188.955
 20
280.939
 11
189.147
 21
281.187
  0
LINE
  8
0
 10
189.147
 20
281.187
 11
189.355
 21
281.423
  0
LINE
  8
0
 10
189.355
 20
281.423
 11
189.577
 21
281.645
  0
LINE
  8
0
 10
189.577
 20
281.645
 11
189.813
 21
281.853
  0
LINE
  8
0
 10
189.813
 20
281.853
 11
190.061
 21
282.045
  0
LINE
  8
0
 10
190.061
 20
282.045
 11
190.321
 21
282.222
  0
LINE
  8
0
 10
190.321
 20
282.222
 11
190.591
 21
282.382
  0
LINE
  8
0
 10
190.591
 20
282.382
 11
190.871
 21
282.524
  0
LINE
  8
0
 10
190.871
 20
282.524
 11
191.159
 21
282.649
  0
LINE
  8
0
 10
191.159
 20
282.649
 11
191.455
 21
282.755
  0
LINE
  8
0
 10
191.455
 20
282.755
 11
191.757
 21
282.843
  0
LINE
  8
0
 10
191.757
 20
282.843
 11
192.063
 21
282.911
  0
LINE
  8
0
 10
192.063
 20
282.911
 11
192.373
 21
282.961
  0
LINE
  8
0
 10
192.373
 20
282.961
 11
192.686
 21
282.99
  0
LINE
  8
0
 10
192.686
 20
282.99
 11
193
 21
283
  0
LINE
  8
0
 10
193
 20
283
 11
195
 21
283
  0
LINE
  8
0
 10
195
 20
283
 11
195.314
 21
282.99
  0
LINE
  8
0
 10
195.314
 20
282.99
 11
195.627
 21
282.961
  0
LINE
  8
0
 10
195.627
 20
282.961
 11
195.937
 21
282.911
  0
LINE
  8
0
 10
195.937
 20
282.911
 11
196.243
 21
282.843
  0
LINE
  8
0
 10
196.243
 20
282.843
 11
196.545
 21
282.755
  0
LINE
  8
0
 10
196.545
 20
282.755
 11
196.841
 21
282.649
  0
LINE
  8
0
 10
196.841
 20
282.649
 11
197.129
 21
282.524
  0
LINE
  8
0
 10
197.129
 20
282.524
 11
197.409
 21
282.382
  0
LINE
  8
0
 10
197.409
 20
282.382
 11
197.679
 21
282.222
  0
LINE
  8
0
 10
197.679
 20
282.222
 11
197.939
 21
282.045
  0
LINE
  8
0
 10
197.939
 20
282.045
 11
198.187
 21
281.853
  0
LINE
  8
0
 10
198.187
 20
281.853
 11
198.423
 21
281.645
  0
LINE
  8
0
 10
198.423
 20
281.645
 11
198.645
 21
281.423
  0
LINE
  8
0
 10
198.645
 20
281.423
 11
198.853
 21
281.187
  0
LINE
  8
0
 10
198.853
 20
281.187
 11
199.045
 21
280.939
  0
LINE
  8
0
 10
199.045
 20
280.939
 11
199.222
 21
280.679
  0
LINE
  8
0
 10
199.222
 20
280.679
 11
199.382
 21
280.409
  0
LINE
  8
0
 10
199.382
 20
280.409
 11
199.524
 21
280.129
  0
LINE
  8
0
 10
199.524
 20
280.129
 11
199.649
 21
279.841
  0
LINE
  8
0
 10
199.649
 20
279.841
 11
199.755
 21
279.545
  0
LINE
  8
0
 10
199.755
 20
279.545
 11
199.843
 21
279.243
  0
LINE
  8
0
 10
199.843
 20
279.243
 11
199.911
 21
278.937
  0
LINE
  8
0
 10
199.911
 20
278.937
 11
199.961
 21
278.627
  0
LINE
  8
0
 10
199.961
 20
278.627
 11
199.99
 21
278.314
  0
LINE
  8
0
 10
199.99
 20
278.314
 11
200
 21
278
  0
LINE
  8
0
 10
200
 20
278
 11
200
 21
96
  0
LINE
  8
0
 10
200
 20
96
 11
199.99
 21
95.6861
  0
LINE
  8
0
 10
199.99
 20
95.6861
 11
199.961
 21
95.3733
  0
LINE
  8
0
 10
199.961
 20
95.3733
 11
199.911
 21
95.0631
  0
LINE
  8
0
 10
199.911
 20
95.0631
 11
199.843
 21
94.7566
  0
LINE
  8
0
 10
199.843
 20
94.7566
 11
199.755
 21
94.4549
  0
LINE
  8
0
 10
199.755
 20
94.4549
 11
199.649
 21
94.1594
  0
LINE
  8
0
 10
199.649
 20
94.1594
 11
199.524
 21
93.8711
  0
LINE
  8
0
 10
199.524
 20
93.8711
 11
199.382
 21
93.5912
  0
LINE
  8
0
 10
199.382
 20
93.5912
 11
199.222
 21
93.3209
  0
LINE
  8
0
 10
199.222
 20
93.3209
 11
199.045
 21
93.0611
  0
LINE
  8
0
 10
199.045
 20
93.0611
 11
198.853
 21
92.8129
  0
LINE
  8
0
 10
198.853
 20
92.8129
 11
198.645
 21
92.5773
  0
LINE
  8
0
 10
198.645
 20
92.5773
 11
198.423
 21
92.3552
  0
LINE
  8
0
 10
198.423
 20
92.3552
 11
198.187
 21
92.1474
  0
LINE
  8
0
 10
198.187
 20
92.1474
 11
197.939
 21
91.9549
  0
LINE
  8
0
 10
197.939
 20
91.9549
 11
197.679
 21
91.7784
  0
LINE
  8
0
 10
197.679
 20
91.7784
 11
197.409
 21
91.6185
  0
LINE
  8
0
 10
197.409
 20
91.6185
 11
197.129
 21
91.4759
  0
LINE
  8
0
 10
197.129
 20
91.4759
 11
196.841
 21
91.3511
  0
LINE
  8
0
 10
196.841
 20
91.3511
 11
196.545
 21
91.2447
  0
LINE
  8
0
 10
196.545
 20
91.2447
 11
196.243
 21
91.1571
  0
LINE
  8
0
 10
196.243
 20
91.1571
 11
195.937
 21
91.0886
  0
LINE
  8
0
 10
195.937
 20
91.0886
 11
195.627
 21
91.0394
  0
LINE
  8
0
 10
195.627
 20
91.0394
 11
195.314
 21
91.0099
  0
LINE
  8
0
 10
195.314
 20
91.0099
 11
195
 21
91
  0
LINE
  8
0
 10
195
 20
91
 11
193
 21
91
  0
LINE
  8
0
 10
208.5
 20
172
 11
208.5
 21
202
  0
LINE
  8
0
 10
208.5
 20
202
 11
211.5
 21
202
  0
LINE
  8
0
 10
211.5
 20
202
 11
211.5
 21
172
  0
LINE
  8
0
 10
211.5
 20
172
 11
208.5
 21
172
  0
LINE
  8
0
 10
208.5
 20
81
 11
208.5
 21
97
  0
LINE
  8
0
 10
208.5
 20
97
 11
211.5
 21
97
  0
LINE
  8
0
 10
211.5
 20
97
 11
211.5
 21
81
  0
LINE
  8
0
 10
211.5
 20
81
 11
208.5
 21
81
  0
LINE
  8
0
 10
188.843
 20
55.5049
 11
188.687
 21
55.5197
  0
LINE
  8
0
 10
188.687
 20
55.5197
 11
188.532
 21
55.5443
  0
LINE
  8
0
 10
188.532
 20
55.5443
 11
188.378
 21
55.5786
  0
LINE
  8
0
 10
188.378
 20
55.5786
 11
188.227
 21
55.6224
  0
LINE
  8
0
 10
188.227
 20
55.6224
 11
188.08
 21
55.6756
  0
LINE
  8
0
 10
188.08
 20
55.6756
 11
187.936
 21
55.7379
  0
LINE
  8
0
 10
187.936
 20
55.7379
 11
187.796
 21
55.8092
  0
LINE
  8
0
 10
187.796
 20
55.8092
 11
187.66
 21
55.8892
  0
LINE
  8
0
 10
187.66
 20
55.8892
 11
187.531
 21
55.9775
  0
LINE
  8
0
 10
187.531
 20
55.9775
 11
187.406
 21
56.0737
  0
LINE
  8
0
 10
187.406
 20
56.0737
 11
187.289
 21
56.1776
  0
LINE
  8
0
 10
187.289
 20
56.1776
 11
187.178
 21
56.2886
  0
LINE
  8
0
 10
187.178
 20
56.2886
 11
187.074
 21
56.4064
  0
LINE
  8
0
 10
187.074
 20
56.4064
 11
186.977
 21
56.5305
  0
LINE
  8
0
 10
186.977
 20
56.5305
 11
186.889
 21
56.6604
  0
LINE
  8
0
 10
186.889
 20
56.6604
 11
186.809
 21
56.7956
  0
LINE
  8
0
 10
186.809
 20
56.7956
 11
186.738
 21
56.9356
  0
LINE
  8
0
 10
186.738
 20
56.9356
 11
186.676
 21
57.0797
  0
LINE
  8
0
 10
186.676
 20
57.0797
 11
186.622
 21
57.2275
  0
LINE
  8
0
 10
186.622
 20
57.2275
 11
186.579
 21
57.3783
  0
LINE
  8
0
 10
186.579
 20
57.3783
 11
186.544
 21
57.5316
  0
LINE
  8
0
 10
186.544
 20
57.5316
 11
186.52
 21
57.6867
  0
LINE
  8
0
 10
186.52
 20
57.6867
 11
186.505
 21
57.843
  0
LINE
  8
0
 10
186.505
 20
57.843
 11
186.5
 21
58
  0
LINE
  8
0
 10
186.5
 20
58
 11
186.505
 21
58.157
  0
LINE
  8
0
 10
186.505
 20
58.157
 11
186.52
 21
58.3133
  0
LINE
  8
0
 10
186.52
 20
58.3133
 11
186.544
 21
58.4685
  0
LINE
  8
0
 10
186.544
 20
58.4685
 11
186.579
 21
58.6217
  0
LINE
  8
0
 10
186.579
 20
58.6217
 11
186.622
 21
58.7726
  0
LINE
  8
0
 10
186.622
 20
58.7726
 11
186.676
 21
58.9203
  0
LINE
  8
0
 10
186.676
 20
58.9203
 11
186.738
 21
59.0645
  0
LINE
  8
0
 10
186.738
 20
59.0645
 11
186.809
 21
59.2044
  0
LINE
  8
0
 10
186.809
 20
59.2044
 11
186.889
 21
59.3396
  0
LINE
  8
0
 10
186.889
 20
59.3396
 11
186.977
 21
59.4695
  0
LINE
  8
0
 10
186.977
 20
59.4695
 11
187.074
 21
59.5936
  0
LINE
  8
0
 10
187.074
 20
59.5936
 11
187.178
 21
59.7114
  0
LINE
  8
0
 10
187.178
 20
59.7114
 11
187.289
 21
59.8224
  0
LINE
  8
0
 10
187.289
 20
59.8224
 11
187.406
 21
59.9263
  0
LINE
  8
0
 10
187.406
 20
59.9263
 11
187.531
 21
60.0226
  0
LINE
  8
0
 10
187.531
 20
60.0226
 11
187.66
 21
60.1108
  0
LINE
  8
0
 10
187.66
 20
60.1108
 11
187.796
 21
60.1908
  0
LINE
  8
0
 10
187.796
 20
60.1908
 11
187.936
 21
60.2621
  0
LINE
  8
0
 10
187.936
 20
60.2621
 11
188.08
 21
60.3244
  0
LINE
  8
0
 10
188.08
 20
60.3244
 11
188.227
 21
60.3777
  0
LINE
  8
0
 10
188.227
 20
60.3777
 11
188.378
 21
60.4215
  0
LINE
  8
0
 10
188.378
 20
60.4215
 11
188.532
 21
60.4557
  0
LINE
  8
0
 10
188.532
 20
60.4557
 11
188.687
 21
60.4803
  0
LINE
  8
0
 10
188.687
 20
60.4803
 11
188.843
 21
60.4951
  0
LINE
  8
0
 10
188.843
 20
60.4951
 11
189
 21
60.5
  0
LINE
  8
0
 10
189
 20
60.5
 11
189.157
 21
60.4951
  0
LINE
  8
0
 10
189.157
 20
60.4951
 11
189.313
 21
60.4803
  0
LINE
  8
0
 10
189.313
 20
60.4803
 11
189.468
 21
60.4557
  0
LINE
  8
0
 10
189.468
 20
60.4557
 11
189.622
 21
60.4215
  0
LINE
  8
0
 10
189.622
 20
60.4215
 11
189.773
 21
60.3777
  0
LINE
  8
0
 10
189.773
 20
60.3777
 11
189.92
 21
60.3244
  0
LINE
  8
0
 10
189.92
 20
60.3244
 11
190.064
 21
60.2621
  0
LINE
  8
0
 10
190.064
 20
60.2621
 11
190.204
 21
60.1908
  0
LINE
  8
0
 10
190.204
 20
60.1908
 11
190.34
 21
60.1108
  0
LINE
  8
0
 10
190.34
 20
60.1108
 11
190.469
 21
60.0226
  0
LINE
  8
0
 10
190.469
 20
60.0226
 11
190.594
 21
59.9263
  0
LINE
  8
0
 10
190.594
 20
59.9263
 11
190.711
 21
59.8224
  0
LINE
  8
0
 10
190.711
 20
59.8224
 11
190.822
 21
59.7114
  0
LINE
  8
0
 10
190.822
 20
59.7114
 11
190.926
 21
59.5936
  0
LINE
  8
0
 10
190.926
 20
59.5936
 11
191.023
 21
59.4695
  0
LINE
  8
0
 10
191.023
 20
59.4695
 11
191.111
 21
59.3396
  0
LINE
  8
0
 10
191.111
 20
59.3396
 11
191.191
 21
59.2044
  0
LINE
  8
0
 10
191.191
 20
59.2044
 11
191.262
 21
59.0645
  0
LINE
  8
0
 10
191.262
 20
59.0645
 11
191.324
 21
58.9203
  0
LINE
  8
0
 10
191.324
 20
58.9203
 11
191.378
 21
58.7726
  0
LINE
  8
0
 10
191.378
 20
58.7726
 11
191.421
 21
58.6217
  0
LINE
  8
0
 10
191.421
 20
58.6217
 11
191.456
 21
58.4685
  0
LINE
  8
0
 10
191.456
 20
58.4685
 11
191.48
 21
58.3133
  0
LINE
  8
0
 10
191.48
 20
58.3133
 11
191.495
 21
58.157
  0
LINE
  8
0
 10
191.495
 20
58.157
 11
191.5
 21
58
  0
LINE
  8
0
 10
191.5
 20
58
 11
191.495
 21
57.843
  0
LINE
  8
0
 10
191.495
 20
57.843
 11
191.48
 21
57.6867
  0
LINE
  8
0
 10
191.48
 20
57.6867
 11
191.456
 21
57.5316
  0
LINE
  8
0
 10
191.456
 20
57.5316
 11
191.421
 21
57.3783
  0
LINE
  8
0
 10
191.421
 20
57.3783
 11
191.378
 21
57.2275
  0
LINE
  8
0
 10
191.378
 20
57.2275
 11
191.324
 21
57.0797
  0
LINE
  8
0
 10
191.324
 20
57.0797
 11
191.262
 21
56.9356
  0
LINE
  8
0
 10
191.262
 20
56.9356
 11
191.191
 21
56.7956
  0
LINE
  8
0
 10
191.191
 20
56.7956
 11
191.111
 21
56.6604
  0
LINE
  8
0
 10
191.111
 20
56.6604
 11
191.023
 21
56.5305
  0
LINE
  8
0
 10
191.023
 20
56.5305
 11
190.926
 21
56.4064
  0
LINE
  8
0
 10
190.926
 20
56.4064
 11
190.822
 21
56.2886
  0
LINE
  8
0
 10
190.822
 20
56.2886
 11
190.711
 21
56.1776
  0
LINE
  8
0
 10
190.711
 20
56.1776
 11
190.594
 21
56.0737
  0
LINE
  8
0
 10
190.594
 20
56.0737
 11
190.469
 21
55.9775
  0
LINE
  8
0
 10
190.469
 20
55.9775
 11
190.34
 21
55.8892
  0
LINE
  8
0
 10
190.34
 20
55.8892
 11
190.204
 21
55.8092
  0
LINE
  8
0
 10
190.204
 20
55.8092
 11
190.064
 21
55.7379
  0
LINE
  8
0
 10
190.064
 20
55.7379
 11
189.92
 21
55.6756
  0
LINE
  8
0
 10
189.92
 20
55.6756
 11
189.773
 21
55.6224
  0
LINE
  8
0
 10
189.773
 20
55.6224
 11
189.622
 21
55.5786
  0
LINE
  8
0
 10
189.622
 20
55.5786
 11
189.468
 21
55.5443
  0
LINE
  8
0
 10
189.468
 20
55.5443
 11
189.313
 21
55.5197
  0
LINE
  8
0
 10
189.313
 20
55.5197
 11
189.157
 21
55.5049
  0
LINE
  8
0
 10
189.157
 20
55.5049
 11
189
 21
55.5
  0
LINE
  8
0
 10
189
 20
55.5
 11
188.843
 21
55.5049
  0
LINE
  8
0
 10
132.628
 20
155.02
 11
133.253
 21
155.079
  0
LINE
  8
0
 10
133.253
 20
155.079
 11
133.874
 21
155.177
  0
LINE
  8
0
 10
133.874
 20
155.177
 11
134.487
 21
155.314
  0
LINE
  8
0
 10
134.487
 20
155.314
 11
135.09
 21
155.489
  0
LINE
  8
0
 10
135.09
 20
155.489
 11
135.681
 21
155.702
  0
LINE
  8
0
 10
135.681
 20
155.702
 11
136.258
 21
155.952
  0
LINE
  8
0
 10
136.258
 20
155.952
 11
136.818
 21
156.237
  0
LINE
  8
0
 10
136.818
 20
156.237
 11
137.358
 21
156.557
  0
LINE
  8
0
 10
137.358
 20
156.557
 11
137.878
 21
156.91
  0
LINE
  8
0
 10
137.878
 20
156.91
 11
138.374
 21
157.295
  0
LINE
  8
0
 10
138.374
 20
157.295
 11
138.845
 21
157.71
  0
LINE
  8
0
 10
138.845
 20
157.71
 11
139.29
 21
158.155
  0
LINE
  8
0
 10
139.29
 20
158.155
 11
139.705
 21
158.626
  0
LINE
  8
0
 10
139.705
 20
158.626
 11
140.09
 21
159.122
  0
LINE
  8
0
 10
140.09
 20
159.122
 11
140.443
 21
159.642
  0
LINE
  8
0
 10
140.443
 20
159.642
 11
140.763
 21
160.182
  0
LINE
  8
0
 10
140.763
 20
160.182
 11
141.048
 21
160.742
  0
LINE
  8
0
 10
141.048
 20
160.742
 11
141.298
 21
161.319
  0
LINE
  8
0
 10
141.298
 20
161.319
 11
141.511
 21
161.91
  0
LINE
  8
0
 10
141.511
 20
161.91
 11
141.686
 21
162.513
  0
LINE
  8
0
 10
141.686
 20
162.513
 11
141.823
 21
163.126
  0
LINE
  8
0
 10
141.823
 20
163.126
 11
141.921
 21
163.747
  0
LINE
  8
0
 10
141.921
 20
163.747
 11
141.98
 21
164.372
  0
LINE
  8
0
 10
141.98
 20
164.372
 11
142
 21
165
  0
LINE
  8
0
 10
142
 20
165
 11
142
 21
185
  0
LINE
  8
0
 10
142
 20
185
 11
145
 21
185
  0
LINE
  8
0
 10
145
 20
185
 11
145.188
 21
185.006
  0
LINE
  8
0
 10
145.188
 20
185.006
 11
145.376
 21
185.024
  0
LINE
  8
0
 10
145.376
 20
185.024
 11
145.562
 21
185.053
  0
LINE
  8
0
 10
145.562
 20
185.053
 11
145.746
 21
185.094
  0
LINE
  8
0
 10
145.746
 20
185.094
 11
145.927
 21
185.147
  0
LINE
  8
0
 10
145.927
 20
185.147
 11
146.104
 21
185.211
  0
LINE
  8
0
 10
146.104
 20
185.211
 11
146.277
 21
185.286
  0
LINE
  8
0
 10
146.277
 20
185.286
 11
146.445
 21
185.371
  0
LINE
  8
0
 10
146.445
 20
185.371
 11
146.607
 21
185.467
  0
LINE
  8
0
 10
146.607
 20
185.467
 11
146.763
 21
185.573
  0
LINE
  8
0
 10
146.763
 20
185.573
 11
146.912
 21
185.688
  0
LINE
  8
0
 10
146.912
 20
185.688
 11
147.054
 21
185.813
  0
LINE
  8
0
 10
147.054
 20
185.813
 11
147.187
 21
185.946
  0
LINE
  8
0
 10
147.187
 20
185.946
 11
147.312
 21
186.088
  0
LINE
  8
0
 10
147.312
 20
186.088
 11
147.427
 21
186.237
  0
LINE
  8
0
 10
147.427
 20
186.237
 11
147.533
 21
186.393
  0
LINE
  8
0
 10
147.533
 20
186.393
 11
147.629
 21
186.555
  0
LINE
  8
0
 10
147.629
 20
186.555
 11
147.714
 21
186.723
  0
LINE
  8
0
 10
147.714
 20
186.723
 11
147.789
 21
186.896
  0
LINE
  8
0
 10
147.789
 20
186.896
 11
147.853
 21
187.073
  0
LINE
  8
0
 10
147.853
 20
187.073
 11
147.906
 21
187.254
  0
LINE
  8
0
 10
147.906
 20
187.254
 11
147.947
 21
187.438
  0
LINE
  8
0
 10
147.947
 20
187.438
 11
147.976
 21
187.624
  0
LINE
  8
0
 10
147.976
 20
187.624
 11
147.994
 21
187.812
  0
LINE
  8
0
 10
147.994
 20
187.812
 11
148
 21
188
  0
LINE
  8
0
 10
148
 20
188
 11
148
 21
212
  0
LINE
  8
0
 10
148
 20
212
 11
147.994
 21
212.188
  0
LINE
  8
0
 10
147.994
 20
212.188
 11
147.976
 21
212.376
  0
LINE
  8
0
 10
147.976
 20
212.376
 11
147.947
 21
212.562
  0
LINE
  8
0
 10
147.947
 20
212.562
 11
147.906
 21
212.746
  0
LINE
  8
0
 10
147.906
 20
212.746
 11
147.853
 21
212.927
  0
LINE
  8
0
 10
147.853
 20
212.927
 11
147.789
 21
213.104
  0
LINE
  8
0
 10
147.789
 20
213.104
 11
147.714
 21
213.277
  0
LINE
  8
0
 10
147.714
 20
213.277
 11
147.629
 21
213.445
  0
LINE
  8
0
 10
147.629
 20
213.445
 11
147.533
 21
213.607
  0
LINE
  8
0
 10
147.533
 20
213.607
 11
147.427
 21
213.763
  0
LINE
  8
0
 10
147.427
 20
213.763
 11
147.312
 21
213.912
  0
LINE
  8
0
 10
147.312
 20
213.912
 11
147.187
 21
214.054
  0
LINE
  8
0
 10
147.187
 20
214.054
 11
147.054
 21
214.187
  0
LINE
  8
0
 10
147.054
 20
214.187
 11
146.912
 21
214.312
  0
LINE
  8
0
 10
146.912
 20
214.312
 11
146.763
 21
214.427
  0
LINE
  8
0
 10
146.763
 20
214.427
 11
146.607
 21
214.533
  0
LINE
  8
0
 10
146.607
 20
214.533
 11
146.445
 21
214.629
  0
LINE
  8
0
 10
146.445
 20
214.629
 11
146.277
 21
214.714
  0
LINE
  8
0
 10
146.277
 20
214.714
 11
146.104
 21
214.789
  0
LINE
  8
0
 10
146.104
 20
214.789
 11
145.927
 21
214.853
  0
LINE
  8
0
 10
145.927
 20
214.853
 11
145.746
 21
214.906
  0
LINE
  8
0
 10
145.746
 20
214.906
 11
145.562
 21
214.947
  0
LINE
  8
0
 10
145.562
 20
214.947
 11
145.376
 21
214.976
  0
LINE
  8
0
 10
145.376
 20
214.976
 11
145.188
 21
214.994
  0
LINE
  8
0
 10
145.188
 20
214.994
 11
145
 21
215
  0
LINE
  8
0
 10
145
 20
215
 11
142
 21
215
  0
LINE
  8
0
 10
142
 20
215
 11
142
 21
255
  0
LINE
  8
0
 10
142
 20
255
 11
145
 21
255
  0
LINE
  8
0
 10
145
 20
255
 11
145.188
 21
255.006
  0
LINE
  8
0
 10
145.188
 20
255.006
 11
145.376
 21
255.024
  0
LINE
  8
0
 10
145.376
 20
255.024
 11
145.562
 21
255.053
  0
LINE
  8
0
 10
145.562
 20
255.053
 11
145.746
 21
255.094
  0
LINE
  8
0
 10
145.746
 20
255.094
 11
145.927
 21
255.147
  0
LINE
  8
0
 10
145.927
 20
255.147
 11
146.104
 21
255.211
  0
LINE
  8
0
 10
146.104
 20
255.211
 11
146.277
 21
255.286
  0
LINE
  8
0
 10
146.277
 20
255.286
 11
146.445
 21
255.371
  0
LINE
  8
0
 10
146.445
 20
255.371
 11
146.607
 21
255.467
  0
LINE
  8
0
 10
146.607
 20
255.467
 11
146.763
 21
255.573
  0
LINE
  8
0
 10
146.763
 20
255.573
 11
146.912
 21
255.688
  0
LINE
  8
0
 10
146.912
 20
255.688
 11
147.054
 21
255.813
  0
LINE
  8
0
 10
147.054
 20
255.813
 11
147.187
 21
255.946
  0
LINE
  8
0
 10
147.187
 20
255.946
 11
147.312
 21
256.088
  0
LINE
  8
0
 10
147.312
 20
256.088
 11
147.427
 21
256.237
  0
LINE
  8
0
 10
147.427
 20
256.237
 11
147.533
 21
256.393
  0
LINE
  8
0
 10
147.533
 20
256.393
 11
147.629
 21
256.555
  0
LINE
  8
0
 10
147.629
 20
256.555
 11
147.714
 21
256.723
  0
LINE
  8
0
 10
147.714
 20
256.723
 11
147.789
 21
256.896
  0
LINE
  8
0
 10
147.789
 20
256.896
 11
147.853
 21
257.073
  0
LINE
  8
0
 10
147.853
 20
257.073
 11
147.906
 21
257.254
  0
LINE
  8
0
 10
147.906
 20
257.254
 11
147.947
 21
257.438
  0
LINE
  8
0
 10
147.947
 20
257.438
 11
147.976
 21
257.624
  0
LINE
  8
0
 10
147.976
 20
257.624
 11
147.994
 21
257.812
  0
LINE
  8
0
 10
147.994
 20
257.812
 11
148
 21
258
  0
LINE
  8
0
 10
148
 20
258
 11
148
 21
292
  0
LINE
  8
0
 10
148
 20
292
 11
147.994
 21
292.188
  0
LINE
  8
0
 10
147.994
 20
292.188
 11
147.976
 21
292.376
  0
LINE
  8
0
 10
147.976
 20
292.376
 11
147.947
 21
292.562
  0
LINE
  8
0
 10
147.947
 20
292.562
 11
147.906
 21
292.746
  0
LINE
  8
0
 10
147.906
 20
292.746
 11
147.853
 21
292.927
  0
LINE
  8
0
 10
147.853
 20
292.927
 11
147.789
 21
293.104
  0
LINE
  8
0
 10
147.789
 20
293.104
 11
147.714
 21
293.277
  0
LINE
  8
0
 10
147.714
 20
293.277
 11
147.629
 21
293.445
  0
LINE
  8
0
 10
147.629
 20
293.445
 11
147.533
 21
293.607
  0
LINE
  8
0
 10
147.533
 20
293.607
 11
147.427
 21
293.763
  0
LINE
  8
0
 10
147.427
 20
293.763
 11
147.312
 21
293.912
  0
LINE
  8
0
 10
147.312
 20
293.912
 11
147.187
 21
294.054
  0
LINE
  8
0
 10
147.187
 20
294.054
 11
147.054
 21
294.187
  0
LINE
  8
0
 10
147.054
 20
294.187
 11
146.912
 21
294.312
  0
LINE
  8
0
 10
146.912
 20
294.312
 11
146.763
 21
294.427
  0
LINE
  8
0
 10
146.763
 20
294.427
 11
146.607
 21
294.533
  0
LINE
  8
0
 10
146.607
 20
294.533
 11
146.445
 21
294.629
  0
LINE
  8
0
 10
146.445
 20
294.629
 11
146.277
 21
294.714
  0
LINE
  8
0
 10
146.277
 20
294.714
 11
146.104
 21
294.789
  0
LINE
  8
0
 10
146.104
 20
294.789
 11
145.927
 21
294.853
  0
LINE
  8
0
 10
145.927
 20
294.853
 11
145.746
 21
294.906
  0
LINE
  8
0
 10
145.746
 20
294.906
 11
145.562
 21
294.947
  0
LINE
  8
0
 10
145.562
 20
294.947
 11
145.376
 21
294.976
  0
LINE
  8
0
 10
145.376
 20
294.976
 11
145.188
 21
294.994
  0
LINE
  8
0
 10
145.188
 20
294.994
 11
145
 21
295
  0
LINE
  8
0
 10
145
 20
295
 11
142
 21
295
  0
LINE
  8
0
 10
142
 20
295
 11
142
 21
305
  0
LINE
  8
0
 10
142
 20
305
 11
141.98
 21
305.628
  0
LINE
  8
0
 10
141.98
 20
305.628
 11
141.921
 21
306.253
  0
LINE
  8
0
 10
141.921
 20
306.253
 11
141.823
 21
306.874
  0
LINE
  8
0
 10
141.823
 20
306.874
 11
141.686
 21
307.487
  0
LINE
  8
0
 10
141.686
 20
307.487
 11
141.511
 21
308.09
  0
LINE
  8
0
 10
141.511
 20
308.09
 11
141.298
 21
308.681
  0
LINE
  8
0
 10
141.298
 20
308.681
 11
141.048
 21
309.258
  0
LINE
  8
0
 10
141.048
 20
309.258
 11
140.763
 21
309.818
  0
LINE
  8
0
 10
140.763
 20
309.818
 11
140.443
 21
310.358
  0
LINE
  8
0
 10
140.443
 20
310.358
 11
140.09
 21
310.878
  0
LINE
  8
0
 10
140.09
 20
310.878
 11
139.705
 21
311.374
  0
LINE
  8
0
 10
139.705
 20
311.374
 11
139.29
 21
311.845
  0
LINE
  8
0
 10
139.29
 20
311.845
 11
138.845
 21
312.29
  0
LINE
  8
0
 10
138.845
 20
312.29
 11
138.374
 21
312.705
  0
LINE
  8
0
 10
138.374
 20
312.705
 11
137.878
 21
313.09
  0
LINE
  8
0
 10
137.878
 20
313.09
 11
137.358
 21
313.443
  0
LINE
  8
0
 10
137.358
 20
313.443
 11
136.818
 21
313.763
  0
LINE
  8
0
 10
136.818
 20
313.763
 11
136.258
 21
314.048
  0
LINE
  8
0
 10
136.258
 20
314.048
 11
135.681
 21
314.298
  0
LINE
  8
0
 10
135.681
 20
314.298
 11
135.09
 21
314.511
  0
LINE
  8
0
 10
135.09
 20
314.511
 11
134.487
 21
314.686
  0
LINE
  8
0
 10
134.487
 20
314.686
 11
133.874
 21
314.823
  0
LINE
  8
0
 10
133.874
 20
314.823
 11
133.253
 21
314.921
  0
LINE
  8
0
 10
133.253
 20
314.921
 11
132.628
 21
314.98
  0
LINE
  8
0
 10
132.628
 20
314.98
 11
132
 21
315
  0
LINE
  8
0
 10
132
 20
315
 11
-60
 21
315
  0
LINE
  8
0
 10
-60
 20
315
 11
-60.6279
 21
314.98
  0
LINE
  8
0
 10
-60.6279
 20
314.98
 11
-61.2533
 21
314.921
  0
LINE
  8
0
 10
-61.2533
 20
314.921
 11
-61.8738
 21
314.823
  0
LINE
  8
0
 10
-61.8738
 20
314.823
 11
-62.4869
 21
314.686
  0
LINE
  8
0
 10
-62.4869
 20
314.686
 11
-63.0902
 21
314.511
  0
LINE
  8
0
 10
-63.0902
 20
314.511
 11
-63.6812
 21
314.298
  0
LINE
  8
0
 10
-63.6812
 20
314.298
 11
-64.2578
 21
314.048
  0
LINE
  8
0
 10
-64.2578
 20
314.048
 11
-64.8175
 21
313.763
  0
LINE
  8
0
 10
-64.8175
 20
313.763
 11
-65.3583
 21
313.443
  0
LINE
  8
0
 10
-65.3583
 20
313.443
 11
-65.8778
 21
313.09
  0
LINE
  8
0
 10
-65.8778
 20
313.09
 11
-66.3742
 21
312.705
  0
LINE
  8
0
 10
-66.3742
 20
312.705
 11
-66.8455
 21
312.29
  0
LINE
  8
0
 10
-66.8455
 20
312.29
 11
-67.2897
 21
311.845
  0
LINE
  8
0
 10
-67.2897
 20
311.845
 11
-67.7051
 21
311.374
  0
LINE
  8
0
 10
-67.7051
 20
311.374
 11
-68.0902
 21
310.878
  0
LINE
  8
0
 10
-68.0902
 20
310.878
 11
-68.4433
 21
310.358
  0
LINE
  8
0
 10
-68.4433
 20
310.358
 11
-68.7631
 21
309.818
  0
LINE
  8
0
 10
-68.7631
 20
309.818
 11
-69.0483
 21
309.258
  0
LINE
  8
0
 10
-69.0483
 20
309.258
 11
-69.2978
 21
308.681
  0
LINE
  8
0
 10
-69.2978
 20
308.681
 11
-69.5106
 21
308.09
  0
LINE
  8
0
 10
-69.5106
 20
308.09
 11
-69.6858
 21
307.487
  0
LINE
  8
0
 10
-69.6858
 20
307.487
 11
-69.8229
 21
306.874
  0
LINE
  8
0
 10
-69.8229
 20
306.874
 11
-69.9211
 21
306.253
  0
LINE
  8
0
 10
-69.9211
 20
306.253
 11
-69.9803
 21
305.628
  0
LINE
  8
0
 10
-69.9803
 20
305.628
 11
-70
 21
305
  0
LINE
  8
0
 10
-70
 20
305
 11
-70
 21
295
  0
LINE
  8
0
 10
-70
 20
295
 11
-73
 21
295
  0
LINE
  8
0
 10
-73
 20
295
 11
-73.1884
 21
294.994
  0
LINE
  8
0
 10
-73.1884
 20
294.994
 11
-73.376
 21
294.976
  0
LINE
  8
0
 10
-73.376
 20
294.976
 11
-73.5621
 21
294.947
  0
LINE
  8
0
 10
-73.5621
 20
294.947
 11
-73.7461
 21
294.906
  0
LINE
  8
0
 10
-73.7461
 20
294.906
 11
-73.927
 21
294.853
  0
LINE
  8
0
 10
-73.927
 20
294.853
 11
-74.1044
 21
294.789
  0
LINE
  8
0
 10
-74.1044
 20
294.789
 11
-74.2773
 21
294.714
  0
LINE
  8
0
 10
-74.2773
 20
294.714
 11
-74.4453
 21
294.629
  0
LINE
  8
0
 10
-74.4453
 20
294.629
 11
-74.6075
 21
294.533
  0
LINE
  8
0
 10
-74.6075
 20
294.533
 11
-74.7634
 21
294.427
  0
LINE
  8
0
 10
-74.7634
 20
294.427
 11
-74.9123
 21
294.312
  0
LINE
  8
0
 10
-74.9123
 20
294.312
 11
-75.0536
 21
294.187
  0
LINE
  8
0
 10
-75.0536
 20
294.187
 11
-75.1869
 21
294.054
  0
LINE
  8
0
 10
-75.1869
 20
294.054
 11
-75.3115
 21
293.912
  0
LINE
  8
0
 10
-75.3115
 20
293.912
 11
-75.427
 21
293.763
  0
LINE
  8
0
 10
-75.427
 20
293.763
 11
-75.533
 21
293.607
  0
LINE
  8
0
 10
-75.533
 20
293.607
 11
-75.6289
 21
293.445
  0
LINE
  8
0
 10
-75.6289
 20
293.445
 11
-75.7145
 21
293.277
  0
LINE
  8
0
 10
-75.7145
 20
293.277
 11
-75.7893
 21
293.104
  0
LINE
  8
0
 10
-75.7893
 20
293.104
 11
-75.8532
 21
292.927
  0
LINE
  8
0
 10
-75.8532
 20
292.927
 11
-75.9057
 21
292.746
  0
LINE
  8
0
 10
-75.9057
 20
292.746
 11
-75.9469
 21
292.562
  0
LINE
  8
0
 10
-75.9469
 20
292.562
 11
-75.9763
 21
292.376
  0
LINE
  8
0
 10
-75.9763
 20
292.376
 11
-75.9941
 21
292.188
  0
LINE
  8
0
 10
-75.9941
 20
292.188
 11
-76
 21
292
  0
LINE
  8
0
 10
-76
 20
292
 11
-76
 21
258
  0
LINE
  8
0
 10
-76
 20
258
 11
-75.9941
 21
257.812
  0
LINE
  8
0
 10
-75.9941
 20
257.812
 11
-75.9763
 21
257.624
  0
LINE
  8
0
 10
-75.9763
 20
257.624
 11
-75.9469
 21
257.438
  0
LINE
  8
0
 10
-75.9469
 20
257.438
 11
-75.9057
 21
257.254
  0
LINE
  8
0
 10
-75.9057
 20
257.254
 11
-75.8532
 21
257.073
  0
LINE
  8
0
 10
-75.8532
 20
257.073
 11
-75.7893
 21
256.896
  0
LINE
  8
0
 10
-75.7893
 20
256.896
 11
-75.7145
 21
256.723
  0
LINE
  8
0
 10
-75.7145
 20
256.723
 11
-75.6289
 21
256.555
  0
LINE
  8
0
 10
-75.6289
 20
256.555
 11
-75.533
 21
256.393
  0
LINE
  8
0
 10
-75.533
 20
256.393
 11
-75.427
 21
256.237
  0
LINE
  8
0
 10
-75.427
 20
256.237
 11
-75.3115
 21
256.088
  0
LINE
  8
0
 10
-75.3115
 20
256.088
 11
-75.1869
 21
255.946
  0
LINE
  8
0
 10
-75.1869
 20
255.946
 11
-75.0536
 21
255.813
  0
LINE
  8
0
 10
-75.0536
 20
255.813
 11
-74.9123
 21
255.688
  0
LINE
  8
0
 10
-74.9123
 20
255.688
 11
-74.7634
 21
255.573
  0
LINE
  8
0
 10
-74.7634
 20
255.573
 11
-74.6075
 21
255.467
  0
LINE
  8
0
 10
-74.6075
 20
255.467
 11
-74.4453
 21
255.371
  0
LINE
  8
0
 10
-74.4453
 20
255.371
 11
-74.2773
 21
255.286
  0
LINE
  8
0
 10
-74.2773
 20
255.286
 11
-74.1044
 21
255.211
  0
LINE
  8
0
 10
-74.1044
 20
255.211
 11
-73.927
 21
255.147
  0
LINE
  8
0
 10
-73.927
 20
255.147
 11
-73.7461
 21
255.094
  0
LINE
  8
0
 10
-73.7461
 20
255.094
 11
-73.5621
 21
255.053
  0
LINE
  8
0
 10
-73.5621
 20
255.053
 11
-73.376
 21
255.024
  0
LINE
  8
0
 10
-73.376
 20
255.024
 11
-73.1884
 21
255.006
  0
LINE
  8
0
 10
-73.1884
 20
255.006
 11
-73
 21
255
  0
LINE
  8
0
 10
-73
 20
255
 11
-70
 21
255
  0
LINE
  8
0
 10
-70
 20
255
 11
-70
 21
215
  0
LINE
  8
0
 10
-70
 20
215
 11
-73
 21
215
  0
LINE
  8
0
 10
-73
 20
215
 11
-73.1884
 21
214.994
  0
LINE
  8
0
 10
-73.1884
 20
214.994
 11
-73.376
 21
214.976
  0
LINE
  8
0
 10
-73.376
 20
214.976
 11
-73.5621
 21
214.947
  0
LINE
  8
0
 10
-73.5621
 20
214.947
 11
-73.7461
 21
214.906
  0
LINE
  8
0
 10
-73.7461
 20
214.906
 11
-73.927
 21
214.853
  0
LINE
  8
0
 10
-73.927
 20
214.853
 11
-74.1044
 21
214.789
  0
LINE
  8
0
 10
-74.1044
 20
214.789
 11
-74.2773
 21
214.714
  0
LINE
  8
0
 10
-74.2773
 20
214.714
 11
-74.4453
 21
214.629
  0
LINE
  8
0
 10
-74.4453
 20
214.629
 11
-74.6075
 21
214.533
  0
LINE
  8
0
 10
-74.6075
 20
214.533
 11
-74.7634
 21
214.427
  0
LINE
  8
0
 10
-74.7634
 20
214.427
 11
-74.9123
 21
214.312
  0
LINE
  8
0
 10
-74.9123
 20
214.312
 11
-75.0536
 21
214.187
  0
LINE
  8
0
 10
-75.0536
 20
214.187
 11
-75.1869
 21
214.054
  0
LINE
  8
0
 10
-75.1869
 20
214.054
 11
-75.3115
 21
213.912
  0
LINE
  8
0
 10
-75.3115
 20
213.912
 11
-75.427
 21
213.763
  0
LINE
  8
0
 10
-75.427
 20
213.763
 11
-75.533
 21
213.607
  0
LINE
  8
0
 10
-75.533
 20
213.607
 11
-75.6289
 21
213.445
  0
LINE
  8
0
 10
-75.6289
 20
213.445
 11
-75.7145
 21
213.277
  0
LINE
  8
0
 10
-75.7145
 20
213.277
 11
-75.7893
 21
213.104
  0
LINE
  8
0
 10
-75.7893
 20
213.104
 11
-75.8532
 21
212.927
  0
LINE
  8
0
 10
-75.8532
 20
212.927
 11
-75.9057
 21
212.746
  0
LINE
  8
0
 10
-75.9057
 20
212.746
 11
-75.9469
 21
212.562
  0
LINE
  8
0
 10
-75.9469
 20
212.562
 11
-75.9763
 21
212.376
  0
LINE
  8
0
 10
-75.9763
 20
212.376
 11
-75.9941
 21
212.188
  0
LINE
  8
0
 10
-75.9941
 20
212.188
 11
-76
 21
212
  0
LINE
  8
0
 10
-76
 20
212
 11
-76
 21
188
  0
LINE
  8
0
 10
-76
 20
188
 11
-75.9941
 21
187.812
  0
LINE
  8
0
 10
-75.9941
 20
187.812
 11
-75.9763
 21
187.624
  0
LINE
  8
0
 10
-75.9763
 20
187.624
 11
-75.9469
 21
187.438
  0
LINE
  8
0
 10
-75.9469
 20
187.438
 11
-75.9057
 21
187.254
  0
LINE
  8
0
 10
-75.9057
 20
187.254
 11
-75.8532
 21
187.073
  0
LINE
  8
0
 10
-75.8532
 20
187.073
 11
-75.7893
 21
186.896
  0
LINE
  8
0
 10
-75.7893
 20
186.896
 11
-75.7145
 21
186.723
  0
LINE
  8
0
 10
-75.7145
 20
186.723
 11
-75.6289
 21
186.555
  0
LINE
  8
0
 10
-75.6289
 20
186.555
 11
-75.533
 21
186.393
  0
LINE
  8
0
 10
-75.533
 20
186.393
 11
-75.427
 21
186.237
  0
LINE
  8
0
 10
-75.427
 20
186.237
 11
-75.3115
 21
186.088
  0
LINE
  8
0
 10
-75.3115
 20
186.088
 11
-75.1869
 21
185.946
  0
LINE
  8
0
 10
-75.1869
 20
185.946
 11
-75.0536
 21
185.813
  0
LINE
  8
0
 10
-75.0536
 20
185.813
 11
-74.9123
 21
185.688
  0
LINE
  8
0
 10
-74.9123
 20
185.688
 11
-74.7634
 21
185.573
  0
LINE
  8
0
 10
-74.7634
 20
185.573
 11
-74.6075
 21
185.467
  0
LINE
  8
0
 10
-74.6075
 20
185.467
 11
-74.4453
 21
185.371
  0
LINE
  8
0
 10
-74.4453
 20
185.371
 11
-74.2773
 21
185.286
  0
LINE
  8
0
 10
-74.2773
 20
185.286
 11
-74.1044
 21
185.211
  0
LINE
  8
0
 10
-74.1044
 20
185.211
 11
-73.927
 21
185.147
  0
LINE
  8
0
 10
-73.927
 20
185.147
 11
-73.7461
 21
185.094
  0
LINE
  8
0
 10
-73.7461
 20
185.094
 11
-73.5621
 21
185.053
  0
LINE
  8
0
 10
-73.5621
 20
185.053
 11
-73.376
 21
185.024
  0
LINE
  8
0
 10
-73.376
 20
185.024
 11
-73.1884
 21
185.006
  0
LINE
  8
0
 10
-73.1884
 20
185.006
 11
-73
 21
185
  0
LINE
  8
0
 10
-73
 20
185
 11
-70
 21
185
  0
LINE
  8
0
 10
-70
 20
185
 11
-70
 21
165
  0
LINE
  8
0
 10
-70
 20
165
 11
-69.9802
 21
164.372
  0
LINE
  8
0
 10
-69.9802
 20
164.372
 11
-69.9211
 21
163.747
  0
LINE
  8
0
 10
-69.9211
 20
163.747
 11
-69.8228
 21
163.126
  0
LINE
  8
0
 10
-69.8228
 20
163.126
 11
-69.6858
 21
162.513
  0
LINE
  8
0
 10
-69.6858
 20
162.513
 11
-69.5105
 21
161.91
  0
LINE
  8
0
 10
-69.5105
 20
161.91
 11
-69.2977
 21
161.319
  0
LINE
  8
0
 10
-69.2977
 20
161.319
 11
-69.0482
 21
160.742
  0
LINE
  8
0
 10
-69.0482
 20
160.742
 11
-68.763
 21
160.182
  0
LINE
  8
0
 10
-68.763
 20
160.182
 11
-68.4433
 21
159.642
  0
LINE
  8
0
 10
-68.4433
 20
159.642
 11
-68.0901
 21
159.122
  0
LINE
  8
0
 10
-68.0901
 20
159.122
 11
-67.7051
 21
158.626
  0
LINE
  8
0
 10
-67.7051
 20
158.626
 11
-67.2897
 21
158.155
  0
LINE
  8
0
 10
-67.2897
 20
158.155
 11
-66.8454
 21
157.71
  0
LINE
  8
0
 10
-66.8454
 20
157.71
 11
-66.3742
 21
157.295
  0
LINE
  8
0
 10
-66.3742
 20
157.295
 11
-65.8778
 21
156.91
  0
LINE
  8
0
 10
-65.8778
 20
156.91
 11
-65.3582
 21
156.557
  0
LINE
  8
0
 10
-65.3582
 20
156.557
 11
-64.8175
 21
156.237
  0
LINE
  8
0
 10
-64.8175
 20
156.237
 11
-64.2578
 21
155.952
  0
LINE
  8
0
 10
-64.2578
 20
155.952
 11
-63.6812
 21
155.702
  0
LINE
  8
0
 10
-63.6812
 20
155.702
 11
-63.0901
 21
155.489
  0
LINE
  8
0
 10
-63.0901
 20
155.489
 11
-62.4869
 21
155.314
  0
LINE
  8
0
 10
-62.4869
 20
155.314
 11
-61.8738
 21
155.177
  0
LINE
  8
0
 10
-61.8738
 20
155.177
 11
-61.2533
 21
155.079
  0
LINE
  8
0
 10
-61.2533
 20
155.079
 11
-60.6279
 21
155.02
  0
LINE
  8
0
 10
-60.6279
 20
155.02
 11
-60
 21
155
  0
LINE
  8
0
 10
-60
 20
155
 11
132
 21
155
  0
LINE
  8
0
 10
132
 20
155
 11
132.628
 21
155.02
  0
LINE
  8
0
 10
-68
 20
264
 11
-68
 21
291
  0
LINE
  8
0
 10
-68
 20
291
 11
139
 21
291
  0
LINE
  8
0
 10
139
 20
291
 11
139
 21
264
  0
LINE
  8
0
 10
139
 20
264
 11
-68
 21
264
  0
LINE
  8
0
 10
-61
 20
248
 11
-61.1884
 21
248.006
  0
LINE
  8
0
 10
-61.1884
 20
248.006
 11
-61.376
 21
248.024
  0
LINE
  8
0
 10
-61.376
 20
248.024
 11
-61.5621
 21
248.053
  0
LINE
  8
0
 10
-61.5621
 20
248.053
 11
-61.7461
 21
248.094
  0
LINE
  8
0
 10
-61.7461
 20
248.094
 11
-61.927
 21
248.147
  0
LINE
  8
0
 10
-61.927
 20
248.147
 11
-62.1044
 21
248.211
  0
LINE
  8
0
 10
-62.1044
 20
248.211
 11
-62.2773
 21
248.286
  0
LINE
  8
0
 10
-62.2773
 20
248.286
 11
-62.4453
 21
248.371
  0
LINE
  8
0
 10
-62.4453
 20
248.371
 11
-62.6075
 21
248.467
  0
LINE
  8
0
 10
-62.6075
 20
248.467
 11
-62.7634
 21
248.573
  0
LINE
  8
0
 10
-62.7634
 20
248.573
 11
-62.9123
 21
248.688
  0
LINE
  8
0
 10
-62.9123
 20
248.688
 11
-63.0536
 21
248.813
  0
LINE
  8
0
 10
-63.0536
 20
248.813
 11
-63.1869
 21
248.946
  0
LINE
  8
0
 10
-63.1869
 20
248.946
 11
-63.3115
 21
249.088
  0
LINE
  8
0
 10
-63.3115
 20
249.088
 11
-63.427
 21
249.237
  0
LINE
  8
0
 10
-63.427
 20
249.237
 11
-63.533
 21
249.393
  0
LINE
  8
0
 10
-63.533
 20
249.393
 11
-63.6289
 21
249.555
  0
LINE
  8
0
 10
-63.6289
 20
249.555
 11
-63.7145
 21
249.723
  0
LINE
  8
0
 10
-63.7145
 20
249.723
 11
-63.7893
 21
249.896
  0
LINE
  8
0
 10
-63.7893
 20
249.896
 11
-63.8532
 21
250.073
  0
LINE
  8
0
 10
-63.8532
 20
250.073
 11
-63.9057
 21
250.254
  0
LINE
  8
0
 10
-63.9057
 20
250.254
 11
-63.9469
 21
250.438
  0
LINE
  8
0
 10
-63.9469
 20
250.438
 11
-63.9763
 21
250.624
  0
LINE
  8
0
 10
-63.9763
 20
250.624
 11
-63.9941
 21
250.812
  0
LINE
  8
0
 10
-63.9941
 20
250.812
 11
-64
 21
251
  0
LINE
  8
0
 10
-64
 20
251
 11
-64
 21
255
  0
LINE
  8
0
 10
-64
 20
255
 11
-63.9941
 21
255.188
  0
LINE
  8
0
 10
-63.9941
 20
255.188
 11
-63.9763
 21
255.376
  0
LINE
  8
0
 10
-63.9763
 20
255.376
 11
-63.9469
 21
255.562
  0
LINE
  8
0
 10
-63.9469
 20
255.562
 11
-63.9057
 21
255.746
  0
LINE
  8
0
 10
-63.9057
 20
255.746
 11
-63.8532
 21
255.927
  0
LINE
  8
0
 10
-63.8532
 20
255.927
 11
-63.7893
 21
256.104
  0
LINE
  8
0
 10
-63.7893
 20
256.104
 11
-63.7145
 21
256.277
  0
LINE
  8
0
 10
-63.7145
 20
256.277
 11
-63.6289
 21
256.445
  0
LINE
  8
0
 10
-63.6289
 20
256.445
 11
-63.533
 21
256.607
  0
LINE
  8
0
 10
-63.533
 20
256.607
 11
-63.427
 21
256.763
  0
LINE
  8
0
 10
-63.427
 20
256.763
 11
-63.3115
 21
256.912
  0
LINE
  8
0
 10
-63.3115
 20
256.912
 11
-63.1869
 21
257.054
  0
LINE
  8
0
 10
-63.1869
 20
257.054
 11
-63.0536
 21
257.187
  0
LINE
  8
0
 10
-63.0536
 20
257.187
 11
-62.9123
 21
257.312
  0
LINE
  8
0
 10
-62.9123
 20
257.312
 11
-62.7634
 21
257.427
  0
LINE
  8
0
 10
-62.7634
 20
257.427
 11
-62.6075
 21
257.533
  0
LINE
  8
0
 10
-62.6075
 20
257.533
 11
-62.4453
 21
257.629
  0
LINE
  8
0
 10
-62.4453
 20
257.629
 11
-62.2773
 21
257.714
  0
LINE
  8
0
 10
-62.2773
 20
257.714
 11
-62.1044
 21
257.789
  0
LINE
  8
0
 10
-62.1044
 20
257.789
 11
-61.927
 21
257.853
  0
LINE
  8
0
 10
-61.927
 20
257.853
 11
-61.7461
 21
257.906
  0
LINE
  8
0
 10
-61.7461
 20
257.906
 11
-61.5621
 21
257.947
  0
LINE
  8
0
 10
-61.5621
 20
257.947
 11
-61.376
 21
257.976
  0
LINE
  8
0
 10
-61.376
 20
257.976
 11
-61.1884
 21
257.994
  0
LINE
  8
0
 10
-61.1884
 20
257.994
 11
-61
 21
258
  0
LINE
  8
0
 10
-61
 20
258
 11
133
 21
258
  0
LINE
  8
0
 10
133
 20
258
 11
133.188
 21
257.994
  0
LINE
  8
0
 10
133.188
 20
257.994
 11
133.376
 21
257.976
  0
LINE
  8
0
 10
133.376
 20
257.976
 11
133.562
 21
257.947
  0
LINE
  8
0
 10
133.562
 20
257.947
 11
133.746
 21
257.906
  0
LINE
  8
0
 10
133.746
 20
257.906
 11
133.927
 21
257.853
  0
LINE
  8
0
 10
133.927
 20
257.853
 11
134.104
 21
257.789
  0
LINE
  8
0
 10
134.104
 20
257.789
 11
134.277
 21
257.714
  0
LINE
  8
0
 10
134.277
 20
257.714
 11
134.445
 21
257.629
  0
LINE
  8
0
 10
134.445
 20
257.629
 11
134.607
 21
257.533
  0
LINE
  8
0
 10
134.607
 20
257.533
 11
134.763
 21
257.427
  0
LINE
  8
0
 10
134.763
 20
257.427
 11
134.912
 21
257.312
  0
LINE
  8
0
 10
134.912
 20
257.312
 11
135.054
 21
257.187
  0
LINE
  8
0
 10
135.054
 20
257.187
 11
135.187
 21
257.054
  0
LINE
  8
0
 10
135.187
 20
257.054
 11
135.312
 21
256.912
  0
LINE
  8
0
 10
135.312
 20
256.912
 11
135.427
 21
256.763
  0
LINE
  8
0
 10
135.427
 20
256.763
 11
135.533
 21
256.607
  0
LINE
  8
0
 10
135.533
 20
256.607
 11
135.629
 21
256.445
  0
LINE
  8
0
 10
135.629
 20
256.445
 11
135.714
 21
256.277
  0
LINE
  8
0
 10
135.714
 20
256.277
 11
135.789
 21
256.104
  0
LINE
  8
0
 10
135.789
 20
256.104
 11
135.853
 21
255.927
  0
LINE
  8
0
 10
135.853
 20
255.927
 11
135.906
 21
255.746
  0
LINE
  8
0
 10
135.906
 20
255.746
 11
135.947
 21
255.562
  0
LINE
  8
0
 10
135.947
 20
255.562
 11
135.976
 21
255.376
  0
LINE
  8
0
 10
135.976
 20
255.376
 11
135.994
 21
255.188
  0
LINE
  8
0
 10
135.994
 20
255.188
 11
136
 21
255
  0
LINE
  8
0
 10
136
 20
255
 11
136
 21
251
  0
LINE
  8
0
 10
136
 20
251
 11
135.994
 21
250.812
  0
LINE
  8
0
 10
135.994
 20
250.812
 11
135.976
 21
250.624
  0
LINE
  8
0
 10
135.976
 20
250.624
 11
135.947
 21
250.438
  0
LINE
  8
0
 10
135.947
 20
250.438
 11
135.906
 21
250.254
  0
LINE
  8
0
 10
135.906
 20
250.254
 11
135.853
 21
250.073
  0
LINE
  8
0
 10
135.853
 20
250.073
 11
135.789
 21
249.896
  0
LINE
  8
0
 10
135.789
 20
249.896
 11
135.714
 21
249.723
  0
LINE
  8
0
 10
135.714
 20
249.723
 11
135.629
 21
249.555
  0
LINE
  8
0
 10
135.629
 20
249.555
 11
135.533
 21
249.393
  0
LINE
  8
0
 10
135.533
 20
249.393
 11
135.427
 21
249.237
  0
LINE
  8
0
 10
135.427
 20
249.237
 11
135.312
 21
249.088
  0
LINE
  8
0
 10
135.312
 20
249.088
 11
135.187
 21
248.946
  0
LINE
  8
0
 10
135.187
 20
248.946
 11
135.054
 21
248.813
  0
LINE
  8
0
 10
135.054
 20
248.813
 11
134.912
 21
248.688
  0
LINE
  8
0
 10
134.912
 20
248.688
 11
134.763
 21
248.573
  0
LINE
  8
0
 10
134.763
 20
248.573
 11
134.607
 21
248.467
  0
LINE
  8
0
 10
134.607
 20
248.467
 11
134.445
 21
248.371
  0
LINE
  8
0
 10
134.445
 20
248.371
 11
134.277
 21
248.286
  0
LINE
  8
0
 10
134.277
 20
248.286
 11
134.104
 21
248.211
  0
LINE
  8
0
 10
134.104
 20
248.211
 11
133.927
 21
248.147
  0
LINE
  8
0
 10
133.927
 20
248.147
 11
133.746
 21
248.094
  0
LINE
  8
0
 10
133.746
 20
248.094
 11
133.562
 21
248.053
  0
LINE
  8
0
 10
133.562
 20
248.053
 11
133.376
 21
248.024
  0
LINE
  8
0
 10
133.376
 20
248.024
 11
133.188
 21
248.006
  0
LINE
  8
0
 10
133.188
 20
248.006
 11
133
 21
248
  0
LINE
  8
0
 10
133
 20
248
 11
-61
 21
248
  0
LINE
  8
0
 10
139.188
 20
44.0059
 11
139.376
 21
44.0237
  0
LINE
  8
0
 10
139.376
 20
44.0237
 11
139.562
 21
44.0531
  0
LINE
  8
0
 10
139.562
 20
44.0531
 11
139.746
 21
44.0943
  0
LINE
  8
0
 10
139.746
 20
44.0943
 11
139.927
 21
44.1468
  0
LINE
  8
0
 10
139.927
 20
44.1468
 11
140.104
 21
44.2107
  0
LINE
  8
0
 10
140.104
 20
44.2107
 11
140.277
 21
44.2855
  0
LINE
  8
0
 10
140.277
 20
44.2855
 11
140.445
 21
44.3711
  0
LINE
  8
0
 10
140.445
 20
44.3711
 11
140.607
 21
44.467
  0
LINE
  8
0
 10
140.607
 20
44.467
 11
140.763
 21
44.573
  0
LINE
  8
0
 10
140.763
 20
44.573
 11
140.912
 21
44.6885
  0
LINE
  8
0
 10
140.912
 20
44.6885
 11
141.054
 21
44.8131
  0
LINE
  8
0
 10
141.054
 20
44.8131
 11
141.187
 21
44.9464
  0
LINE
  8
0
 10
141.187
 20
44.9464
 11
141.312
 21
45.0877
  0
LINE
  8
0
 10
141.312
 20
45.0877
 11
141.427
 21
45.2366
  0
LINE
  8
0
 10
141.427
 20
45.2366
 11
141.533
 21
45.3925
  0
LINE
  8
0
 10
141.533
 20
45.3925
 11
141.629
 21
45.5547
  0
LINE
  8
0
 10
141.629
 20
45.5547
 11
141.714
 21
45.7227
  0
LINE
  8
0
 10
141.714
 20
45.7227
 11
141.789
 21
45.8956
  0
LINE
  8
0
 10
141.789
 20
45.8956
 11
141.853
 21
46.073
  0
LINE
  8
0
 10
141.853
 20
46.073
 11
141.906
 21
46.2539
  0
LINE
  8
0
 10
141.906
 20
46.2539
 11
141.947
 21
46.4379
  0
LINE
  8
0
 10
141.947
 20
46.4379
 11
141.976
 21
46.624
  0
LINE
  8
0
 10
141.976
 20
46.624
 11
141.994
 21
46.8116
  0
LINE
  8
0
 10
141.994
 20
46.8116
 11
142
 21
47
  0
LINE
  8
0
 10
142
 20
47
 11
142
 21
54
  0
LINE
  8
0
 10
142
 20
54
 11
151
 21
54
  0
LINE
  8
0
 10
151
 20
54
 11
151.188
 21
54.0059
  0
LINE
  8
0
 10
151.188
 20
54.0059
 11
151.376
 21
54.0237
  0
LINE
  8
0
 10
151.376
 20
54.0237
 11
151.562
 21
54.0531
  0
LINE
  8
0
 10
151.562
 20
54.0531
 11
151.746
 21
54.0943
  0
LINE
  8
0
 10
151.746
 20
54.0943
 11
151.927
 21
54.1468
  0
LINE
  8
0
 10
151.927
 20
54.1468
 11
152.104
 21
54.2107
  0
LINE
  8
0
 10
152.104
 20
54.2107
 11
152.277
 21
54.2855
  0
LINE
  8
0
 10
152.277
 20
54.2855
 11
152.445
 21
54.3711
  0
LINE
  8
0
 10
152.445
 20
54.3711
 11
152.607
 21
54.467
  0
LINE
  8
0
 10
152.607
 20
54.467
 11
152.763
 21
54.573
  0
LINE
  8
0
 10
152.763
 20
54.573
 11
152.912
 21
54.6885
  0
LINE
  8
0
 10
152.912
 20
54.6885
 11
153.054
 21
54.8131
  0
LINE
  8
0
 10
153.054
 20
54.8131
 11
153.187
 21
54.9464
  0
LINE
  8
0
 10
153.187
 20
54.9464
 11
153.312
 21
55.0877
  0
LINE
  8
0
 10
153.312
 20
55.0877
 11
153.427
 21
55.2366
  0
LINE
  8
0
 10
153.427
 20
55.2366
 11
153.533
 21
55.3925
  0
LINE
  8
0
 10
153.533
 20
55.3925
 11
153.629
 21
55.5547
  0
LINE
  8
0
 10
153.629
 20
55.5547
 11
153.714
 21
55.7227
  0
LINE
  8
0
 10
153.714
 20
55.7227
 11
153.789
 21
55.8956
  0
LINE
  8
0
 10
153.789
 20
55.8956
 11
153.853
 21
56.073
  0
LINE
  8
0
 10
153.853
 20
56.073
 11
153.906
 21
56.2539
  0
LINE
  8
0
 10
153.906
 20
56.2539
 11
153.947
 21
56.4379
  0
LINE
  8
0
 10
153.947
 20
56.4379
 11
153.976
 21
56.624
  0
LINE
  8
0
 10
153.976
 20
56.624
 11
153.994
 21
56.8116
  0
LINE
  8
0
 10
153.994
 20
56.8116
 11
154
 21
57
  0
LINE
  8
0
 10
154
 20
57
 11
154
 21
81
  0
LINE
  8
0
 10
154
 20
81
 11
153.994
 21
81.1884
  0
LINE
  8
0
 10
153.994
 20
81.1884
 11
153.976
 21
81.376
  0
LINE
  8
0
 10
153.976
 20
81.376
 11
153.947
 21
81.5621
  0
LINE
  8
0
 10
153.947
 20
81.5621
 11
153.906
 21
81.7461
  0
LINE
  8
0
 10
153.906
 20
81.7461
 11
153.853
 21
81.927
  0
LINE
  8
0
 10
153.853
 20
81.927
 11
153.789
 21
82.1044
  0
LINE
  8
0
 10
153.789
 20
82.1044
 11
153.714
 21
82.2773
  0
LINE
  8
0
 10
153.714
 20
82.2773
 11
153.629
 21
82.4453
  0
LINE
  8
0
 10
153.629
 20
82.4453
 11
153.533
 21
82.6075
  0
LINE
  8
0
 10
153.533
 20
82.6075
 11
153.427
 21
82.7634
  0
LINE
  8
0
 10
153.427
 20
82.7634
 11
153.312
 21
82.9123
  0
LINE
  8
0
 10
153.312
 20
82.9123
 11
153.187
 21
83.0536
  0
LINE
  8
0
 10
153.187
 20
83.0536
 11
153.054
 21
83.1869
  0
LINE
  8
0
 10
153.054
 20
83.1869
 11
152.912
 21
83.3115
  0
LINE
  8
0
 10
152.912
 20
83.3115
 11
152.763
 21
83.427
  0
LINE
  8
0
 10
152.763
 20
83.427
 11
152.607
 21
83.533
  0
LINE
  8
0
 10
152.607
 20
83.533
 11
152.445
 21
83.6289
  0
LINE
  8
0
 10
152.445
 20
83.6289
 11
152.277
 21
83.7145
  0
LINE
  8
0
 10
152.277
 20
83.7145
 11
152.104
 21
83.7893
  0
LINE
  8
0
 10
152.104
 20
83.7893
 11
151.927
 21
83.8532
  0
LINE
  8
0
 10
151.927
 20
83.8532
 11
151.746
 21
83.9057
  0
LINE
  8
0
 10
151.746
 20
83.9057
 11
151.562
 21
83.9469
  0
LINE
  8
0
 10
151.562
 20
83.9469
 11
151.376
 21
83.9763
  0
LINE
  8
0
 10
151.376
 20
83.9763
 11
151.188
 21
83.9941
  0
LINE
  8
0
 10
151.188
 20
83.9941
 11
151
 21
84
  0
LINE
  8
0
 10
151
 20
84
 11
148.87
 21
84
  0
LINE
  8
0
 10
148.87
 20
84
 11
148
 21
80.7534
  0
LINE
  8
0
 10
148
 20
80.7534
 11
148
 21
74
  0
LINE
  8
0
 10
148
 20
74
 11
142
 21
74
  0
LINE
  8
0
 10
142
 20
74
 11
142
 21
104
  0
LINE
  8
0
 10
142
 20
104
 11
151
 21
104
  0
LINE
  8
0
 10
151
 20
104
 11
151.188
 21
104.006
  0
LINE
  8
0
 10
151.188
 20
104.006
 11
151.376
 21
104.024
  0
LINE
  8
0
 10
151.376
 20
104.024
 11
151.562
 21
104.053
  0
LINE
  8
0
 10
151.562
 20
104.053
 11
151.746
 21
104.094
  0
LINE
  8
0
 10
151.746
 20
104.094
 11
151.927
 21
104.147
  0
LINE
  8
0
 10
151.927
 20
104.147
 11
152.104
 21
104.211
  0
LINE
  8
0
 10
152.104
 20
104.211
 11
152.277
 21
104.286
  0
LINE
  8
0
 10
152.277
 20
104.286
 11
152.445
 21
104.371
  0
LINE
  8
0
 10
152.445
 20
104.371
 11
152.607
 21
104.467
  0
LINE
  8
0
 10
152.607
 20
104.467
 11
152.763
 21
104.573
  0
LINE
  8
0
 10
152.763
 20
104.573
 11
152.912
 21
104.688
  0
LINE
  8
0
 10
152.912
 20
104.688
 11
153.054
 21
104.813
  0
LINE
  8
0
 10
153.054
 20
104.813
 11
153.187
 21
104.946
  0
LINE
  8
0
 10
153.187
 20
104.946
 11
153.312
 21
105.088
  0
LINE
  8
0
 10
153.312
 20
105.088
 11
153.427
 21
105.237
  0
LINE
  8
0
 10
153.427
 20
105.237
 11
153.533
 21
105.393
  0
LINE
  8
0
 10
153.533
 20
105.393
 11
153.629
 21
105.555
  0
LINE
  8
0
 10
153.629
 20
105.555
 11
153.714
 21
105.723
  0
LINE
  8
0
 10
153.714
 20
105.723
 11
153.789
 21
105.896
  0
LINE
  8
0
 10
153.789
 20
105.896
 11
153.853
 21
106.073
  0
LINE
  8
0
 10
153.853
 20
106.073
 11
153.906
 21
106.254
  0
LINE
  8
0
 10
153.906
 20
106.254
 11
153.947
 21
106.438
  0
LINE
  8
0
 10
153.947
 20
106.438
 11
153.976
 21
106.624
  0
LINE
  8
0
 10
153.976
 20
106.624
 11
153.994
 21
106.812
  0
LINE
  8
0
 10
153.994
 20
106.812
 11
154
 21
107
  0
LINE
  8
0
 10
154
 20
107
 11
154
 21
131
  0
LINE
  8
0
 10
154
 20
131
 11
153.994
 21
131.188
  0
LINE
  8
0
 10
153.994
 20
131.188
 11
153.976
 21
131.376
  0
LINE
  8
0
 10
153.976
 20
131.376
 11
153.947
 21
131.562
  0
LINE
  8
0
 10
153.947
 20
131.562
 11
153.906
 21
131.746
  0
LINE
  8
0
 10
153.906
 20
131.746
 11
153.853
 21
131.927
  0
LINE
  8
0
 10
153.853
 20
131.927
 11
153.789
 21
132.104
  0
LINE
  8
0
 10
153.789
 20
132.104
 11
153.714
 21
132.277
  0
LINE
  8
0
 10
153.714
 20
132.277
 11
153.629
 21
132.445
  0
LINE
  8
0
 10
153.629
 20
132.445
 11
153.533
 21
132.607
  0
LINE
  8
0
 10
153.533
 20
132.607
 11
153.427
 21
132.763
  0
LINE
  8
0
 10
153.427
 20
132.763
 11
153.312
 21
132.912
  0
LINE
  8
0
 10
153.312
 20
132.912
 11
153.187
 21
133.054
  0
LINE
  8
0
 10
153.187
 20
133.054
 11
153.054
 21
133.187
  0
LINE
  8
0
 10
153.054
 20
133.187
 11
152.912
 21
133.312
  0
LINE
  8
0
 10
152.912
 20
133.312
 11
152.763
 21
133.427
  0
LINE
  8
0
 10
152.763
 20
133.427
 11
152.607
 21
133.533
  0
LINE
  8
0
 10
152.607
 20
133.533
 11
152.445
 21
133.629
  0
LINE
  8
0
 10
152.445
 20
133.629
 11
152.277
 21
133.714
  0
LINE
  8
0
 10
152.277
 20
133.714
 11
152.104
 21
133.789
  0
LINE
  8
0
 10
152.104
 20
133.789
 11
151.927
 21
133.853
  0
LINE
  8
0
 10
151.927
 20
133.853
 11
151.746
 21
133.906
  0
LINE
  8
0
 10
151.746
 20
133.906
 11
151.562
 21
133.947
  0
LINE
  8
0
 10
151.562
 20
133.947
 11
151.376
 21
133.976
  0
LINE
  8
0
 10
151.376
 20
133.976
 11
151.188
 21
133.994
  0
LINE
  8
0
 10
151.188
 20
133.994
 11
151
 21
134
  0
LINE
  8
0
 10
151
 20
134
 11
148.87
 21
134
  0
LINE
  8
0
 10
148.87
 20
134
 11
148
 21
130.753
  0
LINE
  8
0
 10
148
 20
130.753
 11
148
 21
124
  0
LINE
  8
0
 10
148
 20
124
 11
142
 21
124
  0
LINE
  8
0
 10
142
 20
124
 11
142
 21
151
  0
LINE
  8
0
 10
142
 20
151
 11
141.994
 21
151.188
  0
LINE
  8
0
 10
141.994
 20
151.188
 11
141.976
 21
151.376
  0
LINE
  8
0
 10
141.976
 20
151.376
 11
141.947
 21
151.562
  0
LINE
  8
0
 10
141.947
 20
151.562
 11
141.906
 21
151.746
  0
LINE
  8
0
 10
141.906
 20
151.746
 11
141.853
 21
151.927
  0
LINE
  8
0
 10
141.853
 20
151.927
 11
141.789
 21
152.104
  0
LINE
  8
0
 10
141.789
 20
152.104
 11
141.714
 21
152.277
  0
LINE
  8
0
 10
141.714
 20
152.277
 11
141.629
 21
152.445
  0
LINE
  8
0
 10
141.629
 20
152.445
 11
141.533
 21
152.607
  0
LINE
  8
0
 10
141.533
 20
152.607
 11
141.427
 21
152.763
  0
LINE
  8
0
 10
141.427
 20
152.763
 11
141.312
 21
152.912
  0
LINE
  8
0
 10
141.312
 20
152.912
 11
141.187
 21
153.054
  0
LINE
  8
0
 10
141.187
 20
153.054
 11
141.054
 21
153.187
  0
LINE
  8
0
 10
141.054
 20
153.187
 11
140.912
 21
153.312
  0
LINE
  8
0
 10
140.912
 20
153.312
 11
140.763
 21
153.427
  0
LINE
  8
0
 10
140.763
 20
153.427
 11
140.607
 21
153.533
  0
LINE
  8
0
 10
140.607
 20
153.533
 11
140.445
 21
153.629
  0
LINE
  8
0
 10
140.445
 20
153.629
 11
140.277
 21
153.714
  0
LINE
  8
0
 10
140.277
 20
153.714
 11
140.104
 21
153.789
  0
LINE
  8
0
 10
140.104
 20
153.789
 11
139.927
 21
153.853
  0
LINE
  8
0
 10
139.927
 20
153.853
 11
139.746
 21
153.906
  0
LINE
  8
0
 10
139.746
 20
153.906
 11
139.562
 21
153.947
  0
LINE
  8
0
 10
139.562
 20
153.947
 11
139.376
 21
153.976
  0
LINE
  8
0
 10
139.376
 20
153.976
 11
139.188
 21
153.994
  0
LINE
  8
0
 10
139.188
 20
153.994
 11
139
 21
154
  0
LINE
  8
0
 10
139
 20
154
 11
-67
 21
154
  0
LINE
  8
0
 10
-67
 20
154
 11
-67.1884
 21
153.994
  0
LINE
  8
0
 10
-67.1884
 20
153.994
 11
-67.376
 21
153.976
  0
LINE
  8
0
 10
-67.376
 20
153.976
 11
-67.5621
 21
153.947
  0
LINE
  8
0
 10
-67.5621
 20
153.947
 11
-67.7461
 21
153.906
  0
LINE
  8
0
 10
-67.7461
 20
153.906
 11
-67.927
 21
153.853
  0
LINE
  8
0
 10
-67.927
 20
153.853
 11
-68.1044
 21
153.789
  0
LINE
  8
0
 10
-68.1044
 20
153.789
 11
-68.2773
 21
153.714
  0
LINE
  8
0
 10
-68.2773
 20
153.714
 11
-68.4453
 21
153.629
  0
LINE
  8
0
 10
-68.4453
 20
153.629
 11
-68.6075
 21
153.533
  0
LINE
  8
0
 10
-68.6075
 20
153.533
 11
-68.7634
 21
153.427
  0
LINE
  8
0
 10
-68.7634
 20
153.427
 11
-68.9123
 21
153.312
  0
LINE
  8
0
 10
-68.9123
 20
153.312
 11
-69.0536
 21
153.187
  0
LINE
  8
0
 10
-69.0536
 20
153.187
 11
-69.1869
 21
153.054
  0
LINE
  8
0
 10
-69.1869
 20
153.054
 11
-69.3115
 21
152.912
  0
LINE
  8
0
 10
-69.3115
 20
152.912
 11
-69.427
 21
152.763
  0
LINE
  8
0
 10
-69.427
 20
152.763
 11
-69.533
 21
152.607
  0
LINE
  8
0
 10
-69.533
 20
152.607
 11
-69.6289
 21
152.445
  0
LINE
  8
0
 10
-69.6289
 20
152.445
 11
-69.7145
 21
152.277
  0
LINE
  8
0
 10
-69.7145
 20
152.277
 11
-69.7893
 21
152.104
  0
LINE
  8
0
 10
-69.7893
 20
152.104
 11
-69.8532
 21
151.927
  0
LINE
  8
0
 10
-69.8532
 20
151.927
 11
-69.9057
 21
151.746
  0
LINE
  8
0
 10
-69.9057
 20
151.746
 11
-69.9469
 21
151.562
  0
LINE
  8
0
 10
-69.9469
 20
151.562
 11
-69.9763
 21
151.376
  0
LINE
  8
0
 10
-69.9763
 20
151.376
 11
-69.9941
 21
151.188
  0
LINE
  8
0
 10
-69.9941
 20
151.188
 11
-70
 21
151
  0
LINE
  8
0
 10
-70
 20
151
 11
-70
 21
124
  0
LINE
  8
0
 10
-70
 20
124
 11
-76
 21
124
  0
LINE
  8
0
 10
-76
 20
124
 11
-76
 21
131.148
  0
LINE
  8
0
 10
-76
 20
131.148
 11
-76.7641
 21
134
  0
LINE
  8
0
 10
-76.7641
 20
134
 11
-79
 21
134
  0
LINE
  8
0
 10
-79
 20
134
 11
-79.1884
 21
133.994
  0
LINE
  8
0
 10
-79.1884
 20
133.994
 11
-79.376
 21
133.976
  0
LINE
  8
0
 10
-79.376
 20
133.976
 11
-79.5621
 21
133.947
  0
LINE
  8
0
 10
-79.5621
 20
133.947
 11
-79.7461
 21
133.906
  0
LINE
  8
0
 10
-79.7461
 20
133.906
 11
-79.927
 21
133.853
  0
LINE
  8
0
 10
-79.927
 20
133.853
 11
-80.1044
 21
133.789
  0
LINE
  8
0
 10
-80.1044
 20
133.789
 11
-80.2773
 21
133.714
  0
LINE
  8
0
 10
-80.2773
 20
133.714
 11
-80.4453
 21
133.629
  0
LINE
  8
0
 10
-80.4453
 20
133.629
 11
-80.6075
 21
133.533
  0
LINE
  8
0
 10
-80.6075
 20
133.533
 11
-80.7634
 21
133.427
  0
LINE
  8
0
 10
-80.7634
 20
133.427
 11
-80.9123
 21
133.312
  0
LINE
  8
0
 10
-80.9123
 20
133.312
 11
-81.0536
 21
133.187
  0
LINE
  8
0
 10
-81.0536
 20
133.187
 11
-81.1869
 21
133.054
  0
LINE
  8
0
 10
-81.1869
 20
133.054
 11
-81.3115
 21
132.912
  0
LINE
  8
0
 10
-81.3115
 20
132.912
 11
-81.427
 21
132.763
  0
LINE
  8
0
 10
-81.427
 20
132.763
 11
-81.533
 21
132.607
  0
LINE
  8
0
 10
-81.533
 20
132.607
 11
-81.6289
 21
132.445
  0
LINE
  8
0
 10
-81.6289
 20
132.445
 11
-81.7145
 21
132.277
  0
LINE
  8
0
 10
-81.7145
 20
132.277
 11
-81.7893
 21
132.104
  0
LINE
  8
0
 10
-81.7893
 20
132.104
 11
-81.8532
 21
131.927
  0
LINE
  8
0
 10
-81.8532
 20
131.927
 11
-81.9057
 21
131.746
  0
LINE
  8
0
 10
-81.9057
 20
131.746
 11
-81.9469
 21
131.562
  0
LINE
  8
0
 10
-81.9469
 20
131.562
 11
-81.9763
 21
131.376
  0
LINE
  8
0
 10
-81.9763
 20
131.376
 11
-81.9941
 21
131.188
  0
LINE
  8
0
 10
-81.9941
 20
131.188
 11
-82
 21
131
  0
LINE
  8
0
 10
-82
 20
131
 11
-82
 21
107
  0
LINE
  8
0
 10
-82
 20
107
 11
-81.9941
 21
106.812
  0
LINE
  8
0
 10
-81.9941
 20
106.812
 11
-81.9763
 21
106.624
  0
LINE
  8
0
 10
-81.9763
 20
106.624
 11
-81.9469
 21
106.438
  0
LINE
  8
0
 10
-81.9469
 20
106.438
 11
-81.9057
 21
106.254
  0
LINE
  8
0
 10
-81.9057
 20
106.254
 11
-81.8532
 21
106.073
  0
LINE
  8
0
 10
-81.8532
 20
106.073
 11
-81.7893
 21
105.896
  0
LINE
  8
0
 10
-81.7893
 20
105.896
 11
-81.7145
 21
105.723
  0
LINE
  8
0
 10
-81.7145
 20
105.723
 11
-81.6289
 21
105.555
  0
LINE
  8
0
 10
-81.6289
 20
105.555
 11
-81.533
 21
105.393
  0
LINE
  8
0
 10
-81.533
 20
105.393
 11
-81.427
 21
105.237
  0
LINE
  8
0
 10
-81.427
 20
105.237
 11
-81.3115
 21
105.088
  0
LINE
  8
0
 10
-81.3115
 20
105.088
 11
-81.1869
 21
104.946
  0
LINE
  8
0
 10
-81.1869
 20
104.946
 11
-81.0536
 21
104.813
  0
LINE
  8
0
 10
-81.0536
 20
104.813
 11
-80.9123
 21
104.688
  0
LINE
  8
0
 10
-80.9123
 20
104.688
 11
-80.7634
 21
104.573
  0
LINE
  8
0
 10
-80.7634
 20
104.573
 11
-80.6075
 21
104.467
  0
LINE
  8
0
 10
-80.6075
 20
104.467
 11
-80.4453
 21
104.371
  0
LINE
  8
0
 10
-80.4453
 20
104.371
 11
-80.2773
 21
104.286
  0
LINE
  8
0
 10
-80.2773
 20
104.286
 11
-80.1044
 21
104.211
  0
LINE
  8
0
 10
-80.1044
 20
104.211
 11
-79.927
 21
104.147
  0
LINE
  8
0
 10
-79.927
 20
104.147
 11
-79.7461
 21
104.094
  0
LINE
  8
0
 10
-79.7461
 20
104.094
 11
-79.5621
 21
104.053
  0
LINE
  8
0
 10
-79.5621
 20
104.053
 11
-79.376
 21
104.024
  0
LINE
  8
0
 10
-79.376
 20
104.024
 11
-79.1884
 21
104.006
  0
LINE
  8
0
 10
-79.1884
 20
104.006
 11
-79
 21
104
  0
LINE
  8
0
 10
-79
 20
104
 11
-70
 21
104
  0
LINE
  8
0
 10
-70
 20
104
 11
-70
 21
74
  0
LINE
  8
0
 10
-70
 20
74
 11
-76
 21
74
  0
LINE
  8
0
 10
-76
 20
74
 11
-76
 21
81.1484
  0
LINE
  8
0
 10
-76
 20
81.1484
 11
-76.7641
 21
84
  0
LINE
  8
0
 10
-76.7641
 20
84
 11
-79
 21
84
  0
LINE
  8
0
 10
-79
 20
84
 11
-79.1884
 21
83.9941
  0
LINE
  8
0
 10
-79.1884
 20
83.9941
 11
-79.376
 21
83.9763
  0
LINE
  8
0
 10
-79.376
 20
83.9763
 11
-79.5621
 21
83.9469
  0
LINE
  8
0
 10
-79.5621
 20
83.9469
 11
-79.7461
 21
83.9057
  0
LINE
  8
0
 10
-79.7461
 20
83.9057
 11
-79.927
 21
83.8532
  0
LINE
  8
0
 10
-79.927
 20
83.8532
 11
-80.1044
 21
83.7893
  0
LINE
  8
0
 10
-80.1044
 20
83.7893
 11
-80.2773
 21
83.7145
  0
LINE
  8
0
 10
-80.2773
 20
83.7145
 11
-80.4453
 21
83.6289
  0
LINE
  8
0
 10
-80.4453
 20
83.6289
 11
-80.6075
 21
83.533
  0
LINE
  8
0
 10
-80.6075
 20
83.533
 11
-80.7634
 21
83.427
  0
LINE
  8
0
 10
-80.7634
 20
83.427
 11
-80.9123
 21
83.3115
  0
LINE
  8
0
 10
-80.9123
 20
83.3115
 11
-81.0536
 21
83.1869
  0
LINE
  8
0
 10
-81.0536
 20
83.1869
 11
-81.1869
 21
83.0536
  0
LINE
  8
0
 10
-81.1869
 20
83.0536
 11
-81.3115
 21
82.9123
  0
LINE
  8
0
 10
-81.3115
 20
82.9123
 11
-81.427
 21
82.7634
  0
LINE
  8
0
 10
-81.427
 20
82.7634
 11
-81.533
 21
82.6075
  0
LINE
  8
0
 10
-81.533
 20
82.6075
 11
-81.6289
 21
82.4453
  0
LINE
  8
0
 10
-81.6289
 20
82.4453
 11
-81.7145
 21
82.2773
  0
LINE
  8
0
 10
-81.7145
 20
82.2773
 11
-81.7893
 21
82.1044
  0
LINE
  8
0
 10
-81.7893
 20
82.1044
 11
-81.8532
 21
81.927
  0
LINE
  8
0
 10
-81.8532
 20
81.927
 11
-81.9057
 21
81.7461
  0
LINE
  8
0
 10
-81.9057
 20
81.7461
 11
-81.9469
 21
81.5621
  0
LINE
  8
0
 10
-81.9469
 20
81.5621
 11
-81.9763
 21
81.376
  0
LINE
  8
0
 10
-81.9763
 20
81.376
 11
-81.9941
 21
81.1884
  0
LINE
  8
0
 10
-81.9941
 20
81.1884
 11
-82
 21
81
  0
LINE
  8
0
 10
-82
 20
81
 11
-82
 21
57
  0
LINE
  8
0
 10
-82
 20
57
 11
-81.9941
 21
56.8116
  0
LINE
  8
0
 10
-81.9941
 20
56.8116
 11
-81.9763
 21
56.624
  0
LINE
  8
0
 10
-81.9763
 20
56.624
 11
-81.9469
 21
56.4379
  0
LINE
  8
0
 10
-81.9469
 20
56.4379
 11
-81.9057
 21
56.2539
  0
LINE
  8
0
 10
-81.9057
 20
56.2539
 11
-81.8532
 21
56.073
  0
LINE
  8
0
 10
-81.8532
 20
56.073
 11
-81.7893
 21
55.8956
  0
LINE
  8
0
 10
-81.7893
 20
55.8956
 11
-81.7145
 21
55.7227
  0
LINE
  8
0
 10
-81.7145
 20
55.7227
 11
-81.6289
 21
55.5547
  0
LINE
  8
0
 10
-81.6289
 20
55.5547
 11
-81.533
 21
55.3925
  0
LINE
  8
0
 10
-81.533
 20
55.3925
 11
-81.427
 21
55.2366
  0
LINE
  8
0
 10
-81.427
 20
55.2366
 11
-81.3115
 21
55.0877
  0
LINE
  8
0
 10
-81.3115
 20
55.0877
 11
-81.1869
 21
54.9464
  0
LINE
  8
0
 10
-81.1869
 20
54.9464
 11
-81.0536
 21
54.8131
  0
LINE
  8
0
 10
-81.0536
 20
54.8131
 11
-80.9123
 21
54.6885
  0
LINE
  8
0
 10
-80.9123
 20
54.6885
 11
-80.7634
 21
54.573
  0
LINE
  8
0
 10
-80.7634
 20
54.573
 11
-80.6075
 21
54.467
  0
LINE
  8
0
 10
-80.6075
 20
54.467
 11
-80.4453
 21
54.3711
  0
LINE
  8
0
 10
-80.4453
 20
54.3711
 11
-80.2773
 21
54.2855
  0
LINE
  8
0
 10
-80.2773
 20
54.2855
 11
-80.1044
 21
54.2107
  0
LINE
  8
0
 10
-80.1044
 20
54.2107
 11
-79.927
 21
54.1468
  0
LINE
  8
0
 10
-79.927
 20
54.1468
 11
-79.7461
 21
54.0943
  0
LINE
  8
0
 10
-79.7461
 20
54.0943
 11
-79.5621
 21
54.0531
  0
LINE
  8
0
 10
-79.5621
 20
54.0531
 11
-79.376
 21
54.0237
  0
LINE
  8
0
 10
-79.376
 20
54.0237
 11
-79.1884
 21
54.0059
  0
LINE
  8
0
 10
-79.1884
 20
54.0059
 11
-79
 21
54
  0
LINE
  8
0
 10
-79
 20
54
 11
-70
 21
54
  0
LINE
  8
0
 10
-70
 20
54
 11
-70
 21
47
  0
LINE
  8
0
 10
-70
 20
47
 11
-69.9941
 21
46.8116
  0
LINE
  8
0
 10
-69.9941
 20
46.8116
 11
-69.9763
 21
46.624
  0
LINE
  8
0
 10
-69.9763
 20
46.624
 11
-69.9469
 21
46.4379
  0
LINE
  8
0
 10
-69.9469
 20
46.4379
 11
-69.9057
 21
46.2539
  0
LINE
  8
0
 10
-69.9057
 20
46.2539
 11
-69.8532
 21
46.073
  0
LINE
  8
0
 10
-69.8532
 20
46.073
 11
-69.7893
 21
45.8956
  0
LINE
  8
0
 10
-69.7893
 20
45.8956
 11
-69.7145
 21
45.7227
  0
LINE
  8
0
 10
-69.7145
 20
45.7227
 11
-69.6289
 21
45.5547
  0
LINE
  8
0
 10
-69.6289
 20
45.5547
 11
-69.533
 21
45.3925
  0
LINE
  8
0
 10
-69.533
 20
45.3925
 11
-69.427
 21
45.2366
  0
LINE
  8
0
 10
-69.427
 20
45.2366
 11
-69.3115
 21
45.0877
  0
LINE
  8
0
 10
-69.3115
 20
45.0877
 11
-69.1869
 21
44.9464
  0
LINE
  8
0
 10
-69.1869
 20
44.9464
 11
-69.0536
 21
44.8131
  0
LINE
  8
0
 10
-69.0536
 20
44.8131
 11
-68.9123
 21
44.6885
  0
LINE
  8
0
 10
-68.9123
 20
44.6885
 11
-68.7634
 21
44.573
  0
LINE
  8
0
 10
-68.7634
 20
44.573
 11
-68.6075
 21
44.467
  0
LINE
  8
0
 10
-68.6075
 20
44.467
 11
-68.4453
 21
44.3711
  0
LINE
  8
0
 10
-68.4453
 20
44.3711
 11
-68.2773
 21
44.2855
  0
LINE
  8
0
 10
-68.2773
 20
44.2855
 11
-68.1044
 21
44.2107
  0
LINE
  8
0
 10
-68.1044
 20
44.2107
 11
-67.927
 21
44.1468
  0
LINE
  8
0
 10
-67.927
 20
44.1468
 11
-67.7461
 21
44.0943
  0
LINE
  8
0
 10
-67.7461
 20
44.0943
 11
-67.5621
 21
44.0531
  0
LINE
  8
0
 10
-67.5621
 20
44.0531
 11
-67.376
 21
44.0237
  0
LINE
  8
0
 10
-67.376
 20
44.0237
 11
-67.1884
 21
44.0059
  0
LINE
  8
0
 10
-67.1884
 20
44.0059
 11
-67
 21
44
  0
LINE
  8
0
 10
-67
 20
44
 11
139
 21
44
  0
LINE
  8
0
 10
139
 20
44
 11
139.188
 21
44.0059
  0
LINE
  8
0
 10
-61
 20
126
 11
-61.1256
 21
126.004
  0
LINE
  8
0
 10
-61.1256
 20
126.004
 11
-61.2507
 21
126.016
  0
LINE
  8
0
 10
-61.2507
 20
126.016
 11
-61.3748
 21
126.035
  0
LINE
  8
0
 10
-61.3748
 20
126.035
 11
-61.4974
 21
126.063
  0
LINE
  8
0
 10
-61.4974
 20
126.063
 11
-61.618
 21
126.098
  0
LINE
  8
0
 10
-61.618
 20
126.098
 11
-61.7362
 21
126.14
  0
LINE
  8
0
 10
-61.7362
 20
126.14
 11
-61.8515
 21
126.19
  0
LINE
  8
0
 10
-61.8515
 20
126.19
 11
-61.9635
 21
126.247
  0
LINE
  8
0
 10
-61.9635
 20
126.247
 11
-62.0716
 21
126.311
  0
LINE
  8
0
 10
-62.0716
 20
126.311
 11
-62.1756
 21
126.382
  0
LINE
  8
0
 10
-62.1756
 20
126.382
 11
-62.2748
 21
126.459
  0
LINE
  8
0
 10
-62.2748
 20
126.459
 11
-62.3691
 21
126.542
  0
LINE
  8
0
 10
-62.3691
 20
126.542
 11
-62.4579
 21
126.631
  0
LINE
  8
0
 10
-62.4579
 20
126.631
 11
-62.541
 21
126.725
  0
LINE
  8
0
 10
-62.541
 20
126.725
 11
-62.618
 21
126.824
  0
LINE
  8
0
 10
-62.618
 20
126.824
 11
-62.6886
 21
126.928
  0
LINE
  8
0
 10
-62.6886
 20
126.928
 11
-62.7526
 21
127.036
  0
LINE
  8
0
 10
-62.7526
 20
127.036
 11
-62.8096
 21
127.148
  0
LINE
  8
0
 10
-62.8096
 20
127.148
 11
-62.8595
 21
127.264
  0
LINE
  8
0
 10
-62.8595
 20
127.264
 11
-62.9021
 21
127.382
  0
LINE
  8
0
 10
-62.9021
 20
127.382
 11
-62.9372
 21
127.503
  0
LINE
  8
0
 10
-62.9372
 20
127.503
 11
-62.9646
 21
127.625
  0
LINE
  8
0
 10
-62.9646
 20
127.625
 11
-62.9842
 21
127.749
  0
LINE
  8
0
 10
-62.9842
 20
127.749
 11
-62.996
 21
127.874
  0
LINE
  8
0
 10
-62.996
 20
127.874
 11
-63
 21
128
  0
LINE
  8
0
 10
-63
 20
128
 11
-63
 21
134
  0
LINE
  8
0
 10
-63
 20
134
 11
-62.996
 21
134.126
  0
LINE
  8
0
 10
-62.996
 20
134.126
 11
-62.9842
 21
134.251
  0
LINE
  8
0
 10
-62.9842
 20
134.251
 11
-62.9646
 21
134.375
  0
LINE
  8
0
 10
-62.9646
 20
134.375
 11
-62.9372
 21
134.497
  0
LINE
  8
0
 10
-62.9372
 20
134.497
 11
-62.9021
 21
134.618
  0
LINE
  8
0
 10
-62.9021
 20
134.618
 11
-62.8595
 21
134.736
  0
LINE
  8
0
 10
-62.8595
 20
134.736
 11
-62.8096
 21
134.852
  0
LINE
  8
0
 10
-62.8096
 20
134.852
 11
-62.7526
 21
134.964
  0
LINE
  8
0
 10
-62.7526
 20
134.964
 11
-62.6886
 21
135.072
  0
LINE
  8
0
 10
-62.6886
 20
135.072
 11
-62.618
 21
135.176
  0
LINE
  8
0
 10
-62.618
 20
135.176
 11
-62.541
 21
135.275
  0
LINE
  8
0
 10
-62.541
 20
135.275
 11
-62.4579
 21
135.369
  0
LINE
  8
0
 10
-62.4579
 20
135.369
 11
-62.3691
 21
135.458
  0
LINE
  8
0
 10
-62.3691
 20
135.458
 11
-62.2748
 21
135.541
  0
LINE
  8
0
 10
-62.2748
 20
135.541
 11
-62.1756
 21
135.618
  0
LINE
  8
0
 10
-62.1756
 20
135.618
 11
-62.0716
 21
135.689
  0
LINE
  8
0
 10
-62.0716
 20
135.689
 11
-61.9635
 21
135.753
  0
LINE
  8
0
 10
-61.9635
 20
135.753
 11
-61.8515
 21
135.81
  0
LINE
  8
0
 10
-61.8515
 20
135.81
 11
-61.7362
 21
135.86
  0
LINE
  8
0
 10
-61.7362
 20
135.86
 11
-61.618
 21
135.902
  0
LINE
  8
0
 10
-61.618
 20
135.902
 11
-61.4974
 21
135.937
  0
LINE
  8
0
 10
-61.4974
 20
135.937
 11
-61.3748
 21
135.965
  0
LINE
  8
0
 10
-61.3748
 20
135.965
 11
-61.2507
 21
135.984
  0
LINE
  8
0
 10
-61.2507
 20
135.984
 11
-61.1256
 21
135.996
  0
LINE
  8
0
 10
-61.1256
 20
135.996
 11
-61
 21
136
  0
LINE
  8
0
 10
-61
 20
136
 11
132
 21
136
  0
LINE
  8
0
 10
132
 20
136
 11
132.126
 21
135.996
  0
LINE
  8
0
 10
132.126
 20
135.996
 11
132.251
 21
135.984
  0
LINE
  8
0
 10
132.251
 20
135.984
 11
132.375
 21
135.965
  0
LINE
  8
0
 10
132.375
 20
135.965
 11
132.497
 21
135.937
  0
LINE
  8
0
 10
132.497
 20
135.937
 11
132.618
 21
135.902
  0
LINE
  8
0
 10
132.618
 20
135.902
 11
132.736
 21
135.86
  0
LINE
  8
0
 10
132.736
 20
135.86
 11
132.852
 21
135.81
  0
LINE
  8
0
 10
132.852
 20
135.81
 11
132.964
 21
135.753
  0
LINE
  8
0
 10
132.964
 20
135.753
 11
133.072
 21
135.689
  0
LINE
  8
0
 10
133.072
 20
135.689
 11
133.176
 21
135.618
  0
LINE
  8
0
 10
133.176
 20
135.618
 11
133.275
 21
135.541
  0
LINE
  8
0
 10
133.275
 20
135.541
 11
133.369
 21
135.458
  0
LINE
  8
0
 10
133.369
 20
135.458
 11
133.458
 21
135.369
  0
LINE
  8
0
 10
133.458
 20
135.369
 11
133.541
 21
135.275
  0
LINE
  8
0
 10
133.541
 20
135.275
 11
133.618
 21
135.176
  0
LINE
  8
0
 10
133.618
 20
135.176
 11
133.689
 21
135.072
  0
LINE
  8
0
 10
133.689
 20
135.072
 11
133.753
 21
134.964
  0
LINE
  8
0
 10
133.753
 20
134.964
 11
133.81
 21
134.852
  0
LINE
  8
0
 10
133.81
 20
134.852
 11
133.86
 21
134.736
  0
LINE
  8
0
 10
133.86
 20
134.736
 11
133.902
 21
134.618
  0
LINE
  8
0
 10
133.902
 20
134.618
 11
133.937
 21
134.497
  0
LINE
  8
0
 10
133.937
 20
134.497
 11
133.965
 21
134.375
  0
LINE
  8
0
 10
133.965
 20
134.375
 11
133.984
 21
134.251
  0
LINE
  8
0
 10
133.984
 20
134.251
 11
133.996
 21
134.126
  0
LINE
  8
0
 10
133.996
 20
134.126
 11
134
 21
134
  0
LINE
  8
0
 10
134
 20
134
 11
134
 21
128
  0
LINE
  8
0
 10
134
 20
128
 11
133.996
 21
127.874
  0
LINE
  8
0
 10
133.996
 20
127.874
 11
133.984
 21
127.749
  0
LINE
  8
0
 10
133.984
 20
127.749
 11
133.965
 21
127.625
  0
LINE
  8
0
 10
133.965
 20
127.625
 11
133.937
 21
127.503
  0
LINE
  8
0
 10
133.937
 20
127.503
 11
133.902
 21
127.382
  0
LINE
  8
0
 10
133.902
 20
127.382
 11
133.86
 21
127.264
  0
LINE
  8
0
 10
133.86
 20
127.264
 11
133.81
 21
127.148
  0
LINE
  8
0
 10
133.81
 20
127.148
 11
133.753
 21
127.036
  0
LINE
  8
0
 10
133.753
 20
127.036
 11
133.689
 21
126.928
  0
LINE
  8
0
 10
133.689
 20
126.928
 11
133.618
 21
126.824
  0
LINE
  8
0
 10
133.618
 20
126.824
 11
133.541
 21
126.725
  0
LINE
  8
0
 10
133.541
 20
126.725
 11
133.458
 21
126.631
  0
LINE
  8
0
 10
133.458
 20
126.631
 11
133.369
 21
126.542
  0
LINE
  8
0
 10
133.369
 20
126.542
 11
133.275
 21
126.459
  0
LINE
  8
0
 10
133.275
 20
126.459
 11
133.176
 21
126.382
  0
LINE
  8
0
 10
133.176
 20
126.382
 11
133.072
 21
126.311
  0
LINE
  8
0
 10
133.072
 20
126.311
 11
132.964
 21
126.247
  0
LINE
  8
0
 10
132.964
 20
126.247
 11
132.852
 21
126.19
  0
LINE
  8
0
 10
132.852
 20
126.19
 11
132.736
 21
126.14
  0
LINE
  8
0
 10
132.736
 20
126.14
 11
132.618
 21
126.098
  0
LINE
  8
0
 10
132.618
 20
126.098
 11
132.497
 21
126.063
  0
LINE
  8
0
 10
132.497
 20
126.063
 11
132.375
 21
126.035
  0
LINE
  8
0
 10
132.375
 20
126.035
 11
132.251
 21
126.016
  0
LINE
  8
0
 10
132.251
 20
126.016
 11
132.126
 21
126.004
  0
LINE
  8
0
 10
132.126
 20
126.004
 11
132
 21
126
  0
LINE
  8
0
 10
132
 20
126
 11
-61
 21
126
  0
LINE
  8
0
 10
-15
 20
-41.9944
 11
-15
 21
-11
  0
LINE
  8
0
 10
-15
 20
-11
 11
-9
 21
-11
  0
LINE
  8
0
 10
-9
 20
-11
 11
-9
 21
-41.9938
  0
LINE
  8
0
 10
-9
 20
-41.9938
 11
0.377533
 21
-41.9929
  0
LINE
  8
0
 10
0.377533
 20
-41.9929
 11
1.00424
 21
-41.9494
  0
LINE
  8
0
 10
1.00424
 20
-41.9494
 11
1.627
 21
-41.8667
  0
LINE
  8
0
 10
1.627
 20
-41.8667
 11
2.24332
 21
-41.7451
  0
LINE
  8
0
 10
2.24332
 20
-41.7451
 11
2.8508
 21
-41.585
  0
LINE
  8
0
 10
2.8508
 20
-41.585
 11
3.44702
 21
-41.3871
  0
LINE
  8
0
 10
3.44702
 20
-41.3871
 11
4.02965
 21
-41.1521
  0
LINE
  8
0
 10
4.02965
 20
-41.1521
 11
4.59636
 21
-40.8811
  0
LINE
  8
0
 10
4.59636
 20
-40.8811
 11
5.14493
 21
-40.5749
  0
LINE
  8
0
 10
5.14493
 20
-40.5749
 11
55.5254
 21
-10.3348
  0
LINE
  8
0
 10
55.5254
 20
-10.3348
 11
56.0379
 21
-9.97145
  0
LINE
  8
0
 10
56.0379
 20
-9.97145
 11
56.5265
 21
-9.5766
  0
LINE
  8
0
 10
56.5265
 20
-9.5766
 11
56.9893
 21
-9.15184
  0
LINE
  8
0
 10
56.9893
 20
-9.15184
 11
57.4246
 21
-8.69887
  0
LINE
  8
0
 10
57.4246
 20
-8.69887
 11
57.8306
 21
-8.21945
  0
LINE
  8
0
 10
57.8306
 20
-8.21945
 11
58.2057
 21
-7.7155
  0
LINE
  8
0
 10
58.2057
 20
-7.7155
 11
58.5484
 21
-7.18898
  0
LINE
  8
0
 10
58.5484
 20
-7.18898
 11
58.8573
 21
-6.64198
  0
LINE
  8
0
 10
58.8573
 20
-6.64198
 11
59.1313
 21
-6.07668
  0
LINE
  8
0
 10
59.1313
 20
-6.07668
 11
59.3692
 21
-5.49527
  0
LINE
  8
0
 10
59.3692
 20
-5.49527
 11
59.5702
 21
-4.90007
  0
LINE
  8
0
 10
59.5702
 20
-4.90007
 11
69.6858
 21
28.5131
  0
LINE
  8
0
 10
69.6858
 20
28.5131
 11
69.8229
 21
29.1262
  0
LINE
  8
0
 10
69.8229
 20
29.1262
 11
69.9211
 21
29.7466
  0
LINE
  8
0
 10
69.9211
 20
29.7466
 11
69.9803
 21
30.3721
  0
LINE
  8
0
 10
69.9803
 20
30.3721
 11
70
 21
31
  0
LINE
  8
0
 10
70
 20
31
 11
69.9803
 21
31.6279
  0
LINE
  8
0
 10
69.9803
 20
31.6279
 11
69.9211
 21
32.2533
  0
LINE
  8
0
 10
69.9211
 20
32.2533
 11
69.8229
 21
32.8738
  0
LINE
  8
0
 10
69.8229
 20
32.8738
 11
69.6858
 21
33.4869
  0
LINE
  8
0
 10
69.6858
 20
33.4869
 11
69.5106
 21
34.0901
  0
LINE
  8
0
 10
69.5106
 20
34.0901
 11
69.2978
 21
34.6812
  0
LINE
  8
0
 10
69.2978
 20
34.6812
 11
69.0483
 21
35.2578
  0
LINE
  8
0
 10
69.0483
 20
35.2578
 11
68.7631
 21
35.8175
  0
LINE
  8
0
 10
68.7631
 20
35.8175
 11
68.4433
 21
36.3582
  0
LINE
  8
0
 10
68.4433
 20
36.3582
 11
68.0902
 21
36.8778
  0
LINE
  8
0
 10
68.0902
 20
36.8778
 11
67.7051
 21
37.3742
  0
LINE
  8
0
 10
67.7051
 20
37.3742
 11
67.2897
 21
37.8454
  0
LINE
  8
0
 10
67.2897
 20
37.8454
 11
66.8455
 21
38.2897
  0
LINE
  8
0
 10
66.8455
 20
38.2897
 11
66.3742
 21
38.7051
  0
LINE
  8
0
 10
66.3742
 20
38.7051
 11
65.8778
 21
39.0901
  0
LINE
  8
0
 10
65.8778
 20
39.0901
 11
65.3583
 21
39.4433
  0
LINE
  8
0
 10
65.3583
 20
39.4433
 11
64.8175
 21
39.763
  0
LINE
  8
0
 10
64.8175
 20
39.763
 11
64.2578
 21
40.0482
  0
LINE
  8
0
 10
64.2578
 20
40.0482
 11
63.6812
 21
40.2977
  0
LINE
  8
0
 10
63.6812
 20
40.2977
 11
63.0902
 21
40.5105
  0
LINE
  8
0
 10
63.0902
 20
40.5105
 11
62.4869
 21
40.6858
  0
LINE
  8
0
 10
62.4869
 20
40.6858
 11
61.8738
 21
40.8228
  0
LINE
  8
0
 10
61.8738
 20
40.8228
 11
61.2533
 21
40.9211
  0
LINE
  8
0
 10
61.2533
 20
40.9211
 11
60.6279
 21
40.9802
  0
LINE
  8
0
 10
60.6279
 20
40.9802
 11
60
 21
41
  0
LINE
  8
0
 10
60
 20
41
 11
-60.539
 21
40.9855
  0
LINE
  8
0
 10
-60.539
 20
40.9855
 11
-61.165
 21
40.9319
  0
LINE
  8
0
 10
-61.165
 20
40.9319
 11
-61.7863
 21
40.8392
  0
LINE
  8
0
 10
-61.7863
 20
40.8392
 11
-62.4006
 21
40.7076
  0
LINE
  8
0
 10
-62.4006
 20
40.7076
 11
-63.0054
 21
40.5377
  0
LINE
  8
0
 10
-63.0054
 20
40.5377
 11
-63.5983
 21
40.3302
  0
LINE
  8
0
 10
-63.5983
 20
40.3302
 11
-64.1771
 21
40.0858
  0
LINE
  8
0
 10
-64.1771
 20
40.0858
 11
-64.7393
 21
39.8056
  0
LINE
  8
0
 10
-64.7393
 20
39.8056
 11
-65.2829
 21
39.4906
  0
LINE
  8
0
 10
-65.2829
 20
39.4906
 11
-65.8056
 21
39.1422
  0
LINE
  8
0
 10
-65.8056
 20
39.1422
 11
-66.3054
 21
38.7616
  0
LINE
  8
0
 10
-66.3054
 20
38.7616
 11
-66.7803
 21
38.3503
  0
LINE
  8
0
 10
-66.7803
 20
38.3503
 11
-67.2285
 21
37.9101
  0
LINE
  8
0
 10
-67.2285
 20
37.9101
 11
-67.6481
 21
37.4426
  0
LINE
  8
0
 10
-67.6481
 20
37.4426
 11
-68.0375
 21
36.9496
  0
LINE
  8
0
 10
-68.0375
 20
36.9496
 11
-68.3952
 21
36.4332
  0
LINE
  8
0
 10
-68.3952
 20
36.4332
 11
-68.7198
 21
35.8953
  0
LINE
  8
0
 10
-68.7198
 20
35.8953
 11
-69.01
 21
35.3382
  0
LINE
  8
0
 10
-69.01
 20
35.3382
 11
-82.0483
 21
8.25778
  0
LINE
  8
0
 10
-82.0483
 20
8.25778
 11
-82.2978
 21
7.68124
  0
LINE
  8
0
 10
-82.2978
 20
7.68124
 11
-82.5106
 21
7.09016
  0
LINE
  8
0
 10
-82.5106
 20
7.09016
 11
-82.6858
 21
6.48689
  0
LINE
  8
0
 10
-82.6858
 20
6.48689
 11
-82.8229
 21
5.87381
  0
LINE
  8
0
 10
-82.8229
 20
5.87381
 11
-82.9211
 21
5.25333
  0
LINE
  8
0
 10
-82.9211
 20
5.25333
 11
-82.9803
 21
4.6279
  0
LINE
  8
0
 10
-82.9803
 20
4.6279
 11
-83
 21
4
  0
LINE
  8
0
 10
-83
 20
4
 11
-82.9803
 21
-32.6279
  0
LINE
  8
0
 10
-82.9803
 20
-32.6279
 11
-82.9211
 21
-33.2533
  0
LINE
  8
0
 10
-82.9211
 20
-33.2533
 11
-82.8229
 21
-33.8738
  0
LINE
  8
0
 10
-82.8229
 20
-33.8738
 11
-82.6858
 21
-34.4869
  0
LINE
  8
0
 10
-82.6858
 20
-34.4869
 11
-82.5106
 21
-35.0901
  0
LINE
  8
0
 10
-82.5106
 20
-35.0901
 11
-82.2978
 21
-35.6812
  0
LINE
  8
0
 10
-82.2978
 20
-35.6812
 11
-82.0483
 21
-36.2578
  0
LINE
  8
0
 10
-82.0483
 20
-36.2578
 11
-81.7631
 21
-36.8175
  0
LINE
  8
0
 10
-81.7631
 20
-36.8175
 11
-81.4433
 21
-37.3582
  0
LINE
  8
0
 10
-81.4433
 20
-37.3582
 11
-81.0902
 21
-37.8778
  0
LINE
  8
0
 10
-81.0902
 20
-37.8778
 11
-80.7051
 21
-38.3742
  0
LINE
  8
0
 10
-80.7051
 20
-38.3742
 11
-80.2897
 21
-38.8454
  0
LINE
  8
0
 10
-80.2897
 20
-38.8454
 11
-79.8455
 21
-39.2897
  0
LINE
  8
0
 10
-79.8455
 20
-39.2897
 11
-79.3742
 21
-39.7051
  0
LINE
  8
0
 10
-79.3742
 20
-39.7051
 11
-78.8778
 21
-40.0901
  0
LINE
  8
0
 10
-78.8778
 20
-40.0901
 11
-78.3583
 21
-40.4433
  0
LINE
  8
0
 10
-78.3583
 20
-40.4433
 11
-77.8175
 21
-40.763
  0
LINE
  8
0
 10
-77.8175
 20
-40.763
 11
-77.2578
 21
-41.0482
  0
LINE
  8
0
 10
-77.2578
 20
-41.0482
 11
-76.6812
 21
-41.2977
  0
LINE
  8
0
 10
-76.6812
 20
-41.2977
 11
-76.0902
 21
-41.5105
  0
LINE
  8
0
 10
-76.0902
 20
-41.5105
 11
-75.4869
 21
-41.6858
  0
LINE
  8
0
 10
-75.4869
 20
-41.6858
 11
-74.8738
 21
-41.8228
  0
LINE
  8
0
 10
-74.8738
 20
-41.8228
 11
-74.2533
 21
-41.9211
  0
LINE
  8
0
 10
-74.2533
 20
-41.9211
 11
-73.6279
 21
-41.9802
  0
LINE
  8
0
 10
-73.6279
 20
-41.9802
 11
-73
 21
-42
  0
LINE
  8
0
 10
-73
 20
-42
 11
-15
 21
-41.9944
  0
LINE
  8
0
 10
-40
 20
26
 11
-40
 21
32
  0
LINE
  8
0
 10
-40
 20
32
 11
-9.99998
 21
32
  0
LINE
  8
0
 10
-9.99998
 20
32
 11
-9.99998
 21
26
  0
LINE
  8
0
 10
-9.99998
 20
26
 11
-40
 21
26
  0
LINE
  8
0
 10
10
 20
26
 11
10
 21
32
  0
LINE
  8
0
 10
10
 20
32
 11
40
 21
32
  0
LINE
  8
0
 10
40
 20
32
 11
40
 21
26
  0
LINE
  8
0
 10
40
 20
26
 11
10
 21
26
  0
LINE
  8
0
 10
-14.0628
 20
1.50099
 11
-14.1882
 21
1.50888
  0
LINE
  8
0
 10
-14.1882
 20
1.50888
 11
-14.3129
 21
1.52463
  0
LINE
  8
0
 10
-14.3129
 20
1.52463
 11
-14.4363
 21
1.54817
  0
LINE
  8
0
 10
-14.4363
 20
1.54817
 11
-14.558
 21
1.57942
  0
LINE
  8
0
 10
-14.558
 20
1.57942
 11
-14.6775
 21
1.61824
  0
LINE
  8
0
 10
-14.6775
 20
1.61824
 11
-14.7943
 21
1.66451
  0
LINE
  8
0
 10
-14.7943
 20
1.66451
 11
-14.908
 21
1.71799
  0
LINE
  8
0
 10
-14.908
 20
1.71799
 11
-15.0181
 21
1.77852
  0
LINE
  8
0
 10
-15.0181
 20
1.77852
 11
-15.1242
 21
1.84584
  0
LINE
  8
0
 10
-15.1242
 20
1.84584
 11
-15.2258
 21
1.91969
  0
LINE
  8
0
 10
-15.2258
 20
1.91969
 11
-15.3226
 21
1.99979
  0
LINE
  8
0
 10
-15.3226
 20
1.99979
 11
-15.4142
 21
2.0858
  0
LINE
  8
0
 10
-15.4142
 20
2.0858
 11
-15.5002
 21
2.17738
  0
LINE
  8
0
 10
-15.5002
 20
2.17738
 11
-15.5803
 21
2.2742
  0
LINE
  8
0
 10
-15.5803
 20
2.2742
 11
-15.6542
 21
2.37584
  0
LINE
  8
0
 10
-15.6542
 20
2.37584
 11
-15.7215
 21
2.48192
  0
LINE
  8
0
 10
-15.7215
 20
2.48192
 11
-15.782
 21
2.59203
  0
LINE
  8
0
 10
-15.782
 20
2.59203
 11
-15.8355
 21
2.70572
  0
LINE
  8
0
 10
-15.8355
 20
2.70572
 11
-15.8818
 21
2.82253
  0
LINE
  8
0
 10
-15.8818
 20
2.82253
 11
-15.9206
 21
2.94203
  0
LINE
  8
0
 10
-15.9206
 20
2.94203
 11
-15.9518
 21
3.06372
  0
LINE
  8
0
 10
-15.9518
 20
3.06372
 11
-15.9754
 21
3.18713
  0
LINE
  8
0
 10
-15.9754
 20
3.18713
 11
-15.9911
 21
3.3118
  0
LINE
  8
0
 10
-15.9911
 20
3.3118
 11
-15.999
 21
3.43718
  0
LINE
  8
0
 10
-15.999
 20
3.43718
 11
-15.999
 21
3.56284
  0
LINE
  8
0
 10
-15.999
 20
3.56284
 11
-15.9911
 21
3.68822
  0
LINE
  8
0
 10
-15.9911
 20
3.68822
 11
-15.9754
 21
3.81288
  0
LINE
  8
0
 10
-15.9754
 20
3.81288
 11
-15.9518
 21
3.93629
  0
LINE
  8
0
 10
-15.9518
 20
3.93629
 11
-15.9206
 21
4.05797
  0
LINE
  8
0
 10
-15.9206
 20
4.05797
 11
-15.8818
 21
4.17747
  0
LINE
  8
0
 10
-15.8818
 20
4.17747
 11
-15.8355
 21
4.29428
  0
LINE
  8
0
 10
-15.8355
 20
4.29428
 11
-15.782
 21
4.40797
  0
LINE
  8
0
 10
-15.782
 20
4.40797
 11
-15.7215
 21
4.51808
  0
LINE
  8
0
 10
-15.7215
 20
4.51808
 11
-15.6542
 21
4.62416
  0
LINE
  8
0
 10
-15.6542
 20
4.62416
 11
-15.5803
 21
4.7258
  0
LINE
  8
0
 10
-15.5803
 20
4.7258
 11
-15.5002
 21
4.82262
  0
LINE
  8
0
 10
-15.5002
 20
4.82262
 11
-6.04997
 21
14.2772
  0
LINE
  8
0
 10
-6.04997
 20
14.2772
 11
-6.04997
 21
17.6
  0
LINE
  8
0
 10
-6.04997
 20
17.6
 11
6.04999
 21
17.6
  0
LINE
  8
0
 10
6.04999
 20
17.6
 11
6.04999
 21
13.4
  0
LINE
  8
0
 10
6.04999
 20
13.4
 11
-1.27678
 21
13.4
  0
LINE
  8
0
 10
-1.27678
 20
13.4
 11
-12.5858
 21
2.0858
  0
LINE
  8
0
 10
-12.5858
 20
2.0858
 11
-12.6774
 21
1.99979
  0
LINE
  8
0
 10
-12.6774
 20
1.99979
 11
-12.7742
 21
1.91969
  0
LINE
  8
0
 10
-12.7742
 20
1.91969
 11
-12.8758
 21
1.84584
  0
LINE
  8
0
 10
-12.8758
 20
1.84584
 11
-12.9819
 21
1.77852
  0
LINE
  8
0
 10
-12.9819
 20
1.77852
 11
-13.092
 21
1.71799
  0
LINE
  8
0
 10
-13.092
 20
1.71799
 11
-13.2057
 21
1.66451
  0
LINE
  8
0
 10
-13.2057
 20
1.66451
 11
-13.3225
 21
1.61824
  0
LINE
  8
0
 10
-13.3225
 20
1.61824
 11
-13.442
 21
1.57942
  0
LINE
  8
0
 10
-13.442
 20
1.57942
 11
-13.5637
 21
1.54817
  0
LINE
  8
0
 10
-13.5637
 20
1.54817
 11
-13.6871
 21
1.52463
  0
LINE
  8
0
 10
-13.6871
 20
1.52463
 11
-13.8118
 21
1.50888
  0
LINE
  8
0
 10
-13.8118
 20
1.50888
 11
-13.9372
 21
1.50099
  0
LINE
  8
0
 10
-13.9372
 20
1.50099
 11
-14.0628
 21
1.50099
  0
LINE
  8
0
 10
-3.5
 20
-22
 11
-3.62558
 21
-21.996
  0
LINE
  8
0
 10
-3.62558
 20
-21.996
 11
-3.75066
 21
-21.9842
  0
LINE
  8
0
 10
-3.75066
 20
-21.9842
 11
-3.87476
 21
-21.9646
  0
LINE
  8
0
 10
-3.87476
 20
-21.9646
 11
-3.99738
 21
-21.9372
  0
LINE
  8
0
 10
-3.99738
 20
-21.9372
 11
-4.11803
 21
-21.9021
  0
LINE
  8
0
 10
-4.11803
 20
-21.9021
 11
-4.23624
 21
-21.8595
  0
LINE
  8
0
 10
-4.23624
 20
-21.8595
 11
-4.35155
 21
-21.8096
  0
LINE
  8
0
 10
-4.35155
 20
-21.8096
 11
-4.4635
 21
-21.7526
  0
LINE
  8
0
 10
-4.4635
 20
-21.7526
 11
-4.57164
 21
-21.6886
  0
LINE
  8
0
 10
-4.57164
 20
-21.6886
 11
-4.67557
 21
-21.618
  0
LINE
  8
0
 10
-4.67557
 20
-21.618
 11
-4.77484
 21
-21.541
  0
LINE
  8
0
 10
-4.77484
 20
-21.541
 11
-4.86908
 21
-21.4579
  0
LINE
  8
0
 10
-4.86908
 20
-21.4579
 11
-4.95793
 21
-21.3691
  0
LINE
  8
0
 10
-4.95793
 20
-21.3691
 11
-5.04102
 21
-21.2748
  0
LINE
  8
0
 10
-5.04102
 20
-21.2748
 11
-5.11803
 21
-21.1756
  0
LINE
  8
0
 10
-5.11803
 20
-21.1756
 11
-5.18864
 21
-21.0716
  0
LINE
  8
0
 10
-5.18864
 20
-21.0716
 11
-5.25261
 21
-20.9635
  0
LINE
  8
0
 10
-5.25261
 20
-20.9635
 11
-5.30965
 21
-20.8515
  0
LINE
  8
0
 10
-5.30965
 20
-20.8515
 11
-5.35954
 21
-20.7362
  0
LINE
  8
0
 10
-5.35954
 20
-20.7362
 11
-5.4021
 21
-20.618
  0
LINE
  8
0
 10
-5.4021
 20
-20.618
 11
-5.43716
 21
-20.4974
  0
LINE
  8
0
 10
-5.43716
 20
-20.4974
 11
-5.46457
 21
-20.3748
  0
LINE
  8
0
 10
-5.46457
 20
-20.3748
 11
-5.48422
 21
-20.2507
  0
LINE
  8
0
 10
-5.48422
 20
-20.2507
 11
-5.49605
 21
-20.1256
  0
LINE
  8
0
 10
-5.49605
 20
-20.1256
 11
-5.5
 21
-20
  0
LINE
  8
0
 10
-5.5
 20
-20
 11
-5.5
 21
-1.99998
  0
LINE
  8
0
 10
-5.5
 20
-1.99998
 11
-5.49605
 21
-1.8744
  0
LINE
  8
0
 10
-5.49605
 20
-1.8744
 11
-5.48422
 21
-1.74933
  0
LINE
  8
0
 10
-5.48422
 20
-1.74933
 11
-5.46457
 21
-1.62523
  0
LINE
  8
0
 10
-5.46457
 20
-1.62523
 11
-5.43716
 21
-1.50261
  0
LINE
  8
0
 10
-5.43716
 20
-1.50261
 11
-5.4021
 21
-1.38196
  0
LINE
  8
0
 10
-5.4021
 20
-1.38196
 11
-5.35954
 21
-1.26375
  0
LINE
  8
0
 10
-5.35954
 20
-1.26375
 11
-5.30965
 21
-1.14844
  0
LINE
  8
0
 10
-5.30965
 20
-1.14844
 11
-5.25261
 21
-1.03648
  0
LINE
  8
0
 10
-5.25261
 20
-1.03648
 11
-5.18864
 21
-0.928345
  0
LINE
  8
0
 10
-5.18864
 20
-0.928345
 11
-5.11803
 21
-0.824417
  0
LINE
  8
0
 10
-5.11803
 20
-0.824417
 11
-5.04102
 21
-0.725143
  0
LINE
  8
0
 10
-5.04102
 20
-0.725143
 11
-4.95793
 21
-0.630905
  0
LINE
  8
0
 10
-4.95793
 20
-0.630905
 11
-4.86908
 21
-0.542053
  0
LINE
  8
0
 10
-4.86908
 20
-0.542053
 11
-4.77484
 21
-0.458969
  0
LINE
  8
0
 10
-4.77484
 20
-0.458969
 11
-4.67557
 21
-0.381958
  0
LINE
  8
0
 10
-4.67557
 20
-0.381958
 11
-4.57164
 21
-0.31134
  0
LINE
  8
0
 10
-4.57164
 20
-0.31134
 11
-4.4635
 21
-0.247375
  0
LINE
  8
0
 10
-4.4635
 20
-0.247375
 11
-4.35155
 21
-0.190338
  0
LINE
  8
0
 10
-4.35155
 20
-0.190338
 11
-4.23624
 21
-0.140442
  0
LINE
  8
0
 10
-4.23624
 20
-0.140442
 11
-4.11803
 21
-0.0978851
  0
LINE
  8
0
 10
-4.11803
 20
-0.0978851
 11
-3.99738
 21
-0.0628204
  0
LINE
  8
0
 10
-3.99738
 20
-0.0628204
 11
-3.87476
 21
-0.0354156
  0
LINE
  8
0
 10
-3.87476
 20
-0.0354156
 11
-3.75066
 21
-0.0157623
  0
LINE
  8
0
 10
-3.75066
 20
-0.0157623
 11
-3.62558
 21
-0.00395203
  0
LINE
  8
0
 10
-3.62558
 20
-0.00395203
 11
-3.5
 21
0
  0
LINE
  8
0
 10
-3.5
 20
0
 11
3.49998
 21
0
  0
LINE
  8
0
 10
3.49998
 20
0
 11
3.62556
 21
-0.00395203
  0
LINE
  8
0
 10
3.62556
 20
-0.00395203
 11
3.75064
 21
-0.0157776
  0
LINE
  8
0
 10
3.75064
 20
-0.0157776
 11
3.87474
 21
-0.0354309
  0
LINE
  8
0
 10
3.87474
 20
-0.0354309
 11
3.99736
 21
-0.0628357
  0
LINE
  8
0
 10
3.99736
 20
-0.0628357
 11
4.11801
 21
-0.0979004
  0
LINE
  8
0
 10
4.11801
 20
-0.0979004
 11
4.23622
 21
-0.140457
  0
LINE
  8
0
 10
4.23622
 20
-0.140457
 11
4.35153
 21
-0.190353
  0
LINE
  8
0
 10
4.35153
 20
-0.190353
 11
4.46349
 21
-0.247391
  0
LINE
  8
0
 10
4.46349
 20
-0.247391
 11
4.57162
 21
-0.311356
  0
LINE
  8
0
 10
4.57162
 20
-0.311356
 11
4.67555
 21
-0.381973
  0
LINE
  8
0
 10
4.67555
 20
-0.381973
 11
4.77483
 21
-0.458984
  0
LINE
  8
0
 10
4.77483
 20
-0.458984
 11
4.86906
 21
-0.542068
  0
LINE
  8
0
 10
4.86906
 20
-0.542068
 11
4.95792
 21
-0.63092
  0
LINE
  8
0
 10
4.95792
 20
-0.63092
 11
5.041
 21
-0.725159
  0
LINE
  8
0
 10
5.041
 20
-0.725159
 11
5.11801
 21
-0.824432
  0
LINE
  8
0
 10
5.11801
 20
-0.824432
 11
5.18863
 21
-0.92836
  0
LINE
  8
0
 10
5.18863
 20
-0.92836
 11
5.25259
 21
-1.0365
  0
LINE
  8
0
 10
5.25259
 20
-1.0365
 11
5.30963
 21
-1.14845
  0
LINE
  8
0
 10
5.30963
 20
-1.14845
 11
5.35953
 21
-1.26376
  0
LINE
  8
0
 10
5.35953
 20
-1.26376
 11
5.40208
 21
-1.38197
  0
LINE
  8
0
 10
5.40208
 20
-1.38197
 11
5.43715
 21
-1.50262
  0
LINE
  8
0
 10
5.43715
 20
-1.50262
 11
5.46455
 21
-1.62524
  0
LINE
  8
0
 10
5.46455
 20
-1.62524
 11
5.48421
 21
-1.74934
  0
LINE
  8
0
 10
5.48421
 20
-1.74934
 11
5.49603
 21
-1.87442
  0
LINE
  8
0
 10
5.49603
 20
-1.87442
 11
5.49998
 21
-2
  0
LINE
  8
0
 10
5.49998
 20
-2
 11
5.49998
 21
-20
  0
LINE
  8
0
 10
5.49998
 20
-20
 11
5.49603
 21
-20.1256
  0
LINE
  8
0
 10
5.49603
 20
-20.1256
 11
5.48421
 21
-20.2507
  0
LINE
  8
0
 10
5.48421
 20
-20.2507
 11
5.46455
 21
-20.3748
  0
LINE
  8
0
 10
5.46455
 20
-20.3748
 11
5.43715
 21
-20.4974
  0
LINE
  8
0
 10
5.43715
 20
-20.4974
 11
5.40208
 21
-20.618
  0
LINE
  8
0
 10
5.40208
 20
-20.618
 11
5.35953
 21
-20.7362
  0
LINE
  8
0
 10
5.35953
 20
-20.7362
 11
5.30963
 21
-20.8515
  0
LINE
  8
0
 10
5.30963
 20
-20.8515
 11
5.25259
 21
-20.9635
  0
LINE
  8
0
 10
5.25259
 20
-20.9635
 11
5.18863
 21
-21.0716
  0
LINE
  8
0
 10
5.18863
 20
-21.0716
 11
5.11801
 21
-21.1756
  0
LINE
  8
0
 10
5.11801
 20
-21.1756
 11
5.041
 21
-21.2748
  0
LINE
  8
0
 10
5.041
 20
-21.2748
 11
4.95792
 21
-21.3691
  0
LINE
  8
0
 10
4.95792
 20
-21.3691
 11
4.86906
 21
-21.4579
  0
LINE
  8
0
 10
4.86906
 20
-21.4579
 11
4.77483
 21
-21.541
  0
LINE
  8
0
 10
4.77483
 20
-21.541
 11
4.67555
 21
-21.618
  0
LINE
  8
0
 10
4.67555
 20
-21.618
 11
4.57162
 21
-21.6886
  0
LINE
  8
0
 10
4.57162
 20
-21.6886
 11
4.46349
 21
-21.7526
  0
LINE
  8
0
 10
4.46349
 20
-21.7526
 11
4.35153
 21
-21.8096
  0
LINE
  8
0
 10
4.35153
 20
-21.8096
 11
4.23622
 21
-21.8595
  0
LINE
  8
0
 10
4.23622
 20
-21.8595
 11
4.11801
 21
-21.9021
  0
LINE
  8
0
 10
4.11801
 20
-21.9021
 11
3.99736
 21
-21.9372
  0
LINE
  8
0
 10
3.99736
 20
-21.9372
 11
3.87474
 21
-21.9646
  0
LINE
  8
0
 10
3.87474
 20
-21.9646
 11
3.75064
 21
-21.9842
  0
LINE
  8
0
 10
3.75064
 20
-21.9842
 11
3.62556
 21
-21.996
  0
LINE
  8
0
 10
3.62556
 20
-21.996
 11
3.49998
 21
-22
  0
LINE
  8
0
 10
3.49998
 20
-22
 11
-3.5
 21
-22
  0
LINE
  8
0
 10
-62
 20
-21
 11
-62
 21
-0.999985
  0
LINE
  8
0
 10
-62
 20
-0.999985
 11
-36
 21
-0.999985
  0
LINE
  8
0
 10
-36
 20
-0.999985
 11
-36
 21
-21
  0
LINE
  8
0
 10
-36
 20
-21
 11
-62
 21
-21
  0
LINE
  8
0
 10
186.539
 20
-42.9855
 11
187.165
 21
-42.9319
  0
LINE
  8
0
 10
187.165
 20
-42.9319
 11
187.786
 21
-42.8392
  0
LINE
  8
0
 10
187.786
 20
-42.8392
 11
188.401
 21
-42.7076
  0
LINE
  8
0
 10
188.401
 20
-42.7076
 11
189.005
 21
-42.5377
  0
LINE
  8
0
 10
189.005
 20
-42.5377
 11
189.598
 21
-42.3302
  0
LINE
  8
0
 10
189.598
 20
-42.3302
 11
190.177
 21
-42.0858
  0
LINE
  8
0
 10
190.177
 20
-42.0858
 11
190.739
 21
-41.8056
  0
LINE
  8
0
 10
190.739
 20
-41.8056
 11
191.283
 21
-41.4906
  0
LINE
  8
0
 10
191.283
 20
-41.4906
 11
191.806
 21
-41.1422
  0
LINE
  8
0
 10
191.806
 20
-41.1422
 11
192.305
 21
-40.7616
  0
LINE
  8
0
 10
192.305
 20
-40.7616
 11
192.78
 21
-40.3503
  0
LINE
  8
0
 10
192.78
 20
-40.3503
 11
193.228
 21
-39.9101
  0
LINE
  8
0
 10
193.228
 20
-39.9101
 11
193.648
 21
-39.4426
  0
LINE
  8
0
 10
193.648
 20
-39.4426
 11
194.038
 21
-38.9496
  0
LINE
  8
0
 10
194.038
 20
-38.9496
 11
194.395
 21
-38.4332
  0
LINE
  8
0
 10
194.395
 20
-38.4332
 11
194.72
 21
-37.8953
  0
LINE
  8
0
 10
194.72
 20
-37.8953
 11
195.01
 21
-37.3382
  0
LINE
  8
0
 10
195.01
 20
-37.3382
 11
208.048
 21
-10.2578
  0
LINE
  8
0
 10
208.048
 20
-10.2578
 11
208.298
 21
-9.68124
  0
LINE
  8
0
 10
208.298
 20
-9.68124
 11
208.511
 21
-9.09016
  0
LINE
  8
0
 10
208.511
 20
-9.09016
 11
208.686
 21
-8.48689
  0
LINE
  8
0
 10
208.686
 20
-8.48689
 11
208.823
 21
-7.87381
  0
LINE
  8
0
 10
208.823
 20
-7.87381
 11
208.921
 21
-7.25333
  0
LINE
  8
0
 10
208.921
 20
-7.25333
 11
208.98
 21
-6.6279
  0
LINE
  8
0
 10
208.98
 20
-6.6279
 11
209
 21
-6
  0
LINE
  8
0
 10
209
 20
-6
 11
208.981
 21
29.5
  0
LINE
  8
0
 10
208.981
 20
29.5
 11
188.25
 21
29.5
  0
LINE
  8
0
 10
188.25
 20
29.5
 11
188.25
 21
32.5
  0
LINE
  8
0
 10
188.25
 20
32.5
 11
208.682
 21
32.5
  0
LINE
  8
0
 10
208.682
 20
32.5
 11
208.511
 21
33.0902
  0
LINE
  8
0
 10
208.511
 20
33.0902
 11
208.298
 21
33.6812
  0
LINE
  8
0
 10
208.298
 20
33.6812
 11
208.048
 21
34.2578
  0
LINE
  8
0
 10
208.048
 20
34.2578
 11
207.763
 21
34.8175
  0
LINE
  8
0
 10
207.763
 20
34.8175
 11
207.443
 21
35.3583
  0
LINE
  8
0
 10
207.443
 20
35.3583
 11
207.09
 21
35.8778
  0
LINE
  8
0
 10
207.09
 20
35.8778
 11
206.705
 21
36.3742
  0
LINE
  8
0
 10
206.705
 20
36.3742
 11
206.29
 21
36.8455
  0
LINE
  8
0
 10
206.29
 20
36.8455
 11
205.845
 21
37.2897
  0
LINE
  8
0
 10
205.845
 20
37.2897
 11
205.374
 21
37.7051
  0
LINE
  8
0
 10
205.374
 20
37.7051
 11
204.878
 21
38.0902
  0
LINE
  8
0
 10
204.878
 20
38.0902
 11
204.358
 21
38.4433
  0
LINE
  8
0
 10
204.358
 20
38.4433
 11
203.818
 21
38.7631
  0
LINE
  8
0
 10
203.818
 20
38.7631
 11
203.258
 21
39.0483
  0
LINE
  8
0
 10
203.258
 20
39.0483
 11
202.681
 21
39.2978
  0
LINE
  8
0
 10
202.681
 20
39.2978
 11
202.09
 21
39.5106
  0
LINE
  8
0
 10
202.09
 20
39.5106
 11
201.487
 21
39.6858
  0
LINE
  8
0
 10
201.487
 20
39.6858
 11
200.874
 21
39.8229
  0
LINE
  8
0
 10
200.874
 20
39.8229
 11
200.253
 21
39.9211
  0
LINE
  8
0
 10
200.253
 20
39.9211
 11
199.628
 21
39.9803
  0
LINE
  8
0
 10
199.628
 20
39.9803
 11
199
 21
40
  0
LINE
  8
0
 10
199
 20
40
 11
141
 21
39.9944
  0
LINE
  8
0
 10
141
 20
39.9944
 11
141
 21
9
  0
LINE
  8
0
 10
141
 20
9
 11
135
 21
9
  0
LINE
  8
0
 10
135
 20
9
 11
135
 21
39.9938
  0
LINE
  8
0
 10
135
 20
39.9938
 11
125.622
 21
39.9929
  0
LINE
  8
0
 10
125.622
 20
39.9929
 11
124.996
 21
39.9494
  0
LINE
  8
0
 10
124.996
 20
39.9494
 11
124.373
 21
39.8667
  0
LINE
  8
0
 10
124.373
 20
39.8667
 11
123.757
 21
39.7451
  0
LINE
  8
0
 10
123.757
 20
39.7451
 11
123.149
 21
39.585
  0
LINE
  8
0
 10
123.149
 20
39.585
 11
122.553
 21
39.3871
  0
LINE
  8
0
 10
122.553
 20
39.3871
 11
121.97
 21
39.1521
  0
LINE
  8
0
 10
121.97
 20
39.1521
 11
121.404
 21
38.8811
  0
LINE
  8
0
 10
121.404
 20
38.8811
 11
120.855
 21
38.5749
  0
LINE
  8
0
 10
120.855
 20
38.5749
 11
70.4746
 21
8.33484
  0
LINE
  8
0
 10
70.4746
 20
8.33484
 11
69.9621
 21
7.97145
  0
LINE
  8
0
 10
69.9621
 20
7.97145
 11
69.4735
 21
7.5766
  0
LINE
  8
0
 10
69.4735
 20
7.5766
 11
69.0107
 21
7.15184
  0
LINE
  8
0
 10
69.0107
 20
7.15184
 11
68.5754
 21
6.69887
  0
LINE
  8
0
 10
68.5754
 20
6.69887
 11
68.1694
 21
6.21945
  0
LINE
  8
0
 10
68.1694
 20
6.21945
 11
67.7943
 21
5.7155
  0
LINE
  8
0
 10
67.7943
 20
5.7155
 11
67.4516
 21
5.18898
  0
LINE
  8
0
 10
67.4516
 20
5.18898
 11
67.1427
 21
4.64198
  0
LINE
  8
0
 10
67.1427
 20
4.64198
 11
66.8687
 21
4.07668
  0
LINE
  8
0
 10
66.8687
 20
4.07668
 11
66.6308
 21
3.49527
  0
LINE
  8
0
 10
66.6308
 20
3.49527
 11
66.4298
 21
2.90007
  0
LINE
  8
0
 10
66.4298
 20
2.90007
 11
56.3142
 21
-30.5131
  0
LINE
  8
0
 10
56.3142
 20
-30.5131
 11
56.1771
 21
-31.1262
  0
LINE
  8
0
 10
56.1771
 20
-31.1262
 11
56.0789
 21
-31.7467
  0
LINE
  8
0
 10
56.0789
 20
-31.7467
 11
56.0197
 21
-32.3721
  0
LINE
  8
0
 10
56.0197
 20
-32.3721
 11
56
 21
-33
  0
LINE
  8
0
 10
56
 20
-33
 11
56.0197
 21
-33.6279
  0
LINE
  8
0
 10
56.0197
 20
-33.6279
 11
56.0789
 21
-34.2533
  0
LINE
  8
0
 10
56.0789
 20
-34.2533
 11
56.1771
 21
-34.8738
  0
LINE
  8
0
 10
56.1771
 20
-34.8738
 11
56.3142
 21
-35.4869
  0
LINE
  8
0
 10
56.3142
 20
-35.4869
 11
56.4894
 21
-36.0902
  0
LINE
  8
0
 10
56.4894
 20
-36.0902
 11
56.7022
 21
-36.6812
  0
LINE
  8
0
 10
56.7022
 20
-36.6812
 11
56.9517
 21
-37.2578
  0
LINE
  8
0
 10
56.9517
 20
-37.2578
 11
57.2369
 21
-37.8175
  0
LINE
  8
0
 10
57.2369
 20
-37.8175
 11
57.5567
 21
-38.3583
  0
LINE
  8
0
 10
57.5567
 20
-38.3583
 11
57.9098
 21
-38.8778
  0
LINE
  8
0
 10
57.9098
 20
-38.8778
 11
58.2949
 21
-39.3742
  0
LINE
  8
0
 10
58.2949
 20
-39.3742
 11
58.7103
 21
-39.8455
  0
LINE
  8
0
 10
58.7103
 20
-39.8455
 11
59.1545
 21
-40.2897
  0
LINE
  8
0
 10
59.1545
 20
-40.2897
 11
59.6258
 21
-40.7051
  0
LINE
  8
0
 10
59.6258
 20
-40.7051
 11
60.1222
 21
-41.0902
  0
LINE
  8
0
 10
60.1222
 20
-41.0902
 11
60.6417
 21
-41.4433
  0
LINE
  8
0
 10
60.6417
 20
-41.4433
 11
61.1825
 21
-41.7631
  0
LINE
  8
0
 10
61.1825
 20
-41.7631
 11
61.7422
 21
-42.0483
  0
LINE
  8
0
 10
61.7422
 20
-42.0483
 11
62.3188
 21
-42.2978
  0
LINE
  8
0
 10
62.3188
 20
-42.2978
 11
62.9098
 21
-42.5106
  0
LINE
  8
0
 10
62.9098
 20
-42.5106
 11
63.5131
 21
-42.6858
  0
LINE
  8
0
 10
63.5131
 20
-42.6858
 11
64.1262
 21
-42.8229
  0
LINE
  8
0
 10
64.1262
 20
-42.8229
 11
64.7467
 21
-42.9211
  0
LINE
  8
0
 10
64.7467
 20
-42.9211
 11
65.3721
 21
-42.9803
  0
LINE
  8
0
 10
65.3721
 20
-42.9803
 11
66
 21
-43
  0
LINE
  8
0
 10
66
 20
-43
 11
186.539
 21
-42.9855
  0
LINE
  8
0
 10
159.123
 20
19.0118
 11
158.748
 21
19.0473
  0
LINE
  8
0
 10
158.748
 20
19.0473
 11
158.376
 21
19.1063
  0
LINE
  8
0
 10
158.376
 20
19.1063
 11
158.008
 21
19.1885
  0
LINE
  8
0
 10
158.008
 20
19.1885
 11
157.646
 21
19.2937
  0
LINE
  8
0
 10
157.646
 20
19.2937
 11
157.291
 21
19.4213
  0
LINE
  8
0
 10
157.291
 20
19.4213
 11
156.945
 21
19.571
  0
LINE
  8
0
 10
156.945
 20
19.571
 11
156.609
 21
19.7422
  0
LINE
  8
0
 10
156.609
 20
19.7422
 11
156.285
 21
19.934
  0
LINE
  8
0
 10
156.285
 20
19.934
 11
155.973
 21
20.1459
  0
LINE
  8
0
 10
155.973
 20
20.1459
 11
155.675
 21
20.3769
  0
LINE
  8
0
 10
155.675
 20
20.3769
 11
155.393
 21
20.6262
  0
LINE
  8
0
 10
155.393
 20
20.6262
 11
155.126
 21
20.8927
  0
LINE
  8
0
 10
155.126
 20
20.8927
 11
154.877
 21
21.1754
  0
LINE
  8
0
 10
154.877
 20
21.1754
 11
154.646
 21
21.4733
  0
LINE
  8
0
 10
154.646
 20
21.4733
 11
154.434
 21
21.785
  0
LINE
  8
0
 10
154.434
 20
21.785
 11
154.242
 21
22.1095
  0
LINE
  8
0
 10
154.242
 20
22.1095
 11
154.071
 21
22.4453
  0
LINE
  8
0
 10
154.071
 20
22.4453
 11
153.921
 21
22.7912
  0
LINE
  8
0
 10
153.921
 20
22.7912
 11
153.794
 21
23.1459
  0
LINE
  8
0
 10
153.794
 20
23.1459
 11
153.688
 21
23.5079
  0
LINE
  8
0
 10
153.688
 20
23.5079
 11
153.606
 21
23.8757
  0
LINE
  8
0
 10
153.606
 20
23.8757
 11
153.547
 21
24.248
  0
LINE
  8
0
 10
153.547
 20
24.248
 11
153.512
 21
24.6232
  0
LINE
  8
0
 10
153.512
 20
24.6232
 11
153.5
 21
25
  0
LINE
  8
0
 10
153.5
 20
25
 11
153.512
 21
25.3767
  0
LINE
  8
0
 10
153.512
 20
25.3767
 11
153.547
 21
25.752
  0
LINE
  8
0
 10
153.547
 20
25.752
 11
153.606
 21
26.1243
  0
LINE
  8
0
 10
153.606
 20
26.1243
 11
153.688
 21
26.4921
  0
LINE
  8
0
 10
153.688
 20
26.4921
 11
153.794
 21
26.8541
  0
LINE
  8
0
 10
153.794
 20
26.8541
 11
153.921
 21
27.2087
  0
LINE
  8
0
 10
153.921
 20
27.2087
 11
154.071
 21
27.5547
  0
LINE
  8
0
 10
154.071
 20
27.5547
 11
154.242
 21
27.8905
  0
LINE
  8
0
 10
154.242
 20
27.8905
 11
154.434
 21
28.215
  0
LINE
  8
0
 10
154.434
 20
28.215
 11
154.646
 21
28.5267
  0
LINE
  8
0
 10
154.646
 20
28.5267
 11
154.877
 21
28.8245
  0
LINE
  8
0
 10
154.877
 20
28.8245
 11
155.126
 21
29.1073
  0
LINE
  8
0
 10
155.126
 20
29.1073
 11
155.393
 21
29.3738
  0
LINE
  8
0
 10
155.393
 20
29.3738
 11
155.675
 21
29.6231
  0
LINE
  8
0
 10
155.675
 20
29.6231
 11
155.973
 21
29.8541
  0
LINE
  8
0
 10
155.973
 20
29.8541
 11
156.285
 21
30.066
  0
LINE
  8
0
 10
156.285
 20
30.066
 11
156.609
 21
30.2578
  0
LINE
  8
0
 10
156.609
 20
30.2578
 11
156.945
 21
30.429
  0
LINE
  8
0
 10
156.945
 20
30.429
 11
157.291
 21
30.5786
  0
LINE
  8
0
 10
157.291
 20
30.5786
 11
157.646
 21
30.7063
  0
LINE
  8
0
 10
157.646
 20
30.7063
 11
158.008
 21
30.8115
  0
LINE
  8
0
 10
158.008
 20
30.8115
 11
158.376
 21
30.8937
  0
LINE
  8
0
 10
158.376
 20
30.8937
 11
158.748
 21
30.9527
  0
LINE
  8
0
 10
158.748
 20
30.9527
 11
159.123
 21
30.9882
  0
LINE
  8
0
 10
159.123
 20
30.9882
 11
159.5
 21
31
  0
LINE
  8
0
 10
159.5
 20
31
 11
159.877
 21
30.9882
  0
LINE
  8
0
 10
159.877
 20
30.9882
 11
160.252
 21
30.9527
  0
LINE
  8
0
 10
160.252
 20
30.9527
 11
160.624
 21
30.8937
  0
LINE
  8
0
 10
160.624
 20
30.8937
 11
160.992
 21
30.8115
  0
LINE
  8
0
 10
160.992
 20
30.8115
 11
161.354
 21
30.7063
  0
LINE
  8
0
 10
161.354
 20
30.7063
 11
161.709
 21
30.5786
  0
LINE
  8
0
 10
161.709
 20
30.5786
 11
162.055
 21
30.429
  0
LINE
  8
0
 10
162.055
 20
30.429
 11
162.391
 21
30.2578
  0
LINE
  8
0
 10
162.391
 20
30.2578
 11
162.715
 21
30.066
  0
LINE
  8
0
 10
162.715
 20
30.066
 11
163.027
 21
29.8541
  0
LINE
  8
0
 10
163.027
 20
29.8541
 11
163.325
 21
29.6231
  0
LINE
  8
0
 10
163.325
 20
29.6231
 11
163.607
 21
29.3738
  0
LINE
  8
0
 10
163.607
 20
29.3738
 11
163.874
 21
29.1073
  0
LINE
  8
0
 10
163.874
 20
29.1073
 11
164.123
 21
28.8245
  0
LINE
  8
0
 10
164.123
 20
28.8245
 11
164.354
 21
28.5267
  0
LINE
  8
0
 10
164.354
 20
28.5267
 11
164.566
 21
28.215
  0
LINE
  8
0
 10
164.566
 20
28.215
 11
164.758
 21
27.8905
  0
LINE
  8
0
 10
164.758
 20
27.8905
 11
164.929
 21
27.5547
  0
LINE
  8
0
 10
164.929
 20
27.5547
 11
165.079
 21
27.2087
  0
LINE
  8
0
 10
165.079
 20
27.2087
 11
165.206
 21
26.8541
  0
LINE
  8
0
 10
165.206
 20
26.8541
 11
165.311
 21
26.4921
  0
LINE
  8
0
 10
165.311
 20
26.4921
 11
165.394
 21
26.1243
  0
LINE
  8
0
 10
165.394
 20
26.1243
 11
165.453
 21
25.752
  0
LINE
  8
0
 10
165.453
 20
25.752
 11
165.488
 21
25.3767
  0
LINE
  8
0
 10
165.488
 20
25.3767
 11
165.5
 21
25
  0
LINE
  8
0
 10
165.5
 20
25
 11
165.488
 21
24.6232
  0
LINE
  8
0
 10
165.488
 20
24.6232
 11
165.453
 21
24.248
  0
LINE
  8
0
 10
165.453
 20
24.248
 11
165.394
 21
23.8757
  0
LINE
  8
0
 10
165.394
 20
23.8757
 11
165.311
 21
23.5079
  0
LINE
  8
0
 10
165.311
 20
23.5079
 11
165.206
 21
23.1459
  0
LINE
  8
0
 10
165.206
 20
23.1459
 11
165.079
 21
22.7912
  0
LINE
  8
0
 10
165.079
 20
22.7912
 11
164.929
 21
22.4453
  0
LINE
  8
0
 10
164.929
 20
22.4453
 11
164.758
 21
22.1095
  0
LINE
  8
0
 10
164.758
 20
22.1095
 11
164.566
 21
21.785
  0
LINE
  8
0
 10
164.566
 20
21.785
 11
164.354
 21
21.4733
  0
LINE
  8
0
 10
164.354
 20
21.4733
 11
164.123
 21
21.1754
  0
LINE
  8
0
 10
164.123
 20
21.1754
 11
163.874
 21
20.8927
  0
LINE
  8
0
 10
163.874
 20
20.8927
 11
163.607
 21
20.6262
  0
LINE
  8
0
 10
163.607
 20
20.6262
 11
163.325
 21
20.3769
  0
LINE
  8
0
 10
163.325
 20
20.3769
 11
163.027
 21
20.1459
  0
LINE
  8
0
 10
163.027
 20
20.1459
 11
162.715
 21
19.934
  0
LINE
  8
0
 10
162.715
 20
19.934
 11
162.391
 21
19.7422
  0
LINE
  8
0
 10
162.391
 20
19.7422
 11
162.055
 21
19.571
  0
LINE
  8
0
 10
162.055
 20
19.571
 11
161.709
 21
19.4213
  0
LINE
  8
0
 10
161.709
 20
19.4213
 11
161.354
 21
19.2937
  0
LINE
  8
0
 10
161.354
 20
19.2937
 11
160.992
 21
19.1885
  0
LINE
  8
0
 10
160.992
 20
19.1885
 11
160.624
 21
19.1063
  0
LINE
  8
0
 10
160.624
 20
19.1063
 11
160.252
 21
19.0473
  0
LINE
  8
0
 10
160.252
 20
19.0473
 11
159.877
 21
19.0118
  0
LINE
  8
0
 10
159.877
 20
19.0118
 11
159.5
 21
19
  0
LINE
  8
0
 10
159.5
 20
19
 11
159.123
 21
19.0118
  0
LINE
  8
0
 10
125.812
 20
24.0059
 11
125.624
 21
24.0237
  0
LINE
  8
0
 10
125.624
 20
24.0237
 11
125.438
 21
24.0531
  0
LINE
  8
0
 10
125.438
 20
24.0531
 11
125.254
 21
24.0942
  0
LINE
  8
0
 10
125.254
 20
24.0942
 11
125.073
 21
24.1468
  0
LINE
  8
0
 10
125.073
 20
24.1468
 11
124.896
 21
24.2107
  0
LINE
  8
0
 10
124.896
 20
24.2107
 11
124.723
 21
24.2855
  0
LINE
  8
0
 10
124.723
 20
24.2855
 11
124.555
 21
24.3711
  0
LINE
  8
0
 10
124.555
 20
24.3711
 11
124.393
 21
24.467
  0
LINE
  8
0
 10
124.393
 20
24.467
 11
124.237
 21
24.5729
  0
LINE
  8
0
 10
124.237
 20
24.5729
 11
124.088
 21
24.6884
  0
LINE
  8
0
 10
124.088
 20
24.6884
 11
123.946
 21
24.8131
  0
LINE
  8
0
 10
123.946
 20
24.8131
 11
123.813
 21
24.9464
  0
LINE
  8
0
 10
123.813
 20
24.9464
 11
123.688
 21
25.0877
  0
LINE
  8
0
 10
123.688
 20
25.0877
 11
123.573
 21
25.2366
  0
LINE
  8
0
 10
123.573
 20
25.2366
 11
123.467
 21
25.3925
  0
LINE
  8
0
 10
123.467
 20
25.3925
 11
123.371
 21
25.5547
  0
LINE
  8
0
 10
123.371
 20
25.5547
 11
123.286
 21
25.7227
  0
LINE
  8
0
 10
123.286
 20
25.7227
 11
123.211
 21
25.8956
  0
LINE
  8
0
 10
123.211
 20
25.8956
 11
123.147
 21
26.0729
  0
LINE
  8
0
 10
123.147
 20
26.0729
 11
123.094
 21
26.2539
  0
LINE
  8
0
 10
123.094
 20
26.2539
 11
123.053
 21
26.4379
  0
LINE
  8
0
 10
123.053
 20
26.4379
 11
123.024
 21
26.624
  0
LINE
  8
0
 10
123.024
 20
26.624
 11
123.006
 21
26.8116
  0
LINE
  8
0
 10
123.006
 20
26.8116
 11
123
 21
27
  0
LINE
  8
0
 10
123
 20
27
 11
123.006
 21
27.1884
  0
LINE
  8
0
 10
123.006
 20
27.1884
 11
123.024
 21
27.376
  0
LINE
  8
0
 10
123.024
 20
27.376
 11
123.053
 21
27.5621
  0
LINE
  8
0
 10
123.053
 20
27.5621
 11
123.094
 21
27.7461
  0
LINE
  8
0
 10
123.094
 20
27.7461
 11
123.147
 21
27.927
  0
LINE
  8
0
 10
123.147
 20
27.927
 11
123.211
 21
28.1044
  0
LINE
  8
0
 10
123.211
 20
28.1044
 11
123.286
 21
28.2773
  0
LINE
  8
0
 10
123.286
 20
28.2773
 11
123.371
 21
28.4453
  0
LINE
  8
0
 10
123.371
 20
28.4453
 11
123.467
 21
28.6075
  0
LINE
  8
0
 10
123.467
 20
28.6075
 11
123.573
 21
28.7634
  0
LINE
  8
0
 10
123.573
 20
28.7634
 11
123.688
 21
28.9123
  0
LINE
  8
0
 10
123.688
 20
28.9123
 11
123.813
 21
29.0536
  0
LINE
  8
0
 10
123.813
 20
29.0536
 11
123.946
 21
29.1869
  0
LINE
  8
0
 10
123.946
 20
29.1869
 11
124.088
 21
29.3115
  0
LINE
  8
0
 10
124.088
 20
29.3115
 11
124.237
 21
29.427
  0
LINE
  8
0
 10
124.237
 20
29.427
 11
124.393
 21
29.533
  0
LINE
  8
0
 10
124.393
 20
29.533
 11
124.555
 21
29.6289
  0
LINE
  8
0
 10
124.555
 20
29.6289
 11
124.723
 21
29.7145
  0
LINE
  8
0
 10
124.723
 20
29.7145
 11
124.896
 21
29.7893
  0
LINE
  8
0
 10
124.896
 20
29.7893
 11
125.073
 21
29.8532
  0
LINE
  8
0
 10
125.073
 20
29.8532
 11
125.254
 21
29.9057
  0
LINE
  8
0
 10
125.254
 20
29.9057
 11
125.438
 21
29.9469
  0
LINE
  8
0
 10
125.438
 20
29.9469
 11
125.624
 21
29.9763
  0
LINE
  8
0
 10
125.624
 20
29.9763
 11
125.812
 21
29.9941
  0
LINE
  8
0
 10
125.812
 20
29.9941
 11
126
 21
30
  0
LINE
  8
0
 10
126
 20
30
 11
126.188
 21
29.9941
  0
LINE
  8
0
 10
126.188
 20
29.9941
 11
126.376
 21
29.9763
  0
LINE
  8
0
 10
126.376
 20
29.9763
 11
126.562
 21
29.9469
  0
LINE
  8
0
 10
126.562
 20
29.9469
 11
126.746
 21
29.9057
  0
LINE
  8
0
 10
126.746
 20
29.9057
 11
126.927
 21
29.8532
  0
LINE
  8
0
 10
126.927
 20
29.8532
 11
127.104
 21
29.7893
  0
LINE
  8
0
 10
127.104
 20
29.7893
 11
127.277
 21
29.7145
  0
LINE
  8
0
 10
127.277
 20
29.7145
 11
127.445
 21
29.6289
  0
LINE
  8
0
 10
127.445
 20
29.6289
 11
127.607
 21
29.533
  0
LINE
  8
0
 10
127.607
 20
29.533
 11
127.763
 21
29.427
  0
LINE
  8
0
 10
127.763
 20
29.427
 11
127.912
 21
29.3115
  0
LINE
  8
0
 10
127.912
 20
29.3115
 11
128.054
 21
29.1869
  0
LINE
  8
0
 10
128.054
 20
29.1869
 11
128.187
 21
29.0536
  0
LINE
  8
0
 10
128.187
 20
29.0536
 11
128.312
 21
28.9123
  0
LINE
  8
0
 10
128.312
 20
28.9123
 11
128.427
 21
28.7634
  0
LINE
  8
0
 10
128.427
 20
28.7634
 11
128.533
 21
28.6075
  0
LINE
  8
0
 10
128.533
 20
28.6075
 11
128.629
 21
28.4453
  0
LINE
  8
0
 10
128.629
 20
28.4453
 11
128.714
 21
28.2773
  0
LINE
  8
0
 10
128.714
 20
28.2773
 11
128.789
 21
28.1044
  0
LINE
  8
0
 10
128.789
 20
28.1044
 11
128.853
 21
27.927
  0
LINE
  8
0
 10
128.853
 20
27.927
 11
128.906
 21
27.7461
  0
LINE
  8
0
 10
128.906
 20
27.7461
 11
128.947
 21
27.5621
  0
LINE
  8
0
 10
128.947
 20
27.5621
 11
128.976
 21
27.376
  0
LINE
  8
0
 10
128.976
 20
27.376
 11
128.994
 21
27.1884
  0
LINE
  8
0
 10
128.994
 20
27.1884
 11
129
 21
27
  0
LINE
  8
0
 10
129
 20
27
 11
128.994
 21
26.8116
  0
LINE
  8
0
 10
128.994
 20
26.8116
 11
128.976
 21
26.624
  0
LINE
  8
0
 10
128.976
 20
26.624
 11
128.947
 21
26.4379
  0
LINE
  8
0
 10
128.947
 20
26.4379
 11
128.906
 21
26.2539
  0
LINE
  8
0
 10
128.906
 20
26.2539
 11
128.853
 21
26.0729
  0
LINE
  8
0
 10
128.853
 20
26.0729
 11
128.789
 21
25.8956
  0
LINE
  8
0
 10
128.789
 20
25.8956
 11
128.714
 21
25.7227
  0
LINE
  8
0
 10
128.714
 20
25.7227
 11
128.629
 21
25.5547
  0
LINE
  8
0
 10
128.629
 20
25.5547
 11
128.533
 21
25.3925
  0
LINE
  8
0
 10
128.533
 20
25.3925
 11
128.427
 21
25.2366
  0
LINE
  8
0
 10
128.427
 20
25.2366
 11
128.312
 21
25.0877
  0
LINE
  8
0
 10
128.312
 20
25.0877
 11
128.187
 21
24.9464
  0
LINE
  8
0
 10
128.187
 20
24.9464
 11
128.054
 21
24.8131
  0
LINE
  8
0
 10
128.054
 20
24.8131
 11
127.912
 21
24.6884
  0
LINE
  8
0
 10
127.912
 20
24.6884
 11
127.763
 21
24.5729
  0
LINE
  8
0
 10
127.763
 20
24.5729
 11
127.607
 21
24.467
  0
LINE
  8
0
 10
127.607
 20
24.467
 11
127.445
 21
24.3711
  0
LINE
  8
0
 10
127.445
 20
24.3711
 11
127.277
 21
24.2855
  0
LINE
  8
0
 10
127.277
 20
24.2855
 11
127.104
 21
24.2107
  0
LINE
  8
0
 10
127.104
 20
24.2107
 11
126.927
 21
24.1468
  0
LINE
  8
0
 10
126.927
 20
24.1468
 11
126.746
 21
24.0942
  0
LINE
  8
0
 10
126.746
 20
24.0942
 11
126.562
 21
24.0531
  0
LINE
  8
0
 10
126.562
 20
24.0531
 11
126.376
 21
24.0237
  0
LINE
  8
0
 10
126.376
 20
24.0237
 11
126.188
 21
24.0059
  0
LINE
  8
0
 10
126.188
 20
24.0059
 11
126
 21
24
  0
LINE
  8
0
 10
126
 20
24
 11
125.812
 21
24.0059
  0
LINE
  8
0
 10
122.5
 20
-2
 11
122.374
 21
-1.99605
  0
LINE
  8
0
 10
122.374
 20
-1.99605
 11
122.249
 21
-1.98422
  0
LINE
  8
0
 10
122.249
 20
-1.98422
 11
122.125
 21
-1.96457
  0
LINE
  8
0
 10
122.125
 20
-1.96457
 11
122.003
 21
-1.93716
  0
LINE
  8
0
 10
122.003
 20
-1.93716
 11
121.882
 21
-1.9021
  0
LINE
  8
0
 10
121.882
 20
-1.9021
 11
121.764
 21
-1.85954
  0
LINE
  8
0
 10
121.764
 20
-1.85954
 11
121.648
 21
-1.80965
  0
LINE
  8
0
 10
121.648
 20
-1.80965
 11
121.536
 21
-1.75261
  0
LINE
  8
0
 10
121.536
 20
-1.75261
 11
121.428
 21
-1.68864
  0
LINE
  8
0
 10
121.428
 20
-1.68864
 11
121.324
 21
-1.61803
  0
LINE
  8
0
 10
121.324
 20
-1.61803
 11
121.225
 21
-1.54102
  0
LINE
  8
0
 10
121.225
 20
-1.54102
 11
121.131
 21
-1.45793
  0
LINE
  8
0
 10
121.131
 20
-1.45793
 11
121.042
 21
-1.36908
  0
LINE
  8
0
 10
121.042
 20
-1.36908
 11
120.959
 21
-1.27484
  0
LINE
  8
0
 10
120.959
 20
-1.27484
 11
120.882
 21
-1.17557
  0
LINE
  8
0
 10
120.882
 20
-1.17557
 11
120.811
 21
-1.07164
  0
LINE
  8
0
 10
120.811
 20
-1.07164
 11
120.747
 21
-0.963501
  0
LINE
  8
0
 10
120.747
 20
-0.963501
 11
120.69
 21
-0.851547
  0
LINE
  8
0
 10
120.69
 20
-0.851547
 11
120.64
 21
-0.736237
  0
LINE
  8
0
 10
120.64
 20
-0.736237
 11
120.598
 21
-0.618027
  0
LINE
  8
0
 10
120.598
 20
-0.618027
 11
120.563
 21
-0.497375
  0
LINE
  8
0
 10
120.563
 20
-0.497375
 11
120.535
 21
-0.374756
  0
LINE
  8
0
 10
120.535
 20
-0.374756
 11
120.516
 21
-0.250656
  0
LINE
  8
0
 10
120.516
 20
-0.250656
 11
120.504
 21
-0.12558
  0
LINE
  8
0
 10
120.504
 20
-0.12558
 11
120.5
 21
0
  0
LINE
  8
0
 10
120.5
 20
0
 11
120.5
 21
18
  0
LINE
  8
0
 10
120.5
 20
18
 11
120.504
 21
18.1256
  0
LINE
  8
0
 10
120.504
 20
18.1256
 11
120.516
 21
18.2507
  0
LINE
  8
0
 10
120.516
 20
18.2507
 11
120.535
 21
18.3748
  0
LINE
  8
0
 10
120.535
 20
18.3748
 11
120.563
 21
18.4974
  0
LINE
  8
0
 10
120.563
 20
18.4974
 11
120.598
 21
18.618
  0
LINE
  8
0
 10
120.598
 20
18.618
 11
120.64
 21
18.7362
  0
LINE
  8
0
 10
120.64
 20
18.7362
 11
120.69
 21
18.8515
  0
LINE
  8
0
 10
120.69
 20
18.8515
 11
120.747
 21
18.9635
  0
LINE
  8
0
 10
120.747
 20
18.9635
 11
120.811
 21
19.0716
  0
LINE
  8
0
 10
120.811
 20
19.0716
 11
120.882
 21
19.1756
  0
LINE
  8
0
 10
120.882
 20
19.1756
 11
120.959
 21
19.2748
  0
LINE
  8
0
 10
120.959
 20
19.2748
 11
121.042
 21
19.3691
  0
LINE
  8
0
 10
121.042
 20
19.3691
 11
121.131
 21
19.4579
  0
LINE
  8
0
 10
121.131
 20
19.4579
 11
121.225
 21
19.541
  0
LINE
  8
0
 10
121.225
 20
19.541
 11
121.324
 21
19.618
  0
LINE
  8
0
 10
121.324
 20
19.618
 11
121.428
 21
19.6886
  0
LINE
  8
0
 10
121.428
 20
19.6886
 11
121.536
 21
19.7526
  0
LINE
  8
0
 10
121.536
 20
19.7526
 11
121.648
 21
19.8096
  0
LINE
  8
0
 10
121.648
 20
19.8096
 11
121.764
 21
19.8595
  0
LINE
  8
0
 10
121.764
 20
19.8595
 11
121.882
 21
19.9021
  0
LINE
  8
0
 10
121.882
 20
19.9021
 11
122.003
 21
19.9372
  0
LINE
  8
0
 10
122.003
 20
19.9372
 11
122.125
 21
19.9646
  0
LINE
  8
0
 10
122.125
 20
19.9646
 11
122.249
 21
19.9842
  0
LINE
  8
0
 10
122.249
 20
19.9842
 11
122.374
 21
19.996
  0
LINE
  8
0
 10
122.374
 20
19.996
 11
122.5
 21
20
  0
LINE
  8
0
 10
122.5
 20
20
 11
129.5
 21
20
  0
LINE
  8
0
 10
129.5
 20
20
 11
129.626
 21
19.996
  0
LINE
  8
0
 10
129.626
 20
19.996
 11
129.751
 21
19.9842
  0
LINE
  8
0
 10
129.751
 20
19.9842
 11
129.875
 21
19.9646
  0
LINE
  8
0
 10
129.875
 20
19.9646
 11
129.997
 21
19.9372
  0
LINE
  8
0
 10
129.997
 20
19.9372
 11
130.118
 21
19.9021
  0
LINE
  8
0
 10
130.118
 20
19.9021
 11
130.236
 21
19.8595
  0
LINE
  8
0
 10
130.236
 20
19.8595
 11
130.352
 21
19.8096
  0
LINE
  8
0
 10
130.352
 20
19.8096
 11
130.464
 21
19.7526
  0
LINE
  8
0
 10
130.464
 20
19.7526
 11
130.572
 21
19.6886
  0
LINE
  8
0
 10
130.572
 20
19.6886
 11
130.676
 21
19.618
  0
LINE
  8
0
 10
130.676
 20
19.618
 11
130.775
 21
19.541
  0
LINE
  8
0
 10
130.775
 20
19.541
 11
130.869
 21
19.4579
  0
LINE
  8
0
 10
130.869
 20
19.4579
 11
130.958
 21
19.3691
  0
LINE
  8
0
 10
130.958
 20
19.3691
 11
131.041
 21
19.2748
  0
LINE
  8
0
 10
131.041
 20
19.2748
 11
131.118
 21
19.1756
  0
LINE
  8
0
 10
131.118
 20
19.1756
 11
131.189
 21
19.0716
  0
LINE
  8
0
 10
131.189
 20
19.0716
 11
131.253
 21
18.9635
  0
LINE
  8
0
 10
131.253
 20
18.9635
 11
131.31
 21
18.8515
  0
LINE
  8
0
 10
131.31
 20
18.8515
 11
131.36
 21
18.7362
  0
LINE
  8
0
 10
131.36
 20
18.7362
 11
131.402
 21
18.618
  0
LINE
  8
0
 10
131.402
 20
18.618
 11
131.437
 21
18.4974
  0
LINE
  8
0
 10
131.437
 20
18.4974
 11
131.465
 21
18.3748
  0
LINE
  8
0
 10
131.465
 20
18.3748
 11
131.484
 21
18.2507
  0
LINE
  8
0
 10
131.484
 20
18.2507
 11
131.496
 21
18.1256
  0
LINE
  8
0
 10
131.496
 20
18.1256
 11
131.5
 21
18
  0
LINE
  8
0
 10
131.5
 20
18
 11
131.5
 21
0
  0
LINE
  8
0
 10
131.5
 20
0
 11
131.496
 21
-0.12558
  0
LINE
  8
0
 10
131.496
 20
-0.12558
 11
131.484
 21
-0.250656
  0
LINE
  8
0
 10
131.484
 20
-0.250656
 11
131.465
 21
-0.374756
  0
LINE
  8
0
 10
131.465
 20
-0.374756
 11
131.437
 21
-0.497375
  0
LINE
  8
0
 10
131.437
 20
-0.497375
 11
131.402
 21
-0.618027
  0
LINE
  8
0
 10
131.402
 20
-0.618027
 11
131.36
 21
-0.736237
  0
LINE
  8
0
 10
131.36
 20
-0.736237
 11
131.31
 21
-0.851547
  0
LINE
  8
0
 10
131.31
 20
-0.851547
 11
131.253
 21
-0.963501
  0
LINE
  8
0
 10
131.253
 20
-0.963501
 11
131.189
 21
-1.07164
  0
LINE
  8
0
 10
131.189
 20
-1.07164
 11
131.118
 21
-1.17557
  0
LINE
  8
0
 10
131.118
 20
-1.17557
 11
131.041
 21
-1.27484
  0
LINE
  8
0
 10
131.041
 20
-1.27484
 11
130.958
 21
-1.36908
  0
LINE
  8
0
 10
130.958
 20
-1.36908
 11
130.869
 21
-1.45793
  0
LINE
  8
0
 10
130.869
 20
-1.45793
 11
130.775
 21
-1.54102
  0
LINE
  8
0
 10
130.775
 20
-1.54102
 11
130.676
 21
-1.61803
  0
LINE
  8
0
 10
130.676
 20
-1.61803
 11
130.572
 21
-1.68864
  0
LINE
  8
0
 10
130.572
 20
-1.68864
 11
130.464
 21
-1.75261
  0
LINE
  8
0
 10
130.464
 20
-1.75261
 11
130.352
 21
-1.80965
  0
LINE
  8
0
 10
130.352
 20
-1.80965
 11
130.236
 21
-1.85954
  0
LINE
  8
0
 10
130.236
 20
-1.85954
 11
130.118
 21
-1.9021
  0
LINE
  8
0
 10
130.118
 20
-1.9021
 11
129.997
 21
-1.93716
  0
LINE
  8
0
 10
129.997
 20
-1.93716
 11
129.875
 21
-1.96457
  0
LINE
  8
0
 10
129.875
 20
-1.96457
 11
129.751
 21
-1.98422
  0
LINE
  8
0
 10
129.751
 20
-1.98422
 11
129.626
 21
-1.99605
  0
LINE
  8
0
 10
129.626
 20
-1.99605
 11
129.5
 21
-2
  0
LINE
  8
0
 10
129.5
 20
-2
 11
122.5
 21
-2
  0
LINE
  8
0
 10
200
 20
-2
 11
200
 21
19
  0
LINE
  8
0
 10
200
 20
19
 11
203
 21
19
  0
LINE
  8
0
 10
203
 20
19
 11
203
 21
-2
  0
LINE
  8
0
 10
203
 20
-2
 11
200
 21
-2
  0
LINE
  8
0
 10
153.5
 20
-5.5
 11
153.437
 21
-5.49802
  0
LINE
  8
0
 10
153.437
 20
-5.49802
 11
153.375
 21
-5.49211
  0
LINE
  8
0
 10
153.375
 20
-5.49211
 11
153.313
 21
-5.48228
  0
LINE
  8
0
 10
153.313
 20
-5.48228
 11
153.251
 21
-5.46858
  0
LINE
  8
0
 10
153.251
 20
-5.46858
 11
153.191
 21
-5.45105
  0
LINE
  8
0
 10
153.191
 20
-5.45105
 11
153.132
 21
-5.42976
  0
LINE
  8
0
 10
153.132
 20
-5.42976
 11
153.074
 21
-5.40482
  0
LINE
  8
0
 10
153.074
 20
-5.40482
 11
153.018
 21
-5.3763
  0
LINE
  8
0
 10
153.018
 20
-5.3763
 11
152.964
 21
-5.34431
  0
LINE
  8
0
 10
152.964
 20
-5.34431
 11
152.912
 21
-5.30901
  0
LINE
  8
0
 10
152.912
 20
-5.30901
 11
152.863
 21
-5.27051
  0
LINE
  8
0
 10
152.863
 20
-5.27051
 11
152.815
 21
-5.22896
  0
LINE
  8
0
 10
152.815
 20
-5.22896
 11
152.771
 21
-5.18454
  0
LINE
  8
0
 10
152.771
 20
-5.18454
 11
152.729
 21
-5.13742
  0
LINE
  8
0
 10
152.729
 20
-5.13742
 11
152.691
 21
-5.08778
  0
LINE
  8
0
 10
152.691
 20
-5.08778
 11
152.656
 21
-5.03581
  0
LINE
  8
0
 10
152.656
 20
-5.03581
 11
152.624
 21
-4.98175
  0
LINE
  8
0
 10
152.624
 20
-4.98175
 11
152.595
 21
-4.92577
  0
LINE
  8
0
 10
152.595
 20
-4.92577
 11
152.57
 21
-4.86812
  0
LINE
  8
0
 10
152.57
 20
-4.86812
 11
152.549
 21
-4.80901
  0
LINE
  8
0
 10
152.549
 20
-4.80901
 11
152.531
 21
-4.74869
  0
LINE
  8
0
 10
152.531
 20
-4.74869
 11
152.518
 21
-4.68738
  0
LINE
  8
0
 10
152.518
 20
-4.68738
 11
152.508
 21
-4.62532
  0
LINE
  8
0
 10
152.508
 20
-4.62532
 11
152.502
 21
-4.56279
  0
LINE
  8
0
 10
152.502
 20
-4.56279
 11
152.5
 21
-4.5
  0
LINE
  8
0
 10
152.5
 20
-4.5
 11
152.5
 21
6.5
  0
LINE
  8
0
 10
152.5
 20
6.5
 11
152.502
 21
6.56279
  0
LINE
  8
0
 10
152.502
 20
6.56279
 11
152.508
 21
6.62532
  0
LINE
  8
0
 10
152.508
 20
6.62532
 11
152.518
 21
6.68738
  0
LINE
  8
0
 10
152.518
 20
6.68738
 11
152.531
 21
6.74869
  0
LINE
  8
0
 10
152.531
 20
6.74869
 11
152.549
 21
6.80901
  0
LINE
  8
0
 10
152.549
 20
6.80901
 11
152.57
 21
6.86812
  0
LINE
  8
0
 10
152.57
 20
6.86812
 11
152.595
 21
6.92577
  0
LINE
  8
0
 10
152.595
 20
6.92577
 11
152.624
 21
6.98175
  0
LINE
  8
0
 10
152.624
 20
6.98175
 11
152.656
 21
7.03581
  0
LINE
  8
0
 10
152.656
 20
7.03581
 11
152.691
 21
7.08778
  0
LINE
  8
0
 10
152.691
 20
7.08778
 11
152.729
 21
7.13742
  0
LINE
  8
0
 10
152.729
 20
7.13742
 11
152.771
 21
7.18454
  0
LINE
  8
0
 10
152.771
 20
7.18454
 11
152.815
 21
7.22896
  0
LINE
  8
0
 10
152.815
 20
7.22896
 11
152.863
 21
7.27051
  0
LINE
  8
0
 10
152.863
 20
7.27051
 11
152.912
 21
7.30901
  0
LINE
  8
0
 10
152.912
 20
7.30901
 11
152.964
 21
7.34431
  0
LINE
  8
0
 10
152.964
 20
7.34431
 11
153.018
 21
7.3763
  0
LINE
  8
0
 10
153.018
 20
7.3763
 11
153.074
 21
7.40482
  0
LINE
  8
0
 10
153.074
 20
7.40482
 11
153.132
 21
7.42976
  0
LINE
  8
0
 10
153.132
 20
7.42976
 11
153.191
 21
7.45105
  0
LINE
  8
0
 10
153.191
 20
7.45105
 11
153.251
 21
7.46858
  0
LINE
  8
0
 10
153.251
 20
7.46858
 11
153.313
 21
7.48228
  0
LINE
  8
0
 10
153.313
 20
7.48228
 11
153.375
 21
7.49211
  0
LINE
  8
0
 10
153.375
 20
7.49211
 11
153.437
 21
7.49802
  0
LINE
  8
0
 10
153.437
 20
7.49802
 11
153.5
 21
7.5
  0
LINE
  8
0
 10
153.5
 20
7.5
 11
165.5
 21
7.5
  0
LINE
  8
0
 10
165.5
 20
7.5
 11
165.563
 21
7.49802
  0
LINE
  8
0
 10
165.563
 20
7.49802
 11
165.625
 21
7.49211
  0
LINE
  8
0
 10
165.625
 20
7.49211
 11
165.687
 21
7.48228
  0
LINE
  8
0
 10
165.687
 20
7.48228
 11
165.749
 21
7.46858
  0
LINE
  8
0
 10
165.749
 20
7.46858
 11
165.809
 21
7.45105
  0
LINE
  8
0
 10
165.809
 20
7.45105
 11
165.868
 21
7.42976
  0
LINE
  8
0
 10
165.868
 20
7.42976
 11
165.926
 21
7.40482
  0
LINE
  8
0
 10
165.926
 20
7.40482
 11
165.982
 21
7.3763
  0
LINE
  8
0
 10
165.982
 20
7.3763
 11
166.036
 21
7.34431
  0
LINE
  8
0
 10
166.036
 20
7.34431
 11
166.088
 21
7.30901
  0
LINE
  8
0
 10
166.088
 20
7.30901
 11
166.137
 21
7.27051
  0
LINE
  8
0
 10
166.137
 20
7.27051
 11
166.185
 21
7.22896
  0
LINE
  8
0
 10
166.185
 20
7.22896
 11
166.229
 21
7.18454
  0
LINE
  8
0
 10
166.229
 20
7.18454
 11
166.271
 21
7.13742
  0
LINE
  8
0
 10
166.271
 20
7.13742
 11
166.309
 21
7.08778
  0
LINE
  8
0
 10
166.309
 20
7.08778
 11
166.344
 21
7.03581
  0
LINE
  8
0
 10
166.344
 20
7.03581
 11
166.376
 21
6.98175
  0
LINE
  8
0
 10
166.376
 20
6.98175
 11
166.405
 21
6.92577
  0
LINE
  8
0
 10
166.405
 20
6.92577
 11
166.43
 21
6.86812
  0
LINE
  8
0
 10
166.43
 20
6.86812
 11
166.451
 21
6.80901
  0
LINE
  8
0
 10
166.451
 20
6.80901
 11
166.469
 21
6.74869
  0
LINE
  8
0
 10
166.469
 20
6.74869
 11
166.482
 21
6.68738
  0
LINE
  8
0
 10
166.482
 20
6.68738
 11
166.492
 21
6.62532
  0
LINE
  8
0
 10
166.492
 20
6.62532
 11
166.498
 21
6.56279
  0
LINE
  8
0
 10
166.498
 20
6.56279
 11
166.5
 21
6.5
  0
LINE
  8
0
 10
166.5
 20
6.5
 11
166.5
 21
-4.5
  0
LINE
  8
0
 10
166.5
 20
-4.5
 11
166.498
 21
-4.56279
  0
LINE
  8
0
 10
166.498
 20
-4.56279
 11
166.492
 21
-4.62532
  0
LINE
  8
0
 10
166.492
 20
-4.62532
 11
166.482
 21
-4.68738
  0
LINE
  8
0
 10
166.482
 20
-4.68738
 11
166.469
 21
-4.74869
  0
LINE
  8
0
 10
166.469
 20
-4.74869
 11
166.451
 21
-4.80901
  0
LINE
  8
0
 10
166.451
 20
-4.80901
 11
166.43
 21
-4.86812
  0
LINE
  8
0
 10
166.43
 20
-4.86812
 11
166.405
 21
-4.92577
  0
LINE
  8
0
 10
166.405
 20
-4.92577
 11
166.376
 21
-4.98175
  0
LINE
  8
0
 10
166.376
 20
-4.98175
 11
166.344
 21
-5.03581
  0
LINE
  8
0
 10
166.344
 20
-5.03581
 11
166.309
 21
-5.08778
  0
LINE
  8
0
 10
166.309
 20
-5.08778
 11
166.271
 21
-5.13742
  0
LINE
  8
0
 10
166.271
 20
-5.13742
 11
166.229
 21
-5.18454
  0
LINE
  8
0
 10
166.229
 20
-5.18454
 11
166.185
 21
-5.22896
  0
LINE
  8
0
 10
166.185
 20
-5.22896
 11
166.137
 21
-5.27051
  0
LINE
  8
0
 10
166.137
 20
-5.27051
 11
166.088
 21
-5.30901
  0
LINE
  8
0
 10
166.088
 20
-5.30901
 11
166.036
 21
-5.34431
  0
LINE
  8
0
 10
166.036
 20
-5.34431
 11
165.982
 21
-5.3763
  0
LINE
  8
0
 10
165.982
 20
-5.3763
 11
165.926
 21
-5.40482
  0
LINE
  8
0
 10
165.926
 20
-5.40482
 11
165.868
 21
-5.42976
  0
LINE
  8
0
 10
165.868
 20
-5.42976
 11
165.809
 21
-5.45105
  0
LINE
  8
0
 10
165.809
 20
-5.45105
 11
165.749
 21
-5.46858
  0
LINE
  8
0
 10
165.749
 20
-5.46858
 11
165.687
 21
-5.48228
  0
LINE
  8
0
 10
165.687
 20
-5.48228
 11
165.625
 21
-5.49211
  0
LINE
  8
0
 10
165.625
 20
-5.49211
 11
165.563
 21
-5.49802
  0
LINE
  8
0
 10
165.563
 20
-5.49802
 11
165.5
 21
-5.5
  0
LINE
  8
0
 10
165.5
 20
-5.5
 11
153.5
 21
-5.5
  0
LINE
  8
0
 10
135.852
 20
-11.9945
 11
135.727
 21
-11.9813
  0
LINE
  8
0
 10
135.727
 20
-11.9813
 11
135.604
 21
-11.9603
  0
LINE
  8
0
 10
135.604
 20
-11.9603
 11
135.481
 21
-11.9316
  0
LINE
  8
0
 10
135.481
 20
-11.9316
 11
135.361
 21
-11.8952
  0
LINE
  8
0
 10
135.361
 20
-11.8952
 11
135.243
 21
-11.8513
  0
LINE
  8
0
 10
135.243
 20
-11.8513
 11
135.129
 21
-11.8002
  0
LINE
  8
0
 10
135.129
 20
-11.8002
 11
135.017
 21
-11.7419
  0
LINE
  8
0
 10
135.017
 20
-11.7419
 11
134.91
 21
-11.6767
  0
LINE
  8
0
 10
134.91
 20
-11.6767
 11
134.807
 21
-11.605
  0
LINE
  8
0
 10
134.807
 20
-11.605
 11
134.708
 21
-11.5269
  0
LINE
  8
0
 10
134.708
 20
-11.5269
 11
134.615
 21
-11.4428
  0
LINE
  8
0
 10
134.615
 20
-11.4428
 11
134.527
 21
-11.353
  0
LINE
  8
0
 10
134.527
 20
-11.353
 11
134.445
 21
-11.2578
  0
LINE
  8
0
 10
134.445
 20
-11.2578
 11
134.369
 21
-11.1577
  0
LINE
  8
0
 10
134.369
 20
-11.1577
 11
134.3
 21
-11.053
  0
LINE
  8
0
 10
134.3
 20
-11.053
 11
134.237
 21
-10.9441
  0
LINE
  8
0
 10
134.237
 20
-10.9441
 11
134.181
 21
-10.8316
  0
LINE
  8
0
 10
134.181
 20
-10.8316
 11
134.132
 21
-10.7157
  0
LINE
  8
0
 10
134.132
 20
-10.7157
 11
134.091
 21
-10.597
  0
LINE
  8
0
 10
134.091
 20
-10.597
 11
134.057
 21
-10.476
  0
LINE
  8
0
 10
134.057
 20
-10.476
 11
134.031
 21
-10.3531
  0
LINE
  8
0
 10
134.031
 20
-10.3531
 11
134.013
 21
-10.2288
  0
LINE
  8
0
 10
134.013
 20
-10.2288
 11
134.003
 21
-10.1036
  0
LINE
  8
0
 10
134.003
 20
-10.1036
 11
134
 21
-9.97797
  0
LINE
  8
0
 10
134
 20
-9.97797
 11
134.005
 21
-9.85245
  0
LINE
  8
0
 10
134.005
 20
-9.85245
 11
134.019
 21
-9.72749
  0
LINE
  8
0
 10
134.019
 20
-9.72749
 11
134.04
 21
-9.60362
  0
LINE
  8
0
 10
134.04
 20
-9.60362
 11
134.068
 21
-9.48131
  0
LINE
  8
0
 10
134.068
 20
-9.48131
 11
134.105
 21
-9.36105
  0
LINE
  8
0
 10
134.105
 20
-9.36105
 11
134.149
 21
-9.24332
  0
LINE
  8
0
 10
134.149
 20
-9.24332
 11
134.2
 21
-9.12856
  0
LINE
  8
0
 10
134.2
 20
-9.12856
 11
134.258
 21
-9.01724
  0
LINE
  8
0
 10
134.258
 20
-9.01724
 11
134.323
 21
-8.90981
  0
LINE
  8
0
 10
134.323
 20
-8.90981
 11
134.395
 21
-8.80667
  0
LINE
  8
0
 10
134.395
 20
-8.80667
 11
134.473
 21
-8.70825
  0
LINE
  8
0
 10
134.473
 20
-8.70825
 11
146.557
 21
3.88506
  0
LINE
  8
0
 10
146.557
 20
3.88506
 11
146.647
 21
3.97292
  0
LINE
  8
0
 10
146.647
 20
3.97292
 11
146.742
 21
4.05496
  0
LINE
  8
0
 10
146.742
 20
4.05496
 11
146.842
 21
4.13087
  0
LINE
  8
0
 10
146.842
 20
4.13087
 11
146.947
 21
4.20035
  0
LINE
  8
0
 10
146.947
 20
4.20035
 11
147.056
 21
4.26311
  0
LINE
  8
0
 10
147.056
 20
4.26311
 11
147.168
 21
4.31891
  0
LINE
  8
0
 10
147.168
 20
4.31891
 11
147.284
 21
4.36754
  0
LINE
  8
0
 10
147.284
 20
4.36754
 11
147.403
 21
4.4088
  0
LINE
  8
0
 10
147.403
 20
4.4088
 11
147.524
 21
4.44252
  0
LINE
  8
0
 10
147.524
 20
4.44252
 11
147.647
 21
4.46857
  0
LINE
  8
0
 10
147.647
 20
4.46857
 11
147.771
 21
4.48686
  0
LINE
  8
0
 10
147.771
 20
4.48686
 11
147.896
 21
4.49731
  0
LINE
  8
0
 10
147.896
 20
4.49731
 11
148.022
 21
4.49988
  0
LINE
  8
0
 10
148.022
 20
4.49988
 11
148.148
 21
4.49454
  0
LINE
  8
0
 10
148.148
 20
4.49454
 11
148.272
 21
4.48134
  0
LINE
  8
0
 10
148.272
 20
4.48134
 11
148.396
 21
4.46033
  0
LINE
  8
0
 10
148.396
 20
4.46033
 11
148.519
 21
4.43156
  0
LINE
  8
0
 10
148.519
 20
4.43156
 11
148.639
 21
4.39519
  0
LINE
  8
0
 10
148.639
 20
4.39519
 11
148.757
 21
4.35133
  0
LINE
  8
0
 10
148.757
 20
4.35133
 11
148.871
 21
4.30016
  0
LINE
  8
0
 10
148.871
 20
4.30016
 11
148.983
 21
4.2419
  0
LINE
  8
0
 10
148.983
 20
4.2419
 11
149.09
 21
4.17674
  0
LINE
  8
0
 10
149.09
 20
4.17674
 11
149.193
 21
4.10498
  0
LINE
  8
0
 10
149.193
 20
4.10498
 11
149.292
 21
4.02689
  0
LINE
  8
0
 10
149.292
 20
4.02689
 11
149.385
 21
3.94276
  0
LINE
  8
0
 10
149.385
 20
3.94276
 11
149.473
 21
3.85295
  0
LINE
  8
0
 10
149.473
 20
3.85295
 11
149.555
 21
3.7578
  0
LINE
  8
0
 10
149.555
 20
3.7578
 11
149.631
 21
3.65767
  0
LINE
  8
0
 10
149.631
 20
3.65767
 11
149.7
 21
3.55299
  0
LINE
  8
0
 10
149.7
 20
3.55299
 11
149.763
 21
3.44414
  0
LINE
  8
0
 10
149.763
 20
3.44414
 11
149.819
 21
3.33157
  0
LINE
  8
0
 10
149.819
 20
3.33157
 11
149.868
 21
3.21573
  0
LINE
  8
0
 10
149.868
 20
3.21573
 11
149.909
 21
3.09705
  0
LINE
  8
0
 10
149.909
 20
3.09705
 11
149.943
 21
2.97601
  0
LINE
  8
0
 10
149.943
 20
2.97601
 11
149.969
 21
2.8531
  0
LINE
  8
0
 10
149.969
 20
2.8531
 11
149.987
 21
2.72879
  0
LINE
  8
0
 10
149.987
 20
2.72879
 11
149.997
 21
2.60359
  0
LINE
  8
0
 10
149.997
 20
2.60359
 11
150
 21
2.47797
  0
LINE
  8
0
 10
150
 20
2.47797
 11
149.995
 21
2.35245
  0
LINE
  8
0
 10
149.995
 20
2.35245
 11
149.981
 21
2.22749
  0
LINE
  8
0
 10
149.981
 20
2.22749
 11
149.96
 21
2.10362
  0
LINE
  8
0
 10
149.96
 20
2.10362
 11
149.932
 21
1.98131
  0
LINE
  8
0
 10
149.932
 20
1.98131
 11
149.895
 21
1.86105
  0
LINE
  8
0
 10
149.895
 20
1.86105
 11
149.851
 21
1.74332
  0
LINE
  8
0
 10
149.851
 20
1.74332
 11
149.8
 21
1.62856
  0
LINE
  8
0
 10
149.8
 20
1.62856
 11
149.742
 21
1.51724
  0
LINE
  8
0
 10
149.742
 20
1.51724
 11
149.677
 21
1.40981
  0
LINE
  8
0
 10
149.677
 20
1.40981
 11
149.605
 21
1.30667
  0
LINE
  8
0
 10
149.605
 20
1.30667
 11
149.527
 21
1.20825
  0
LINE
  8
0
 10
149.527
 20
1.20825
 11
137.443
 21
-11.3851
  0
LINE
  8
0
 10
137.443
 20
-11.3851
 11
137.353
 21
-11.4729
  0
LINE
  8
0
 10
137.353
 20
-11.4729
 11
137.258
 21
-11.555
  0
LINE
  8
0
 10
137.258
 20
-11.555
 11
137.158
 21
-11.6309
  0
LINE
  8
0
 10
137.158
 20
-11.6309
 11
137.053
 21
-11.7003
  0
LINE
  8
0
 10
137.053
 20
-11.7003
 11
136.944
 21
-11.7631
  0
LINE
  8
0
 10
136.944
 20
-11.7631
 11
136.832
 21
-11.8189
  0
LINE
  8
0
 10
136.832
 20
-11.8189
 11
136.716
 21
-11.8675
  0
LINE
  8
0
 10
136.716
 20
-11.8675
 11
136.597
 21
-11.9088
  0
LINE
  8
0
 10
136.597
 20
-11.9088
 11
136.476
 21
-11.9425
  0
LINE
  8
0
 10
136.476
 20
-11.9425
 11
136.353
 21
-11.9686
  0
LINE
  8
0
 10
136.353
 20
-11.9686
 11
136.229
 21
-11.9869
  0
LINE
  8
0
 10
136.229
 20
-11.9869
 11
136.104
 21
-11.9973
  0
LINE
  8
0
 10
136.104
 20
-11.9973
 11
135.978
 21
-11.9999
  0
LINE
  8
0
 10
135.978
 20
-11.9999
 11
135.852
 21
-11.9945
  0
LINE
  8
0
 10
104.406
 20
0.00294495
 11
104.312
 21
0.0118256
  0
LINE
  8
0
 10
104.312
 20
0.0118256
 11
104.219
 21
0.0265656
  0
LINE
  8
0
 10
104.219
 20
0.0265656
 11
104.127
 21
0.0471191
  0
LINE
  8
0
 10
104.127
 20
0.0471191
 11
104.036
 21
0.07341
  0
LINE
  8
0
 10
104.036
 20
0.07341
 11
103.948
 21
0.105331
  0
LINE
  8
0
 10
103.948
 20
0.105331
 11
103.861
 21
0.142746
  0
LINE
  8
0
 10
103.861
 20
0.142746
 11
103.777
 21
0.185532
  0
LINE
  8
0
 10
103.777
 20
0.185532
 11
103.696
 21
0.233505
  0
LINE
  8
0
 10
103.696
 20
0.233505
 11
103.618
 21
0.286469
  0
LINE
  8
0
 10
103.618
 20
0.286469
 11
103.544
 21
0.344223
  0
LINE
  8
0
 10
103.544
 20
0.344223
 11
103.473
 21
0.40654
  0
LINE
  8
0
 10
103.473
 20
0.40654
 11
103.407
 21
0.473175
  0
LINE
  8
0
 10
103.407
 20
0.473175
 11
103.344
 21
0.543854
  0
LINE
  8
0
 10
103.344
 20
0.543854
 11
103.286
 21
0.618317
  0
LINE
  8
0
 10
103.286
 20
0.618317
 11
103.234
 21
0.696259
  0
LINE
  8
0
 10
103.234
 20
0.696259
 11
103.186
 21
0.777359
  0
LINE
  8
0
 10
103.186
 20
0.777359
 11
103.143
 21
0.861328
  0
LINE
  8
0
 10
103.143
 20
0.861328
 11
103.105
 21
0.9478
  0
LINE
  8
0
 10
103.105
 20
0.9478
 11
103.073
 21
1.03647
  0
LINE
  8
0
 10
103.073
 20
1.03647
 11
103.047
 21
1.12695
  0
LINE
  8
0
 10
103.047
 20
1.12695
 11
103.027
 21
1.21892
  0
LINE
  8
0
 10
103.027
 20
1.21892
 11
103.012
 21
1.312
  0
LINE
  8
0
 10
103.012
 20
1.312
 11
103.003
 21
1.40581
  0
LINE
  8
0
 10
103.003
 20
1.40581
 11
103
 21
1.5
  0
LINE
  8
0
 10
103
 20
1.5
 11
103.003
 21
1.59418
  0
LINE
  8
0
 10
103.003
 20
1.59418
 11
103.012
 21
1.68799
  0
LINE
  8
0
 10
103.012
 20
1.68799
 11
103.027
 21
1.78107
  0
LINE
  8
0
 10
103.027
 20
1.78107
 11
103.047
 21
1.87303
  0
LINE
  8
0
 10
103.047
 20
1.87303
 11
103.073
 21
1.96352
  0
LINE
  8
0
 10
103.073
 20
1.96352
 11
103.105
 21
2.05219
  0
LINE
  8
0
 10
103.105
 20
2.05219
 11
103.143
 21
2.13866
  0
LINE
  8
0
 10
103.143
 20
2.13866
 11
103.186
 21
2.22263
  0
LINE
  8
0
 10
103.186
 20
2.22263
 11
103.234
 21
2.30373
  0
LINE
  8
0
 10
103.234
 20
2.30373
 11
103.286
 21
2.38167
  0
LINE
  8
0
 10
103.286
 20
2.38167
 11
103.344
 21
2.45613
  0
LINE
  8
0
 10
103.344
 20
2.45613
 11
103.407
 21
2.52681
  0
LINE
  8
0
 10
103.407
 20
2.52681
 11
103.473
 21
2.59344
  0
LINE
  8
0
 10
103.473
 20
2.59344
 11
103.544
 21
2.65576
  0
LINE
  8
0
 10
103.544
 20
2.65576
 11
103.618
 21
2.71352
  0
LINE
  8
0
 10
103.618
 20
2.71352
 11
103.696
 21
2.76648
  0
LINE
  8
0
 10
103.696
 20
2.76648
 11
103.777
 21
2.81445
  0
LINE
  8
0
 10
103.777
 20
2.81445
 11
103.861
 21
2.85724
  0
LINE
  8
0
 10
103.861
 20
2.85724
 11
103.948
 21
2.89465
  0
LINE
  8
0
 10
103.948
 20
2.89465
 11
104.036
 21
2.92657
  0
LINE
  8
0
 10
104.036
 20
2.92657
 11
104.127
 21
2.95287
  0
LINE
  8
0
 10
104.127
 20
2.95287
 11
104.219
 21
2.97342
  0
LINE
  8
0
 10
104.219
 20
2.97342
 11
104.312
 21
2.98816
  0
LINE
  8
0
 10
104.312
 20
2.98816
 11
104.406
 21
2.99704
  0
LINE
  8
0
 10
104.406
 20
2.99704
 11
104.5
 21
3
  0
LINE
  8
0
 10
104.5
 20
3
 11
104.594
 21
2.99704
  0
LINE
  8
0
 10
104.594
 20
2.99704
 11
104.688
 21
2.98816
  0
LINE
  8
0
 10
104.688
 20
2.98816
 11
104.781
 21
2.97342
  0
LINE
  8
0
 10
104.781
 20
2.97342
 11
104.873
 21
2.95287
  0
LINE
  8
0
 10
104.873
 20
2.95287
 11
104.964
 21
2.92657
  0
LINE
  8
0
 10
104.964
 20
2.92657
 11
105.052
 21
2.89465
  0
LINE
  8
0
 10
105.052
 20
2.89465
 11
105.139
 21
2.85724
  0
LINE
  8
0
 10
105.139
 20
2.85724
 11
105.223
 21
2.81445
  0
LINE
  8
0
 10
105.223
 20
2.81445
 11
105.304
 21
2.76648
  0
LINE
  8
0
 10
105.304
 20
2.76648
 11
105.382
 21
2.71352
  0
LINE
  8
0
 10
105.382
 20
2.71352
 11
105.456
 21
2.65576
  0
LINE
  8
0
 10
105.456
 20
2.65576
 11
105.527
 21
2.59344
  0
LINE
  8
0
 10
105.527
 20
2.59344
 11
105.593
 21
2.52681
  0
LINE
  8
0
 10
105.593
 20
2.52681
 11
105.656
 21
2.45613
  0
LINE
  8
0
 10
105.656
 20
2.45613
 11
105.714
 21
2.38167
  0
LINE
  8
0
 10
105.714
 20
2.38167
 11
105.766
 21
2.30373
  0
LINE
  8
0
 10
105.766
 20
2.30373
 11
105.814
 21
2.22263
  0
LINE
  8
0
 10
105.814
 20
2.22263
 11
105.857
 21
2.13866
  0
LINE
  8
0
 10
105.857
 20
2.13866
 11
105.895
 21
2.05219
  0
LINE
  8
0
 10
105.895
 20
2.05219
 11
105.927
 21
1.96352
  0
LINE
  8
0
 10
105.927
 20
1.96352
 11
105.953
 21
1.87303
  0
LINE
  8
0
 10
105.953
 20
1.87303
 11
105.973
 21
1.78107
  0
LINE
  8
0
 10
105.973
 20
1.78107
 11
105.988
 21
1.68799
  0
LINE
  8
0
 10
105.988
 20
1.68799
 11
105.997
 21
1.59418
  0
LINE
  8
0
 10
105.997
 20
1.59418
 11
106
 21
1.5
  0
LINE
  8
0
 10
106
 20
1.5
 11
105.997
 21
1.40581
  0
LINE
  8
0
 10
105.997
 20
1.40581
 11
105.988
 21
1.312
  0
LINE
  8
0
 10
105.988
 20
1.312
 11
105.973
 21
1.21892
  0
LINE
  8
0
 10
105.973
 20
1.21892
 11
105.953
 21
1.12695
  0
LINE
  8
0
 10
105.953
 20
1.12695
 11
105.927
 21
1.03647
  0
LINE
  8
0
 10
105.927
 20
1.03647
 11
105.895
 21
0.9478
  0
LINE
  8
0
 10
105.895
 20
0.9478
 11
105.857
 21
0.861328
  0
LINE
  8
0
 10
105.857
 20
0.861328
 11
105.814
 21
0.777359
  0
LINE
  8
0
 10
105.814
 20
0.777359
 11
105.766
 21
0.696259
  0
LINE
  8
0
 10
105.766
 20
0.696259
 11
105.714
 21
0.618317
  0
LINE
  8
0
 10
105.714
 20
0.618317
 11
105.656
 21
0.543854
  0
LINE
  8
0
 10
105.656
 20
0.543854
 11
105.593
 21
0.473175
  0
LINE
  8
0
 10
105.593
 20
0.473175
 11
105.527
 21
0.40654
  0
LINE
  8
0
 10
105.527
 20
0.40654
 11
105.456
 21
0.344223
  0
LINE
  8
0
 10
105.456
 20
0.344223
 11
105.382
 21
0.286469
  0
LINE
  8
0
 10
105.382
 20
0.286469
 11
105.304
 21
0.233505
  0
LINE
  8
0
 10
105.304
 20
0.233505
 11
105.223
 21
0.185532
  0
LINE
  8
0
 10
105.223
 20
0.185532
 11
105.139
 21
0.142746
  0
LINE
  8
0
 10
105.139
 20
0.142746
 11
105.052
 21
0.105331
  0
LINE
  8
0
 10
105.052
 20
0.105331
 11
104.964
 21
0.07341
  0
LINE
  8
0
 10
104.964
 20
0.07341
 11
104.873
 21
0.0471191
  0
LINE
  8
0
 10
104.873
 20
0.0471191
 11
104.781
 21
0.0265656
  0
LINE
  8
0
 10
104.781
 20
0.0265656
 11
104.688
 21
0.0118256
  0
LINE
  8
0
 10
104.688
 20
0.0118256
 11
104.594
 21
0.00294495
  0
LINE
  8
0
 10
104.594
 20
0.00294495
 11
104.5
 21
0
  0
LINE
  8
0
 10
104.5
 20
0
 11
104.406
 21
0.00294495
  0
LINE
  8
0
 10
73.4058
 20
0.00294495
 11
73.312
 21
0.0118256
  0
LINE
  8
0
 10
73.312
 20
0.0118256
 11
73.2189
 21
0.0265656
  0
LINE
  8
0
 10
73.2189
 20
0.0265656
 11
73.127
 21
0.0471191
  0
LINE
  8
0
 10
73.127
 20
0.0471191
 11
73.0365
 21
0.07341
  0
LINE
  8
0
 10
73.0365
 20
0.07341
 11
72.9478
 21
0.105331
  0
LINE
  8
0
 10
72.9478
 20
0.105331
 11
72.8613
 21
0.142746
  0
LINE
  8
0
 10
72.8613
 20
0.142746
 11
72.7774
 21
0.185532
  0
LINE
  8
0
 10
72.7774
 20
0.185532
 11
72.6963
 21
0.233505
  0
LINE
  8
0
 10
72.6963
 20
0.233505
 11
72.6183
 21
0.286469
  0
LINE
  8
0
 10
72.6183
 20
0.286469
 11
72.5439
 21
0.344223
  0
LINE
  8
0
 10
72.5439
 20
0.344223
 11
72.4732
 21
0.40654
  0
LINE
  8
0
 10
72.4732
 20
0.40654
 11
72.4066
 21
0.473175
  0
LINE
  8
0
 10
72.4066
 20
0.473175
 11
72.3442
 21
0.543854
  0
LINE
  8
0
 10
72.3442
 20
0.543854
 11
72.2865
 21
0.618317
  0
LINE
  8
0
 10
72.2865
 20
0.618317
 11
72.2335
 21
0.696259
  0
LINE
  8
0
 10
72.2335
 20
0.696259
 11
72.1855
 21
0.777359
  0
LINE
  8
0
 10
72.1855
 20
0.777359
 11
72.1428
 21
0.861328
  0
LINE
  8
0
 10
72.1428
 20
0.861328
 11
72.1053
 21
0.9478
  0
LINE
  8
0
 10
72.1053
 20
0.9478
 11
72.0734
 21
1.03647
  0
LINE
  8
0
 10
72.0734
 20
1.03647
 11
72.0471
 21
1.12695
  0
LINE
  8
0
 10
72.0471
 20
1.12695
 11
72.0266
 21
1.21892
  0
LINE
  8
0
 10
72.0266
 20
1.21892
 11
72.0118
 21
1.312
  0
LINE
  8
0
 10
72.0118
 20
1.312
 11
72.003
 21
1.40581
  0
LINE
  8
0
 10
72.003
 20
1.40581
 11
72
 21
1.5
  0
LINE
  8
0
 10
72
 20
1.5
 11
72.003
 21
1.59418
  0
LINE
  8
0
 10
72.003
 20
1.59418
 11
72.0118
 21
1.68799
  0
LINE
  8
0
 10
72.0118
 20
1.68799
 11
72.0266
 21
1.78107
  0
LINE
  8
0
 10
72.0266
 20
1.78107
 11
72.0471
 21
1.87303
  0
LINE
  8
0
 10
72.0471
 20
1.87303
 11
72.0734
 21
1.96352
  0
LINE
  8
0
 10
72.0734
 20
1.96352
 11
72.1053
 21
2.05219
  0
LINE
  8
0
 10
72.1053
 20
2.05219
 11
72.1428
 21
2.13866
  0
LINE
  8
0
 10
72.1428
 20
2.13866
 11
72.1855
 21
2.22263
  0
LINE
  8
0
 10
72.1855
 20
2.22263
 11
72.2335
 21
2.30373
  0
LINE
  8
0
 10
72.2335
 20
2.30373
 11
72.2865
 21
2.38167
  0
LINE
  8
0
 10
72.2865
 20
2.38167
 11
72.3442
 21
2.45613
  0
LINE
  8
0
 10
72.3442
 20
2.45613
 11
72.4066
 21
2.52681
  0
LINE
  8
0
 10
72.4066
 20
2.52681
 11
72.4732
 21
2.59344
  0
LINE
  8
0
 10
72.4732
 20
2.59344
 11
72.5439
 21
2.65576
  0
LINE
  8
0
 10
72.5439
 20
2.65576
 11
72.6183
 21
2.71352
  0
LINE
  8
0
 10
72.6183
 20
2.71352
 11
72.6963
 21
2.76648
  0
LINE
  8
0
 10
72.6963
 20
2.76648
 11
72.7774
 21
2.81445
  0
LINE
  8
0
 10
72.7774
 20
2.81445
 11
72.8613
 21
2.85724
  0
LINE
  8
0
 10
72.8613
 20
2.85724
 11
72.9478
 21
2.89465
  0
LINE
  8
0
 10
72.9478
 20
2.89465
 11
73.0365
 21
2.92657
  0
LINE
  8
0
 10
73.0365
 20
2.92657
 11
73.127
 21
2.95287
  0
LINE
  8
0
 10
73.127
 20
2.95287
 11
73.2189
 21
2.97342
  0
LINE
  8
0
 10
73.2189
 20
2.97342
 11
73.312
 21
2.98816
  0
LINE
  8
0
 10
73.312
 20
2.98816
 11
73.4058
 21
2.99704
  0
LINE
  8
0
 10
73.4058
 20
2.99704
 11
73.5
 21
3
  0
LINE
  8
0
 10
73.5
 20
3
 11
73.5942
 21
2.99704
  0
LINE
  8
0
 10
73.5942
 20
2.99704
 11
73.688
 21
2.98816
  0
LINE
  8
0
 10
73.688
 20
2.98816
 11
73.7811
 21
2.97342
  0
LINE
  8
0
 10
73.7811
 20
2.97342
 11
73.873
 21
2.95287
  0
LINE
  8
0
 10
73.873
 20
2.95287
 11
73.9635
 21
2.92657
  0
LINE
  8
0
 10
73.9635
 20
2.92657
 11
74.0522
 21
2.89465
  0
LINE
  8
0
 10
74.0522
 20
2.89465
 11
74.1387
 21
2.85724
  0
LINE
  8
0
 10
74.1387
 20
2.85724
 11
74.2226
 21
2.81445
  0
LINE
  8
0
 10
74.2226
 20
2.81445
 11
74.3037
 21
2.76648
  0
LINE
  8
0
 10
74.3037
 20
2.76648
 11
74.3817
 21
2.71352
  0
LINE
  8
0
 10
74.3817
 20
2.71352
 11
74.4561
 21
2.65576
  0
LINE
  8
0
 10
74.4561
 20
2.65576
 11
74.5268
 21
2.59344
  0
LINE
  8
0
 10
74.5268
 20
2.59344
 11
74.5935
 21
2.52681
  0
LINE
  8
0
 10
74.5935
 20
2.52681
 11
74.6558
 21
2.45613
  0
LINE
  8
0
 10
74.6558
 20
2.45613
 11
74.7135
 21
2.38167
  0
LINE
  8
0
 10
74.7135
 20
2.38167
 11
74.7665
 21
2.30373
  0
LINE
  8
0
 10
74.7665
 20
2.30373
 11
74.8145
 21
2.22263
  0
LINE
  8
0
 10
74.8145
 20
2.22263
 11
74.8573
 21
2.13866
  0
LINE
  8
0
 10
74.8573
 20
2.13866
 11
74.8947
 21
2.05219
  0
LINE
  8
0
 10
74.8947
 20
2.05219
 11
74.9266
 21
1.96352
  0
LINE
  8
0
 10
74.9266
 20
1.96352
 11
74.9529
 21
1.87303
  0
LINE
  8
0
 10
74.9529
 20
1.87303
 11
74.9734
 21
1.78107
  0
LINE
  8
0
 10
74.9734
 20
1.78107
 11
74.9882
 21
1.68799
  0
LINE
  8
0
 10
74.9882
 20
1.68799
 11
74.9971
 21
1.59418
  0
LINE
  8
0
 10
74.9971
 20
1.59418
 11
75
 21
1.5
  0
LINE
  8
0
 10
75
 20
1.5
 11
74.9971
 21
1.40581
  0
LINE
  8
0
 10
74.9971
 20
1.40581
 11
74.9882
 21
1.312
  0
LINE
  8
0
 10
74.9882
 20
1.312
 11
74.9734
 21
1.21892
  0
LINE
  8
0
 10
74.9734
 20
1.21892
 11
74.9529
 21
1.12695
  0
LINE
  8
0
 10
74.9529
 20
1.12695
 11
74.9266
 21
1.03647
  0
LINE
  8
0
 10
74.9266
 20
1.03647
 11
74.8947
 21
0.9478
  0
LINE
  8
0
 10
74.8947
 20
0.9478
 11
74.8573
 21
0.861328
  0
LINE
  8
0
 10
74.8573
 20
0.861328
 11
74.8145
 21
0.777359
  0
LINE
  8
0
 10
74.8145
 20
0.777359
 11
74.7665
 21
0.696259
  0
LINE
  8
0
 10
74.7665
 20
0.696259
 11
74.7135
 21
0.618317
  0
LINE
  8
0
 10
74.7135
 20
0.618317
 11
74.6558
 21
0.543854
  0
LINE
  8
0
 10
74.6558
 20
0.543854
 11
74.5935
 21
0.473175
  0
LINE
  8
0
 10
74.5935
 20
0.473175
 11
74.5268
 21
0.40654
  0
LINE
  8
0
 10
74.5268
 20
0.40654
 11
74.4561
 21
0.344223
  0
LINE
  8
0
 10
74.4561
 20
0.344223
 11
74.3817
 21
0.286469
  0
LINE
  8
0
 10
74.3817
 20
0.286469
 11
74.3037
 21
0.233505
  0
LINE
  8
0
 10
74.3037
 20
0.233505
 11
74.2226
 21
0.185532
  0
LINE
  8
0
 10
74.2226
 20
0.185532
 11
74.1387
 21
0.142746
  0
LINE
  8
0
 10
74.1387
 20
0.142746
 11
74.0522
 21
0.105331
  0
LINE
  8
0
 10
74.0522
 20
0.105331
 11
73.9635
 21
0.07341
  0
LINE
  8
0
 10
73.9635
 20
0.07341
 11
73.873
 21
0.0471191
  0
LINE
  8
0
 10
73.873
 20
0.0471191
 11
73.7811
 21
0.0265656
  0
LINE
  8
0
 10
73.7811
 20
0.0265656
 11
73.688
 21
0.0118256
  0
LINE
  8
0
 10
73.688
 20
0.0118256
 11
73.5942
 21
0.00294495
  0
LINE
  8
0
 10
73.5942
 20
0.00294495
 11
73.5
 21
0
  0
LINE
  8
0
 10
73.5
 20
0
 11
73.4058
 21
0.00294495
  0
LINE
  8
0
 10
96
 20
-34
 11
96
 21
-28
  0
LINE
  8
0
 10
96
 20
-28
 11
66
 21
-28
  0
LINE
  8
0
 10
66
 20
-28
 11
66
 21
-22
  0
LINE
  8
0
 10
66
 20
-22
 11
87.2186
 21
-22
  0
LINE
  8
0
 10
87.2186
 20
-22
 11
86.9608
 21
-21.9424
  0
LINE
  8
0
 10
86.9608
 20
-21.9424
 11
86.4661
 21
-21.7987
  0
LINE
  8
0
 10
86.4661
 20
-21.7987
 11
85.9814
 21
-21.6242
  0
LINE
  8
0
 10
85.9814
 20
-21.6242
 11
85.5086
 21
-21.4196
  0
LINE
  8
0
 10
85.5086
 20
-21.4196
 11
85.0496
 21
-21.1857
  0
LINE
  8
0
 10
85.0496
 20
-21.1857
 11
84.6062
 21
-20.9235
  0
LINE
  8
0
 10
84.6062
 20
-20.9235
 11
84.1802
 21
-20.6339
  0
LINE
  8
0
 10
84.1802
 20
-20.6339
 11
83.7731
 21
-20.3182
  0
LINE
  8
0
 10
83.7731
 20
-20.3182
 11
83.3867
 21
-19.9775
  0
LINE
  8
0
 10
83.3867
 20
-19.9775
 11
83.0225
 21
-19.6133
  0
LINE
  8
0
 10
83.0225
 20
-19.6133
 11
82.6818
 21
-19.2269
  0
LINE
  8
0
 10
82.6818
 20
-19.2269
 11
82.3661
 21
-18.8198
  0
LINE
  8
0
 10
82.3661
 20
-18.8198
 11
82.0765
 21
-18.3938
  0
LINE
  8
0
 10
82.0765
 20
-18.3938
 11
81.8143
 21
-17.9504
  0
LINE
  8
0
 10
81.8143
 20
-17.9504
 11
81.5804
 21
-17.4914
  0
LINE
  8
0
 10
81.5804
 20
-17.4914
 11
81.3758
 21
-17.0186
  0
LINE
  8
0
 10
81.3758
 20
-17.0186
 11
81.2013
 21
-16.5339
  0
LINE
  8
0
 10
81.2013
 20
-16.5339
 11
81.0576
 21
-16.0392
  0
LINE
  8
0
 10
81.0576
 20
-16.0392
 11
80.9453
 21
-15.5365
  0
LINE
  8
0
 10
80.9453
 20
-15.5365
 11
80.8647
 21
-15.0277
  0
LINE
  8
0
 10
80.8647
 20
-15.0277
 11
80.8162
 21
-14.5149
  0
LINE
  8
0
 10
80.8162
 20
-14.5149
 11
80.8
 21
-14
  0
LINE
  8
0
 10
80.8
 20
-14
 11
80.8162
 21
-13.4851
  0
LINE
  8
0
 10
80.8162
 20
-13.4851
 11
80.8647
 21
-12.9723
  0
LINE
  8
0
 10
80.8647
 20
-12.9723
 11
80.9453
 21
-12.4635
  0
LINE
  8
0
 10
80.9453
 20
-12.4635
 11
81.0576
 21
-11.9607
  0
LINE
  8
0
 10
81.0576
 20
-11.9607
 11
81.2013
 21
-11.466
  0
LINE
  8
0
 10
81.2013
 20
-11.466
 11
81.3758
 21
-10.9814
  0
LINE
  8
0
 10
81.3758
 20
-10.9814
 11
81.5804
 21
-10.5086
  0
LINE
  8
0
 10
81.5804
 20
-10.5086
 11
81.8143
 21
-10.0496
  0
LINE
  8
0
 10
81.8143
 20
-10.0496
 11
82.0765
 21
-9.60622
  0
LINE
  8
0
 10
82.0765
 20
-9.60622
 11
82.3661
 21
-9.18016
  0
LINE
  8
0
 10
82.3661
 20
-9.18016
 11
82.6818
 21
-8.77312
  0
LINE
  8
0
 10
82.6818
 20
-8.77312
 11
83.0225
 21
-8.3867
  0
LINE
  8
0
 10
83.0225
 20
-8.3867
 11
83.3867
 21
-8.02245
  0
LINE
  8
0
 10
83.3867
 20
-8.02245
 11
83.7731
 21
-7.68178
  0
LINE
  8
0
 10
83.7731
 20
-7.68178
 11
84.1802
 21
-7.36606
  0
LINE
  8
0
 10
84.1802
 20
-7.36606
 11
84.6062
 21
-7.07651
  0
LINE
  8
0
 10
84.6062
 20
-7.07651
 11
85.0496
 21
-6.81427
  0
LINE
  8
0
 10
85.0496
 20
-6.81427
 11
85.5086
 21
-6.58041
  0
LINE
  8
0
 10
85.5086
 20
-6.58041
 11
85.9814
 21
-6.37582
  0
LINE
  8
0
 10
85.9814
 20
-6.37582
 11
86.4661
 21
-6.20132
  0
LINE
  8
0
 10
86.4661
 20
-6.20132
 11
86.9608
 21
-6.05762
  0
LINE
  8
0
 10
86.9608
 20
-6.05762
 11
87.4635
 21
-5.94525
  0
LINE
  8
0
 10
87.4635
 20
-5.94525
 11
87.9723
 21
-5.86467
  0
LINE
  8
0
 10
87.9723
 20
-5.86467
 11
88.4851
 21
-5.81619
  0
LINE
  8
0
 10
88.4851
 20
-5.81619
 11
89
 21
-5.8
  0
LINE
  8
0
 10
89
 20
-5.8
 11
89.5149
 21
-5.81619
  0
LINE
  8
0
 10
89.5149
 20
-5.81619
 11
90.0277
 21
-5.86467
  0
LINE
  8
0
 10
90.0277
 20
-5.86467
 11
90.5365
 21
-5.94525
  0
LINE
  8
0
 10
90.5365
 20
-5.94525
 11
91.0393
 21
-6.05762
  0
LINE
  8
0
 10
91.0393
 20
-6.05762
 11
91.534
 21
-6.20132
  0
LINE
  8
0
 10
91.534
 20
-6.20132
 11
92.0186
 21
-6.37582
  0
LINE
  8
0
 10
92.0186
 20
-6.37582
 11
92.4914
 21
-6.58041
  0
LINE
  8
0
 10
92.4914
 20
-6.58041
 11
92.9504
 21
-6.81427
  0
LINE
  8
0
 10
92.9504
 20
-6.81427
 11
93.3938
 21
-7.07651
  0
LINE
  8
0
 10
93.3938
 20
-7.07651
 11
93.8198
 21
-7.36606
  0
LINE
  8
0
 10
93.8198
 20
-7.36606
 11
94.2269
 21
-7.68178
  0
LINE
  8
0
 10
94.2269
 20
-7.68178
 11
94.6133
 21
-8.02245
  0
LINE
  8
0
 10
94.6133
 20
-8.02245
 11
94.9776
 21
-8.3867
  0
LINE
  8
0
 10
94.9776
 20
-8.3867
 11
95.3182
 21
-8.77312
  0
LINE
  8
0
 10
95.3182
 20
-8.77312
 11
95.6339
 21
-9.18016
  0
LINE
  8
0
 10
95.6339
 20
-9.18016
 11
95.9235
 21
-9.60622
  0
LINE
  8
0
 10
95.9235
 20
-9.60622
 11
96.1857
 21
-10.0496
  0
LINE
  8
0
 10
96.1857
 20
-10.0496
 11
96.4196
 21
-10.5086
  0
LINE
  8
0
 10
96.4196
 20
-10.5086
 11
96.6242
 21
-10.9814
  0
LINE
  8
0
 10
96.6242
 20
-10.9814
 11
96.7987
 21
-11.466
  0
LINE
  8
0
 10
96.7987
 20
-11.466
 11
96.9424
 21
-11.9607
  0
LINE
  8
0
 10
96.9424
 20
-11.9607
 11
97.0548
 21
-12.4635
  0
LINE
  8
0
 10
97.0548
 20
-12.4635
 11
97.1353
 21
-12.9723
  0
LINE
  8
0
 10
97.1353
 20
-12.9723
 11
97.1838
 21
-13.4851
  0
LINE
  8
0
 10
97.1838
 20
-13.4851
 11
97.2
 21
-14
  0
LINE
  8
0
 10
97.2
 20
-14
 11
97.1838
 21
-14.5149
  0
LINE
  8
0
 10
97.1838
 20
-14.5149
 11
97.1353
 21
-15.0277
  0
LINE
  8
0
 10
97.1353
 20
-15.0277
 11
97.0548
 21
-15.5365
  0
LINE
  8
0
 10
97.0548
 20
-15.5365
 11
96.9424
 21
-16.0392
  0
LINE
  8
0
 10
96.9424
 20
-16.0392
 11
96.7987
 21
-16.5339
  0
LINE
  8
0
 10
96.7987
 20
-16.5339
 11
96.6242
 21
-17.0186
  0
LINE
  8
0
 10
96.6242
 20
-17.0186
 11
96.4196
 21
-17.4914
  0
LINE
  8
0
 10
96.4196
 20
-17.4914
 11
96.1857
 21
-17.9504
  0
LINE
  8
0
 10
96.1857
 20
-17.9504
 11
95.9235
 21
-18.3938
  0
LINE
  8
0
 10
95.9235
 20
-18.3938
 11
95.6339
 21
-18.8198
  0
LINE
  8
0
 10
95.6339
 20
-18.8198
 11
95.3182
 21
-19.2269
  0
LINE
  8
0
 10
95.3182
 20
-19.2269
 11
94.9776
 21
-19.6133
  0
LINE
  8
0
 10
94.9776
 20
-19.6133
 11
94.6133
 21
-19.9775
  0
LINE
  8
0
 10
94.6133
 20
-19.9775
 11
94.2269
 21
-20.3182
  0
LINE
  8
0
 10
94.2269
 20
-20.3182
 11
93.8198
 21
-20.6339
  0
LINE
  8
0
 10
93.8198
 20
-20.6339
 11
93.3938
 21
-20.9235
  0
LINE
  8
0
 10
93.3938
 20
-20.9235
 11
92.9504
 21
-21.1857
  0
LINE
  8
0
 10
92.9504
 20
-21.1857
 11
92.4914
 21
-21.4196
  0
LINE
  8
0
 10
92.4914
 20
-21.4196
 11
92.0186
 21
-21.6242
  0
LINE
  8
0
 10
92.0186
 20
-21.6242
 11
91.534
 21
-21.7987
  0
LINE
  8
0
 10
91.534
 20
-21.7987
 11
91.0393
 21
-21.9424
  0
LINE
  8
0
 10
91.0393
 20
-21.9424
 11
90.7814
 21
-22
  0
LINE
  8
0
 10
90.7814
 20
-22
 11
106
 21
-22
  0
LINE
  8
0
 10
106
 20
-22
 11
106
 21
-27.99
  0
LINE
  8
0
 10
106
 20
-27.99
 11
126
 21
-27.99
  0
LINE
  8
0
 10
126
 20
-27.99
 11
126
 21
-34
  0
LINE
  8
0
 10
126
 20
-34
 11
96
 21
-34
  0
LINE
  8
0
 10
125.812
 20
-11.9941
 11
125.624
 21
-11.9763
  0
LINE
  8
0
 10
125.624
 20
-11.9763
 11
125.438
 21
-11.9469
  0
LINE
  8
0
 10
125.438
 20
-11.9469
 11
125.254
 21
-11.9057
  0
LINE
  8
0
 10
125.254
 20
-11.9057
 11
125.073
 21
-11.8532
  0
LINE
  8
0
 10
125.073
 20
-11.8532
 11
124.896
 21
-11.7893
  0
LINE
  8
0
 10
124.896
 20
-11.7893
 11
124.723
 21
-11.7145
  0
LINE
  8
0
 10
124.723
 20
-11.7145
 11
124.555
 21
-11.6289
  0
LINE
  8
0
 10
124.555
 20
-11.6289
 11
124.393
 21
-11.533
  0
LINE
  8
0
 10
124.393
 20
-11.533
 11
124.237
 21
-11.427
  0
LINE
  8
0
 10
124.237
 20
-11.427
 11
124.088
 21
-11.3115
  0
LINE
  8
0
 10
124.088
 20
-11.3115
 11
123.946
 21
-11.1869
  0
LINE
  8
0
 10
123.946
 20
-11.1869
 11
123.813
 21
-11.0536
  0
LINE
  8
0
 10
123.813
 20
-11.0536
 11
123.688
 21
-10.9123
  0
LINE
  8
0
 10
123.688
 20
-10.9123
 11
123.573
 21
-10.7634
  0
LINE
  8
0
 10
123.573
 20
-10.7634
 11
123.467
 21
-10.6075
  0
LINE
  8
0
 10
123.467
 20
-10.6075
 11
123.371
 21
-10.4453
  0
LINE
  8
0
 10
123.371
 20
-10.4453
 11
123.286
 21
-10.2773
  0
LINE
  8
0
 10
123.286
 20
-10.2773
 11
123.211
 21
-10.1044
  0
LINE
  8
0
 10
123.211
 20
-10.1044
 11
123.147
 21
-9.92705
  0
LINE
  8
0
 10
123.147
 20
-9.92705
 11
123.094
 21
-9.74606
  0
LINE
  8
0
 10
123.094
 20
-9.74606
 11
123.053
 21
-9.56213
  0
LINE
  8
0
 10
123.053
 20
-9.56213
 11
123.024
 21
-9.37599
  0
LINE
  8
0
 10
123.024
 20
-9.37599
 11
123.006
 21
-9.18837
  0
LINE
  8
0
 10
123.006
 20
-9.18837
 11
123
 21
-8.99998
  0
LINE
  8
0
 10
123
 20
-8.99998
 11
123.006
 21
-8.81161
  0
LINE
  8
0
 10
123.006
 20
-8.81161
 11
123.024
 21
-8.62399
  0
LINE
  8
0
 10
123.024
 20
-8.62399
 11
123.053
 21
-8.43785
  0
LINE
  8
0
 10
123.053
 20
-8.43785
 11
123.094
 21
-8.25392
  0
LINE
  8
0
 10
123.094
 20
-8.25392
 11
123.147
 21
-8.07294
  0
LINE
  8
0
 10
123.147
 20
-8.07294
 11
123.211
 21
-7.89561
  0
LINE
  8
0
 10
123.211
 20
-7.89561
 11
123.286
 21
-7.72266
  0
LINE
  8
0
 10
123.286
 20
-7.72266
 11
123.371
 21
-7.55473
  0
LINE
  8
0
 10
123.371
 20
-7.55473
 11
123.467
 21
-7.39252
  0
LINE
  8
0
 10
123.467
 20
-7.39252
 11
123.573
 21
-7.23663
  0
LINE
  8
0
 10
123.573
 20
-7.23663
 11
123.688
 21
-7.08772
  0
LINE
  8
0
 10
123.688
 20
-7.08772
 11
123.813
 21
-6.94635
  0
LINE
  8
0
 10
123.813
 20
-6.94635
 11
123.946
 21
-6.81308
  0
LINE
  8
0
 10
123.946
 20
-6.81308
 11
124.088
 21
-6.68845
  0
LINE
  8
0
 10
124.088
 20
-6.68845
 11
124.237
 21
-6.57294
  0
LINE
  8
0
 10
124.237
 20
-6.57294
 11
124.393
 21
-6.46701
  0
LINE
  8
0
 10
124.393
 20
-6.46701
 11
124.555
 21
-6.37108
  0
LINE
  8
0
 10
124.555
 20
-6.37108
 11
124.723
 21
-6.28551
  0
LINE
  8
0
 10
124.723
 20
-6.28551
 11
124.896
 21
-6.21066
  0
LINE
  8
0
 10
124.896
 20
-6.21066
 11
125.073
 21
-6.14682
  0
LINE
  8
0
 10
125.073
 20
-6.14682
 11
125.254
 21
-6.09424
  0
LINE
  8
0
 10
125.254
 20
-6.09424
 11
125.438
 21
-6.05313
  0
LINE
  8
0
 10
125.438
 20
-6.05313
 11
125.624
 21
-6.02365
  0
LINE
  8
0
 10
125.624
 20
-6.02365
 11
125.812
 21
-6.00591
  0
LINE
  8
0
 10
125.812
 20
-6.00591
 11
126
 21
-6
  0
LINE
  8
0
 10
126
 20
-6
 11
126.188
 21
-6.00591
  0
LINE
  8
0
 10
126.188
 20
-6.00591
 11
126.376
 21
-6.02365
  0
LINE
  8
0
 10
126.376
 20
-6.02365
 11
126.562
 21
-6.05313
  0
LINE
  8
0
 10
126.562
 20
-6.05313
 11
126.746
 21
-6.09424
  0
LINE
  8
0
 10
126.746
 20
-6.09424
 11
126.927
 21
-6.14682
  0
LINE
  8
0
 10
126.927
 20
-6.14682
 11
127.104
 21
-6.21066
  0
LINE
  8
0
 10
127.104
 20
-6.21066
 11
127.277
 21
-6.28551
  0
LINE
  8
0
 10
127.277
 20
-6.28551
 11
127.445
 21
-6.37108
  0
LINE
  8
0
 10
127.445
 20
-6.37108
 11
127.607
 21
-6.46701
  0
LINE
  8
0
 10
127.607
 20
-6.46701
 11
127.763
 21
-6.57294
  0
LINE
  8
0
 10
127.763
 20
-6.57294
 11
127.912
 21
-6.68845
  0
LINE
  8
0
 10
127.912
 20
-6.68845
 11
128.054
 21
-6.81308
  0
LINE
  8
0
 10
128.054
 20
-6.81308
 11
128.187
 21
-6.94635
  0
LINE
  8
0
 10
128.187
 20
-6.94635
 11
128.312
 21
-7.08772
  0
LINE
  8
0
 10
128.312
 20
-7.08772
 11
128.427
 21
-7.23663
  0
LINE
  8
0
 10
128.427
 20
-7.23663
 11
128.533
 21
-7.39252
  0
LINE
  8
0
 10
128.533
 20
-7.39252
 11
128.629
 21
-7.55473
  0
LINE
  8
0
 10
128.629
 20
-7.55473
 11
128.714
 21
-7.72266
  0
LINE
  8
0
 10
128.714
 20
-7.72266
 11
128.789
 21
-7.89561
  0
LINE
  8
0
 10
128.789
 20
-7.89561
 11
128.853
 21
-8.07294
  0
LINE
  8
0
 10
128.853
 20
-8.07294
 11
128.906
 21
-8.25392
  0
LINE
  8
0
 10
128.906
 20
-8.25392
 11
128.947
 21
-8.43785
  0
LINE
  8
0
 10
128.947
 20
-8.43785
 11
128.976
 21
-8.62399
  0
LINE
  8
0
 10
128.976
 20
-8.62399
 11
128.994
 21
-8.81161
  0
LINE
  8
0
 10
128.994
 20
-8.81161
 11
129
 21
-9
  0
LINE
  8
0
 10
129
 20
-9
 11
128.994
 21
-9.18837
  0
LINE
  8
0
 10
128.994
 20
-9.18837
 11
128.976
 21
-9.37599
  0
LINE
  8
0
 10
128.976
 20
-9.37599
 11
128.947
 21
-9.56213
  0
LINE
  8
0
 10
128.947
 20
-9.56213
 11
128.906
 21
-9.74606
  0
LINE
  8
0
 10
128.906
 20
-9.74606
 11
128.853
 21
-9.92705
  0
LINE
  8
0
 10
128.853
 20
-9.92705
 11
128.789
 21
-10.1044
  0
LINE
  8
0
 10
128.789
 20
-10.1044
 11
128.714
 21
-10.2773
  0
LINE
  8
0
 10
128.714
 20
-10.2773
 11
128.629
 21
-10.4453
  0
LINE
  8
0
 10
128.629
 20
-10.4453
 11
128.533
 21
-10.6075
  0
LINE
  8
0
 10
128.533
 20
-10.6075
 11
128.427
 21
-10.7634
  0
LINE
  8
0
 10
128.427
 20
-10.7634
 11
128.312
 21
-10.9123
  0
LINE
  8
0
 10
128.312
 20
-10.9123
 11
128.187
 21
-11.0536
  0
LINE
  8
0
 10
128.187
 20
-11.0536
 11
128.054
 21
-11.1869
  0
LINE
  8
0
 10
128.054
 20
-11.1869
 11
127.912
 21
-11.3115
  0
LINE
  8
0
 10
127.912
 20
-11.3115
 11
127.763
 21
-11.427
  0
LINE
  8
0
 10
127.763
 20
-11.427
 11
127.607
 21
-11.533
  0
LINE
  8
0
 10
127.607
 20
-11.533
 11
127.445
 21
-11.6289
  0
LINE
  8
0
 10
127.445
 20
-11.6289
 11
127.277
 21
-11.7145
  0
LINE
  8
0
 10
127.277
 20
-11.7145
 11
127.104
 21
-11.7893
  0
LINE
  8
0
 10
127.104
 20
-11.7893
 11
126.927
 21
-11.8532
  0
LINE
  8
0
 10
126.927
 20
-11.8532
 11
126.746
 21
-11.9057
  0
LINE
  8
0
 10
126.746
 20
-11.9057
 11
126.562
 21
-11.9469
  0
LINE
  8
0
 10
126.562
 20
-11.9469
 11
126.376
 21
-11.9763
  0
LINE
  8
0
 10
126.376
 20
-11.9763
 11
126.188
 21
-11.9941
  0
LINE
  8
0
 10
126.188
 20
-11.9941
 11
126
 21
-12
  0
LINE
  8
0
 10
126
 20
-12
 11
125.812
 21
-11.9941
  0
LINE
  8
0
 10
158.75
 20
-15.5
 11
158.75
 21
-12.5
  0
LINE
  8
0
 10
158.75
 20
-12.5
 11
188.25
 21
-12.5
  0
LINE
  8
0
 10
188.25
 20
-12.5
 11
188.25
 21
-15.5
  0
LINE
  8
0
 10
188.25
 20
-15.5
 11
158.75
 21
-15.5
  0
LINE
  8
0
 10
119.7
 20
-20.35
 11
119.7
 21
-14.65
  0
LINE
  8
0
 10
119.7
 20
-14.65
 11
132.3
 21
-14.65
  0
LINE
  8
0
 10
132.3
 20
-14.65
 11
132.3
 21
-20.35
  0
LINE
  8
0
 10
132.3
 20
-20.35
 11
119.7
 21
-20.35
  0
LINE
  8
0
 10
146
 20
-34
 11
146
 21
-21.99
  0
LINE
  8
0
 10
146
 20
-21.99
 11
176
 21
-21.99
  0
LINE
  8
0
 10
176
 20
-21.99
 11
176
 21
-34
  0
LINE
  8
0
 10
176
 20
-34
 11
146
 21
-34
  0
LINE
  8
0
 10
-15
 20
-130.994
 11
-15
 21
-100
  0
LINE
  8
0
 10
-15
 20
-100
 11
-9
 21
-100
  0
LINE
  8
0
 10
-9
 20
-100
 11
-9
 21
-130.994
  0
LINE
  8
0
 10
-9
 20
-130.994
 11
0.377533
 21
-130.993
  0
LINE
  8
0
 10
0.377533
 20
-130.993
 11
1.00424
 21
-130.949
  0
LINE
  8
0
 10
1.00424
 20
-130.949
 11
1.627
 21
-130.867
  0
LINE
  8
0
 10
1.627
 20
-130.867
 11
2.24332
 21
-130.745
  0
LINE
  8
0
 10
2.24332
 20
-130.745
 11
2.8508
 21
-130.585
  0
LINE
  8
0
 10
2.8508
 20
-130.585
 11
3.44702
 21
-130.387
  0
LINE
  8
0
 10
3.44702
 20
-130.387
 11
4.02965
 21
-130.152
  0
LINE
  8
0
 10
4.02965
 20
-130.152
 11
4.59636
 21
-129.881
  0
LINE
  8
0
 10
4.59636
 20
-129.881
 11
5.14493
 21
-129.575
  0
LINE
  8
0
 10
5.14493
 20
-129.575
 11
55.5254
 21
-99.3348
  0
LINE
  8
0
 10
55.5254
 20
-99.3348
 11
56.0379
 21
-98.9715
  0
LINE
  8
0
 10
56.0379
 20
-98.9715
 11
56.5265
 21
-98.5766
  0
LINE
  8
0
 10
56.5265
 20
-98.5766
 11
56.9893
 21
-98.1518
  0
LINE
  8
0
 10
56.9893
 20
-98.1518
 11
57.4246
 21
-97.6989
  0
LINE
  8
0
 10
57.4246
 20
-97.6989
 11
57.8306
 21
-97.2195
  0
LINE
  8
0
 10
57.8306
 20
-97.2195
 11
58.2057
 21
-96.7155
  0
LINE
  8
0
 10
58.2057
 20
-96.7155
 11
58.5484
 21
-96.189
  0
LINE
  8
0
 10
58.5484
 20
-96.189
 11
58.8573
 21
-95.642
  0
LINE
  8
0
 10
58.8573
 20
-95.642
 11
59.1313
 21
-95.0767
  0
LINE
  8
0
 10
59.1313
 20
-95.0767
 11
59.3692
 21
-94.4953
  0
LINE
  8
0
 10
59.3692
 20
-94.4953
 11
59.5702
 21
-93.9001
  0
LINE
  8
0
 10
59.5702
 20
-93.9001
 11
69.6858
 21
-60.4869
  0
LINE
  8
0
 10
69.6858
 20
-60.4869
 11
69.8229
 21
-59.8738
  0
LINE
  8
0
 10
69.8229
 20
-59.8738
 11
69.9211
 21
-59.2533
  0
LINE
  8
0
 10
69.9211
 20
-59.2533
 11
69.9803
 21
-58.6279
  0
LINE
  8
0
 10
69.9803
 20
-58.6279
 11
70
 21
-58
  0
LINE
  8
0
 10
70
 20
-58
 11
69.9803
 21
-57.3721
  0
LINE
  8
0
 10
69.9803
 20
-57.3721
 11
69.9211
 21
-56.7467
  0
LINE
  8
0
 10
69.9211
 20
-56.7467
 11
69.8229
 21
-56.1262
  0
LINE
  8
0
 10
69.8229
 20
-56.1262
 11
69.6858
 21
-55.5131
  0
LINE
  8
0
 10
69.6858
 20
-55.5131
 11
69.5106
 21
-54.9098
  0
LINE
  8
0
 10
69.5106
 20
-54.9098
 11
69.2978
 21
-54.3188
  0
LINE
  8
0
 10
69.2978
 20
-54.3188
 11
69.0483
 21
-53.7422
  0
LINE
  8
0
 10
69.0483
 20
-53.7422
 11
68.7631
 21
-53.1825
  0
LINE
  8
0
 10
68.7631
 20
-53.1825
 11
68.4433
 21
-52.6417
  0
LINE
  8
0
 10
68.4433
 20
-52.6417
 11
68.0902
 21
-52.1222
  0
LINE
  8
0
 10
68.0902
 20
-52.1222
 11
67.7051
 21
-51.6258
  0
LINE
  8
0
 10
67.7051
 20
-51.6258
 11
67.2897
 21
-51.1545
  0
LINE
  8
0
 10
67.2897
 20
-51.1545
 11
66.8455
 21
-50.7103
  0
LINE
  8
0
 10
66.8455
 20
-50.7103
 11
66.3742
 21
-50.2949
  0
LINE
  8
0
 10
66.3742
 20
-50.2949
 11
65.8778
 21
-49.9098
  0
LINE
  8
0
 10
65.8778
 20
-49.9098
 11
65.3583
 21
-49.5567
  0
LINE
  8
0
 10
65.3583
 20
-49.5567
 11
64.8175
 21
-49.2369
  0
LINE
  8
0
 10
64.8175
 20
-49.2369
 11
64.2578
 21
-48.9517
  0
LINE
  8
0
 10
64.2578
 20
-48.9517
 11
63.6812
 21
-48.7022
  0
LINE
  8
0
 10
63.6812
 20
-48.7022
 11
63.0902
 21
-48.4894
  0
LINE
  8
0
 10
63.0902
 20
-48.4894
 11
62.4869
 21
-48.3142
  0
LINE
  8
0
 10
62.4869
 20
-48.3142
 11
61.8738
 21
-48.1771
  0
LINE
  8
0
 10
61.8738
 20
-48.1771
 11
61.2533
 21
-48.0789
  0
LINE
  8
0
 10
61.2533
 20
-48.0789
 11
60.6279
 21
-48.0197
  0
LINE
  8
0
 10
60.6279
 20
-48.0197
 11
60
 21
-48
  0
LINE
  8
0
 10
60
 20
-48
 11
-60.539
 21
-48.0145
  0
LINE
  8
0
 10
-60.539
 20
-48.0145
 11
-61.165
 21
-48.0681
  0
LINE
  8
0
 10
-61.165
 20
-48.0681
 11
-61.7863
 21
-48.1608
  0
LINE
  8
0
 10
-61.7863
 20
-48.1608
 11
-62.4006
 21
-48.2924
  0
LINE
  8
0
 10
-62.4006
 20
-48.2924
 11
-63.0054
 21
-48.4623
  0
LINE
  8
0
 10
-63.0054
 20
-48.4623
 11
-63.5983
 21
-48.6698
  0
LINE
  8
0
 10
-63.5983
 20
-48.6698
 11
-64.1771
 21
-48.9142
  0
LINE
  8
0
 10
-64.1771
 20
-48.9142
 11
-64.7393
 21
-49.1944
  0
LINE
  8
0
 10
-64.7393
 20
-49.1944
 11
-65.2829
 21
-49.5094
  0
LINE
  8
0
 10
-65.2829
 20
-49.5094
 11
-65.8056
 21
-49.8578
  0
LINE
  8
0
 10
-65.8056
 20
-49.8578
 11
-66.3054
 21
-50.2384
  0
LINE
  8
0
 10
-66.3054
 20
-50.2384
 11
-66.7803
 21
-50.6497
  0
LINE
  8
0
 10
-66.7803
 20
-50.6497
 11
-67.2285
 21
-51.0899
  0
LINE
  8
0
 10
-67.2285
 20
-51.0899
 11
-67.6481
 21
-51.5574
  0
LINE
  8
0
 10
-67.6481
 20
-51.5574
 11
-68.0375
 21
-52.0504
  0
LINE
  8
0
 10
-68.0375
 20
-52.0504
 11
-68.3952
 21
-52.5668
  0
LINE
  8
0
 10
-68.3952
 20
-52.5668
 11
-68.7198
 21
-53.1047
  0
LINE
  8
0
 10
-68.7198
 20
-53.1047
 11
-69.01
 21
-53.6618
  0
LINE
  8
0
 10
-69.01
 20
-53.6618
 11
-82.0483
 21
-80.7422
  0
LINE
  8
0
 10
-82.0483
 20
-80.7422
 11
-82.2978
 21
-81.3187
  0
LINE
  8
0
 10
-82.2978
 20
-81.3187
 11
-82.5106
 21
-81.9098
  0
LINE
  8
0
 10
-82.5106
 20
-81.9098
 11
-82.6858
 21
-82.5131
  0
LINE
  8
0
 10
-82.6858
 20
-82.5131
 11
-82.8229
 21
-83.1262
  0
LINE
  8
0
 10
-82.8229
 20
-83.1262
 11
-82.9211
 21
-83.7467
  0
LINE
  8
0
 10
-82.9211
 20
-83.7467
 11
-82.9803
 21
-84.3721
  0
LINE
  8
0
 10
-82.9803
 20
-84.3721
 11
-83
 21
-85
  0
LINE
  8
0
 10
-83
 20
-85
 11
-82.9809
 21
-120.5
  0
LINE
  8
0
 10
-82.9809
 20
-120.5
 11
-62.25
 21
-120.5
  0
LINE
  8
0
 10
-62.25
 20
-120.5
 11
-62.25
 21
-123.5
  0
LINE
  8
0
 10
-62.25
 20
-123.5
 11
-82.682
 21
-123.5
  0
LINE
  8
0
 10
-82.682
 20
-123.5
 11
-82.5106
 21
-124.09
  0
LINE
  8
0
 10
-82.5106
 20
-124.09
 11
-82.2978
 21
-124.681
  0
LINE
  8
0
 10
-82.2978
 20
-124.681
 11
-82.0483
 21
-125.258
  0
LINE
  8
0
 10
-82.0483
 20
-125.258
 11
-81.7631
 21
-125.818
  0
LINE
  8
0
 10
-81.7631
 20
-125.818
 11
-81.4433
 21
-126.358
  0
LINE
  8
0
 10
-81.4433
 20
-126.358
 11
-81.0902
 21
-126.878
  0
LINE
  8
0
 10
-81.0902
 20
-126.878
 11
-80.7051
 21
-127.374
  0
LINE
  8
0
 10
-80.7051
 20
-127.374
 11
-80.2897
 21
-127.845
  0
LINE
  8
0
 10
-80.2897
 20
-127.845
 11
-79.8455
 21
-128.29
  0
LINE
  8
0
 10
-79.8455
 20
-128.29
 11
-79.3742
 21
-128.705
  0
LINE
  8
0
 10
-79.3742
 20
-128.705
 11
-78.8778
 21
-129.09
  0
LINE
  8
0
 10
-78.8778
 20
-129.09
 11
-78.3583
 21
-129.443
  0
LINE
  8
0
 10
-78.3583
 20
-129.443
 11
-77.8175
 21
-129.763
  0
LINE
  8
0
 10
-77.8175
 20
-129.763
 11
-77.2578
 21
-130.048
  0
LINE
  8
0
 10
-77.2578
 20
-130.048
 11
-76.6812
 21
-130.298
  0
LINE
  8
0
 10
-76.6812
 20
-130.298
 11
-76.0902
 21
-130.511
  0
LINE
  8
0
 10
-76.0902
 20
-130.511
 11
-75.4869
 21
-130.686
  0
LINE
  8
0
 10
-75.4869
 20
-130.686
 11
-74.8738
 21
-130.823
  0
LINE
  8
0
 10
-74.8738
 20
-130.823
 11
-74.2533
 21
-130.921
  0
LINE
  8
0
 10
-74.2533
 20
-130.921
 11
-73.6279
 21
-130.98
  0
LINE
  8
0
 10
-73.6279
 20
-130.98
 11
-73
 21
-131
  0
LINE
  8
0
 10
-73
 20
-131
 11
-15
 21
-130.994
  0
LINE
  8
0
 10
-50
 20
-69.01
 11
-50
 21
-57
  0
LINE
  8
0
 10
-50
 20
-57
 11
-20
 21
-57
  0
LINE
  8
0
 10
-20
 20
-57
 11
-20
 21
-69.01
  0
LINE
  8
0
 10
-20
 20
-69.01
 11
-50
 21
-69.01
  0
LINE
  8
0
 10
20
 20
-69
 11
20
 21
-63.01
  0
LINE
  8
0
 10
20
 20
-63.01
 11
0
 21
-63.01
  0
LINE
  8
0
 10
0
 20
-63.01
 11
0
 21
-57
  0
LINE
  8
0
 10
0
 20
-57
 11
30
 21
-57
  0
LINE
  8
0
 10
30
 20
-57
 11
30
 21
-63
  0
LINE
  8
0
 10
30
 20
-63
 11
60
 21
-63
  0
LINE
  8
0
 10
60
 20
-63
 11
60
 21
-69
  0
LINE
  8
0
 10
60
 20
-69
 11
20
 21
-69
  0
LINE
  8
0
 10
-6.29997
 20
-76.35
 11
-6.29997
 21
-70.65
  0
LINE
  8
0
 10
-6.29997
 20
-70.65
 11
6.29999
 21
-70.65
  0
LINE
  8
0
 10
6.29999
 20
-70.65
 11
6.29999
 21
-76.35
  0
LINE
  8
0
 10
6.29999
 20
-76.35
 11
-6.29997
 21
-76.35
  0
LINE
  8
0
 10
36.686
 20
-81.9901
 11
36.3733
 21
-81.9606
  0
LINE
  8
0
 10
36.3733
 20
-81.9606
 11
36.0631
 21
-81.9114
  0
LINE
  8
0
 10
36.0631
 20
-81.9114
 11
35.7565
 21
-81.8429
  0
LINE
  8
0
 10
35.7565
 20
-81.8429
 11
35.4549
 21
-81.7553
  0
LINE
  8
0
 10
35.4549
 20
-81.7553
 11
35.1594
 21
-81.6489
  0
LINE
  8
0
 10
35.1594
 20
-81.6489
 11
34.8711
 21
-81.5241
  0
LINE
  8
0
 10
34.8711
 20
-81.5241
 11
34.5912
 21
-81.3815
  0
LINE
  8
0
 10
34.5912
 20
-81.3815
 11
34.3209
 21
-81.2216
  0
LINE
  8
0
 10
34.3209
 20
-81.2216
 11
34.0611
 21
-81.0451
  0
LINE
  8
0
 10
34.0611
 20
-81.0451
 11
33.8129
 21
-80.8526
  0
LINE
  8
0
 10
33.8129
 20
-80.8526
 11
33.5773
 21
-80.6449
  0
LINE
  8
0
 10
33.5773
 20
-80.6449
 11
33.3551
 21
-80.4227
  0
LINE
  8
0
 10
33.3551
 20
-80.4227
 11
33.1474
 21
-80.1871
  0
LINE
  8
0
 10
33.1474
 20
-80.1871
 11
32.9549
 21
-79.9389
  0
LINE
  8
0
 10
32.9549
 20
-79.9389
 11
32.7784
 21
-79.6791
  0
LINE
  8
0
 10
32.7784
 20
-79.6791
 11
32.6185
 21
-79.4088
  0
LINE
  8
0
 10
32.6185
 20
-79.4088
 11
32.4759
 21
-79.1289
  0
LINE
  8
0
 10
32.4759
 20
-79.1289
 11
32.3511
 21
-78.8406
  0
LINE
  8
0
 10
32.3511
 20
-78.8406
 11
32.2447
 21
-78.5451
  0
LINE
  8
0
 10
32.2447
 20
-78.5451
 11
32.1571
 21
-78.2435
  0
LINE
  8
0
 10
32.1571
 20
-78.2435
 11
32.0886
 21
-77.9369
  0
LINE
  8
0
 10
32.0886
 20
-77.9369
 11
32.0394
 21
-77.6267
  0
LINE
  8
0
 10
32.0394
 20
-77.6267
 11
32.0099
 21
-77.314
  0
LINE
  8
0
 10
32.0099
 20
-77.314
 11
32
 21
-77
  0
LINE
  8
0
 10
32
 20
-77
 11
32.0099
 21
-76.6861
  0
LINE
  8
0
 10
32.0099
 20
-76.6861
 11
32.0394
 21
-76.3733
  0
LINE
  8
0
 10
32.0394
 20
-76.3733
 11
32.0886
 21
-76.0631
  0
LINE
  8
0
 10
32.0886
 20
-76.0631
 11
32.1571
 21
-75.7566
  0
LINE
  8
0
 10
32.1571
 20
-75.7566
 11
32.2447
 21
-75.4549
  0
LINE
  8
0
 10
32.2447
 20
-75.4549
 11
32.3511
 21
-75.1594
  0
LINE
  8
0
 10
32.3511
 20
-75.1594
 11
32.4759
 21
-74.8711
  0
LINE
  8
0
 10
32.4759
 20
-74.8711
 11
32.6185
 21
-74.5912
  0
LINE
  8
0
 10
32.6185
 20
-74.5912
 11
32.7784
 21
-74.3209
  0
LINE
  8
0
 10
32.7784
 20
-74.3209
 11
32.9549
 21
-74.0611
  0
LINE
  8
0
 10
32.9549
 20
-74.0611
 11
33.1474
 21
-73.8129
  0
LINE
  8
0
 10
33.1474
 20
-73.8129
 11
33.3551
 21
-73.5773
  0
LINE
  8
0
 10
33.3551
 20
-73.5773
 11
33.5773
 21
-73.3552
  0
LINE
  8
0
 10
33.5773
 20
-73.3552
 11
33.8129
 21
-73.1474
  0
LINE
  8
0
 10
33.8129
 20
-73.1474
 11
34.0611
 21
-72.9549
  0
LINE
  8
0
 10
34.0611
 20
-72.9549
 11
34.3209
 21
-72.7784
  0
LINE
  8
0
 10
34.3209
 20
-72.7784
 11
34.5912
 21
-72.6185
  0
LINE
  8
0
 10
34.5912
 20
-72.6185
 11
34.8711
 21
-72.4759
  0
LINE
  8
0
 10
34.8711
 20
-72.4759
 11
35.1594
 21
-72.3511
  0
LINE
  8
0
 10
35.1594
 20
-72.3511
 11
35.4549
 21
-72.2447
  0
LINE
  8
0
 10
35.4549
 20
-72.2447
 11
35.7565
 21
-72.1571
  0
LINE
  8
0
 10
35.7565
 20
-72.1571
 11
36.0631
 21
-72.0886
  0
LINE
  8
0
 10
36.0631
 20
-72.0886
 11
36.3733
 21
-72.0394
  0
LINE
  8
0
 10
36.3733
 20
-72.0394
 11
36.686
 21
-72.0099
  0
LINE
  8
0
 10
36.686
 20
-72.0099
 11
37
 21
-72
  0
LINE
  8
0
 10
37
 20
-72
 11
37.3139
 21
-72.0099
  0
LINE
  8
0
 10
37.3139
 20
-72.0099
 11
37.6267
 21
-72.0394
  0
LINE
  8
0
 10
37.6267
 20
-72.0394
 11
37.9369
 21
-72.0886
  0
LINE
  8
0
 10
37.9369
 20
-72.0886
 11
38.2434
 21
-72.1571
  0
LINE
  8
0
 10
38.2434
 20
-72.1571
 11
38.5451
 21
-72.2447
  0
LINE
  8
0
 10
38.5451
 20
-72.2447
 11
38.8406
 21
-72.3511
  0
LINE
  8
0
 10
38.8406
 20
-72.3511
 11
39.1289
 21
-72.4759
  0
LINE
  8
0
 10
39.1289
 20
-72.4759
 11
39.4088
 21
-72.6185
  0
LINE
  8
0
 10
39.4088
 20
-72.6185
 11
39.6791
 21
-72.7784
  0
LINE
  8
0
 10
39.6791
 20
-72.7784
 11
39.9389
 21
-72.9549
  0
LINE
  8
0
 10
39.9389
 20
-72.9549
 11
40.1871
 21
-73.1474
  0
LINE
  8
0
 10
40.1871
 20
-73.1474
 11
40.4227
 21
-73.3552
  0
LINE
  8
0
 10
40.4227
 20
-73.3552
 11
40.6448
 21
-73.5773
  0
LINE
  8
0
 10
40.6448
 20
-73.5773
 11
40.8526
 21
-73.8129
  0
LINE
  8
0
 10
40.8526
 20
-73.8129
 11
41.0451
 21
-74.0611
  0
LINE
  8
0
 10
41.0451
 20
-74.0611
 11
41.2216
 21
-74.3209
  0
LINE
  8
0
 10
41.2216
 20
-74.3209
 11
41.3815
 21
-74.5912
  0
LINE
  8
0
 10
41.3815
 20
-74.5912
 11
41.5241
 21
-74.8711
  0
LINE
  8
0
 10
41.5241
 20
-74.8711
 11
41.6489
 21
-75.1594
  0
LINE
  8
0
 10
41.6489
 20
-75.1594
 11
41.7553
 21
-75.4549
  0
LINE
  8
0
 10
41.7553
 20
-75.4549
 11
41.8429
 21
-75.7566
  0
LINE
  8
0
 10
41.8429
 20
-75.7566
 11
41.9114
 21
-76.0631
  0
LINE
  8
0
 10
41.9114
 20
-76.0631
 11
41.9606
 21
-76.3733
  0
LINE
  8
0
 10
41.9606
 20
-76.3733
 11
41.9901
 21
-76.6861
  0
LINE
  8
0
 10
41.9901
 20
-76.6861
 11
42
 21
-77
  0
LINE
  8
0
 10
42
 20
-77
 11
41.9901
 21
-77.314
  0
LINE
  8
0
 10
41.9901
 20
-77.314
 11
41.9606
 21
-77.6267
  0
LINE
  8
0
 10
41.9606
 20
-77.6267
 11
41.9114
 21
-77.9369
  0
LINE
  8
0
 10
41.9114
 20
-77.9369
 11
41.8429
 21
-78.2435
  0
LINE
  8
0
 10
41.8429
 20
-78.2435
 11
41.7553
 21
-78.5451
  0
LINE
  8
0
 10
41.7553
 20
-78.5451
 11
41.6489
 21
-78.8406
  0
LINE
  8
0
 10
41.6489
 20
-78.8406
 11
41.5241
 21
-79.1289
  0
LINE
  8
0
 10
41.5241
 20
-79.1289
 11
41.3815
 21
-79.4088
  0
LINE
  8
0
 10
41.3815
 20
-79.4088
 11
41.2216
 21
-79.6791
  0
LINE
  8
0
 10
41.2216
 20
-79.6791
 11
41.0451
 21
-79.9389
  0
LINE
  8
0
 10
41.0451
 20
-79.9389
 11
40.8526
 21
-80.1871
  0
LINE
  8
0
 10
40.8526
 20
-80.1871
 11
40.6448
 21
-80.4227
  0
LINE
  8
0
 10
40.6448
 20
-80.4227
 11
40.4227
 21
-80.6449
  0
LINE
  8
0
 10
40.4227
 20
-80.6449
 11
40.1871
 21
-80.8526
  0
LINE
  8
0
 10
40.1871
 20
-80.8526
 11
39.9389
 21
-81.0451
  0
LINE
  8
0
 10
39.9389
 20
-81.0451
 11
39.6791
 21
-81.2216
  0
LINE
  8
0
 10
39.6791
 20
-81.2216
 11
39.4088
 21
-81.3815
  0
LINE
  8
0
 10
39.4088
 20
-81.3815
 11
39.1289
 21
-81.5241
  0
LINE
  8
0
 10
39.1289
 20
-81.5241
 11
38.8406
 21
-81.6489
  0
LINE
  8
0
 10
38.8406
 20
-81.6489
 11
38.5451
 21
-81.7553
  0
LINE
  8
0
 10
38.5451
 20
-81.7553
 11
38.2434
 21
-81.8429
  0
LINE
  8
0
 10
38.2434
 20
-81.8429
 11
37.9369
 21
-81.9114
  0
LINE
  8
0
 10
37.9369
 20
-81.9114
 11
37.6267
 21
-81.9606
  0
LINE
  8
0
 10
37.6267
 20
-81.9606
 11
37.3139
 21
-81.9901
  0
LINE
  8
0
 10
37.3139
 20
-81.9901
 11
37
 21
-82
  0
LINE
  8
0
 10
37
 20
-82
 11
36.686
 21
-81.9901
  0
LINE
  8
0
 10
-62.25
 20
-78.5
 11
-62.25
 21
-75.5
  0
LINE
  8
0
 10
-62.25
 20
-75.5
 11
-32.75
 21
-75.5
  0
LINE
  8
0
 10
-32.75
 20
-75.5
 11
-32.75
 21
-78.5
  0
LINE
  8
0
 10
-32.75
 20
-78.5
 11
-62.25
 21
-78.5
  0
LINE
  8
0
 10
-0.18837
 20
-84.9941
 11
-0.375992
 21
-84.9763
  0
LINE
  8
0
 10
-0.375992
 20
-84.9763
 11
-0.562134
 21
-84.9469
  0
LINE
  8
0
 10
-0.562134
 20
-84.9469
 11
-0.746063
 21
-84.9058
  0
LINE
  8
0
 10
-0.746063
 20
-84.9058
 11
-0.927048
 21
-84.8532
  0
LINE
  8
0
 10
-0.927048
 20
-84.8532
 11
-1.10437
 21
-84.7893
  0
LINE
  8
0
 10
-1.10437
 20
-84.7893
 11
-1.27733
 21
-84.7145
  0
LINE
  8
0
 10
-1.27733
 20
-84.7145
 11
-1.44525
 21
-84.6289
  0
LINE
  8
0
 10
-1.44525
 20
-84.6289
 11
-1.60747
 21
-84.533
  0
LINE
  8
0
 10
-1.60747
 20
-84.533
 11
-1.76335
 21
-84.4271
  0
LINE
  8
0
 10
-1.76335
 20
-84.4271
 11
-1.91226
 21
-84.3116
  0
LINE
  8
0
 10
-1.91226
 20
-84.3116
 11
-2.05363
 21
-84.1869
  0
LINE
  8
0
 10
-2.05363
 20
-84.1869
 11
-2.1869
 21
-84.0536
  0
LINE
  8
0
 10
-2.1869
 20
-84.0536
 11
-2.31154
 21
-83.9123
  0
LINE
  8
0
 10
-2.31154
 20
-83.9123
 11
-2.42705
 21
-83.7634
  0
LINE
  8
0
 10
-2.42705
 20
-83.7634
 11
-2.53297
 21
-83.6075
  0
LINE
  8
0
 10
-2.53297
 20
-83.6075
 11
-2.62891
 21
-83.4453
  0
LINE
  8
0
 10
-2.62891
 20
-83.4453
 11
-2.71448
 21
-83.2773
  0
LINE
  8
0
 10
-2.71448
 20
-83.2773
 11
-2.78931
 21
-83.1044
  0
LINE
  8
0
 10
-2.78931
 20
-83.1044
 11
-2.85315
 21
-82.9271
  0
LINE
  8
0
 10
-2.85315
 20
-82.9271
 11
-2.90573
 21
-82.7461
  0
LINE
  8
0
 10
-2.90573
 20
-82.7461
 11
-2.94684
 21
-82.5621
  0
LINE
  8
0
 10
-2.94684
 20
-82.5621
 11
-2.97632
 21
-82.376
  0
LINE
  8
0
 10
-2.97632
 20
-82.376
 11
-2.99406
 21
-82.1884
  0
LINE
  8
0
 10
-2.99406
 20
-82.1884
 11
-2.99998
 21
-82
  0
LINE
  8
0
 10
-2.99998
 20
-82
 11
-2.99406
 21
-81.8116
  0
LINE
  8
0
 10
-2.99406
 20
-81.8116
 11
-2.97632
 21
-81.624
  0
LINE
  8
0
 10
-2.97632
 20
-81.624
 11
-2.94684
 21
-81.4379
  0
LINE
  8
0
 10
-2.94684
 20
-81.4379
 11
-2.90573
 21
-81.2539
  0
LINE
  8
0
 10
-2.90573
 20
-81.2539
 11
-2.85315
 21
-81.073
  0
LINE
  8
0
 10
-2.85315
 20
-81.073
 11
-2.78931
 21
-80.8956
  0
LINE
  8
0
 10
-2.78931
 20
-80.8956
 11
-2.71446
 21
-80.7227
  0
LINE
  8
0
 10
-2.71446
 20
-80.7227
 11
-2.62889
 21
-80.5547
  0
LINE
  8
0
 10
-2.62889
 20
-80.5547
 11
-2.53296
 21
-80.3925
  0
LINE
  8
0
 10
-2.53296
 20
-80.3925
 11
-2.42703
 21
-80.2366
  0
LINE
  8
0
 10
-2.42703
 20
-80.2366
 11
-2.31152
 21
-80.0877
  0
LINE
  8
0
 10
-2.31152
 20
-80.0877
 11
-2.18689
 21
-79.9464
  0
LINE
  8
0
 10
-2.18689
 20
-79.9464
 11
-2.05362
 21
-79.8131
  0
LINE
  8
0
 10
-2.05362
 20
-79.8131
 11
-1.91225
 21
-79.6885
  0
LINE
  8
0
 10
-1.91225
 20
-79.6885
 11
-1.76334
 21
-79.573
  0
LINE
  8
0
 10
-1.76334
 20
-79.573
 11
-1.60745
 21
-79.467
  0
LINE
  8
0
 10
-1.60745
 20
-79.467
 11
-1.44524
 21
-79.3711
  0
LINE
  8
0
 10
-1.44524
 20
-79.3711
 11
-1.27731
 21
-79.2855
  0
LINE
  8
0
 10
-1.27731
 20
-79.2855
 11
-1.10435
 21
-79.2107
  0
LINE
  8
0
 10
-1.10435
 20
-79.2107
 11
-0.927032
 21
-79.1468
  0
LINE
  8
0
 10
-0.927032
 20
-79.1468
 11
-0.746048
 21
-79.0943
  0
LINE
  8
0
 10
-0.746048
 20
-79.0943
 11
-0.562119
 21
-79.0531
  0
LINE
  8
0
 10
-0.562119
 20
-79.0531
 11
-0.375977
 21
-79.0237
  0
LINE
  8
0
 10
-0.375977
 20
-79.0237
 11
-0.188354
 21
-79.0059
  0
LINE
  8
0
 10
-0.188354
 20
-79.0059
 11
0
 21
-79
  0
LINE
  8
0
 10
0
 20
-79
 11
0.18837
 21
-79.0059
  0
LINE
  8
0
 10
0.18837
 20
-79.0059
 11
0.375992
 21
-79.0237
  0
LINE
  8
0
 10
0.375992
 20
-79.0237
 11
0.562134
 21
-79.0531
  0
LINE
  8
0
 10
0.562134
 20
-79.0531
 11
0.746063
 21
-79.0943
  0
LINE
  8
0
 10
0.746063
 20
-79.0943
 11
0.927048
 21
-79.1468
  0
LINE
  8
0
 10
0.927048
 20
-79.1468
 11
1.10437
 21
-79.2107
  0
LINE
  8
0
 10
1.10437
 20
-79.2107
 11
1.27733
 21
-79.2855
  0
LINE
  8
0
 10
1.27733
 20
-79.2855
 11
1.44525
 21
-79.3711
  0
LINE
  8
0
 10
1.44525
 20
-79.3711
 11
1.60747
 21
-79.467
  0
LINE
  8
0
 10
1.60747
 20
-79.467
 11
1.76335
 21
-79.573
  0
LINE
  8
0
 10
1.76335
 20
-79.573
 11
1.91226
 21
-79.6885
  0
LINE
  8
0
 10
1.91226
 20
-79.6885
 11
2.05363
 21
-79.8131
  0
LINE
  8
0
 10
2.05363
 20
-79.8131
 11
2.1869
 21
-79.9464
  0
LINE
  8
0
 10
2.1869
 20
-79.9464
 11
2.31154
 21
-80.0877
  0
LINE
  8
0
 10
2.31154
 20
-80.0877
 11
2.42705
 21
-80.2366
  0
LINE
  8
0
 10
2.42705
 20
-80.2366
 11
2.53297
 21
-80.3925
  0
LINE
  8
0
 10
2.53297
 20
-80.3925
 11
2.62891
 21
-80.5547
  0
LINE
  8
0
 10
2.62891
 20
-80.5547
 11
2.71448
 21
-80.7227
  0
LINE
  8
0
 10
2.71448
 20
-80.7227
 11
2.78932
 21
-80.8956
  0
LINE
  8
0
 10
2.78932
 20
-80.8956
 11
2.85316
 21
-81.073
  0
LINE
  8
0
 10
2.85316
 20
-81.073
 11
2.90575
 21
-81.2539
  0
LINE
  8
0
 10
2.90575
 20
-81.2539
 11
2.94685
 21
-81.4379
  0
LINE
  8
0
 10
2.94685
 20
-81.4379
 11
2.97633
 21
-81.624
  0
LINE
  8
0
 10
2.97633
 20
-81.624
 11
2.99408
 21
-81.8116
  0
LINE
  8
0
 10
2.99408
 20
-81.8116
 11
3
 21
-82
  0
LINE
  8
0
 10
3
 20
-82
 11
2.99408
 21
-82.1884
  0
LINE
  8
0
 10
2.99408
 20
-82.1884
 11
2.97633
 21
-82.376
  0
LINE
  8
0
 10
2.97633
 20
-82.376
 11
2.94685
 21
-82.5621
  0
LINE
  8
0
 10
2.94685
 20
-82.5621
 11
2.90575
 21
-82.7461
  0
LINE
  8
0
 10
2.90575
 20
-82.7461
 11
2.85316
 21
-82.9271
  0
LINE
  8
0
 10
2.85316
 20
-82.9271
 11
2.78932
 21
-83.1044
  0
LINE
  8
0
 10
2.78932
 20
-83.1044
 11
2.71448
 21
-83.2773
  0
LINE
  8
0
 10
2.71448
 20
-83.2773
 11
2.62891
 21
-83.4453
  0
LINE
  8
0
 10
2.62891
 20
-83.4453
 11
2.53297
 21
-83.6075
  0
LINE
  8
0
 10
2.53297
 20
-83.6075
 11
2.42705
 21
-83.7634
  0
LINE
  8
0
 10
2.42705
 20
-83.7634
 11
2.31154
 21
-83.9123
  0
LINE
  8
0
 10
2.31154
 20
-83.9123
 11
2.1869
 21
-84.0536
  0
LINE
  8
0
 10
2.1869
 20
-84.0536
 11
2.05363
 21
-84.1869
  0
LINE
  8
0
 10
2.05363
 20
-84.1869
 11
1.91226
 21
-84.3116
  0
LINE
  8
0
 10
1.91226
 20
-84.3116
 11
1.76335
 21
-84.4271
  0
LINE
  8
0
 10
1.76335
 20
-84.4271
 11
1.60747
 21
-84.533
  0
LINE
  8
0
 10
1.60747
 20
-84.533
 11
1.44525
 21
-84.6289
  0
LINE
  8
0
 10
1.44525
 20
-84.6289
 11
1.27733
 21
-84.7145
  0
LINE
  8
0
 10
1.27733
 20
-84.7145
 11
1.10437
 21
-84.7893
  0
LINE
  8
0
 10
1.10437
 20
-84.7893
 11
0.927048
 21
-84.8532
  0
LINE
  8
0
 10
0.927048
 20
-84.8532
 11
0.746063
 21
-84.9058
  0
LINE
  8
0
 10
0.746063
 20
-84.9058
 11
0.562134
 21
-84.9469
  0
LINE
  8
0
 10
0.562134
 20
-84.9469
 11
0.375992
 21
-84.9763
  0
LINE
  8
0
 10
0.375992
 20
-84.9763
 11
0.18837
 21
-84.9941
  0
LINE
  8
0
 10
0.18837
 20
-84.9941
 11
0
 21
-85
  0
LINE
  8
0
 10
0
 20
-85
 11
-0.18837
 21
-84.9941
  0
LINE
  8
0
 10
-22.0628
 20
-95.499
 11
-22.1882
 21
-95.4911
  0
LINE
  8
0
 10
-22.1882
 20
-95.4911
 11
-22.3129
 21
-95.4754
  0
LINE
  8
0
 10
-22.3129
 20
-95.4754
 11
-22.4363
 21
-95.4518
  0
LINE
  8
0
 10
-22.4363
 20
-95.4518
 11
-22.558
 21
-95.4206
  0
LINE
  8
0
 10
-22.558
 20
-95.4206
 11
-22.6775
 21
-95.3818
  0
LINE
  8
0
 10
-22.6775
 20
-95.3818
 11
-22.7943
 21
-95.3355
  0
LINE
  8
0
 10
-22.7943
 20
-95.3355
 11
-22.908
 21
-95.282
  0
LINE
  8
0
 10
-22.908
 20
-95.282
 11
-23.0181
 21
-95.2215
  0
LINE
  8
0
 10
-23.0181
 20
-95.2215
 11
-23.1242
 21
-95.1542
  0
LINE
  8
0
 10
-23.1242
 20
-95.1542
 11
-23.2258
 21
-95.0803
  0
LINE
  8
0
 10
-23.2258
 20
-95.0803
 11
-23.3226
 21
-95.0002
  0
LINE
  8
0
 10
-23.3226
 20
-95.0002
 11
-23.4142
 21
-94.9142
  0
LINE
  8
0
 10
-23.4142
 20
-94.9142
 11
-23.5002
 21
-94.8226
  0
LINE
  8
0
 10
-23.5002
 20
-94.8226
 11
-23.5803
 21
-94.7258
  0
LINE
  8
0
 10
-23.5803
 20
-94.7258
 11
-23.6542
 21
-94.6242
  0
LINE
  8
0
 10
-23.6542
 20
-94.6242
 11
-23.7215
 21
-94.5181
  0
LINE
  8
0
 10
-23.7215
 20
-94.5181
 11
-23.782
 21
-94.408
  0
LINE
  8
0
 10
-23.782
 20
-94.408
 11
-23.8355
 21
-94.2943
  0
LINE
  8
0
 10
-23.8355
 20
-94.2943
 11
-23.8818
 21
-94.1775
  0
LINE
  8
0
 10
-23.8818
 20
-94.1775
 11
-23.9206
 21
-94.058
  0
LINE
  8
0
 10
-23.9206
 20
-94.058
 11
-23.9518
 21
-93.9363
  0
LINE
  8
0
 10
-23.9518
 20
-93.9363
 11
-23.9754
 21
-93.8129
  0
LINE
  8
0
 10
-23.9754
 20
-93.8129
 11
-23.9911
 21
-93.6882
  0
LINE
  8
0
 10
-23.9911
 20
-93.6882
 11
-23.999
 21
-93.5628
  0
LINE
  8
0
 10
-23.999
 20
-93.5628
 11
-23.999
 21
-93.4372
  0
LINE
  8
0
 10
-23.999
 20
-93.4372
 11
-23.9911
 21
-93.3118
  0
LINE
  8
0
 10
-23.9911
 20
-93.3118
 11
-23.9754
 21
-93.1871
  0
LINE
  8
0
 10
-23.9754
 20
-93.1871
 11
-23.9518
 21
-93.0637
  0
LINE
  8
0
 10
-23.9518
 20
-93.0637
 11
-23.9206
 21
-92.942
  0
LINE
  8
0
 10
-23.9206
 20
-92.942
 11
-23.8818
 21
-92.8225
  0
LINE
  8
0
 10
-23.8818
 20
-92.8225
 11
-23.8355
 21
-92.7057
  0
LINE
  8
0
 10
-23.8355
 20
-92.7057
 11
-23.782
 21
-92.592
  0
LINE
  8
0
 10
-23.782
 20
-92.592
 11
-23.7215
 21
-92.4819
  0
LINE
  8
0
 10
-23.7215
 20
-92.4819
 11
-23.6542
 21
-92.3758
  0
LINE
  8
0
 10
-23.6542
 20
-92.3758
 11
-23.5803
 21
-92.2742
  0
LINE
  8
0
 10
-23.5803
 20
-92.2742
 11
-23.5002
 21
-92.1774
  0
LINE
  8
0
 10
-23.5002
 20
-92.1774
 11
-13.4142
 21
-82.0858
  0
LINE
  8
0
 10
-13.4142
 20
-82.0858
 11
-13.3226
 21
-81.9998
  0
LINE
  8
0
 10
-13.3226
 20
-81.9998
 11
-13.2258
 21
-81.9197
  0
LINE
  8
0
 10
-13.2258
 20
-81.9197
 11
-13.1242
 21
-81.8458
  0
LINE
  8
0
 10
-13.1242
 20
-81.8458
 11
-13.0181
 21
-81.7785
  0
LINE
  8
0
 10
-13.0181
 20
-81.7785
 11
-12.908
 21
-81.718
  0
LINE
  8
0
 10
-12.908
 20
-81.718
 11
-12.7943
 21
-81.6645
  0
LINE
  8
0
 10
-12.7943
 20
-81.6645
 11
-12.6775
 21
-81.6182
  0
LINE
  8
0
 10
-12.6775
 20
-81.6182
 11
-12.558
 21
-81.5794
  0
LINE
  8
0
 10
-12.558
 20
-81.5794
 11
-12.4363
 21
-81.5482
  0
LINE
  8
0
 10
-12.4363
 20
-81.5482
 11
-12.3129
 21
-81.5246
  0
LINE
  8
0
 10
-12.3129
 20
-81.5246
 11
-12.1882
 21
-81.5089
  0
LINE
  8
0
 10
-12.1882
 20
-81.5089
 11
-12.0628
 21
-81.501
  0
LINE
  8
0
 10
-12.0628
 20
-81.501
 11
-11.9372
 21
-81.501
  0
LINE
  8
0
 10
-11.9372
 20
-81.501
 11
-11.8118
 21
-81.5089
  0
LINE
  8
0
 10
-11.8118
 20
-81.5089
 11
-11.6871
 21
-81.5246
  0
LINE
  8
0
 10
-11.6871
 20
-81.5246
 11
-11.5637
 21
-81.5482
  0
LINE
  8
0
 10
-11.5637
 20
-81.5482
 11
-11.442
 21
-81.5794
  0
LINE
  8
0
 10
-11.442
 20
-81.5794
 11
-11.3225
 21
-81.6182
  0
LINE
  8
0
 10
-11.3225
 20
-81.6182
 11
-11.2057
 21
-81.6645
  0
LINE
  8
0
 10
-11.2057
 20
-81.6645
 11
-11.092
 21
-81.718
  0
LINE
  8
0
 10
-11.092
 20
-81.718
 11
-10.9819
 21
-81.7785
  0
LINE
  8
0
 10
-10.9819
 20
-81.7785
 11
-10.8758
 21
-81.8458
  0
LINE
  8
0
 10
-10.8758
 20
-81.8458
 11
-10.7742
 21
-81.9197
  0
LINE
  8
0
 10
-10.7742
 20
-81.9197
 11
-10.6774
 21
-81.9998
  0
LINE
  8
0
 10
-10.6774
 20
-81.9998
 11
-10.5858
 21
-82.0858
  0
LINE
  8
0
 10
-10.5858
 20
-82.0858
 11
-10.4998
 21
-82.1774
  0
LINE
  8
0
 10
-10.4998
 20
-82.1774
 11
-10.4197
 21
-82.2742
  0
LINE
  8
0
 10
-10.4197
 20
-82.2742
 11
-10.3458
 21
-82.3758
  0
LINE
  8
0
 10
-10.3458
 20
-82.3758
 11
-10.2785
 21
-82.4819
  0
LINE
  8
0
 10
-10.2785
 20
-82.4819
 11
-10.218
 21
-82.592
  0
LINE
  8
0
 10
-10.218
 20
-82.592
 11
-10.1645
 21
-82.7057
  0
LINE
  8
0
 10
-10.1645
 20
-82.7057
 11
-10.1182
 21
-82.8225
  0
LINE
  8
0
 10
-10.1182
 20
-82.8225
 11
-10.0794
 21
-82.942
  0
LINE
  8
0
 10
-10.0794
 20
-82.942
 11
-10.0482
 21
-83.0637
  0
LINE
  8
0
 10
-10.0482
 20
-83.0637
 11
-10.0246
 21
-83.1871
  0
LINE
  8
0
 10
-10.0246
 20
-83.1871
 11
-10.0089
 21
-83.3118
  0
LINE
  8
0
 10
-10.0089
 20
-83.3118
 11
-10.001
 21
-83.4372
  0
LINE
  8
0
 10
-10.001
 20
-83.4372
 11
-10.001
 21
-83.5628
  0
LINE
  8
0
 10
-10.001
 20
-83.5628
 11
-10.0089
 21
-83.6882
  0
LINE
  8
0
 10
-10.0089
 20
-83.6882
 11
-10.0246
 21
-83.8129
  0
LINE
  8
0
 10
-10.0246
 20
-83.8129
 11
-10.0482
 21
-83.9363
  0
LINE
  8
0
 10
-10.0482
 20
-83.9363
 11
-10.0794
 21
-84.058
  0
LINE
  8
0
 10
-10.0794
 20
-84.058
 11
-10.1182
 21
-84.1775
  0
LINE
  8
0
 10
-10.1182
 20
-84.1775
 11
-10.1645
 21
-84.2943
  0
LINE
  8
0
 10
-10.1645
 20
-84.2943
 11
-10.218
 21
-84.408
  0
LINE
  8
0
 10
-10.218
 20
-84.408
 11
-10.2785
 21
-84.5181
  0
LINE
  8
0
 10
-10.2785
 20
-84.5181
 11
-10.3458
 21
-84.6242
  0
LINE
  8
0
 10
-10.3458
 20
-84.6242
 11
-10.4197
 21
-84.7258
  0
LINE
  8
0
 10
-10.4197
 20
-84.7258
 11
-10.4998
 21
-84.8226
  0
LINE
  8
0
 10
-10.4998
 20
-84.8226
 11
-20.5858
 21
-94.9142
  0
LINE
  8
0
 10
-20.5858
 20
-94.9142
 11
-20.6774
 21
-95.0002
  0
LINE
  8
0
 10
-20.6774
 20
-95.0002
 11
-20.7742
 21
-95.0803
  0
LINE
  8
0
 10
-20.7742
 20
-95.0803
 11
-20.8758
 21
-95.1542
  0
LINE
  8
0
 10
-20.8758
 20
-95.1542
 11
-20.9819
 21
-95.2215
  0
LINE
  8
0
 10
-20.9819
 20
-95.2215
 11
-21.092
 21
-95.282
  0
LINE
  8
0
 10
-21.092
 20
-95.282
 11
-21.2057
 21
-95.3355
  0
LINE
  8
0
 10
-21.2057
 20
-95.3355
 11
-21.3225
 21
-95.3818
  0
LINE
  8
0
 10
-21.3225
 20
-95.3818
 11
-21.442
 21
-95.4206
  0
LINE
  8
0
 10
-21.442
 20
-95.4206
 11
-21.5637
 21
-95.4518
  0
LINE
  8
0
 10
-21.5637
 20
-95.4518
 11
-21.6871
 21
-95.4754
  0
LINE
  8
0
 10
-21.6871
 20
-95.4754
 11
-21.8118
 21
-95.4911
  0
LINE
  8
0
 10
-21.8118
 20
-95.4911
 11
-21.9372
 21
-95.499
  0
LINE
  8
0
 10
-21.9372
 20
-95.499
 11
-22.0628
 21
-95.499
  0
LINE
  8
0
 10
-77
 20
-110
 11
-77
 21
-89
  0
LINE
  8
0
 10
-77
 20
-89
 11
-74
 21
-89
  0
LINE
  8
0
 10
-74
 20
-89
 11
-74
 21
-110
  0
LINE
  8
0
 10
-74
 20
-110
 11
-77
 21
-110
  0
LINE
  8
0
 10
-3.5
 20
-111
 11
-3.62558
 21
-110.996
  0
LINE
  8
0
 10
-3.62558
 20
-110.996
 11
-3.75066
 21
-110.984
  0
LINE
  8
0
 10
-3.75066
 20
-110.984
 11
-3.87476
 21
-110.965
  0
LINE
  8
0
 10
-3.87476
 20
-110.965
 11
-3.99738
 21
-110.937
  0
LINE
  8
0
 10
-3.99738
 20
-110.937
 11
-4.11803
 21
-110.902
  0
LINE
  8
0
 10
-4.11803
 20
-110.902
 11
-4.23624
 21
-110.86
  0
LINE
  8
0
 10
-4.23624
 20
-110.86
 11
-4.35155
 21
-110.81
  0
LINE
  8
0
 10
-4.35155
 20
-110.81
 11
-4.4635
 21
-110.753
  0
LINE
  8
0
 10
-4.4635
 20
-110.753
 11
-4.57164
 21
-110.689
  0
LINE
  8
0
 10
-4.57164
 20
-110.689
 11
-4.67557
 21
-110.618
  0
LINE
  8
0
 10
-4.67557
 20
-110.618
 11
-4.77484
 21
-110.541
  0
LINE
  8
0
 10
-4.77484
 20
-110.541
 11
-4.86908
 21
-110.458
  0
LINE
  8
0
 10
-4.86908
 20
-110.458
 11
-4.95793
 21
-110.369
  0
LINE
  8
0
 10
-4.95793
 20
-110.369
 11
-5.04102
 21
-110.275
  0
LINE
  8
0
 10
-5.04102
 20
-110.275
 11
-5.11803
 21
-110.176
  0
LINE
  8
0
 10
-5.11803
 20
-110.176
 11
-5.18864
 21
-110.072
  0
LINE
  8
0
 10
-5.18864
 20
-110.072
 11
-5.25261
 21
-109.964
  0
LINE
  8
0
 10
-5.25261
 20
-109.964
 11
-5.30965
 21
-109.852
  0
LINE
  8
0
 10
-5.30965
 20
-109.852
 11
-5.35954
 21
-109.736
  0
LINE
  8
0
 10
-5.35954
 20
-109.736
 11
-5.4021
 21
-109.618
  0
LINE
  8
0
 10
-5.4021
 20
-109.618
 11
-5.43716
 21
-109.497
  0
LINE
  8
0
 10
-5.43716
 20
-109.497
 11
-5.46457
 21
-109.375
  0
LINE
  8
0
 10
-5.46457
 20
-109.375
 11
-5.48422
 21
-109.251
  0
LINE
  8
0
 10
-5.48422
 20
-109.251
 11
-5.49605
 21
-109.126
  0
LINE
  8
0
 10
-5.49605
 20
-109.126
 11
-5.5
 21
-109
  0
LINE
  8
0
 10
-5.5
 20
-109
 11
-5.5
 21
-91
  0
LINE
  8
0
 10
-5.5
 20
-91
 11
-5.49605
 21
-90.8744
  0
LINE
  8
0
 10
-5.49605
 20
-90.8744
 11
-5.48422
 21
-90.7493
  0
LINE
  8
0
 10
-5.48422
 20
-90.7493
 11
-5.46457
 21
-90.6252
  0
LINE
  8
0
 10
-5.46457
 20
-90.6252
 11
-5.43716
 21
-90.5026
  0
LINE
  8
0
 10
-5.43716
 20
-90.5026
 11
-5.4021
 21
-90.382
  0
LINE
  8
0
 10
-5.4021
 20
-90.382
 11
-5.35954
 21
-90.2638
  0
LINE
  8
0
 10
-5.35954
 20
-90.2638
 11
-5.30965
 21
-90.1485
  0
LINE
  8
0
 10
-5.30965
 20
-90.1485
 11
-5.25261
 21
-90.0365
  0
LINE
  8
0
 10
-5.25261
 20
-90.0365
 11
-5.18864
 21
-89.9284
  0
LINE
  8
0
 10
-5.18864
 20
-89.9284
 11
-5.11803
 21
-89.8244
  0
LINE
  8
0
 10
-5.11803
 20
-89.8244
 11
-5.04102
 21
-89.7252
  0
LINE
  8
0
 10
-5.04102
 20
-89.7252
 11
-4.95793
 21
-89.6309
  0
LINE
  8
0
 10
-4.95793
 20
-89.6309
 11
-4.86908
 21
-89.5421
  0
LINE
  8
0
 10
-4.86908
 20
-89.5421
 11
-4.77484
 21
-89.459
  0
LINE
  8
0
 10
-4.77484
 20
-89.459
 11
-4.67557
 21
-89.382
  0
LINE
  8
0
 10
-4.67557
 20
-89.382
 11
-4.57164
 21
-89.3114
  0
LINE
  8
0
 10
-4.57164
 20
-89.3114
 11
-4.4635
 21
-89.2474
  0
LINE
  8
0
 10
-4.4635
 20
-89.2474
 11
-4.35155
 21
-89.1904
  0
LINE
  8
0
 10
-4.35155
 20
-89.1904
 11
-4.23624
 21
-89.1405
  0
LINE
  8
0
 10
-4.23624
 20
-89.1405
 11
-4.11803
 21
-89.0979
  0
LINE
  8
0
 10
-4.11803
 20
-89.0979
 11
-3.99738
 21
-89.0628
  0
LINE
  8
0
 10
-3.99738
 20
-89.0628
 11
-3.87476
 21
-89.0354
  0
LINE
  8
0
 10
-3.87476
 20
-89.0354
 11
-3.75066
 21
-89.0158
  0
LINE
  8
0
 10
-3.75066
 20
-89.0158
 11
-3.62558
 21
-89.004
  0
LINE
  8
0
 10
-3.62558
 20
-89.004
 11
-3.5
 21
-89
  0
LINE
  8
0
 10
-3.5
 20
-89
 11
3.49998
 21
-89
  0
LINE
  8
0
 10
3.49998
 20
-89
 11
3.62556
 21
-89.004
  0
LINE
  8
0
 10
3.62556
 20
-89.004
 11
3.75064
 21
-89.0158
  0
LINE
  8
0
 10
3.75064
 20
-89.0158
 11
3.87474
 21
-89.0354
  0
LINE
  8
0
 10
3.87474
 20
-89.0354
 11
3.99736
 21
-89.0628
  0
LINE
  8
0
 10
3.99736
 20
-89.0628
 11
4.11801
 21
-89.0979
  0
LINE
  8
0
 10
4.11801
 20
-89.0979
 11
4.23622
 21
-89.1405
  0
LINE
  8
0
 10
4.23622
 20
-89.1405
 11
4.35153
 21
-89.1904
  0
LINE
  8
0
 10
4.35153
 20
-89.1904
 11
4.46349
 21
-89.2474
  0
LINE
  8
0
 10
4.46349
 20
-89.2474
 11
4.57162
 21
-89.3114
  0
LINE
  8
0
 10
4.57162
 20
-89.3114
 11
4.67555
 21
-89.382
  0
LINE
  8
0
 10
4.67555
 20
-89.382
 11
4.77483
 21
-89.459
  0
LINE
  8
0
 10
4.77483
 20
-89.459
 11
4.86906
 21
-89.5421
  0
LINE
  8
0
 10
4.86906
 20
-89.5421
 11
4.95792
 21
-89.6309
  0
LINE
  8
0
 10
4.95792
 20
-89.6309
 11
5.041
 21
-89.7252
  0
LINE
  8
0
 10
5.041
 20
-89.7252
 11
5.11801
 21
-89.8244
  0
LINE
  8
0
 10
5.11801
 20
-89.8244
 11
5.18863
 21
-89.9284
  0
LINE
  8
0
 10
5.18863
 20
-89.9284
 11
5.25259
 21
-90.0365
  0
LINE
  8
0
 10
5.25259
 20
-90.0365
 11
5.30963
 21
-90.1485
  0
LINE
  8
0
 10
5.30963
 20
-90.1485
 11
5.35953
 21
-90.2638
  0
LINE
  8
0
 10
5.35953
 20
-90.2638
 11
5.40208
 21
-90.382
  0
LINE
  8
0
 10
5.40208
 20
-90.382
 11
5.43715
 21
-90.5026
  0
LINE
  8
0
 10
5.43715
 20
-90.5026
 11
5.46455
 21
-90.6252
  0
LINE
  8
0
 10
5.46455
 20
-90.6252
 11
5.48421
 21
-90.7493
  0
LINE
  8
0
 10
5.48421
 20
-90.7493
 11
5.49603
 21
-90.8744
  0
LINE
  8
0
 10
5.49603
 20
-90.8744
 11
5.49998
 21
-91
  0
LINE
  8
0
 10
5.49998
 20
-91
 11
5.49998
 21
-109
  0
LINE
  8
0
 10
5.49998
 20
-109
 11
5.49603
 21
-109.126
  0
LINE
  8
0
 10
5.49603
 20
-109.126
 11
5.48421
 21
-109.251
  0
LINE
  8
0
 10
5.48421
 20
-109.251
 11
5.46455
 21
-109.375
  0
LINE
  8
0
 10
5.46455
 20
-109.375
 11
5.43715
 21
-109.497
  0
LINE
  8
0
 10
5.43715
 20
-109.497
 11
5.40208
 21
-109.618
  0
LINE
  8
0
 10
5.40208
 20
-109.618
 11
5.35953
 21
-109.736
  0
LINE
  8
0
 10
5.35953
 20
-109.736
 11
5.30963
 21
-109.852
  0
LINE
  8
0
 10
5.30963
 20
-109.852
 11
5.25259
 21
-109.964
  0
LINE
  8
0
 10
5.25259
 20
-109.964
 11
5.18863
 21
-110.072
  0
LINE
  8
0
 10
5.18863
 20
-110.072
 11
5.11801
 21
-110.176
  0
LINE
  8
0
 10
5.11801
 20
-110.176
 11
5.041
 21
-110.275
  0
LINE
  8
0
 10
5.041
 20
-110.275
 11
4.95792
 21
-110.369
  0
LINE
  8
0
 10
4.95792
 20
-110.369
 11
4.86906
 21
-110.458
  0
LINE
  8
0
 10
4.86906
 20
-110.458
 11
4.77483
 21
-110.541
  0
LINE
  8
0
 10
4.77483
 20
-110.541
 11
4.67555
 21
-110.618
  0
LINE
  8
0
 10
4.67555
 20
-110.618
 11
4.57162
 21
-110.689
  0
LINE
  8
0
 10
4.57162
 20
-110.689
 11
4.46349
 21
-110.753
  0
LINE
  8
0
 10
4.46349
 20
-110.753
 11
4.35153
 21
-110.81
  0
LINE
  8
0
 10
4.35153
 20
-110.81
 11
4.23622
 21
-110.86
  0
LINE
  8
0
 10
4.23622
 20
-110.86
 11
4.11801
 21
-110.902
  0
LINE
  8
0
 10
4.11801
 20
-110.902
 11
3.99736
 21
-110.937
  0
LINE
  8
0
 10
3.99736
 20
-110.937
 11
3.87474
 21
-110.965
  0
LINE
  8
0
 10
3.87474
 20
-110.965
 11
3.75064
 21
-110.984
  0
LINE
  8
0
 10
3.75064
 20
-110.984
 11
3.62556
 21
-110.996
  0
LINE
  8
0
 10
3.62556
 20
-110.996
 11
3.49998
 21
-111
  0
LINE
  8
0
 10
3.49998
 20
-111
 11
-3.5
 21
-111
  0
LINE
  8
0
 10
-44.5
 20
-109.25
 11
-44.5
 21
-90.75
  0
LINE
  8
0
 10
-44.5
 20
-90.75
 11
-33.5
 21
-90.75
  0
LINE
  8
0
 10
-33.5
 20
-90.75
 11
-33.5
 21
-109.25
  0
LINE
  8
0
 10
-33.5
 20
-109.25
 11
-44.5
 21
-109.25
  0
LINE
  8
0
 10
-0.18837
 20
-120.994
 11
-0.375992
 21
-120.976
  0
LINE
  8
0
 10
-0.375992
 20
-120.976
 11
-0.562134
 21
-120.947
  0
LINE
  8
0
 10
-0.562134
 20
-120.947
 11
-0.746063
 21
-120.906
  0
LINE
  8
0
 10
-0.746063
 20
-120.906
 11
-0.927048
 21
-120.853
  0
LINE
  8
0
 10
-0.927048
 20
-120.853
 11
-1.10437
 21
-120.789
  0
LINE
  8
0
 10
-1.10437
 20
-120.789
 11
-1.27733
 21
-120.714
  0
LINE
  8
0
 10
-1.27733
 20
-120.714
 11
-1.44525
 21
-120.629
  0
LINE
  8
0
 10
-1.44525
 20
-120.629
 11
-1.60747
 21
-120.533
  0
LINE
  8
0
 10
-1.60747
 20
-120.533
 11
-1.76335
 21
-120.427
  0
LINE
  8
0
 10
-1.76335
 20
-120.427
 11
-1.91226
 21
-120.312
  0
LINE
  8
0
 10
-1.91226
 20
-120.312
 11
-2.05363
 21
-120.187
  0
LINE
  8
0
 10
-2.05363
 20
-120.187
 11
-2.1869
 21
-120.054
  0
LINE
  8
0
 10
-2.1869
 20
-120.054
 11
-2.31154
 21
-119.912
  0
LINE
  8
0
 10
-2.31154
 20
-119.912
 11
-2.42705
 21
-119.763
  0
LINE
  8
0
 10
-2.42705
 20
-119.763
 11
-2.53297
 21
-119.607
  0
LINE
  8
0
 10
-2.53297
 20
-119.607
 11
-2.62891
 21
-119.445
  0
LINE
  8
0
 10
-2.62891
 20
-119.445
 11
-2.71448
 21
-119.277
  0
LINE
  8
0
 10
-2.71448
 20
-119.277
 11
-2.78932
 21
-119.104
  0
LINE
  8
0
 10
-2.78932
 20
-119.104
 11
-2.85316
 21
-118.927
  0
LINE
  8
0
 10
-2.85316
 20
-118.927
 11
-2.90575
 21
-118.746
  0
LINE
  8
0
 10
-2.90575
 20
-118.746
 11
-2.94685
 21
-118.562
  0
LINE
  8
0
 10
-2.94685
 20
-118.562
 11
-2.97633
 21
-118.376
  0
LINE
  8
0
 10
-2.97633
 20
-118.376
 11
-2.99408
 21
-118.188
  0
LINE
  8
0
 10
-2.99408
 20
-118.188
 11
-3
 21
-118
  0
LINE
  8
0
 10
-3
 20
-118
 11
-2.99408
 21
-117.812
  0
LINE
  8
0
 10
-2.99408
 20
-117.812
 11
-2.97633
 21
-117.624
  0
LINE
  8
0
 10
-2.97633
 20
-117.624
 11
-2.94685
 21
-117.438
  0
LINE
  8
0
 10
-2.94685
 20
-117.438
 11
-2.90575
 21
-117.254
  0
LINE
  8
0
 10
-2.90575
 20
-117.254
 11
-2.85316
 21
-117.073
  0
LINE
  8
0
 10
-2.85316
 20
-117.073
 11
-2.78932
 21
-116.896
  0
LINE
  8
0
 10
-2.78932
 20
-116.896
 11
-2.71448
 21
-116.723
  0
LINE
  8
0
 10
-2.71448
 20
-116.723
 11
-2.62891
 21
-116.555
  0
LINE
  8
0
 10
-2.62891
 20
-116.555
 11
-2.53297
 21
-116.393
  0
LINE
  8
0
 10
-2.53297
 20
-116.393
 11
-2.42705
 21
-116.237
  0
LINE
  8
0
 10
-2.42705
 20
-116.237
 11
-2.31154
 21
-116.088
  0
LINE
  8
0
 10
-2.31154
 20
-116.088
 11
-2.1869
 21
-115.946
  0
LINE
  8
0
 10
-2.1869
 20
-115.946
 11
-2.05363
 21
-115.813
  0
LINE
  8
0
 10
-2.05363
 20
-115.813
 11
-1.91226
 21
-115.688
  0
LINE
  8
0
 10
-1.91226
 20
-115.688
 11
-1.76335
 21
-115.573
  0
LINE
  8
0
 10
-1.76335
 20
-115.573
 11
-1.60747
 21
-115.467
  0
LINE
  8
0
 10
-1.60747
 20
-115.467
 11
-1.44525
 21
-115.371
  0
LINE
  8
0
 10
-1.44525
 20
-115.371
 11
-1.27733
 21
-115.286
  0
LINE
  8
0
 10
-1.27733
 20
-115.286
 11
-1.10437
 21
-115.211
  0
LINE
  8
0
 10
-1.10437
 20
-115.211
 11
-0.927048
 21
-115.147
  0
LINE
  8
0
 10
-0.927048
 20
-115.147
 11
-0.746063
 21
-115.094
  0
LINE
  8
0
 10
-0.746063
 20
-115.094
 11
-0.562134
 21
-115.053
  0
LINE
  8
0
 10
-0.562134
 20
-115.053
 11
-0.375992
 21
-115.024
  0
LINE
  8
0
 10
-0.375992
 20
-115.024
 11
-0.18837
 21
-115.006
  0
LINE
  8
0
 10
-0.18837
 20
-115.006
 11
0
 21
-115
  0
LINE
  8
0
 10
0
 20
-115
 11
0.188354
 21
-115.006
  0
LINE
  8
0
 10
0.188354
 20
-115.006
 11
0.375977
 21
-115.024
  0
LINE
  8
0
 10
0.375977
 20
-115.024
 11
0.562119
 21
-115.053
  0
LINE
  8
0
 10
0.562119
 20
-115.053
 11
0.746048
 21
-115.094
  0
LINE
  8
0
 10
0.746048
 20
-115.094
 11
0.927032
 21
-115.147
  0
LINE
  8
0
 10
0.927032
 20
-115.147
 11
1.10435
 21
-115.211
  0
LINE
  8
0
 10
1.10435
 20
-115.211
 11
1.27731
 21
-115.286
  0
LINE
  8
0
 10
1.27731
 20
-115.286
 11
1.44524
 21
-115.371
  0
LINE
  8
0
 10
1.44524
 20
-115.371
 11
1.60745
 21
-115.467
  0
LINE
  8
0
 10
1.60745
 20
-115.467
 11
1.76334
 21
-115.573
  0
LINE
  8
0
 10
1.76334
 20
-115.573
 11
1.91225
 21
-115.688
  0
LINE
  8
0
 10
1.91225
 20
-115.688
 11
2.05362
 21
-115.813
  0
LINE
  8
0
 10
2.05362
 20
-115.813
 11
2.18689
 21
-115.946
  0
LINE
  8
0
 10
2.18689
 20
-115.946
 11
2.31152
 21
-116.088
  0
LINE
  8
0
 10
2.31152
 20
-116.088
 11
2.42703
 21
-116.237
  0
LINE
  8
0
 10
2.42703
 20
-116.237
 11
2.53296
 21
-116.393
  0
LINE
  8
0
 10
2.53296
 20
-116.393
 11
2.62889
 21
-116.555
  0
LINE
  8
0
 10
2.62889
 20
-116.555
 11
2.71446
 21
-116.723
  0
LINE
  8
0
 10
2.71446
 20
-116.723
 11
2.78931
 21
-116.896
  0
LINE
  8
0
 10
2.78931
 20
-116.896
 11
2.85315
 21
-117.073
  0
LINE
  8
0
 10
2.85315
 20
-117.073
 11
2.90573
 21
-117.254
  0
LINE
  8
0
 10
2.90573
 20
-117.254
 11
2.94684
 21
-117.438
  0
LINE
  8
0
 10
2.94684
 20
-117.438
 11
2.97632
 21
-117.624
  0
LINE
  8
0
 10
2.97632
 20
-117.624
 11
2.99406
 21
-117.812
  0
LINE
  8
0
 10
2.99406
 20
-117.812
 11
2.99998
 21
-118
  0
LINE
  8
0
 10
2.99998
 20
-118
 11
2.99406
 21
-118.188
  0
LINE
  8
0
 10
2.99406
 20
-118.188
 11
2.97632
 21
-118.376
  0
LINE
  8
0
 10
2.97632
 20
-118.376
 11
2.94684
 21
-118.562
  0
LINE
  8
0
 10
2.94684
 20
-118.562
 11
2.90573
 21
-118.746
  0
LINE
  8
0
 10
2.90573
 20
-118.746
 11
2.85315
 21
-118.927
  0
LINE
  8
0
 10
2.85315
 20
-118.927
 11
2.78931
 21
-119.104
  0
LINE
  8
0
 10
2.78931
 20
-119.104
 11
2.71446
 21
-119.277
  0
LINE
  8
0
 10
2.71446
 20
-119.277
 11
2.62889
 21
-119.445
  0
LINE
  8
0
 10
2.62889
 20
-119.445
 11
2.53296
 21
-119.607
  0
LINE
  8
0
 10
2.53296
 20
-119.607
 11
2.42703
 21
-119.763
  0
LINE
  8
0
 10
2.42703
 20
-119.763
 11
2.31152
 21
-119.912
  0
LINE
  8
0
 10
2.31152
 20
-119.912
 11
2.18689
 21
-120.054
  0
LINE
  8
0
 10
2.18689
 20
-120.054
 11
2.05362
 21
-120.187
  0
LINE
  8
0
 10
2.05362
 20
-120.187
 11
1.91225
 21
-120.312
  0
LINE
  8
0
 10
1.91225
 20
-120.312
 11
1.76334
 21
-120.427
  0
LINE
  8
0
 10
1.76334
 20
-120.427
 11
1.60745
 21
-120.533
  0
LINE
  8
0
 10
1.60745
 20
-120.533
 11
1.44524
 21
-120.629
  0
LINE
  8
0
 10
1.44524
 20
-120.629
 11
1.27731
 21
-120.714
  0
LINE
  8
0
 10
1.27731
 20
-120.714
 11
1.10435
 21
-120.789
  0
LINE
  8
0
 10
1.10435
 20
-120.789
 11
0.927032
 21
-120.853
  0
LINE
  8
0
 10
0.927032
 20
-120.853
 11
0.746048
 21
-120.906
  0
LINE
  8
0
 10
0.746048
 20
-120.906
 11
0.562119
 21
-120.947
  0
LINE
  8
0
 10
0.562119
 20
-120.947
 11
0.375977
 21
-120.976
  0
LINE
  8
0
 10
0.375977
 20
-120.976
 11
0.188354
 21
-120.994
  0
LINE
  8
0
 10
0.188354
 20
-120.994
 11
0
 21
-121
  0
LINE
  8
0
 10
0
 20
-121
 11
-0.18837
 21
-120.994
  0
LINE
  8
0
 10
185.539
 20
-131.985
 11
186.165
 21
-131.932
  0
LINE
  8
0
 10
186.165
 20
-131.932
 11
186.786
 21
-131.839
  0
LINE
  8
0
 10
186.786
 20
-131.839
 11
187.401
 21
-131.708
  0
LINE
  8
0
 10
187.401
 20
-131.708
 11
188.005
 21
-131.538
  0
LINE
  8
0
 10
188.005
 20
-131.538
 11
188.598
 21
-131.33
  0
LINE
  8
0
 10
188.598
 20
-131.33
 11
189.177
 21
-131.086
  0
LINE
  8
0
 10
189.177
 20
-131.086
 11
189.739
 21
-130.806
  0
LINE
  8
0
 10
189.739
 20
-130.806
 11
190.283
 21
-130.491
  0
LINE
  8
0
 10
190.283
 20
-130.491
 11
190.806
 21
-130.142
  0
LINE
  8
0
 10
190.806
 20
-130.142
 11
191.305
 21
-129.762
  0
LINE
  8
0
 10
191.305
 20
-129.762
 11
191.78
 21
-129.35
  0
LINE
  8
0
 10
191.78
 20
-129.35
 11
192.228
 21
-128.91
  0
LINE
  8
0
 10
192.228
 20
-128.91
 11
192.648
 21
-128.443
  0
LINE
  8
0
 10
192.648
 20
-128.443
 11
193.038
 21
-127.95
  0
LINE
  8
0
 10
193.038
 20
-127.95
 11
193.395
 21
-127.433
  0
LINE
  8
0
 10
193.395
 20
-127.433
 11
193.72
 21
-126.895
  0
LINE
  8
0
 10
193.72
 20
-126.895
 11
194.01
 21
-126.338
  0
LINE
  8
0
 10
194.01
 20
-126.338
 11
207.048
 21
-99.2578
  0
LINE
  8
0
 10
207.048
 20
-99.2578
 11
207.298
 21
-98.6812
  0
LINE
  8
0
 10
207.298
 20
-98.6812
 11
207.511
 21
-98.0902
  0
LINE
  8
0
 10
207.511
 20
-98.0902
 11
207.686
 21
-97.4869
  0
LINE
  8
0
 10
207.686
 20
-97.4869
 11
207.823
 21
-96.8738
  0
LINE
  8
0
 10
207.823
 20
-96.8738
 11
207.921
 21
-96.2533
  0
LINE
  8
0
 10
207.921
 20
-96.2533
 11
207.98
 21
-95.6279
  0
LINE
  8
0
 10
207.98
 20
-95.6279
 11
208
 21
-95
  0
LINE
  8
0
 10
208
 20
-95
 11
207.98
 21
-58.3721
  0
LINE
  8
0
 10
207.98
 20
-58.3721
 11
207.921
 21
-57.7467
  0
LINE
  8
0
 10
207.921
 20
-57.7467
 11
207.823
 21
-57.1262
  0
LINE
  8
0
 10
207.823
 20
-57.1262
 11
207.686
 21
-56.5131
  0
LINE
  8
0
 10
207.686
 20
-56.5131
 11
207.511
 21
-55.9098
  0
LINE
  8
0
 10
207.511
 20
-55.9098
 11
207.298
 21
-55.3188
  0
LINE
  8
0
 10
207.298
 20
-55.3188
 11
207.048
 21
-54.7422
  0
LINE
  8
0
 10
207.048
 20
-54.7422
 11
206.763
 21
-54.1825
  0
LINE
  8
0
 10
206.763
 20
-54.1825
 11
206.443
 21
-53.6417
  0
LINE
  8
0
 10
206.443
 20
-53.6417
 11
206.09
 21
-53.1222
  0
LINE
  8
0
 10
206.09
 20
-53.1222
 11
205.705
 21
-52.6258
  0
LINE
  8
0
 10
205.705
 20
-52.6258
 11
205.29
 21
-52.1545
  0
LINE
  8
0
 10
205.29
 20
-52.1545
 11
204.845
 21
-51.7103
  0
LINE
  8
0
 10
204.845
 20
-51.7103
 11
204.374
 21
-51.2949
  0
LINE
  8
0
 10
204.374
 20
-51.2949
 11
203.878
 21
-50.9098
  0
LINE
  8
0
 10
203.878
 20
-50.9098
 11
203.358
 21
-50.5567
  0
LINE
  8
0
 10
203.358
 20
-50.5567
 11
202.818
 21
-50.2369
  0
LINE
  8
0
 10
202.818
 20
-50.2369
 11
202.258
 21
-49.9517
  0
LINE
  8
0
 10
202.258
 20
-49.9517
 11
201.681
 21
-49.7022
  0
LINE
  8
0
 10
201.681
 20
-49.7022
 11
201.09
 21
-49.4894
  0
LINE
  8
0
 10
201.09
 20
-49.4894
 11
200.487
 21
-49.3142
  0
LINE
  8
0
 10
200.487
 20
-49.3142
 11
199.874
 21
-49.1771
  0
LINE
  8
0
 10
199.874
 20
-49.1771
 11
199.253
 21
-49.0789
  0
LINE
  8
0
 10
199.253
 20
-49.0789
 11
198.628
 21
-49.0197
  0
LINE
  8
0
 10
198.628
 20
-49.0197
 11
198
 21
-49
  0
LINE
  8
0
 10
198
 20
-49
 11
140
 21
-49.0056
  0
LINE
  8
0
 10
140
 20
-49.0056
 11
140
 21
-80
  0
LINE
  8
0
 10
140
 20
-80
 11
134
 21
-80
  0
LINE
  8
0
 10
134
 20
-80
 11
134
 21
-49.0062
  0
LINE
  8
0
 10
134
 20
-49.0062
 11
124.622
 21
-49.0071
  0
LINE
  8
0
 10
124.622
 20
-49.0071
 11
123.996
 21
-49.0506
  0
LINE
  8
0
 10
123.996
 20
-49.0506
 11
123.373
 21
-49.1333
  0
LINE
  8
0
 10
123.373
 20
-49.1333
 11
122.757
 21
-49.2549
  0
LINE
  8
0
 10
122.757
 20
-49.2549
 11
122.149
 21
-49.415
  0
LINE
  8
0
 10
122.149
 20
-49.415
 11
121.553
 21
-49.6129
  0
LINE
  8
0
 10
121.553
 20
-49.6129
 11
120.97
 21
-49.8479
  0
LINE
  8
0
 10
120.97
 20
-49.8479
 11
120.404
 21
-50.1189
  0
LINE
  8
0
 10
120.404
 20
-50.1189
 11
119.855
 21
-50.4251
  0
LINE
  8
0
 10
119.855
 20
-50.4251
 11
69.4746
 21
-80.6652
  0
LINE
  8
0
 10
69.4746
 20
-80.6652
 11
68.9621
 21
-81.0285
  0
LINE
  8
0
 10
68.9621
 20
-81.0285
 11
68.4735
 21
-81.4234
  0
LINE
  8
0
 10
68.4735
 20
-81.4234
 11
68.0107
 21
-81.8482
  0
LINE
  8
0
 10
68.0107
 20
-81.8482
 11
67.5754
 21
-82.3011
  0
LINE
  8
0
 10
67.5754
 20
-82.3011
 11
67.1694
 21
-82.7805
  0
LINE
  8
0
 10
67.1694
 20
-82.7805
 11
66.7943
 21
-83.2845
  0
LINE
  8
0
 10
66.7943
 20
-83.2845
 11
66.4516
 21
-83.811
  0
LINE
  8
0
 10
66.4516
 20
-83.811
 11
66.1427
 21
-84.358
  0
LINE
  8
0
 10
66.1427
 20
-84.358
 11
65.8687
 21
-84.9233
  0
LINE
  8
0
 10
65.8687
 20
-84.9233
 11
65.6308
 21
-85.5047
  0
LINE
  8
0
 10
65.6308
 20
-85.5047
 11
65.4298
 21
-86.0999
  0
LINE
  8
0
 10
65.4298
 20
-86.0999
 11
55.3142
 21
-119.513
  0
LINE
  8
0
 10
55.3142
 20
-119.513
 11
55.1771
 21
-120.126
  0
LINE
  8
0
 10
55.1771
 20
-120.126
 11
55.0789
 21
-120.747
  0
LINE
  8
0
 10
55.0789
 20
-120.747
 11
55.0197
 21
-121.372
  0
LINE
  8
0
 10
55.0197
 20
-121.372
 11
55
 21
-122
  0
LINE
  8
0
 10
55
 20
-122
 11
55.0197
 21
-122.628
  0
LINE
  8
0
 10
55.0197
 20
-122.628
 11
55.0789
 21
-123.253
  0
LINE
  8
0
 10
55.0789
 20
-123.253
 11
55.1771
 21
-123.874
  0
LINE
  8
0
 10
55.1771
 20
-123.874
 11
55.3142
 21
-124.487
  0
LINE
  8
0
 10
55.3142
 20
-124.487
 11
55.4894
 21
-125.09
  0
LINE
  8
0
 10
55.4894
 20
-125.09
 11
55.7022
 21
-125.681
  0
LINE
  8
0
 10
55.7022
 20
-125.681
 11
55.9517
 21
-126.258
  0
LINE
  8
0
 10
55.9517
 20
-126.258
 11
56.2369
 21
-126.818
  0
LINE
  8
0
 10
56.2369
 20
-126.818
 11
56.5567
 21
-127.358
  0
LINE
  8
0
 10
56.5567
 20
-127.358
 11
56.9098
 21
-127.878
  0
LINE
  8
0
 10
56.9098
 20
-127.878
 11
57.2949
 21
-128.374
  0
LINE
  8
0
 10
57.2949
 20
-128.374
 11
57.7103
 21
-128.845
  0
LINE
  8
0
 10
57.7103
 20
-128.845
 11
58.1545
 21
-129.29
  0
LINE
  8
0
 10
58.1545
 20
-129.29
 11
58.6258
 21
-129.705
  0
LINE
  8
0
 10
58.6258
 20
-129.705
 11
59.1222
 21
-130.09
  0
LINE
  8
0
 10
59.1222
 20
-130.09
 11
59.6417
 21
-130.443
  0
LINE
  8
0
 10
59.6417
 20
-130.443
 11
60.1825
 21
-130.763
  0
LINE
  8
0
 10
60.1825
 20
-130.763
 11
60.7422
 21
-131.048
  0
LINE
  8
0
 10
60.7422
 20
-131.048
 11
61.3188
 21
-131.298
  0
LINE
  8
0
 10
61.3188
 20
-131.298
 11
61.9098
 21
-131.511
  0
LINE
  8
0
 10
61.9098
 20
-131.511
 11
62.5131
 21
-131.686
  0
LINE
  8
0
 10
62.5131
 20
-131.686
 11
63.1262
 21
-131.823
  0
LINE
  8
0
 10
63.1262
 20
-131.823
 11
63.7467
 21
-131.921
  0
LINE
  8
0
 10
63.7467
 20
-131.921
 11
64.3721
 21
-131.98
  0
LINE
  8
0
 10
64.3721
 20
-131.98
 11
65
 21
-132
  0
LINE
  8
0
 10
65
 20
-132
 11
185.539
 21
-131.985
  0
LINE
  8
0
 10
153
 20
-96
 11
152.812
 21
-95.9941
  0
LINE
  8
0
 10
152.812
 20
-95.9941
 11
152.624
 21
-95.9763
  0
LINE
  8
0
 10
152.624
 20
-95.9763
 11
152.438
 21
-95.9469
  0
LINE
  8
0
 10
152.438
 20
-95.9469
 11
152.254
 21
-95.9057
  0
LINE
  8
0
 10
152.254
 20
-95.9057
 11
152.073
 21
-95.8532
  0
LINE
  8
0
 10
152.073
 20
-95.8532
 11
151.896
 21
-95.7893
  0
LINE
  8
0
 10
151.896
 20
-95.7893
 11
151.723
 21
-95.7145
  0
LINE
  8
0
 10
151.723
 20
-95.7145
 11
151.555
 21
-95.6289
  0
LINE
  8
0
 10
151.555
 20
-95.6289
 11
151.393
 21
-95.533
  0
LINE
  8
0
 10
151.393
 20
-95.533
 11
151.237
 21
-95.427
  0
LINE
  8
0
 10
151.237
 20
-95.427
 11
151.088
 21
-95.3115
  0
LINE
  8
0
 10
151.088
 20
-95.3115
 11
150.946
 21
-95.1869
  0
LINE
  8
0
 10
150.946
 20
-95.1869
 11
150.813
 21
-95.0536
  0
LINE
  8
0
 10
150.813
 20
-95.0536
 11
150.688
 21
-94.9123
  0
LINE
  8
0
 10
150.688
 20
-94.9123
 11
150.573
 21
-94.7634
  0
LINE
  8
0
 10
150.573
 20
-94.7634
 11
150.467
 21
-94.6075
  0
LINE
  8
0
 10
150.467
 20
-94.6075
 11
150.371
 21
-94.4453
  0
LINE
  8
0
 10
150.371
 20
-94.4453
 11
150.286
 21
-94.2773
  0
LINE
  8
0
 10
150.286
 20
-94.2773
 11
150.211
 21
-94.1044
  0
LINE
  8
0
 10
150.211
 20
-94.1044
 11
150.147
 21
-93.927
  0
LINE
  8
0
 10
150.147
 20
-93.927
 11
150.094
 21
-93.7461
  0
LINE
  8
0
 10
150.094
 20
-93.7461
 11
150.053
 21
-93.5621
  0
LINE
  8
0
 10
150.053
 20
-93.5621
 11
150.024
 21
-93.376
  0
LINE
  8
0
 10
150.024
 20
-93.376
 11
150.006
 21
-93.1884
  0
LINE
  8
0
 10
150.006
 20
-93.1884
 11
150
 21
-93
  0
LINE
  8
0
 10
150
 20
-93
 11
150
 21
-60
  0
LINE
  8
0
 10
150
 20
-60
 11
150.006
 21
-59.8116
  0
LINE
  8
0
 10
150.006
 20
-59.8116
 11
150.024
 21
-59.624
  0
LINE
  8
0
 10
150.024
 20
-59.624
 11
150.053
 21
-59.4379
  0
LINE
  8
0
 10
150.053
 20
-59.4379
 11
150.094
 21
-59.2539
  0
LINE
  8
0
 10
150.094
 20
-59.2539
 11
150.147
 21
-59.073
  0
LINE
  8
0
 10
150.147
 20
-59.073
 11
150.211
 21
-58.8956
  0
LINE
  8
0
 10
150.211
 20
-58.8956
 11
150.286
 21
-58.7227
  0
LINE
  8
0
 10
150.286
 20
-58.7227
 11
150.371
 21
-58.5547
  0
LINE
  8
0
 10
150.371
 20
-58.5547
 11
150.467
 21
-58.3925
  0
LINE
  8
0
 10
150.467
 20
-58.3925
 11
150.573
 21
-58.2366
  0
LINE
  8
0
 10
150.573
 20
-58.2366
 11
150.688
 21
-58.0877
  0
LINE
  8
0
 10
150.688
 20
-58.0877
 11
150.813
 21
-57.9464
  0
LINE
  8
0
 10
150.813
 20
-57.9464
 11
150.946
 21
-57.8131
  0
LINE
  8
0
 10
150.946
 20
-57.8131
 11
151.088
 21
-57.6885
  0
LINE
  8
0
 10
151.088
 20
-57.6885
 11
151.237
 21
-57.573
  0
LINE
  8
0
 10
151.237
 20
-57.573
 11
151.393
 21
-57.467
  0
LINE
  8
0
 10
151.393
 20
-57.467
 11
151.555
 21
-57.3711
  0
LINE
  8
0
 10
151.555
 20
-57.3711
 11
151.723
 21
-57.2855
  0
LINE
  8
0
 10
151.723
 20
-57.2855
 11
151.896
 21
-57.2107
  0
LINE
  8
0
 10
151.896
 20
-57.2107
 11
152.073
 21
-57.1468
  0
LINE
  8
0
 10
152.073
 20
-57.1468
 11
152.254
 21
-57.0943
  0
LINE
  8
0
 10
152.254
 20
-57.0943
 11
152.438
 21
-57.0531
  0
LINE
  8
0
 10
152.438
 20
-57.0531
 11
152.624
 21
-57.0237
  0
LINE
  8
0
 10
152.624
 20
-57.0237
 11
152.812
 21
-57.0059
  0
LINE
  8
0
 10
152.812
 20
-57.0059
 11
153
 21
-57
  0
LINE
  8
0
 10
153
 20
-57
 11
164
 21
-57
  0
LINE
  8
0
 10
164
 20
-57
 11
164.188
 21
-57.0059
  0
LINE
  8
0
 10
164.188
 20
-57.0059
 11
164.376
 21
-57.0237
  0
LINE
  8
0
 10
164.376
 20
-57.0237
 11
164.562
 21
-57.0531
  0
LINE
  8
0
 10
164.562
 20
-57.0531
 11
164.746
 21
-57.0943
  0
LINE
  8
0
 10
164.746
 20
-57.0943
 11
164.927
 21
-57.1468
  0
LINE
  8
0
 10
164.927
 20
-57.1468
 11
165.104
 21
-57.2107
  0
LINE
  8
0
 10
165.104
 20
-57.2107
 11
165.277
 21
-57.2855
  0
LINE
  8
0
 10
165.277
 20
-57.2855
 11
165.445
 21
-57.3711
  0
LINE
  8
0
 10
165.445
 20
-57.3711
 11
165.607
 21
-57.467
  0
LINE
  8
0
 10
165.607
 20
-57.467
 11
165.763
 21
-57.573
  0
LINE
  8
0
 10
165.763
 20
-57.573
 11
165.912
 21
-57.6885
  0
LINE
  8
0
 10
165.912
 20
-57.6885
 11
166.054
 21
-57.8131
  0
LINE
  8
0
 10
166.054
 20
-57.8131
 11
166.187
 21
-57.9464
  0
LINE
  8
0
 10
166.187
 20
-57.9464
 11
166.312
 21
-58.0877
  0
LINE
  8
0
 10
166.312
 20
-58.0877
 11
166.427
 21
-58.2366
  0
LINE
  8
0
 10
166.427
 20
-58.2366
 11
166.533
 21
-58.3925
  0
LINE
  8
0
 10
166.533
 20
-58.3925
 11
166.629
 21
-58.5547
  0
LINE
  8
0
 10
166.629
 20
-58.5547
 11
166.714
 21
-58.7227
  0
LINE
  8
0
 10
166.714
 20
-58.7227
 11
166.789
 21
-58.8956
  0
LINE
  8
0
 10
166.789
 20
-58.8956
 11
166.853
 21
-59.073
  0
LINE
  8
0
 10
166.853
 20
-59.073
 11
166.906
 21
-59.2539
  0
LINE
  8
0
 10
166.906
 20
-59.2539
 11
166.947
 21
-59.4379
  0
LINE
  8
0
 10
166.947
 20
-59.4379
 11
166.976
 21
-59.624
  0
LINE
  8
0
 10
166.976
 20
-59.624
 11
166.994
 21
-59.8116
  0
LINE
  8
0
 10
166.994
 20
-59.8116
 11
167
 21
-60
  0
LINE
  8
0
 10
167
 20
-60
 11
167
 21
-93
  0
LINE
  8
0
 10
167
 20
-93
 11
166.994
 21
-93.1884
  0
LINE
  8
0
 10
166.994
 20
-93.1884
 11
166.976
 21
-93.376
  0
LINE
  8
0
 10
166.976
 20
-93.376
 11
166.947
 21
-93.5621
  0
LINE
  8
0
 10
166.947
 20
-93.5621
 11
166.906
 21
-93.7461
  0
LINE
  8
0
 10
166.906
 20
-93.7461
 11
166.853
 21
-93.927
  0
LINE
  8
0
 10
166.853
 20
-93.927
 11
166.789
 21
-94.1044
  0
LINE
  8
0
 10
166.789
 20
-94.1044
 11
166.714
 21
-94.2773
  0
LINE
  8
0
 10
166.714
 20
-94.2773
 11
166.629
 21
-94.4453
  0
LINE
  8
0
 10
166.629
 20
-94.4453
 11
166.533
 21
-94.6075
  0
LINE
  8
0
 10
166.533
 20
-94.6075
 11
166.427
 21
-94.7634
  0
LINE
  8
0
 10
166.427
 20
-94.7634
 11
166.312
 21
-94.9123
  0
LINE
  8
0
 10
166.312
 20
-94.9123
 11
166.187
 21
-95.0536
  0
LINE
  8
0
 10
166.187
 20
-95.0536
 11
166.054
 21
-95.1869
  0
LINE
  8
0
 10
166.054
 20
-95.1869
 11
165.912
 21
-95.3115
  0
LINE
  8
0
 10
165.912
 20
-95.3115
 11
165.763
 21
-95.427
  0
LINE
  8
0
 10
165.763
 20
-95.427
 11
165.607
 21
-95.533
  0
LINE
  8
0
 10
165.607
 20
-95.533
 11
165.445
 21
-95.6289
  0
LINE
  8
0
 10
165.445
 20
-95.6289
 11
165.277
 21
-95.7145
  0
LINE
  8
0
 10
165.277
 20
-95.7145
 11
165.104
 21
-95.7893
  0
LINE
  8
0
 10
165.104
 20
-95.7893
 11
164.927
 21
-95.8532
  0
LINE
  8
0
 10
164.927
 20
-95.8532
 11
164.746
 21
-95.9057
  0
LINE
  8
0
 10
164.746
 20
-95.9057
 11
164.562
 21
-95.9469
  0
LINE
  8
0
 10
164.562
 20
-95.9469
 11
164.376
 21
-95.9763
  0
LINE
  8
0
 10
164.376
 20
-95.9763
 11
164.188
 21
-95.9941
  0
LINE
  8
0
 10
164.188
 20
-95.9941
 11
164
 21
-96
  0
LINE
  8
0
 10
164
 20
-96
 11
153
 21
-96
  0
LINE
  8
0
 10
110.5
 20
-92
 11
110.5
 21
-68
  0
LINE
  8
0
 10
110.5
 20
-68
 11
113.5
 21
-68
  0
LINE
  8
0
 10
113.5
 20
-68
 11
113.5
 21
-92
  0
LINE
  8
0
 10
113.5
 20
-92
 11
110.5
 21
-92
  0
LINE
  8
0
 10
121.5
 20
-91
 11
121.374
 21
-90.996
  0
LINE
  8
0
 10
121.374
 20
-90.996
 11
121.249
 21
-90.9842
  0
LINE
  8
0
 10
121.249
 20
-90.9842
 11
121.125
 21
-90.9646
  0
LINE
  8
0
 10
121.125
 20
-90.9646
 11
121.003
 21
-90.9372
  0
LINE
  8
0
 10
121.003
 20
-90.9372
 11
120.882
 21
-90.9021
  0
LINE
  8
0
 10
120.882
 20
-90.9021
 11
120.764
 21
-90.8595
  0
LINE
  8
0
 10
120.764
 20
-90.8595
 11
120.648
 21
-90.8096
  0
LINE
  8
0
 10
120.648
 20
-90.8096
 11
120.536
 21
-90.7526
  0
LINE
  8
0
 10
120.536
 20
-90.7526
 11
120.428
 21
-90.6886
  0
LINE
  8
0
 10
120.428
 20
-90.6886
 11
120.324
 21
-90.618
  0
LINE
  8
0
 10
120.324
 20
-90.618
 11
120.225
 21
-90.541
  0
LINE
  8
0
 10
120.225
 20
-90.541
 11
120.131
 21
-90.4579
  0
LINE
  8
0
 10
120.131
 20
-90.4579
 11
120.042
 21
-90.3691
  0
LINE
  8
0
 10
120.042
 20
-90.3691
 11
119.959
 21
-90.2748
  0
LINE
  8
0
 10
119.959
 20
-90.2748
 11
119.882
 21
-90.1756
  0
LINE
  8
0
 10
119.882
 20
-90.1756
 11
119.811
 21
-90.0716
  0
LINE
  8
0
 10
119.811
 20
-90.0716
 11
119.747
 21
-89.9635
  0
LINE
  8
0
 10
119.747
 20
-89.9635
 11
119.69
 21
-89.8515
  0
LINE
  8
0
 10
119.69
 20
-89.8515
 11
119.64
 21
-89.7362
  0
LINE
  8
0
 10
119.64
 20
-89.7362
 11
119.598
 21
-89.618
  0
LINE
  8
0
 10
119.598
 20
-89.618
 11
119.563
 21
-89.4974
  0
LINE
  8
0
 10
119.563
 20
-89.4974
 11
119.535
 21
-89.3748
  0
LINE
  8
0
 10
119.535
 20
-89.3748
 11
119.516
 21
-89.2507
  0
LINE
  8
0
 10
119.516
 20
-89.2507
 11
119.504
 21
-89.1256
  0
LINE
  8
0
 10
119.504
 20
-89.1256
 11
119.5
 21
-89
  0
LINE
  8
0
 10
119.5
 20
-89
 11
119.5
 21
-71
  0
LINE
  8
0
 10
119.5
 20
-71
 11
119.504
 21
-70.8744
  0
LINE
  8
0
 10
119.504
 20
-70.8744
 11
119.516
 21
-70.7493
  0
LINE
  8
0
 10
119.516
 20
-70.7493
 11
119.535
 21
-70.6252
  0
LINE
  8
0
 10
119.535
 20
-70.6252
 11
119.563
 21
-70.5026
  0
LINE
  8
0
 10
119.563
 20
-70.5026
 11
119.598
 21
-70.382
  0
LINE
  8
0
 10
119.598
 20
-70.382
 11
119.64
 21
-70.2638
  0
LINE
  8
0
 10
119.64
 20
-70.2638
 11
119.69
 21
-70.1485
  0
LINE
  8
0
 10
119.69
 20
-70.1485
 11
119.747
 21
-70.0365
  0
LINE
  8
0
 10
119.747
 20
-70.0365
 11
119.811
 21
-69.9284
  0
LINE
  8
0
 10
119.811
 20
-69.9284
 11
119.882
 21
-69.8244
  0
LINE
  8
0
 10
119.882
 20
-69.8244
 11
119.959
 21
-69.7252
  0
LINE
  8
0
 10
119.959
 20
-69.7252
 11
120.042
 21
-69.6309
  0
LINE
  8
0
 10
120.042
 20
-69.6309
 11
120.131
 21
-69.5421
  0
LINE
  8
0
 10
120.131
 20
-69.5421
 11
120.225
 21
-69.459
  0
LINE
  8
0
 10
120.225
 20
-69.459
 11
120.324
 21
-69.382
  0
LINE
  8
0
 10
120.324
 20
-69.382
 11
120.428
 21
-69.3114
  0
LINE
  8
0
 10
120.428
 20
-69.3114
 11
120.536
 21
-69.2474
  0
LINE
  8
0
 10
120.536
 20
-69.2474
 11
120.648
 21
-69.1904
  0
LINE
  8
0
 10
120.648
 20
-69.1904
 11
120.764
 21
-69.1405
  0
LINE
  8
0
 10
120.764
 20
-69.1405
 11
120.882
 21
-69.0979
  0
LINE
  8
0
 10
120.882
 20
-69.0979
 11
121.003
 21
-69.0628
  0
LINE
  8
0
 10
121.003
 20
-69.0628
 11
121.125
 21
-69.0354
  0
LINE
  8
0
 10
121.125
 20
-69.0354
 11
121.249
 21
-69.0158
  0
LINE
  8
0
 10
121.249
 20
-69.0158
 11
121.374
 21
-69.004
  0
LINE
  8
0
 10
121.374
 20
-69.004
 11
121.5
 21
-69
  0
LINE
  8
0
 10
121.5
 20
-69
 11
128.5
 21
-69
  0
LINE
  8
0
 10
128.5
 20
-69
 11
128.626
 21
-69.004
  0
LINE
  8
0
 10
128.626
 20
-69.004
 11
128.751
 21
-69.0158
  0
LINE
  8
0
 10
128.751
 20
-69.0158
 11
128.875
 21
-69.0354
  0
LINE
  8
0
 10
128.875
 20
-69.0354
 11
128.997
 21
-69.0628
  0
LINE
  8
0
 10
128.997
 20
-69.0628
 11
129.118
 21
-69.0979
  0
LINE
  8
0
 10
129.118
 20
-69.0979
 11
129.236
 21
-69.1405
  0
LINE
  8
0
 10
129.236
 20
-69.1405
 11
129.352
 21
-69.1904
  0
LINE
  8
0
 10
129.352
 20
-69.1904
 11
129.464
 21
-69.2474
  0
LINE
  8
0
 10
129.464
 20
-69.2474
 11
129.572
 21
-69.3114
  0
LINE
  8
0
 10
129.572
 20
-69.3114
 11
129.676
 21
-69.382
  0
LINE
  8
0
 10
129.676
 20
-69.382
 11
129.775
 21
-69.459
  0
LINE
  8
0
 10
129.775
 20
-69.459
 11
129.869
 21
-69.5421
  0
LINE
  8
0
 10
129.869
 20
-69.5421
 11
129.958
 21
-69.6309
  0
LINE
  8
0
 10
129.958
 20
-69.6309
 11
130.041
 21
-69.7252
  0
LINE
  8
0
 10
130.041
 20
-69.7252
 11
130.118
 21
-69.8244
  0
LINE
  8
0
 10
130.118
 20
-69.8244
 11
130.189
 21
-69.9284
  0
LINE
  8
0
 10
130.189
 20
-69.9284
 11
130.253
 21
-70.0365
  0
LINE
  8
0
 10
130.253
 20
-70.0365
 11
130.31
 21
-70.1485
  0
LINE
  8
0
 10
130.31
 20
-70.1485
 11
130.36
 21
-70.2638
  0
LINE
  8
0
 10
130.36
 20
-70.2638
 11
130.402
 21
-70.382
  0
LINE
  8
0
 10
130.402
 20
-70.382
 11
130.437
 21
-70.5026
  0
LINE
  8
0
 10
130.437
 20
-70.5026
 11
130.465
 21
-70.6252
  0
LINE
  8
0
 10
130.465
 20
-70.6252
 11
130.484
 21
-70.7493
  0
LINE
  8
0
 10
130.484
 20
-70.7493
 11
130.496
 21
-70.8744
  0
LINE
  8
0
 10
130.496
 20
-70.8744
 11
130.5
 21
-71
  0
LINE
  8
0
 10
130.5
 20
-71
 11
130.5
 21
-89
  0
LINE
  8
0
 10
130.5
 20
-89
 11
130.496
 21
-89.1256
  0
LINE
  8
0
 10
130.496
 20
-89.1256
 11
130.484
 21
-89.2507
  0
LINE
  8
0
 10
130.484
 20
-89.2507
 11
130.465
 21
-89.3748
  0
LINE
  8
0
 10
130.465
 20
-89.3748
 11
130.437
 21
-89.4974
  0
LINE
  8
0
 10
130.437
 20
-89.4974
 11
130.402
 21
-89.618
  0
LINE
  8
0
 10
130.402
 20
-89.618
 11
130.36
 21
-89.7362
  0
LINE
  8
0
 10
130.36
 20
-89.7362
 11
130.31
 21
-89.8515
  0
LINE
  8
0
 10
130.31
 20
-89.8515
 11
130.253
 21
-89.9635
  0
LINE
  8
0
 10
130.253
 20
-89.9635
 11
130.189
 21
-90.0716
  0
LINE
  8
0
 10
130.189
 20
-90.0716
 11
130.118
 21
-90.1756
  0
LINE
  8
0
 10
130.118
 20
-90.1756
 11
130.041
 21
-90.2748
  0
LINE
  8
0
 10
130.041
 20
-90.2748
 11
129.958
 21
-90.3691
  0
LINE
  8
0
 10
129.958
 20
-90.3691
 11
129.869
 21
-90.4579
  0
LINE
  8
0
 10
129.869
 20
-90.4579
 11
129.775
 21
-90.541
  0
LINE
  8
0
 10
129.775
 20
-90.541
 11
129.676
 21
-90.618
  0
LINE
  8
0
 10
129.676
 20
-90.618
 11
129.572
 21
-90.6886
  0
LINE
  8
0
 10
129.572
 20
-90.6886
 11
129.464
 21
-90.7526
  0
LINE
  8
0
 10
129.464
 20
-90.7526
 11
129.352
 21
-90.8096
  0
LINE
  8
0
 10
129.352
 20
-90.8096
 11
129.236
 21
-90.8595
  0
LINE
  8
0
 10
129.236
 20
-90.8595
 11
129.118
 21
-90.9021
  0
LINE
  8
0
 10
129.118
 20
-90.9021
 11
128.997
 21
-90.9372
  0
LINE
  8
0
 10
128.997
 20
-90.9372
 11
128.875
 21
-90.9646
  0
LINE
  8
0
 10
128.875
 20
-90.9646
 11
128.751
 21
-90.9842
  0
LINE
  8
0
 10
128.751
 20
-90.9842
 11
128.626
 21
-90.996
  0
LINE
  8
0
 10
128.626
 20
-90.996
 11
128.5
 21
-91
  0
LINE
  8
0
 10
128.5
 20
-91
 11
121.5
 21
-91
  0
LINE
  8
0
 10
103.406
 20
-88.9971
 11
103.312
 21
-88.9882
  0
LINE
  8
0
 10
103.312
 20
-88.9882
 11
103.219
 21
-88.9734
  0
LINE
  8
0
 10
103.219
 20
-88.9734
 11
103.127
 21
-88.9529
  0
LINE
  8
0
 10
103.127
 20
-88.9529
 11
103.036
 21
-88.9266
  0
LINE
  8
0
 10
103.036
 20
-88.9266
 11
102.948
 21
-88.8947
  0
LINE
  8
0
 10
102.948
 20
-88.8947
 11
102.861
 21
-88.8573
  0
LINE
  8
0
 10
102.861
 20
-88.8573
 11
102.777
 21
-88.8145
  0
LINE
  8
0
 10
102.777
 20
-88.8145
 11
102.696
 21
-88.7665
  0
LINE
  8
0
 10
102.696
 20
-88.7665
 11
102.618
 21
-88.7135
  0
LINE
  8
0
 10
102.618
 20
-88.7135
 11
102.544
 21
-88.6558
  0
LINE
  8
0
 10
102.544
 20
-88.6558
 11
102.473
 21
-88.5935
  0
LINE
  8
0
 10
102.473
 20
-88.5935
 11
102.407
 21
-88.5268
  0
LINE
  8
0
 10
102.407
 20
-88.5268
 11
102.344
 21
-88.4561
  0
LINE
  8
0
 10
102.344
 20
-88.4561
 11
102.286
 21
-88.3817
  0
LINE
  8
0
 10
102.286
 20
-88.3817
 11
102.234
 21
-88.3037
  0
LINE
  8
0
 10
102.234
 20
-88.3037
 11
102.186
 21
-88.2226
  0
LINE
  8
0
 10
102.186
 20
-88.2226
 11
102.143
 21
-88.1387
  0
LINE
  8
0
 10
102.143
 20
-88.1387
 11
102.105
 21
-88.0522
  0
LINE
  8
0
 10
102.105
 20
-88.0522
 11
102.073
 21
-87.9635
  0
LINE
  8
0
 10
102.073
 20
-87.9635
 11
102.047
 21
-87.873
  0
LINE
  8
0
 10
102.047
 20
-87.873
 11
102.027
 21
-87.7811
  0
LINE
  8
0
 10
102.027
 20
-87.7811
 11
102.012
 21
-87.688
  0
LINE
  8
0
 10
102.012
 20
-87.688
 11
102.003
 21
-87.5942
  0
LINE
  8
0
 10
102.003
 20
-87.5942
 11
102
 21
-87.5
  0
LINE
  8
0
 10
102
 20
-87.5
 11
102.003
 21
-87.4058
  0
LINE
  8
0
 10
102.003
 20
-87.4058
 11
102.012
 21
-87.312
  0
LINE
  8
0
 10
102.012
 20
-87.312
 11
102.027
 21
-87.2189
  0
LINE
  8
0
 10
102.027
 20
-87.2189
 11
102.047
 21
-87.127
  0
LINE
  8
0
 10
102.047
 20
-87.127
 11
102.073
 21
-87.0365
  0
LINE
  8
0
 10
102.073
 20
-87.0365
 11
102.105
 21
-86.9478
  0
LINE
  8
0
 10
102.105
 20
-86.9478
 11
102.143
 21
-86.8613
  0
LINE
  8
0
 10
102.143
 20
-86.8613
 11
102.186
 21
-86.7774
  0
LINE
  8
0
 10
102.186
 20
-86.7774
 11
102.234
 21
-86.6963
  0
LINE
  8
0
 10
102.234
 20
-86.6963
 11
102.286
 21
-86.6183
  0
LINE
  8
0
 10
102.286
 20
-86.6183
 11
102.344
 21
-86.5439
  0
LINE
  8
0
 10
102.344
 20
-86.5439
 11
102.407
 21
-86.4732
  0
LINE
  8
0
 10
102.407
 20
-86.4732
 11
102.473
 21
-86.4066
  0
LINE
  8
0
 10
102.473
 20
-86.4066
 11
102.544
 21
-86.3442
  0
LINE
  8
0
 10
102.544
 20
-86.3442
 11
102.618
 21
-86.2865
  0
LINE
  8
0
 10
102.618
 20
-86.2865
 11
102.696
 21
-86.2335
  0
LINE
  8
0
 10
102.696
 20
-86.2335
 11
102.777
 21
-86.1855
  0
LINE
  8
0
 10
102.777
 20
-86.1855
 11
102.861
 21
-86.1428
  0
LINE
  8
0
 10
102.861
 20
-86.1428
 11
102.948
 21
-86.1053
  0
LINE
  8
0
 10
102.948
 20
-86.1053
 11
103.036
 21
-86.0734
  0
LINE
  8
0
 10
103.036
 20
-86.0734
 11
103.127
 21
-86.0471
  0
LINE
  8
0
 10
103.127
 20
-86.0471
 11
103.219
 21
-86.0266
  0
LINE
  8
0
 10
103.219
 20
-86.0266
 11
103.312
 21
-86.0118
  0
LINE
  8
0
 10
103.312
 20
-86.0118
 11
103.406
 21
-86.003
  0
LINE
  8
0
 10
103.406
 20
-86.003
 11
103.5
 21
-86
  0
LINE
  8
0
 10
103.5
 20
-86
 11
103.594
 21
-86.003
  0
LINE
  8
0
 10
103.594
 20
-86.003
 11
103.688
 21
-86.0118
  0
LINE
  8
0
 10
103.688
 20
-86.0118
 11
103.781
 21
-86.0266
  0
LINE
  8
0
 10
103.781
 20
-86.0266
 11
103.873
 21
-86.0471
  0
LINE
  8
0
 10
103.873
 20
-86.0471
 11
103.964
 21
-86.0734
  0
LINE
  8
0
 10
103.964
 20
-86.0734
 11
104.052
 21
-86.1053
  0
LINE
  8
0
 10
104.052
 20
-86.1053
 11
104.139
 21
-86.1428
  0
LINE
  8
0
 10
104.139
 20
-86.1428
 11
104.223
 21
-86.1855
  0
LINE
  8
0
 10
104.223
 20
-86.1855
 11
104.304
 21
-86.2335
  0
LINE
  8
0
 10
104.304
 20
-86.2335
 11
104.382
 21
-86.2865
  0
LINE
  8
0
 10
104.382
 20
-86.2865
 11
104.456
 21
-86.3442
  0
LINE
  8
0
 10
104.456
 20
-86.3442
 11
104.527
 21
-86.4066
  0
LINE
  8
0
 10
104.527
 20
-86.4066
 11
104.593
 21
-86.4732
  0
LINE
  8
0
 10
104.593
 20
-86.4732
 11
104.656
 21
-86.5439
  0
LINE
  8
0
 10
104.656
 20
-86.5439
 11
104.714
 21
-86.6183
  0
LINE
  8
0
 10
104.714
 20
-86.6183
 11
104.766
 21
-86.6963
  0
LINE
  8
0
 10
104.766
 20
-86.6963
 11
104.814
 21
-86.7774
  0
LINE
  8
0
 10
104.814
 20
-86.7774
 11
104.857
 21
-86.8613
  0
LINE
  8
0
 10
104.857
 20
-86.8613
 11
104.895
 21
-86.9478
  0
LINE
  8
0
 10
104.895
 20
-86.9478
 11
104.927
 21
-87.0365
  0
LINE
  8
0
 10
104.927
 20
-87.0365
 11
104.953
 21
-87.127
  0
LINE
  8
0
 10
104.953
 20
-87.127
 11
104.973
 21
-87.2189
  0
LINE
  8
0
 10
104.973
 20
-87.2189
 11
104.988
 21
-87.312
  0
LINE
  8
0
 10
104.988
 20
-87.312
 11
104.997
 21
-87.4058
  0
LINE
  8
0
 10
104.997
 20
-87.4058
 11
105
 21
-87.5
  0
LINE
  8
0
 10
105
 20
-87.5
 11
104.997
 21
-87.5942
  0
LINE
  8
0
 10
104.997
 20
-87.5942
 11
104.988
 21
-87.688
  0
LINE
  8
0
 10
104.988
 20
-87.688
 11
104.973
 21
-87.7811
  0
LINE
  8
0
 10
104.973
 20
-87.7811
 11
104.953
 21
-87.873
  0
LINE
  8
0
 10
104.953
 20
-87.873
 11
104.927
 21
-87.9635
  0
LINE
  8
0
 10
104.927
 20
-87.9635
 11
104.895
 21
-88.0522
  0
LINE
  8
0
 10
104.895
 20
-88.0522
 11
104.857
 21
-88.1387
  0
LINE
  8
0
 10
104.857
 20
-88.1387
 11
104.814
 21
-88.2226
  0
LINE
  8
0
 10
104.814
 20
-88.2226
 11
104.766
 21
-88.3037
  0
LINE
  8
0
 10
104.766
 20
-88.3037
 11
104.714
 21
-88.3817
  0
LINE
  8
0
 10
104.714
 20
-88.3817
 11
104.656
 21
-88.4561
  0
LINE
  8
0
 10
104.656
 20
-88.4561
 11
104.593
 21
-88.5268
  0
LINE
  8
0
 10
104.593
 20
-88.5268
 11
104.527
 21
-88.5935
  0
LINE
  8
0
 10
104.527
 20
-88.5935
 11
104.456
 21
-88.6558
  0
LINE
  8
0
 10
104.456
 20
-88.6558
 11
104.382
 21
-88.7135
  0
LINE
  8
0
 10
104.382
 20
-88.7135
 11
104.304
 21
-88.7665
  0
LINE
  8
0
 10
104.304
 20
-88.7665
 11
104.223
 21
-88.8145
  0
LINE
  8
0
 10
104.223
 20
-88.8145
 11
104.139
 21
-88.8573
  0
LINE
  8
0
 10
104.139
 20
-88.8573
 11
104.052
 21
-88.8947
  0
LINE
  8
0
 10
104.052
 20
-88.8947
 11
103.964
 21
-88.9266
  0
LINE
  8
0
 10
103.964
 20
-88.9266
 11
103.873
 21
-88.9529
  0
LINE
  8
0
 10
103.873
 20
-88.9529
 11
103.781
 21
-88.9734
  0
LINE
  8
0
 10
103.781
 20
-88.9734
 11
103.688
 21
-88.9882
  0
LINE
  8
0
 10
103.688
 20
-88.9882
 11
103.594
 21
-88.9971
  0
LINE
  8
0
 10
103.594
 20
-88.9971
 11
103.5
 21
-89
  0
LINE
  8
0
 10
103.5
 20
-89
 11
103.406
 21
-88.9971
  0
LINE
  8
0
 10
72.4058
 20
-88.9971
 11
72.312
 21
-88.9882
  0
LINE
  8
0
 10
72.312
 20
-88.9882
 11
72.2189
 21
-88.9734
  0
LINE
  8
0
 10
72.2189
 20
-88.9734
 11
72.127
 21
-88.9529
  0
LINE
  8
0
 10
72.127
 20
-88.9529
 11
72.0365
 21
-88.9266
  0
LINE
  8
0
 10
72.0365
 20
-88.9266
 11
71.9478
 21
-88.8947
  0
LINE
  8
0
 10
71.9478
 20
-88.8947
 11
71.8613
 21
-88.8573
  0
LINE
  8
0
 10
71.8613
 20
-88.8573
 11
71.7774
 21
-88.8145
  0
LINE
  8
0
 10
71.7774
 20
-88.8145
 11
71.6963
 21
-88.7665
  0
LINE
  8
0
 10
71.6963
 20
-88.7665
 11
71.6183
 21
-88.7135
  0
LINE
  8
0
 10
71.6183
 20
-88.7135
 11
71.5439
 21
-88.6558
  0
LINE
  8
0
 10
71.5439
 20
-88.6558
 11
71.4732
 21
-88.5935
  0
LINE
  8
0
 10
71.4732
 20
-88.5935
 11
71.4066
 21
-88.5268
  0
LINE
  8
0
 10
71.4066
 20
-88.5268
 11
71.3442
 21
-88.4561
  0
LINE
  8
0
 10
71.3442
 20
-88.4561
 11
71.2865
 21
-88.3817
  0
LINE
  8
0
 10
71.2865
 20
-88.3817
 11
71.2335
 21
-88.3037
  0
LINE
  8
0
 10
71.2335
 20
-88.3037
 11
71.1855
 21
-88.2226
  0
LINE
  8
0
 10
71.1855
 20
-88.2226
 11
71.1428
 21
-88.1387
  0
LINE
  8
0
 10
71.1428
 20
-88.1387
 11
71.1053
 21
-88.0522
  0
LINE
  8
0
 10
71.1053
 20
-88.0522
 11
71.0734
 21
-87.9635
  0
LINE
  8
0
 10
71.0734
 20
-87.9635
 11
71.0471
 21
-87.873
  0
LINE
  8
0
 10
71.0471
 20
-87.873
 11
71.0266
 21
-87.7811
  0
LINE
  8
0
 10
71.0266
 20
-87.7811
 11
71.0118
 21
-87.688
  0
LINE
  8
0
 10
71.0118
 20
-87.688
 11
71.003
 21
-87.5942
  0
LINE
  8
0
 10
71.003
 20
-87.5942
 11
71
 21
-87.5
  0
LINE
  8
0
 10
71
 20
-87.5
 11
71.003
 21
-87.4058
  0
LINE
  8
0
 10
71.003
 20
-87.4058
 11
71.0118
 21
-87.312
  0
LINE
  8
0
 10
71.0118
 20
-87.312
 11
71.0266
 21
-87.2189
  0
LINE
  8
0
 10
71.0266
 20
-87.2189
 11
71.0471
 21
-87.127
  0
LINE
  8
0
 10
71.0471
 20
-87.127
 11
71.0734
 21
-87.0365
  0
LINE
  8
0
 10
71.0734
 20
-87.0365
 11
71.1053
 21
-86.9478
  0
LINE
  8
0
 10
71.1053
 20
-86.9478
 11
71.1428
 21
-86.8613
  0
LINE
  8
0
 10
71.1428
 20
-86.8613
 11
71.1855
 21
-86.7774
  0
LINE
  8
0
 10
71.1855
 20
-86.7774
 11
71.2335
 21
-86.6963
  0
LINE
  8
0
 10
71.2335
 20
-86.6963
 11
71.2865
 21
-86.6183
  0
LINE
  8
0
 10
71.2865
 20
-86.6183
 11
71.3442
 21
-86.5439
  0
LINE
  8
0
 10
71.3442
 20
-86.5439
 11
71.4066
 21
-86.4732
  0
LINE
  8
0
 10
71.4066
 20
-86.4732
 11
71.4732
 21
-86.4066
  0
LINE
  8
0
 10
71.4732
 20
-86.4066
 11
71.5439
 21
-86.3442
  0
LINE
  8
0
 10
71.5439
 20
-86.3442
 11
71.6183
 21
-86.2865
  0
LINE
  8
0
 10
71.6183
 20
-86.2865
 11
71.6963
 21
-86.2335
  0
LINE
  8
0
 10
71.6963
 20
-86.2335
 11
71.7774
 21
-86.1855
  0
LINE
  8
0
 10
71.7774
 20
-86.1855
 11
71.8613
 21
-86.1428
  0
LINE
  8
0
 10
71.8613
 20
-86.1428
 11
71.9478
 21
-86.1053
  0
LINE
  8
0
 10
71.9478
 20
-86.1053
 11
72.0365
 21
-86.0734
  0
LINE
  8
0
 10
72.0365
 20
-86.0734
 11
72.127
 21
-86.0471
  0
LINE
  8
0
 10
72.127
 20
-86.0471
 11
72.2189
 21
-86.0266
  0
LINE
  8
0
 10
72.2189
 20
-86.0266
 11
72.312
 21
-86.0118
  0
LINE
  8
0
 10
72.312
 20
-86.0118
 11
72.4058
 21
-86.003
  0
LINE
  8
0
 10
72.4058
 20
-86.003
 11
72.5
 21
-86
  0
LINE
  8
0
 10
72.5
 20
-86
 11
72.5942
 21
-86.003
  0
LINE
  8
0
 10
72.5942
 20
-86.003
 11
72.688
 21
-86.0118
  0
LINE
  8
0
 10
72.688
 20
-86.0118
 11
72.7811
 21
-86.0266
  0
LINE
  8
0
 10
72.7811
 20
-86.0266
 11
72.873
 21
-86.0471
  0
LINE
  8
0
 10
72.873
 20
-86.0471
 11
72.9635
 21
-86.0734
  0
LINE
  8
0
 10
72.9635
 20
-86.0734
 11
73.0522
 21
-86.1053
  0
LINE
  8
0
 10
73.0522
 20
-86.1053
 11
73.1387
 21
-86.1428
  0
LINE
  8
0
 10
73.1387
 20
-86.1428
 11
73.2226
 21
-86.1855
  0
LINE
  8
0
 10
73.2226
 20
-86.1855
 11
73.3037
 21
-86.2335
  0
LINE
  8
0
 10
73.3037
 20
-86.2335
 11
73.3817
 21
-86.2865
  0
LINE
  8
0
 10
73.3817
 20
-86.2865
 11
73.4561
 21
-86.3442
  0
LINE
  8
0
 10
73.4561
 20
-86.3442
 11
73.5268
 21
-86.4066
  0
LINE
  8
0
 10
73.5268
 20
-86.4066
 11
73.5935
 21
-86.4732
  0
LINE
  8
0
 10
73.5935
 20
-86.4732
 11
73.6558
 21
-86.5439
  0
LINE
  8
0
 10
73.6558
 20
-86.5439
 11
73.7135
 21
-86.6183
  0
LINE
  8
0
 10
73.7135
 20
-86.6183
 11
73.7665
 21
-86.6963
  0
LINE
  8
0
 10
73.7665
 20
-86.6963
 11
73.8145
 21
-86.7774
  0
LINE
  8
0
 10
73.8145
 20
-86.7774
 11
73.8573
 21
-86.8613
  0
LINE
  8
0
 10
73.8573
 20
-86.8613
 11
73.8947
 21
-86.9478
  0
LINE
  8
0
 10
73.8947
 20
-86.9478
 11
73.9266
 21
-87.0365
  0
LINE
  8
0
 10
73.9266
 20
-87.0365
 11
73.9529
 21
-87.127
  0
LINE
  8
0
 10
73.9529
 20
-87.127
 11
73.9734
 21
-87.2189
  0
LINE
  8
0
 10
73.9734
 20
-87.2189
 11
73.9882
 21
-87.312
  0
LINE
  8
0
 10
73.9882
 20
-87.312
 11
73.9971
 21
-87.4058
  0
LINE
  8
0
 10
73.9971
 20
-87.4058
 11
74
 21
-87.5
  0
LINE
  8
0
 10
74
 20
-87.5
 11
73.9971
 21
-87.5942
  0
LINE
  8
0
 10
73.9971
 20
-87.5942
 11
73.9882
 21
-87.688
  0
LINE
  8
0
 10
73.9882
 20
-87.688
 11
73.9734
 21
-87.7811
  0
LINE
  8
0
 10
73.9734
 20
-87.7811
 11
73.9529
 21
-87.873
  0
LINE
  8
0
 10
73.9529
 20
-87.873
 11
73.9266
 21
-87.9635
  0
LINE
  8
0
 10
73.9266
 20
-87.9635
 11
73.8947
 21
-88.0522
  0
LINE
  8
0
 10
73.8947
 20
-88.0522
 11
73.8573
 21
-88.1387
  0
LINE
  8
0
 10
73.8573
 20
-88.1387
 11
73.8145
 21
-88.2226
  0
LINE
  8
0
 10
73.8145
 20
-88.2226
 11
73.7665
 21
-88.3037
  0
LINE
  8
0
 10
73.7665
 20
-88.3037
 11
73.7135
 21
-88.3817
  0
LINE
  8
0
 10
73.7135
 20
-88.3817
 11
73.6558
 21
-88.4561
  0
LINE
  8
0
 10
73.6558
 20
-88.4561
 11
73.5935
 21
-88.5268
  0
LINE
  8
0
 10
73.5935
 20
-88.5268
 11
73.5268
 21
-88.5935
  0
LINE
  8
0
 10
73.5268
 20
-88.5935
 11
73.4561
 21
-88.6558
  0
LINE
  8
0
 10
73.4561
 20
-88.6558
 11
73.3817
 21
-88.7135
  0
LINE
  8
0
 10
73.3817
 20
-88.7135
 11
73.3037
 21
-88.7665
  0
LINE
  8
0
 10
73.3037
 20
-88.7665
 11
73.2226
 21
-88.8145
  0
LINE
  8
0
 10
73.2226
 20
-88.8145
 11
73.1387
 21
-88.8573
  0
LINE
  8
0
 10
73.1387
 20
-88.8573
 11
73.0522
 21
-88.8947
  0
LINE
  8
0
 10
73.0522
 20
-88.8947
 11
72.9635
 21
-88.9266
  0
LINE
  8
0
 10
72.9635
 20
-88.9266
 11
72.873
 21
-88.9529
  0
LINE
  8
0
 10
72.873
 20
-88.9529
 11
72.7811
 21
-88.9734
  0
LINE
  8
0
 10
72.7811
 20
-88.9734
 11
72.688
 21
-88.9882
  0
LINE
  8
0
 10
72.688
 20
-88.9882
 11
72.5942
 21
-88.9971
  0
LINE
  8
0
 10
72.5942
 20
-88.9971
 11
72.5
 21
-89
  0
LINE
  8
0
 10
72.5
 20
-89
 11
72.4058
 21
-88.9971
  0
LINE
  8
0
 10
87.3093
 20
-113.978
 11
86.6213
 21
-113.913
  0
LINE
  8
0
 10
86.6213
 20
-113.913
 11
85.9388
 21
-113.805
  0
LINE
  8
0
 10
85.9388
 20
-113.805
 11
85.2644
 21
-113.654
  0
LINE
  8
0
 10
85.2644
 20
-113.654
 11
84.6008
 21
-113.462
  0
LINE
  8
0
 10
84.6008
 20
-113.462
 11
83.9506
 21
-113.228
  0
LINE
  8
0
 10
83.9506
 20
-113.228
 11
83.3164
 21
-112.953
  0
LINE
  8
0
 10
83.3164
 20
-112.953
 11
82.7007
 21
-112.639
  0
LINE
  8
0
 10
82.7007
 20
-112.639
 11
82.1059
 21
-112.288
  0
LINE
  8
0
 10
82.1059
 20
-112.288
 11
81.5344
 21
-111.899
  0
LINE
  8
0
 10
81.5344
 20
-111.899
 11
80.9883
 21
-111.476
  0
LINE
  8
0
 10
80.9883
 20
-111.476
 11
80.47
 21
-111.019
  0
LINE
  8
0
 10
80.47
 20
-111.019
 11
79.9814
 21
-110.53
  0
LINE
  8
0
 10
79.9814
 20
-110.53
 11
79.5244
 21
-110.012
  0
LINE
  8
0
 10
79.5244
 20
-110.012
 11
79.1008
 21
-109.466
  0
LINE
  8
0
 10
79.1008
 20
-109.466
 11
78.7124
 21
-108.894
  0
LINE
  8
0
 10
78.7124
 20
-108.894
 11
78.3606
 21
-108.299
  0
LINE
  8
0
 10
78.3606
 20
-108.299
 11
78.0469
 21
-107.684
  0
LINE
  8
0
 10
78.0469
 20
-107.684
 11
77.7725
 21
-107.049
  0
LINE
  8
0
 10
77.7725
 20
-107.049
 11
77.5384
 21
-106.399
  0
LINE
  8
0
 10
77.5384
 20
-106.399
 11
77.3456
 21
-105.736
  0
LINE
  8
0
 10
77.3456
 20
-105.736
 11
77.1949
 21
-105.061
  0
LINE
  8
0
 10
77.1949
 20
-105.061
 11
77.0867
 21
-104.379
  0
LINE
  8
0
 10
77.0867
 20
-104.379
 11
77.0217
 21
-103.691
  0
LINE
  8
0
 10
77.0217
 20
-103.691
 11
77
 21
-103
  0
LINE
  8
0
 10
77
 20
-103
 11
77.0217
 21
-102.309
  0
LINE
  8
0
 10
77.0217
 20
-102.309
 11
77.0867
 21
-101.621
  0
LINE
  8
0
 10
77.0867
 20
-101.621
 11
77.1949
 21
-100.939
  0
LINE
  8
0
 10
77.1949
 20
-100.939
 11
77.3456
 21
-100.264
  0
LINE
  8
0
 10
77.3456
 20
-100.264
 11
77.5384
 21
-99.6008
  0
LINE
  8
0
 10
77.5384
 20
-99.6008
 11
77.7725
 21
-98.9506
  0
LINE
  8
0
 10
77.7725
 20
-98.9506
 11
78.0469
 21
-98.3164
  0
LINE
  8
0
 10
78.0469
 20
-98.3164
 11
78.3606
 21
-97.7007
  0
LINE
  8
0
 10
78.3606
 20
-97.7007
 11
78.7124
 21
-97.1059
  0
LINE
  8
0
 10
78.7124
 20
-97.1059
 11
79.1008
 21
-96.5344
  0
LINE
  8
0
 10
79.1008
 20
-96.5344
 11
79.5244
 21
-95.9883
  0
LINE
  8
0
 10
79.5244
 20
-95.9883
 11
79.9814
 21
-95.47
  0
LINE
  8
0
 10
79.9814
 20
-95.47
 11
80.47
 21
-94.9814
  0
LINE
  8
0
 10
80.47
 20
-94.9814
 11
80.9883
 21
-94.5244
  0
LINE
  8
0
 10
80.9883
 20
-94.5244
 11
81.5344
 21
-94.1008
  0
LINE
  8
0
 10
81.5344
 20
-94.1008
 11
82.1059
 21
-93.7124
  0
LINE
  8
0
 10
82.1059
 20
-93.7124
 11
82.7007
 21
-93.3606
  0
LINE
  8
0
 10
82.7007
 20
-93.3606
 11
83.3164
 21
-93.0469
  0
LINE
  8
0
 10
83.3164
 20
-93.0469
 11
83.9506
 21
-92.7725
  0
LINE
  8
0
 10
83.9506
 20
-92.7725
 11
84.6008
 21
-92.5384
  0
LINE
  8
0
 10
84.6008
 20
-92.5384
 11
85.2644
 21
-92.3456
  0
LINE
  8
0
 10
85.2644
 20
-92.3456
 11
85.9388
 21
-92.1949
  0
LINE
  8
0
 10
85.9388
 20
-92.1949
 11
86.6213
 21
-92.0867
  0
LINE
  8
0
 10
86.6213
 20
-92.0867
 11
87.3093
 21
-92.0217
  0
LINE
  8
0
 10
87.3093
 20
-92.0217
 11
88
 21
-92
  0
LINE
  8
0
 10
88
 20
-92
 11
88.6907
 21
-92.0217
  0
LINE
  8
0
 10
88.6907
 20
-92.0217
 11
89.3787
 21
-92.0867
  0
LINE
  8
0
 10
89.3787
 20
-92.0867
 11
90.0612
 21
-92.1949
  0
LINE
  8
0
 10
90.0612
 20
-92.1949
 11
90.7356
 21
-92.3456
  0
LINE
  8
0
 10
90.7356
 20
-92.3456
 11
91.3992
 21
-92.5384
  0
LINE
  8
0
 10
91.3992
 20
-92.5384
 11
92.0494
 21
-92.7725
  0
LINE
  8
0
 10
92.0494
 20
-92.7725
 11
92.6836
 21
-93.0469
  0
LINE
  8
0
 10
92.6836
 20
-93.0469
 11
93.2993
 21
-93.3606
  0
LINE
  8
0
 10
93.2993
 20
-93.3606
 11
93.8941
 21
-93.7124
  0
LINE
  8
0
 10
93.8941
 20
-93.7124
 11
94.4656
 21
-94.1008
  0
LINE
  8
0
 10
94.4656
 20
-94.1008
 11
95.0117
 21
-94.5244
  0
LINE
  8
0
 10
95.0117
 20
-94.5244
 11
95.53
 21
-94.9814
  0
LINE
  8
0
 10
95.53
 20
-94.9814
 11
96.0186
 21
-95.47
  0
LINE
  8
0
 10
96.0186
 20
-95.47
 11
96.4756
 21
-95.9883
  0
LINE
  8
0
 10
96.4756
 20
-95.9883
 11
96.8992
 21
-96.5344
  0
LINE
  8
0
 10
96.8992
 20
-96.5344
 11
97.2876
 21
-97.1059
  0
LINE
  8
0
 10
97.2876
 20
-97.1059
 11
97.6394
 21
-97.7007
  0
LINE
  8
0
 10
97.6394
 20
-97.7007
 11
97.9531
 21
-98.3164
  0
LINE
  8
0
 10
97.9531
 20
-98.3164
 11
98.2275
 21
-98.9506
  0
LINE
  8
0
 10
98.2275
 20
-98.9506
 11
98.4616
 21
-99.6008
  0
LINE
  8
0
 10
98.4616
 20
-99.6008
 11
98.6544
 21
-100.264
  0
LINE
  8
0
 10
98.6544
 20
-100.264
 11
98.8051
 21
-100.939
  0
LINE
  8
0
 10
98.8051
 20
-100.939
 11
98.9133
 21
-101.621
  0
LINE
  8
0
 10
98.9133
 20
-101.621
 11
98.9783
 21
-102.309
  0
LINE
  8
0
 10
98.9783
 20
-102.309
 11
99
 21
-103
  0
LINE
  8
0
 10
99
 20
-103
 11
98.9783
 21
-103.691
  0
LINE
  8
0
 10
98.9783
 20
-103.691
 11
98.9133
 21
-104.379
  0
LINE
  8
0
 10
98.9133
 20
-104.379
 11
98.8051
 21
-105.061
  0
LINE
  8
0
 10
98.8051
 20
-105.061
 11
98.6544
 21
-105.736
  0
LINE
  8
0
 10
98.6544
 20
-105.736
 11
98.4616
 21
-106.399
  0
LINE
  8
0
 10
98.4616
 20
-106.399
 11
98.2275
 21
-107.049
  0
LINE
  8
0
 10
98.2275
 20
-107.049
 11
97.9531
 21
-107.684
  0
LINE
  8
0
 10
97.9531
 20
-107.684
 11
97.6394
 21
-108.299
  0
LINE
  8
0
 10
97.6394
 20
-108.299
 11
97.2876
 21
-108.894
  0
LINE
  8
0
 10
97.2876
 20
-108.894
 11
96.8992
 21
-109.466
  0
LINE
  8
0
 10
96.8992
 20
-109.466
 11
96.4756
 21
-110.012
  0
LINE
  8
0
 10
96.4756
 20
-110.012
 11
96.0186
 21
-110.53
  0
LINE
  8
0
 10
96.0186
 20
-110.53
 11
95.53
 21
-111.019
  0
LINE
  8
0
 10
95.53
 20
-111.019
 11
95.0117
 21
-111.476
  0
LINE
  8
0
 10
95.0117
 20
-111.476
 11
94.4656
 21
-111.899
  0
LINE
  8
0
 10
94.4656
 20
-111.899
 11
93.8941
 21
-112.288
  0
LINE
  8
0
 10
93.8941
 20
-112.288
 11
93.2993
 21
-112.639
  0
LINE
  8
0
 10
93.2993
 20
-112.639
 11
92.6836
 21
-112.953
  0
LINE
  8
0
 10
92.6836
 20
-112.953
 11
92.0494
 21
-113.228
  0
LINE
  8
0
 10
92.0494
 20
-113.228
 11
91.3992
 21
-113.462
  0
LINE
  8
0
 10
91.3992
 20
-113.462
 11
90.7356
 21
-113.654
  0
LINE
  8
0
 10
90.7356
 20
-113.654
 11
90.0612
 21
-113.805
  0
LINE
  8
0
 10
90.0612
 20
-113.805
 11
89.3787
 21
-113.913
  0
LINE
  8
0
 10
89.3787
 20
-113.913
 11
88.6907
 21
-113.978
  0
LINE
  8
0
 10
88.6907
 20
-113.978
 11
88
 21
-114
  0
LINE
  8
0
 10
88
 20
-114
 11
87.3093
 21
-113.978
  0
LINE
  8
0
 10
118.95
 20
-108.6
 11
118.95
 21
-104.4
  0
LINE
  8
0
 10
118.95
 20
-104.4
 11
126.304
 21
-104.4
  0
LINE
  8
0
 10
126.304
 20
-104.4
 11
138.614
 21
-92.5583
  0
LINE
  8
0
 10
138.614
 20
-92.5583
 11
138.707
 21
-92.4742
  0
LINE
  8
0
 10
138.707
 20
-92.4742
 11
138.805
 21
-92.396
  0
LINE
  8
0
 10
138.805
 20
-92.396
 11
138.908
 21
-92.3241
  0
LINE
  8
0
 10
138.908
 20
-92.3241
 11
139.016
 21
-92.2589
  0
LINE
  8
0
 10
139.016
 20
-92.2589
 11
139.127
 21
-92.2005
  0
LINE
  8
0
 10
139.127
 20
-92.2005
 11
139.242
 21
-92.1493
  0
LINE
  8
0
 10
139.242
 20
-92.1493
 11
139.36
 21
-92.1053
  0
LINE
  8
0
 10
139.36
 20
-92.1053
 11
139.48
 21
-92.0688
  0
LINE
  8
0
 10
139.48
 20
-92.0688
 11
139.602
 21
-92.04
  0
LINE
  8
0
 10
139.602
 20
-92.04
 11
139.726
 21
-92.0189
  0
LINE
  8
0
 10
139.726
 20
-92.0189
 11
139.851
 21
-92.0056
  0
LINE
  8
0
 10
139.851
 20
-92.0056
 11
139.976
 21
-92.0002
  0
LINE
  8
0
 10
139.976
 20
-92.0002
 11
140.102
 21
-92.0026
  0
LINE
  8
0
 10
140.102
 20
-92.0026
 11
140.227
 21
-92.013
  0
LINE
  8
0
 10
140.227
 20
-92.013
 11
140.352
 21
-92.0311
  0
LINE
  8
0
 10
140.352
 20
-92.0311
 11
140.474
 21
-92.0571
  0
LINE
  8
0
 10
140.474
 20
-92.0571
 11
140.596
 21
-92.0907
  0
LINE
  8
0
 10
140.596
 20
-92.0907
 11
140.714
 21
-92.1319
  0
LINE
  8
0
 10
140.714
 20
-92.1319
 11
140.83
 21
-92.1804
  0
LINE
  8
0
 10
140.83
 20
-92.1804
 11
140.943
 21
-92.2361
  0
LINE
  8
0
 10
140.943
 20
-92.2361
 11
141.052
 21
-92.2988
  0
LINE
  8
0
 10
141.052
 20
-92.2988
 11
141.156
 21
-92.3682
  0
LINE
  8
0
 10
141.156
 20
-92.3682
 11
141.257
 21
-92.444
  0
LINE
  8
0
 10
141.257
 20
-92.444
 11
141.352
 21
-92.526
  0
LINE
  8
0
 10
141.352
 20
-92.526
 11
141.442
 21
-92.6138
  0
LINE
  8
0
 10
141.442
 20
-92.6138
 11
141.526
 21
-92.707
  0
LINE
  8
0
 10
141.526
 20
-92.707
 11
141.604
 21
-92.8054
  0
LINE
  8
0
 10
141.604
 20
-92.8054
 11
141.676
 21
-92.9085
  0
LINE
  8
0
 10
141.676
 20
-92.9085
 11
141.741
 21
-93.0159
  0
LINE
  8
0
 10
141.741
 20
-93.0159
 11
141.799
 21
-93.1271
  0
LINE
  8
0
 10
141.799
 20
-93.1271
 11
141.851
 21
-93.2419
  0
LINE
  8
0
 10
141.851
 20
-93.2419
 11
141.895
 21
-93.3596
  0
LINE
  8
0
 10
141.895
 20
-93.3596
 11
141.931
 21
-93.4798
  0
LINE
  8
0
 10
141.931
 20
-93.4798
 11
141.96
 21
-93.6021
  0
LINE
  8
0
 10
141.96
 20
-93.6021
 11
141.981
 21
-93.7259
  0
LINE
  8
0
 10
141.981
 20
-93.7259
 11
141.994
 21
-93.8509
  0
LINE
  8
0
 10
141.994
 20
-93.8509
 11
142
 21
-93.9764
  0
LINE
  8
0
 10
142
 20
-93.9764
 11
141.997
 21
-94.102
  0
LINE
  8
0
 10
141.997
 20
-94.102
 11
141.987
 21
-94.2272
  0
LINE
  8
0
 10
141.987
 20
-94.2272
 11
141.969
 21
-94.3515
  0
LINE
  8
0
 10
141.969
 20
-94.3515
 11
141.943
 21
-94.4745
  0
LINE
  8
0
 10
141.943
 20
-94.4745
 11
141.909
 21
-94.5955
  0
LINE
  8
0
 10
141.909
 20
-94.5955
 11
141.868
 21
-94.7142
  0
LINE
  8
0
 10
141.868
 20
-94.7142
 11
141.82
 21
-94.8301
  0
LINE
  8
0
 10
141.82
 20
-94.8301
 11
141.764
 21
-94.9427
  0
LINE
  8
0
 10
141.764
 20
-94.9427
 11
141.701
 21
-95.0516
  0
LINE
  8
0
 10
141.701
 20
-95.0516
 11
141.632
 21
-95.1564
  0
LINE
  8
0
 10
141.632
 20
-95.1564
 11
141.556
 21
-95.2565
  0
LINE
  8
0
 10
141.556
 20
-95.2565
 11
141.474
 21
-95.3518
  0
LINE
  8
0
 10
141.474
 20
-95.3518
 11
131.05
 21
-105.379
  0
LINE
  8
0
 10
131.05
 20
-105.379
 11
131.05
 21
-108.6
  0
LINE
  8
0
 10
131.05
 20
-108.6
 11
118.95
 21
-108.6
  0
LINE
  8
0
 10
85
 20
-123
 11
85
 21
-117
  0
LINE
  8
0
 10
85
 20
-117
 11
115
 21
-117
  0
LINE
  8
0
 10
115
 20
-117
 11
115
 21
-123
  0
LINE
  8
0
 10
115
 20
-123
 11
85
 21
-123
  0
LINE
  8
0
 10
135
 20
-123
 11
135
 21
-117
  0
LINE
  8
0
 10
135
 20
-117
 11
165
 21
-117
  0
LINE
  8
0
 10
165
 20
-117
 11
165
 21
-123
  0
LINE
  8
0
 10
165
 20
-123
 11
135
 21
-123
  0
ENDSEC
  0
SECTION
  2
OBJECTS
  0
DICTIONARY
  0
ENDSEC
  0
EOF
