0
SECTION
2
HEADER
9
$INSUNITS
70
4
9
$ACADVER
1
AC1014
9
$HANDSEED
5
FFFF
0
ENDSEC
0
SECTION
2
TABLES
0
TABLE
2
VPORT
5
8
100
AcDbSymbolTable
0
ENDTAB
0
TABLE
2
LTYPE
5
5
100
AcDbSymbolTable
0
LTYPE
5
14
100
AcDbSymbolTableRecord
100
AcDbLinetypeTableRecord
2
BYBLOCK
70
0
0
LTYPE
5
15
100
AcDbSymbolTableRecord
100
AcDbLinetypeTableRecord
2
BYLAYER
70
0
0
ENDTAB
0
TABLE
2
LAYER
5
2
100
AcDbSymbolTable
70
2
0
LAYER
5
50
100
AcDbSymbolTableRecord
100
AcDbLayerTableRecord
2
0
70
0
6
CONTINUOUS
0
ENDTAB
0
TABLE
2
STYLE
5
3
100
AcDbSymbolTable
70
1
0
STYLE
5
11
100
AcDbSymbolTableRecord
100
AcDbTextStyleTableRecord
2
STANDARD
70
0
0
ENDTAB
0
TABLE
2
VIEW
5
6
100
AcDbSymbolTable
70
0
0
ENDTAB
0
TABLE
2
UCS
5
7
100
AcDbSymbolTable
70
0
0
ENDTAB
0
TABLE
2
APPID
5
9
100
AcDbSymbolTable
70
2
0
APPID
5
12
100
AcDbSymbolTableRecord
100
AcDbRegAppTableRecord
2
ACAD
70
0
0
ENDTAB
0
TABLE
2
DIMSTYLE
5
A
100
AcDbSymbolTable
70
1
0
ENDTAB
0
TABLE
2
BLOCK_RECORD
5
1
100
AcDbSymbolTable
70
1
0
BLOCK_RECORD
5
1F
100
AcDbSymbolTableRecord
100
AcDbBlockTableRecord
2
*MODEL_SPACE
0
BLOCK_RECORD
5
1B
100
AcDbSymbolTableRecord
100
AcDbBlockTableRecord
2
*PAPER_SPACE
0
ENDTAB
0
ENDSEC
0
SECTION
2
BLOCKS
0
BLOCK
5
20
100
AcDbEntity
100
AcDbBlockBegin
2
*MODEL_SPACE
0
ENDBLK
5
21
100
AcDbEntity
100
AcDbBlockEnd
0
BLOCK
5
1C
100
AcDbEntity
100
AcDbBlockBegin
2
*PAPER_SPACE
0
ENDBLK
5
1D
100
AcDbEntity
100
AcDbBlockEnd
0
ENDSEC
0
SECTION
2
ENTITIES
0
LINE
5
100
100
AcDbEntity
8
0
100
AcDbLine
10
4800
20
1800
30
0
11
3000
21
1800
31
0
0
LINE
5
101
100
AcDbEntity
8
0
100
AcDbLine
10
3000
20
1800
30
0
11
3000
21
900
31
0
0
LINE
5
102
100
AcDbEntity
8
0
100
AcDbLine
10
3000
20
1800
30
0
11
3100
21
1800
31
0
0
LINE
5
103
100
AcDbEntity
8
0
100
AcDbLine
10
3000
20
0
30
0
11
4800
21
-5.679798517591285e-27
31
0
0
LINE
5
104
100
AcDbEntity
8
0
100
AcDbLine
10
4800
20
1800
30
0
11
3000
21
1800
31
0
0
LINE
5
105
100
AcDbEntity
8
0
100
AcDbLine
10
3100
20
1800
30
0
11
3100
21
0
31
0
0
LINE
5
106
100
AcDbEntity
8
0
100
AcDbLine
10
3200
20
1800
30
0
11
3200
21
0
31
0
0
LINE
5
107
100
AcDbEntity
8
0
100
AcDbLine
10
3300
20
1800
30
0
11
3300
21
0
31
0
0
LINE
5
108
100
AcDbEntity
8
0
100
AcDbLine
10
3400
20
1800
30
0
11
3400
21
0
31
0
0
LINE
5
109
100
AcDbEntity
8
0
100
AcDbLine
10
3500
20
1800
30
0
11
3500
21
0
31
0
0
LINE
5
110
100
AcDbEntity
8
0
100
AcDbLine
10
3600
20
1800
30
0
11
3600
21
0
31
0
0
LINE
5
111
100
AcDbEntity
8
0
100
AcDbLine
10
3700
20
1800
30
0
11
3700
21
0
31
0
0
LINE
5
112
100
AcDbEntity
8
0
100
AcDbLine
10
3800
20
1800
30
0
11
3800
21
0
31
0
0
LINE
5
113
100
AcDbEntity
8
0
100
AcDbLine
10
3900
20
1800
30
0
11
3900
21
0
31
0
0
LINE
5
114
100
AcDbEntity
8
0
100
AcDbLine
10
4000
20
1800
30
0
11
4000
21
0
31
0
0
LINE
5
115
100
AcDbEntity
8
0
100
AcDbLine
10
4100
20
1800
30
0
11
4100
21
0
31
0
0
LINE
5
116
100
AcDbEntity
8
0
100
AcDbLine
10
4200
20
1800
30
0
11
4200
21
0
31
0
0
LINE
5
117
100
AcDbEntity
8
0
100
AcDbLine
10
4300
20
1800
30
0
11
4300
21
0
31
0
0
LINE
5
118
100
AcDbEntity
8
0
100
AcDbLine
10
4400
20
1800
30
0
11
4400
21
0
31
0
0
LINE
5
119
100
AcDbEntity
8
0
100
AcDbLine
10
4500
20
1800
30
0
11
4500
21
0
31
0
0
LINE
5
120
100
AcDbEntity
8
0
100
AcDbLine
10
4600
20
1800
30
0
11
4600
21
0
31
0
0
LINE
5
121
100
AcDbEntity
8
0
100
AcDbLine
10
4700
20
1800
30
0
11
4700
21
0
31
0
0
LINE
5
122
100
AcDbEntity
8
0
100
AcDbLine
10
4800
20
1700
30
0
11
3000
21
1700
31
0
0
LINE
5
123
100
AcDbEntity
8
0
100
AcDbLine
10
4800
20
1600
30
0
11
3000
21
1600
31
0
0
LINE
5
124
100
AcDbEntity
8
0
100
AcDbLine
10
4800
20
1500
30
0
11
3000
21
1500
31
0
0
LINE
5
125
100
AcDbEntity
8
0
100
AcDbLine
10
4800
20
1400
30
0
11
3000
21
1400
31
0
0
LINE
5
126
100
AcDbEntity
8
0
100
AcDbLine
10
4800
20
1300
30
0
11
3000
21
1300
31
0
0
LINE
5
127
100
AcDbEntity
8
0
100
AcDbLine
10
4800
20
1200
30
0
11
3000
21
1200
31
0
0
LINE
5
128
100
AcDbEntity
8
0
100
AcDbLine
10
4800
20
1100
30
0
11
3000
21
1100
31
0
0
LINE
5
129
100
AcDbEntity
8
0
100
AcDbLine
10
4800
20
1000
30
0
11
3000
21
1000
31
0
0
LINE
5
130
100
AcDbEntity
8
0
100
AcDbLine
10
4800
20
900
30
0
11
3000
21
900
31
0
0
LINE
5
131
100
AcDbEntity
8
0
100
AcDbLine
10
4800
20
800
30
0
11
3000
21
800
31
0
0
LINE
5
132
100
AcDbEntity
8
0
100
AcDbLine
10
4800
20
700
30
0
11
3000
21
700
31
0
0
LINE
5
133
100
AcDbEntity
8
0
100
AcDbLine
10
4800
20
600
30
0
11
3000
21
600
31
0
0
LINE
5
134
100
AcDbEntity
8
0
100
AcDbLine
10
4800
20
500
30
0
11
3000
21
500
31
0
0
LINE
5
135
100
AcDbEntity
8
0
100
AcDbLine
10
4800
20
400
30
0
11
3000
21
400
31
0
0
LINE
5
136
100
AcDbEntity
8
0
100
AcDbLine
10
4800
20
300
30
0
11
3000
21
300
31
0
0
LINE
5
137
100
AcDbEntity
8
0
100
AcDbLine
10
4800
20
200
30
0
11
3000
21
200
31
0
0
LINE
5
138
100
AcDbEntity
8
0
100
AcDbLine
10
4800
20
100
30
0
11
3000
21
100
31
0
0
LINE
5
139
100
AcDbEntity
8
0
100
AcDbLine
10
4800
20
1800
30
0
11
4800
21
-5.679798517591285e-27
31
0
0
LINE
5
140
100
AcDbEntity
8
0
100
AcDbLine
10
3000
20
1800
30
0
11
3000
21
0
31
0
0
LINE
5
141
100
AcDbEntity
8
0
100
AcDbLine
10
3322.0219206862471
20
792.19878913846571
30
0
11
3324.3692897738556
21
761.53025138577982
31
0
0
LINE
5
142
100
AcDbEntity
8
0
100
AcDbLine
10
3324.3692897738556
20
761.53025138577982
30
0
11
3336.3342932602563
21
762.44605243972899
31
0
0
LINE
5
143
100
AcDbEntity
8
0
100
AcDbLine
10
3322.0219206862471
20
792.19878913846571
30
0
11
3314.5172298002253
21
890.24808944779215
31
0
0
LINE
5
144
100
AcDbEntity
8
0
100
AcDbLine
10
3326.4131151758079
20
892.06692354240556
30
0
11
3336.3342932602563
21
762.44605243972899
31
0
0
SPLINE
5
145
100
AcDbEntity
8
0
100
AcDbSpline
70
1064
71
3
72
10
73
6
74
0
42
0.000000001
43
0.0000000001
44
0.0000000001
40
-15.301480152758646
40
-15.301480152758646
40
-15.301480152758646
40
-15.301480152758646
40
-8.8498403082656232
40
-4.8185696412742569
40
-4.0088415240084068
40
-4.0088415240084068
40
-4.0088415240084068
40
-4.0088415240084068
10
3440.6833257108538
20
884.13631914167149
30
0
10
3419.1069980311604
20
888.23381948214524
30
0
10
3384.0488240343975
20
894.89161973530543
30
0
10
3345.4526511817958
20
894.36321887370013
30
0
10
3329.1368269226668
20
892.43000674283792
30
0
10
3326.4131151758079
20
892.06692354240545
30
0
0
SPLINE
5
146
100
AcDbEntity
8
0
100
AcDbSpline
70
1064
71
3
72
16
73
12
74
0
42
0.000000001
43
0.0000000001
44
0.0000000001
40
-30.537942375367358
40
-30.537942375367358
40
-30.537942375367358
40
-30.537942375367358
40
-26.871139365222138
40
-23.819054103668492
40
-20.828481161229369
40
-17.042106860329604
40
-13.205275642993492
40
-11.443728686227093
40
-9.1955793613927597
40
-4.4127458813951703
40
0
40
0
40
0
40
0
10
3739.1810232450198
20
858.16709669964416
30
0
10
3727.1584681280801
20
854.81945694334036
30
0
10
3705.1288678611545
20
848.68538935523452
30
0
10
3675.2342989517902
20
834.7074721540057
30
0
10
3642.1259431103554
20
827.06868574035695
30
0
10
3606.0375834945708
20
833.15928237970274
30
0
10
3575.0959108774905
20
840.36492869943743
30
0
10
3549.686311162593
20
848.50074383468893
30
0
10
3520.5547667814444
20
855.04707907176623
30
0
10
3482.9464926260707
20
865.30556171793535
30
0
10
3454.3879228903393
20
878.03010505708528
30
0
10
3440.6833257108538
20
884.13631914167183
30
0
0
SPLINE
5
147
100
AcDbEntity
8
0
100
AcDbSpline
70
1064
71
3
72
16
73
12
74
0
42
0.000000001
43
0.0000000001
44
0.0000000001
40
-75.466496173244963
40
-75.466496173244963
40
-75.466496173244963
40
-75.466496173244963
40
-67.644003571442283
40
-56.789654003601733
40
-48.005137274389476
40
-39.643101103371578
40
-29.424716014116722
40
-21.478215567876866
40
-14.99194889297118
40
-7.375619713487926
40
0
40
0
40
0
40
0
10
4502.0893828844792
20
891.78993260893321
30
0
10
4475.5398378188429
20
892.97235581312975
30
0
10
4412.1506231390576
20
895.79548811719974
30
0
10
4318.9564392016327
20
891.64638488151945
30
0
10
4223.8512311361828
20
886.36125756309616
30
0
10
4132.7234830243215
20
866.85396612034856
30
0
10
4044.5992308680975
20
850.31710384585665
30
0
10
3961.3275712827267
20
834.36638936580096
30
0
10
3886.8617336602051
20
847.04709127812271
30
0
10
3815.4197122759442
20
863.3910272740909
30
0
10
3764.320437708896
20
859.88966771327057
30
0
10
3739.1810232450198
20
858.16709669964416
30
0
0
SPLINE
5
148
100
AcDbEntity
8
0
100
AcDbSpline
70
1064
71
3
72
19
73
15
74
0
42
0.000000001
43
0.0000000001
44
0.0000000001
40
-35.852243421306632
40
-35.852243421306632
40
-35.852243421306632
40
-35.852243421306632
40
-34.579108813462668
40
-33.695793233828198
40
-33.362417307605227
40
-29.92684391275467
40
-26.858552908583111
40
-23.769633963598491
40
-19.749728563854614
40
-15.682966152793451
40
-11.665605292944051
40
-8.0464937193700798
40
-4.2801874105913846
40
0
40
0
40
0
40
0
10
4772.6742935387247
20
780.41564169830281
30
0
10
4776.4635381413773
20
778.23840120864816
30
0
10
4782.8818046651559
20
774.55056597647797
30
0
10
4789.3990424990607
20
769.69764245777151
30
0
10
4801.7924842408138
20
757.32961502123374
30
0
10
4782.377453951739
20
807.08346030730218
30
0
10
4763.1944757126912
20
821.37489581445607
30
0
10
4733.564580308428
20
843.49827560989354
30
0
10
4700.608777415523
20
861.04689031865496
30
0
10
4660.5150870336629
20
872.9591904542707
30
0
10
4620.6837984123022
20
873.6226218866816
30
0
10
4581.8513098970425
20
874.73138538764147
30
0
10
4543.2669360581331
20
884.3860221880002
30
0
10
4516.38744436872
20
889.21907644426801
30
0
10
4502.0893828844773
20
891.78993260893321
30
0
0
SPLINE
5
149
100
AcDbEntity
8
0
100
AcDbSpline
70
1064
71
3
72
10
73
6
74
0
42
0.000000001
43
0.0000000001
44
0.0000000001
40
-3.6374699703257201
40
-3.6374699703257201
40
-3.6374699703257201
40
-3.6374699703257201
40
-2.0830745074624195
40
-1.026333981351585
40
0
40
0
40
0
40
0
10
4772.2608368371812
20
744.37056009000742
30
0
10
4773.9271958680829
20
749.4100572947923
30
0
10
4776.7264127598537
20
757.87560729936354
30
0
10
4776.5126021933593
20
770.51385427036223
30
0
10
4773.9412182986398
20
777.14732203236792
30
0
10
4772.6742935387247
20
780.41564169830281
30
0
0
SPLINE
5
150
100
AcDbEntity
8
0
100
AcDbSpline
70
1064
71
3
72
13
73
9
74
0
42
0.000000001
43
0.0000000001
44
0.0000000001
40
-6.2907377458260685
40
-6.2907377458260685
40
-6.2907377458260685
40
-6.2907377458260685
40
-4.7393860571042596
40
-3.5424138550005528
40
-3.0598962061741082
40
-2.6141768423127161
40
-1.5017890438786703
40
0
40
0
40
0
40
0
10
4754.2832664493326
20
736.4378641138851
30
0
10
4754.6019334448656
20
741.95684357128187
30
0
10
4755.1664734672286
20
751.73408699455479
30
0
10
4755.8226342396219
20
760.34280723534607
30
0
10
4752.8227608337893
20
771.34374058711558
30
0
10
4759.9844822436962
20
763.4843342920019
30
0
10
4765.853026675295
20
757.70591973205251
30
0
10
4769.9228244817677
20
749.23622165289714
30
0
10
4772.2608368371802
20
744.37056009000776
30
0
0
SPLINE
5
151
100
AcDbEntity
8
0
100
AcDbSpline
70
1064
71
3
72
11
73
7
74
0
42
0.000000001
43
0.0000000001
44
0.0000000001
40
-4.100889769164386
40
-4.100889769164386
40
-4.100889769164386
40
-4.100889769164386
40
-3.5019160506844766
40
-2.9237620474604151
40
-1.5696031571314566
40
0
40
0
40
0
40
0
10
4726.6874599801267
20
755.85657981630879
30
0
10
4725.5581512849967
20
757.53208659233792
30
0
10
4724.7349764986193
20
759.43540758959125
30
0
10
4734.0703253424444
20
752.71712303311006
30
0
10
4742.6384770747973
20
747.01796340876001
30
0
10
4750.2155583209751
20
740.13365924734762
30
0
10
4754.2832664493335
20
736.4378641138851
30
0
0
SPLINE
5
152
100
AcDbEntity
8
0
100
AcDbSpline
70
1064
71
5
72
19
73
13
74
0
42
0.000000001
43
0.0000000001
44
0.0000000001
40
-0.7696891399046536
40
-0.7696891399046536
40
-0.7696891399046536
40
-0.7696891399046536
40
-0.7696891399046536
40
-0.7696891399046536
40
-0.69999999999999996
40
-0.59999999999999998
40
-0.5
40
-0.40000000000000002
40
-0.30000000000000004
40
-0.20000000000000001
40
-0.10000000000000001
40
0
40
0
40
0
40
0
40
0
40
0
10
4631.2113000353493
20
420.0209030935813
30
0
10
4636.8859741318729
20
423.03360823041464
30
0
10
4650.4773665910552
20
430.84640750429719
30
0
10
4671.1690756271864
20
445.12574641936516
30
0
10
4697.3336974858667
20
468.82614807875092
30
0
10
4725.8635666864793
20
506.04266812413721
30
0
10
4749.2321366928854
20
552.76423063099651
30
0
10
4763.610489701292
20
604.13240751396222
30
0
10
4766.7548959374253
20
657.15783667388087
30
0
10
4758.4837988864538
20
698.53698304736383
30
0
10
4745.375169495861
20
727.947438472047
30
0
10
4733.4480628181655
20
746.6965219525224
30
0
10
4726.6874599801267
20
755.85657981630879
30
0
0
LINE
5
153
100
AcDbEntity
8
0
100
AcDbLine
10
4588.4281560506151
20
616.23678967521937
30
0
11
4631.2113000353493
21
420.0209030935813
31
0
0
LINE
5
154
100
AcDbEntity
8
0
100
AcDbLine
10
4576.7036236101058
20
613.68035875469195
30
0
11
4588.4281560506151
21
616.23678967521937
31
0
0
LINE
5
155
100
AcDbEntity
8
0
100
AcDbLine
10
4620.1327356144802
20
414.50187578878047
30
0
11
4576.7036236101058
21
613.68035875469195
31
0
0
SPLINE
5
156
100
AcDbEntity
8
0
100
AcDbSpline
70
1064
71
5
72
14
73
8
74
0
42
0.000000001
43
0.0000000001
44
0.0000000001
40
-0.99999999999999933
40
-0.99999999999999933
40
-0.99999999999999933
40
-0.99999999999999933
40
-0.99999999999999933
40
-0.99999999999999933
40
-0.89999999999999958
40
-0.79999999999999993
40
-0.79656538243300956
40
-0.79656538243300956
40
-0.79656538243300956
40
-0.79656538243300956
40
-0.79656538243300956
40
-0.79656538243300956
10
4528.2064353263322
20
390.96664405337316
30
0
10
4537.9055109316578
20
391.73891336137137
30
0
10
4556.9854657509013
20
394.03091619494438
30
0
10
4575.7457833758726
20
397.88290393634674
30
0
10
4593.836761325847
20
403.30698031971502
30
0
10
4611.2090606782476
20
410.35700887200954
30
0
10
4619.8461512452304
20
414.36821039584225
30
0
10
4620.1327356144793
20
414.50187578878035
30
0
0
ELLIPSE
5
157
100
AcDbEntity
8
0
100
AcDbEllipse
10
4489.1450054601419
20
525.0792208807901
30
0
11
183.83545692242026
21
12.936411558931798
31
0.0
40
0.75052040941039222
41
4.8250199636236584
42
4.8734342464704827
0
SPLINE
5
158
100
AcDbEntity
8
0
100
AcDbSpline
70
1064
71
3
72
19
73
15
74
0
42
0.000000001
43
0.0000000001
44
0.0000000001
40
-120.75418091119644
40
-120.75418091119644
40
-120.75418091119644
40
-120.75418091119644
40
-114.09814874100491
40
-107.38705886878824
40
-100.53706447830851
40
-93.237496592884469
40
-85.48983259925663
40
-80.269397017669888
40
-74.316417102276162
40
-69.425127445086247
40
-65.528609670132582
40
-60.286852090267885
40
-53.767248191993311
40
-51.473108468619216
40
-51.473108468619216
40
-51.473108468619216
40
-51.473108468619216
10
3825.7587068067237
20
333.43023961476439
30
0
10
3847.9707695187226
20
337.91518991564749
30
0
10
3892.5786298014
20
346.9221893551221
30
0
10
3956.0960517457902
20
373.5798002056942
30
0
10
4027.3848729836845
20
384.35443425316299
30
0
10
4101.1904297166693
20
370.63858349376608
30
0
10
4168.1475234447034
20
357.35265419831683
30
0
10
4233.4800042260104
20
351.12957350649714
30
0
10
4284.9240620725168
20
372.69880885878683
30
0
10
4333.9092620353958
20
382.29546157065721
30
0
10
4380.7574875497685
20
392.33713882601103
30
0
10
4434.1939468229075
20
388.67552714121251
30
0
10
4481.8343222843641
20
385.02548793836235
30
0
10
4511.72360722746
20
388.22764308647902
30
0
10
4519.454346714163
20
389.43513584171291
30
0
0
SPLINE
5
159
100
AcDbEntity
8
0
100
AcDbSpline
70
1064
71
3
72
9
73
5
74
0
42
0.000000001
43
0.0000000001
44
0.0000000001
40
-5.0878650875459055
40
-5.0878650875459055
40
-5.0878650875459055
40
-5.0878650875459055
40
-3.7786197917129787
40
0
40
0
40
0
40
0
10
3774.0555715676674
20
335.92130560569268
30
0
10
3778.4477240575275
20
335.22371108220023
30
0
10
3795.5724595296488
20
332.9978273868357
30
0
10
3812.8942680858599
20
333.24595898665984
30
0
10
3825.7587068067237
20
333.43023961476439
30
0
0
LINE
5
160
100
AcDbEntity
8
0
100
AcDbLine
10
3781.3002274668702
20
544.20129524852302
30
0
11
3774.0555715676674
21
335.92130560569268
31
0
0
LINE
5
161
100
AcDbEntity
8
0
100
AcDbLine
10
3769.3074801352041
20
544.61844203181715
30
0
11
3781.3002274668702
21
544.20129524852302
31
0
0
LINE
5
162
100
AcDbEntity
8
0
100
AcDbLine
10
3762.1241631987687
20
338.1019148236129
30
0
11
3769.3074801352041
21
544.61844203181715
31
0
0
SPLINE
5
163
100
AcDbEntity
8
0
100
AcDbSpline
70
1064
71
3
72
9
73
5
74
0
42
0.000000001
43
0.0000000001
44
0.0000000001
40
-10.972680284554286
40
-10.972680284554286
40
-10.972680284554286
40
-10.972680284554286
40
-7.5325742806759379
40
-6.2770749132864871
40
-6.2770749132864871
40
-6.2770749132864871
40
-6.2770749132864871
10
3715.6958532583585
20
349.699452705787
30
0
10
3726.9618735090298
20
346.64025038830721
30
0
10
3742.3395348782492
20
342.46456312240389
30
0
10
3757.9387335937117
20
338.9574445549635
30
0
10
3762.1241631987687
20
338.10191482361284
30
0
0
SPLINE
5
164
100
AcDbEntity
8
0
100
AcDbSpline
70
1064
71
3
72
40
73
36
74
0
42
0.000000001
43
0.0000000001
44
0.0000000001
40
-69.250285980216077
40
-69.250285980216077
40
-69.250285980216077
40
-69.250285980216077
40
-66.693792791725059
40
-64.740763952967924
40
-61.501304414975664
40
-60.058435658753545
40
-58.456382186664364
40
-57.220289179716659
40
-55.761091763397332
40
-53.682622349805698
40
-52.500585267845068
40
-50.701664204276959
40
-48.499990649975139
40
-46.876202358328108
40
-45.571647129991653
40
-43.526779636257643
40
-42.109246735431348
40
-40.551819304700466
40
-38.678917183260047
40
-37.09209957754917
40
-35.701777609171351
40
-33.844830544606232
40
-32.606278874707073
40
-31.114197263894528
40
-29.560608236363421
40
-28.1492380253185
40
-26.876993290257666
40
-25.12447166017602
40
-22.898454004173058
40
-19.111081434877814
40
-14.407175569525288
40
-10.859530079383264
40
-6.3616995158726839
40
-3.267902819257658
40
-1.4210854715202004e-14
40
-1.4210854715202004e-14
40
-1.4210854715202004e-14
40
-1.4210854715202004e-14
10
3296.9161791726174
20
583.60046066411235
30
0
10
3300.3104874181272
20
575.35172353965334
30
0
10
3306.2978719608695
20
560.80137702311015
30
0
10
3300.1748230359754
20
534.15867007461452
30
0
10
3289.1330465034762
20
514.74911950956266
30
0
10
3280.5076493998404
20
494.86953288820638
30
0
10
3275.9331055183384
20
482.00458425906413
30
0
10
3275.2847132398415
20
463.89530577138379
30
0
10
3296.3682383657915
20
464.6445232215155
30
0
10
3309.323201374048
20
470.80384744969501
30
0
10
3329.8717084442924
20
464.61554839811976
30
0
10
3320.7445479804055
20
442.88073010808199
30
0
10
3320.3528626689058
20
427.44385062138895
30
0
10
3319.2189719509697
20
403.72364660898478
30
0
10
3340.8055675930673
20
408.27389521892366
30
0
10
3351.4236441936609
20
417.16109902063545
30
0
10
3371.9666384718375
20
423.26644577298504
30
0
10
3377.3932105893155
20
403.09498146253139
30
0
10
3379.5737310808368
20
388.6300621241781
30
0
10
3383.8318024115542
20
368.75154726610157
30
0
10
3404.1673341177457
20
371.24513122541293
30
0
10
3413.8017977024879
20
382.5447052485959
30
0
10
3432.8128638683797
20
384.07653549089326
30
0
10
3436.9037993487332
20
367.08729897993146
30
0
10
3442.6162380023898
20
354.3670193941262
30
0
10
3452.5762394598128
20
341.18574330786737
30
0
10
3469.5279596589035
20
345.28270498090285
30
0
10
3480.7391052484472
20
359.64814875058772
30
0
10
3506.9229890586721
20
367.51047750217646
30
0
10
3540.4843188386885
20
380.64415121848691
30
0
10
3576.1530412960119
20
401.09163135331306
30
0
10
3622.4687911121509
20
404.37924494082802
30
0
10
3652.185635044279
20
377.5725674210546
30
0
10
3684.7439925098515
20
360.49381084155931
30
0
10
3705.1920266743355
20
353.36262717097532
30
0
10
3715.6958532583594
20
349.69945270578683
30
0
0
SPLINE
5
165
100
AcDbEntity
8
0
100
AcDbSpline
70
1064
71
3
72
10
73
6
74
0
42
0.000000001
43
0.0000000001
44
0.0000000001
40
-7.1856817354327092
40
-7.1856817354327092
40
-7.1856817354327092
40
-7.1856817354327092
40
-4.7349117869648794
40
-2.3663536830814165
40
0
40
0
40
0
40
0
10
3252.1223873850699
20
635.90736210884029
30
0
10
3260.5384354263947
20
633.67466781268308
30
0
10
3277.0882125447447
20
629.28417564897688
30
0
10
3289.1132931951706
20
606.1063810968916
30
0
10
3294.3160245875952
20
591.10010533052946
30
0
10
3296.9161791726174
20
583.60046066411235
30
0
0
SPLINE
5
166
100
AcDbEntity
8
0
100
AcDbSpline
70
1064
71
3
72
43
73
39
74
0
42
0.000000001
43
0.0000000001
44
0.0000000001
40
-62.274540864341034
40
-62.274540864341034
40
-62.274540864341034
40
-62.274540864341034
40
-60.664177282592803
40
-59.561683487891898
40
-59.1524181168122
40
-58.042035264159566
40
-56.805031257597747
40
-55.640076129650737
40
-53.870540072385452
40
-52.143626077042022
40
-50.356663661365076
40
-47.058503913950467
40
-43.431293018652269
40
-40.086236156058156
40
-36.634871093509709
40
-33.610974373233553
40
-30.619156049232409
40
-30.357439434068226
40
-30.093997064336254
40
-29.83165559637893
40
-29.023230055523136
40
-28.212260801602255
40
-27.394894440287434
40
-26.090187350151893
40
-24.845566971399798
40
-23.53646548462881
40
-22.643139284416929
40
-21.670109285907117
40
-21.211493185900814
40
-20.681267491033985
40
-19.500670578745538
40
-18.199740131734263
40
-15.430518754370404
40
-12.458286110140655
40
-9.567976164093178
40
-6.3937297765214698
40
-3.2074446714886591
40
0
40
0
40
0
40
0
10
3286.2212965164213
20
884.72681762661205
30
0
10
3280.8671510581576
20
883.60570803457699
30
0
10
3271.8474283286723
20
881.71705974357621
30
0
10
3261.4450892822133
20
879.74305989521758
30
0
10
3252.4731360222831
20
879.18764295272217
30
0
10
3244.4449066335837
20
872.93113564323278
30
0
10
3232.0741267124422
20
875.15302302081614
30
0
10
3217.9263332908495
20
871.26359884512476
30
0
10
3207.0558233770043
20
858.91350186987893
30
0
10
3196.7226131105144
20
844.48835031425858
30
0
10
3181.2699327802379
20
826.90155874118886
30
0
10
3154.2297171928994
20
813.41112287181147
30
0
10
3121.5700153080634
20
801.67405066766514
30
0
10
3089.0773731241593
20
787.34940120965325
30
0
10
3060.4059072936743
20
770.25048925134911
30
0
10
3032.9237044456818
20
753.63217627102074
30
0
10
3016.310111811626
20
739.8614446180361
30
0
10
3008.7399662369357
20
730.59305664929775
30
0
10
3007.4445766304971
20
728.23553921587063
30
0
10
3005.8561773475785
20
723.98614016226759
30
0
10
3004.3500129483355
20
717.75530976053096
30
0
10
3003.331732681831
20
709.5107406947659
30
0
10
3003.9600826795258
20
699.52752376689489
30
0
10
3007.233575745558
20
688.35287359413996
30
0
10
3014.8372635588203
20
677.52481714786677
30
0
10
3023.8870957564141
20
669.66104037908144
30
0
10
3034.2866577991231
20
666.23246144152233
30
0
10
3041.5303687628534
20
663.77340092649752
30
0
10
3048.9577287239099
20
663.7878856797073
30
0
10
3051.7670871016703
20
655.91207992160071
30
0
10
3058.9535752827419
20
648.90056175245354
30
0
10
3074.1246009011597
20
638.45593914631922
30
0
10
3099.7770060797757
20
641.10548751673241
30
0
10
3127.1116802286765
20
649.95601109717654
30
0
10
3157.6000214099963
20
656.60241401134101
30
0
10
3189.0980127468852
20
651.9414223047454
30
0
10
3220.4283975736744
20
643.61871731851181
30
0
10
3241.534441161486
20
638.48347874031572
30
0
10
3252.1223873850699
20
635.90736210884029
30
0
0
SPLINE
5
167
100
AcDbEntity
8
0
100
AcDbSpline
70
1064
71
3
72
8
73
4
74
0
42
0.000000001
43
0.0000000001
44
0.0000000001
40
-2.8269498132830493
40
-2.8269498132830493
40
-2.8269498132830493
40
-2.8269498132830493
40
-1.4210854715202004e-14
40
-1.4210854715202004e-14
40
-1.4210854715202004e-14
40
-1.4210854715202004e-14
10
3314.5172298001939
20
890.24808944778692
30
0
10
3305.0545992360476
20
888.63529608427484
30
0
10
3295.6379478762342
20
886.68105685544333
30
0
10
3286.2212965164213
20
884.72681762661205
30
0
0
LINE
5
168
100
AcDbEntity
8
0
100
AcDbLine
10
3166.0650317618738
20
414.22775322832388
30
0
11
3166.0650317618738
21
426.22775324278081
31
0
0
LINE
5
169
100
AcDbEntity
8
0
100
AcDbLine
10
3166.0650317618738
20
414.22775322832388
30
0
11
3235.9275778858341
21
414.23118248622802
31
0
0
SPLINE
5
170
100
AcDbEntity
8
0
100
AcDbSpline
70
1064
71
3
72
10
73
6
74
0
42
0.000000001
43
0.0000000001
44
0.0000000001
40
-7.3346799678608043
40
-7.3346799678608043
40
-7.3346799678608043
40
-7.3346799678608043
40
-3.7047402083724377
40
-3.7047402083724377
40
-0.59378506008687815
40
-0.59378506008687815
40
-0.59378506008687815
40
-0.59378506008687815
10
3206.0911600178229
20
340.22971785309261
30
0
10
3214.0524941775425
20
349.9089137834124
30
0
10
3222.761507213002
20
365.00165535543653
30
0
10
3233.1874063116925
20
392.37969648874747
30
0
10
3235.3568812283402
20
403.63548902215877
30
0
10
3235.9275778858341
20
414.23118248622751
30
0
0
SPLINE
5
171
100
AcDbEntity
8
0
100
AcDbSpline
70
1064
71
3
72
50
73
46
74
0
42
0.000000001
43
0.0000000001
44
0.0000000001
40
-63.025713883146537
40
-63.025713883146537
40
-63.025713883146537
40
-63.025713883146537
40
-60.306124494113647
40
-60.306124494113647
40
-57.555471393705027
40
-57.555471393705027
40
-51.794999870334266
40
-51.794999870334266
40
-41.089142818620665
40
-41.089142818620665
40
-36.696218159382539
40
-36.696218159382539
40
-33.547131619547457
40
-33.547131619547457
40
-31.94599293060697
40
-31.94599293060697
40
-30.648684226394995
40
-30.648684226394995
40
-29.295798782452934
40
-29.295798782452934
40
-27.686449778125848
40
-27.686449778125848
40
-25.668326934633242
40
-25.668326934633242
40
-23.165793102731389
40
-23.165793102731389
40
-21.307638353132461
40
-21.307638353132461
40
-19.456348722796296
40
-19.456348722796296
40
-17.211192320893161
40
-17.211192320893161
40
-14.279278045524102
40
-14.279278045524102
40
-12.789409434685425
40
-12.789409434685425
40
-11.31710072206336
40
-11.31710072206336
40
-9.4930815144694751
40
-9.4930815144694751
40
-4.8549738016341744
40
-4.8549738016341744
40
-1.9585660409985761
40
-1.9585660409985761
40
0
40
0
40
0
40
0
10
3046.0923872793655
20
315.22186460715653
30
0
10
3046.5959332457769
20
312.701128693057
30
0
10
3046.6835845988116
20
310.19261645407647
30
0
10
3045.9612659493405
20
305.06008809628321
30
0
10
3045.1653819665999
20
302.60513506867079
30
0
10
3041.8906405329735
20
295.25171282732396
30
0
10
3038.3650242733929
20
290.26369215871847
30
0
10
3026.9523914012261
20
273.89847937509097
30
0
10
3018.0118817761368
20
260.84387432270427
30
0
10
3009.9419943960211
20
231.00940984949028
30
0
10
3008.5505172597059
20
222.52599770018941
30
0
10
3007.5181871677487
20
210.29034589967858
30
0
10
3007.4285663705728
20
205.07652742145063
30
0
10
3008.326790312351
20
199.00299870700218
30
0
10
3008.7722367512379
20
197.4948434403006
30
0
10
3009.7394119273708
20
195.38282688308522
30
0
10
3010.2954229150323
20
194.52186118719163
30
0
10
3011.8017909293253
20
193.01274842284437
30
0
10
3012.72873610028
20
192.41195725927577
30
0
10
3015.1941617910666
20
191.3816111766709
30
0
10
3017.1422887144627
20
190.86203886140419
30
0
10
3024.308820350665
20
190.31333544317243
30
0
10
3029.5962067641399
20
190.50074727940734
30
0
10
3042.3661745812988
20
192.30033737023797
30
0
10
3050.764851352892
20
194.34137025705746
30
0
10
3064.4948883776797
20
200.84800764398148
30
0
10
3069.8157826317133
20
204.43864718953529
30
0
10
3078.8436616218423
20
213.66584037044328
30
0
10
3082.2815041030613
20
219.01270332932478
30
0
10
3087.5671985759236
20
232.27684995800297
30
0
10
3088.4923173301308
20
239.42278881785961
30
0
10
3089.2169446284488
20
253.17002381646995
30
0
10
3088.6497159286719
20
260.16126110947704
30
0
10
3089.5154048465479
20
269.45250213762102
30
0
10
3090.1004626918461
20
272.35787853622179
30
0
10
3092.3929382987344
20
277.80471479047543
30
0
10
3094.0690897900586
20
280.30654070257862
30
0
10
3099.5135874199582
20
285.64763165161418
30
0
10
3103.5468059860846
20
288.29132096537643
30
0
10
3121.960532305814
20
297.43786088865869
30
0
10
3141.0110255468435
20
302.7594339054354
30
0
10
3170.9577855793341
20
314.3444108444333
30
0
10
3182.0202931980971
20
319.41827506129408
30
0
10
3197.3463614200227
20
330.2145864387324
30
0
10
3202.2813606657191
20
334.92807289069725
30
0
10
3206.0911600178229
20
340.22971785309261
30
0
0
SPLINE
5
172
100
AcDbEntity
8
0
100
AcDbSpline
70
1064
71
3
72
10
73
6
74
0
42
0.000000001
43
0.0000000001
44
0.0000000001
40
-3.3499714712257482
40
-3.3499714712257482
40
-3.3499714712257482
40
-3.3499714712257482
40
-1.7073550143811054
40
-1.7073550143811054
40
0
40
0
40
0
40
0
10
3039.839087467335
20
348.20471877845358
30
0
10
3040.6586175156535
20
342.78421873117674
30
0
10
3041.5939598849973
20
337.3592413992281
30
0
10
3043.6788135811389
20
326.38417463118509
30
0
10
3044.8472269501017
20
320.77516489020292
30
0
10
3046.0923872793655
20
315.22186460715653
30
0
0
LINE
5
173
100
AcDbEntity
8
0
100
AcDbLine
10
3118.7009567267578
20
369.33984195160792
30
0
11
3039.839087467335
21
348.20471877845358
31
0
0
LINE
5
174
100
AcDbEntity
8
0
100
AcDbLine
10
3115.5945592286871
20
380.93079940127944
30
0
11
3118.7009567267578
21
369.33984195160792
31
0
0
LINE
5
175
100
AcDbEntity
8
0
100
AcDbLine
10
3038.2224122871862
20
360.19492451326022
30
0
11
3115.5945592286871
21
380.93079940127944
31
0
0
SPLINE
5
176
100
AcDbEntity
8
0
100
AcDbSpline
70
1064
71
3
72
10
73
6
74
0
42
0.000000001
43
0.0000000001
44
0.0000000001
40
-6.0344366607799946
40
-6.0344366607799946
40
-6.0344366607799946
40
-6.0344366607799946
40
-3.3976775213319375
40
-3.3976775213319375
40
0
40
0
40
0
40
0
10
3036.0872349244669
20
420.2213731733894
30
0
10
3036.0876904075185
20
411.02348638664631
30
0
10
3035.9012046877938
20
402.7044963656345
30
0
10
3036.2229624547072
20
381.60589280806613
30
0
10
3036.8978569168075
20
371.44279459081355
30
0
10
3038.2224122871862
20
360.1949245132601
30
0
0
SPLINE
5
177
100
AcDbEntity
8
0
100
AcDbSpline
70
1064
71
3
72
10
73
6
74
0
42
0.000000001
43
0.0000000001
44
0.0000000001
40
-6.0344366607799946
40
-6.0344366607799946
40
-6.0344366607799946
40
-6.0344366607799946
40
-3.3976775213319375
40
-3.3976775213319375
40
0
40
0
40
0
40
0
10
3036.0872349244669
20
420.2213731733894
30
0
10
3036.0867874365358
20
429.4192599605247
30
0
10
3035.8994850294039
20
437.73823163385424
30
0
10
3036.2191715117451
20
458.83686667721628
30
0
10
3036.893068243292
20
469.00003110094354
30
0
10
3038.2165193862302
20
480.24803115797391
30
0
0
LINE
5
178
100
AcDbEntity
8
0
100
AcDbLine
10
3038.2165193862293
20
480.24803115797391
30
0
11
3115.5907016275319
21
459.51975211221998
31
0
0
LINE
5
179
100
AcDbEntity
8
0
100
AcDbLine
10
3115.5907016275319
20
459.51975211221998
30
0
11
3118.6959612087121
21
471.11101446805105
31
0
0
LINE
5
180
100
AcDbEntity
8
0
100
AcDbLine
10
3118.6959612087121
20
471.11101446805105
30
0
11
3039.8320174612754
21
492.23839554654234
31
0
0
SPLINE
5
181
100
AcDbEntity
8
0
100
AcDbSpline
70
1064
71
3
72
10
73
6
74
0
42
0.000000001
43
0.0000000001
44
0.0000000001
40
-3.3499714712257482
40
-3.3499714712257482
40
-3.3499714712257482
40
-3.3499714712257482
40
-1.7073550143811054
40
-1.7073550143811054
40
0
40
0
40
0
40
0
10
3039.8320174612754
20
492.23839554654143
30
0
10
3040.6510153666482
20
497.65897602224919
30
0
10
3041.5858251529462
20
503.08404515208332
30
0
10
3043.6696013995133
20
514.05931654059873
30
0
10
3044.8374641175569
20
519.66844095952683
30
0
10
3046.0820792646164
20
525.22186345515638
30
0
0
SPLINE
5
182
100
AcDbEntity
8
0
100
AcDbSpline
70
1064
71
3
72
50
73
46
74
0
42
0.000000001
43
0.0000000001
44
0.0000000001
40
-63.025713883146537
40
-63.025713883146537
40
-63.025713883146537
40
-63.025713883146537
40
-60.306124494113647
40
-60.306124494113647
40
-57.555471393705027
40
-57.555471393705027
40
-51.794999870334266
40
-51.794999870334266
40
-41.089142818620665
40
-41.089142818620665
40
-36.696218159382539
40
-36.696218159382539
40
-33.547131619547457
40
-33.547131619547457
40
-31.94599293060697
40
-31.94599293060697
40
-30.648684226394995
40
-30.648684226394995
40
-29.295798782452934
40
-29.295798782452934
40
-27.686449778125848
40
-27.686449778125848
40
-25.668326934633242
40
-25.668326934633242
40
-23.165793102731389
40
-23.165793102731389
40
-21.307638353132461
40
-21.307638353132461
40
-19.456348722796296
40
-19.456348722796296
40
-17.211192320893161
40
-17.211192320893161
40
-14.279278045524102
40
-14.279278045524102
40
-12.789409434685425
40
-12.789409434685425
40
-11.31710072206336
40
-11.31710072206336
40
-9.4930815144694751
40
-9.4930815144694751
40
-4.8549738016341744
40
-4.8549738016341744
40
-1.9585660409985761
40
-1.9585660409985761
40
0
40
0
40
0
40
0
10
3046.0820792646164
20
525.22186345515638
30
0
10
3046.5853777640014
20
527.74264879100701
30
0
10
3046.6727828520307
20
530.25116962276957
30
0
10
3045.9499603376757
20
535.38362704467477
30
0
10
3045.1538353521796
20
537.83850192727687
30
0
10
3041.8783720373317
20
545.19160264668403
30
0
10
3038.3522661129236
20
550.17927717597263
30
0
10
3026.9380266971311
20
566.543369484658
30
0
10
3017.9962355240596
20
579.59709677027593
30
0
10
3009.9234192866334
20
609.43076886621373
30
0
10
3008.5311093271389
20
617.91404437114113
30
0
10
3007.4975780470186
20
630.14959476722527
30
0
10
3007.4074454015317
20
635.36340442211315
30
0
10
3008.305073091135
20
641.43702128734958
30
0
10
3008.750371469906
20
642.94522027695962
30
0
10
3009.7173393014
20
645.05733177310162
30
0
10
3010.2732657640272
20
645.91835204931726
30
0
10
3011.779485619094
20
647.4276126889049
30
0
10
3012.7063718049694
20
648.02849484924081
30
0
10
3015.1716963331842
20
649.05908296158941
30
0
10
3017.1197722399629
20
649.57884652503026
30
0
10
3024.2862499745561
20
650.1282534902748
30
0
10
3029.5736547610654
20
649.94136072596632
30
0
10
3042.3437991852716
20
648.14302429158772
30
0
10
3050.7426762877949
20
646.10281592588365
30
0
10
3064.4733520132222
20
639.59752646959532
30
0
10
3069.7945987403355
20
636.0074093018834
30
0
10
3078.8233835349956
20
626.78110244648838
30
0
10
3082.2617509095762
20
621.43457701176476
30
0
10
3087.548747519058
20
608.17094935192517
30
0
10
3088.4745677968394
20
601.02510134686258
30
0
10
3089.2005446792996
20
587.27793755229686
30
0
10
3088.6340023229923
20
580.28664460724758
30
0
10
3089.5006033724098
20
570.99548860991649
30
0
10
3090.0859464402492
20
568.09016966136301
30
0
10
3092.3789567605536
20
562.64355848928449
30
0
10
3094.0553538519762
20
560.14189713965993
30
0
10
3099.5003757989207
20
554.80134071123916
30
0
10
3103.5338538807405
20
552.15804735761185
30
0
10
3121.9484780419152
20
543.01331518281631
30
0
10
3140.9994936183184
20
537.69361240850162
30
0
10
3170.947390821867
20
526.11157544575735
30
0
10
3182.0103964965347
20
521.03879727708136
30
0
10
3197.3375245354378
20
510.24399053583744
30
0
10
3202.2729864877147
20
505.53098858320647
30
0
10
3206.0833062922666
20
500.22971766033999
30
0
0
SPLINE
5
183
100
AcDbEntity
8
0
100
AcDbSpline
70
1064
71
3
72
10
73
6
74
0
42
0.000000001
43
0.0000000001
44
0.0000000001
40
-7.3346799678608043
40
-7.3346799678608043
40
-7.3346799678608043
40
-7.3346799678608043
40
-3.7047402083724377
40
-3.7047402083724377
40
-0.59378506008687815
40
-0.59378506008687815
40
-0.59378506008687815
40
-0.59378506008687815
10
3206.0833062922666
20
500.22971766033999
30
0
10
3214.0455906354759
20
490.55130335333098
30
0
10
3222.7560853070941
20
475.45941683151392
30
0
10
3233.1846721008069
20
448.08239935701005
30
0
10
3235.3552520058179
20
436.82681985859455
30
0
10
3235.9269888564177
20
426.23118247177155
30
0
0
LINE
5
184
100
AcDbEntity
8
0
100
AcDbLine
10
3166.0650317618738
20
426.22775324278081
30
0
11
3235.9269888564177
21
426.2311824717716
31
0
0
LINE
5
185
100
AcDbEntity
8
0
100
AcDbLine
10
3220.6094180548116
20
170.05880191295898
30
0
11
3222.239418211348
21
181.95105394497219
31
0
0
LINE
5
186
100
AcDbEntity
8
0
100
AcDbLine
10
3071.9988626769141
20
190.42796562364913
30
0
11
3220.6094180548116
21
170.05880191295898
31
0
0
LINE
5
187
100
AcDbEntity
8
0
100
AcDbLine
10
3222.239418211348
20
181.95105394497219
30
0
11
3077.0245208488136
21
201.85479503582698
31
0
0
SPLINE
5
188
100
AcDbEntity
8
0
100
AcDbSpline
70
1064
71
5
72
48
73
42
74
0
42
0.000000001
43
0.0000000001
44
0.0000000001
40
0.39752036744802322
40
0.39752036744802322
40
0.39752036744802322
40
0.39752036744802322
40
0.39752036744802322
40
0.39752036744802322
40
0.39999999999999997
40
0.41666666666666663
40
0.43333333333333329
40
0.44999999999999996
40
0.46666666666666662
40
0.48333333333333328
40
0.49999999999999994
40
0.51666666666666661
40
0.53333333333333333
40
0.55000000000000004
40
0.56666666666666676
40
0.58333333333333348
40
0.6000000000000002
40
0.61666666666666692
40
0.63333333333333364
40
0.65000000000000036
40
0.66666666666666707
40
0.68333333333333379
40
0.70000000000000051
40
0.71666666666666723
40
0.73333333333333395
40
0.75000000000000067
40
0.76666666666666738
40
0.7833333333333341
40
0.80000000000000082
40
0.81666666666666754
40
0.83333333333333426
40
0.85000000000000098
40
0.8666666666666677
40
0.88333333333333441
40
0.90000000000000113
40
0.91666666666666785
40
0.93333333333333457
40
0.95000000000000129
40
0.96666666666666801
40
0.98333333333333472
40
0.9999957335186892
40
0.9999957335186892
40
0.9999957335186892
40
0.9999957335186892
40
0.9999957335186892
40
0.9999957335186892
10
3071.9988626769014
20
190.42796562361812
30
0
10
3071.6352401451718
20
189.51274004838851
30
0
10
3068.8785138832491
20
182.42690147793837
30
0
10
3064.4620863399109
20
168.90755354098087
30
0
10
3060.101935006564
20
148.56102694325673
30
0
10
3058.6821071524064
20
121.47787832367733
30
0
10
3063.8859857894608
20
90.152402394395637
30
0
10
3076.0137218267046
20
61.865434626090661
30
0
10
3094.7537683752721
20
38.203326952754111
30
0
10
3119.4082130436182
20
20.484596386705931
30
0
10
3148.9410374820886
20
9.6499854022853526
30
0
10
3182.1200210688894
20
6.1718356814505171
30
0
10
3217.632529224375
20
9.9543774835775878
30
0
10
3254.2096439958541
20
20.24246613772803
30
0
10
3290.7516680260669
20
35.511607499592088
30
0
10
3326.4389993852947
20
53.404053700859535
30
0
10
3360.6614380560704
20
71.166694373769346
30
0
10
3392.9608217412097
20
86.052638206114338
30
0
10
3422.9703461737372
20
95.733686283419033
30
0
10
3450.3522527136429
20
98.714944915590408
30
0
10
3474.7440255126253
20
94.735417583645116
30
0
10
3495.6809683785245
20
85.216418144905433
30
0
10
3512.9137133464974
20
72.681313544426516
30
0
10
3526.7097643291036
20
60.123426460126197
30
0
10
3538.2343396479177
20
50.39265917540348
30
0
10
3549.6929380931206
20
45.585522768929252
30
0
10
3563.4701477156118
20
46.709463937118301
30
0
10
3581.2659698173957
20
53.139498278583517
30
0
10
3603.9995973482651
20
63.112590874435668
30
0
10
3632.1073232367694
20
74.698420274082977
30
0
10
3665.5753500555775
20
86.418250753714929
30
0
10
3704.4540788179729
20
98.522522317325993
30
0
10
3745.6495955930727
20
110.23934811808012
30
0
10
3784.964132443788
20
120.48317212718338
30
0
10
3818.2671754125208
20
128.18625693968704
30
0
10
3843.3785681617132
20
132.88116377168456
30
0
10
3860.7537773381237
20
134.89614918588393
30
0
10
3876.9960984349209
20
136.44303791693676
30
0
10
3891.7648833599751
20
138.20125020349795
30
0
10
3904.3145870141439
20
139.97223402169277
30
0
10
3913.3384666592906
20
141.35477374582206
30
0
10
3918.0140393053466
20
142.09636852097583
30
0
0
SPLINE
5
189
100
AcDbEntity
8
0
100
AcDbSpline
70
1064
71
5
72
35
73
29
74
0
42
0.000000001
43
0.0000000001
44
0.0000000001
40
2.3941503310725007e-06
40
2.3941503310725007e-06
40
2.3941503310725007e-06
40
2.3941503310725007e-06
40
2.3941503310725007e-06
40
2.3941503310725007e-06
40
0.016666666666666666
40
0.033333333333333333
40
0.050000000000000003
40
0.066666666666666666
40
0.083333333333333329
40
0.099999999999999992
40
0.11666666666666665
40
0.13333333333333333
40
0.14999999999999999
40
0.16666666666666666
40
0.18333333333333332
40
0.19999999999999998
40
0.21666666666666665
40
0.23333333333333331
40
0.24999999999999997
40
0.26666666666666666
40
0.28333333333333333
40
0.29999999999999999
40
0.31666666666666665
40
0.33333333333333331
40
0.34999999999999998
40
0.36666666666666664
40
0.3833333333333333
40
0.39123603920092426
40
0.39123603920092426
40
0.39123603920092426
40
0.39123603920092426
40
0.39123603920092426
40
0.39123603920092426
10
3801.2581158259486
20
249.92319377456329
30
0
10
3793.759307575373
20
246.1271722267129
30
0
10
3778.8675474223337
20
238.88406134630327
30
0
10
3756.8502049577723
20
229.06766800846827
30
0
10
3728.1353685885852
20
218.07707778233737
30
0
10
3693.3042900766663
20
207.83050721000026
30
0
10
3659.5102090601404
20
201.05076141087611
30
0
10
3626.7025197568796
20
197.68113930447069
30
0
10
3594.7927044431517
20
197.62018823716883
30
0
10
3563.6470072773132
20
200.70930860271937
30
0
10
3533.0733648784571
20
206.72061536604383
30
0
10
3502.8384958900424
20
215.34074975803628
30
0
10
3472.6929239022984
20
226.15401635400553
30
0
10
3442.3932970867045
20
238.62462916830532
30
0
10
3411.7257746449368
20
252.08110495711503
30
0
10
3380.5291474847818
20
265.69463773300424
30
0
10
3348.7177561816279
20
278.47414175900224
30
0
10
3316.3027691732755
20
289.35489306951024
30
0
10
3283.4131714919199
20
297.27504950716377
30
0
10
3250.3184466483476
20
301.25803450364981
30
0
10
3217.4476861494204
20
300.48986868929217
30
0
10
3185.4180363945552
20
294.40550887816937
30
0
10
3155.0355038905118
20
282.75107006038081
30
0
10
3127.2190344810806
20
265.58150048611662
30
0
10
3105.4925009785979
20
245.61586803256523
30
0
10
3091.3321559441138
20
227.43032512123833
30
0
10
3082.8429433223141
20
213.37784800222892
30
0
10
3078.392043283553
20
204.68257462605951
30
0
10
3077.0245208488132
20
201.85479503582658
30
0
0
SPLINE
5
190
100
AcDbEntity
8
0
100
AcDbSpline
70
1064
71
3
72
16
73
12
74
0
42
0.000000001
43
0.0000000001
44
0.0000000001
40
9.5745971626953263
40
9.5745971626953263
40
9.5745971626953263
40
9.5745971626953263
40
9.574727109361362
40
9.574727109361362
40
9.574727109361362
40
14.53212430844113
40
19.361239951319224
40
24.486937812954277
40
24.486937812954277
40
24.486937812954277
40
24.487023037313111
40
24.487023037313111
40
24.487023037313111
40
24.487023037313111
10
3801.2581158259472
20
249.9231937745634
30
0
10
3801.2584350430743
20
249.92347452759782
30
0
10
3801.2587542602014
20
249.92375528063269
30
0
10
3801.2590734773275
20
249.92403603366745
30
0
10
3813.7785584304133
20
260.93498467883512
30
0
10
3838.4935641779475
20
282.67195389688857
30
0
10
3873.3621544116663
20
319.43709823141523
30
0
10
3902.8368784454797
20
335.620514264961
30
0
10
3918.0133084091258
20
343.9532972869124
30
0
10
3918.0135520411986
20
343.95343105573818
30
0
10
3918.0137956732724
20
343.95356482456361
30
0
10
3918.0140393053462
20
343.95369859338876
30
0
0
LINE
5
191
100
AcDbEntity
8
0
100
AcDbLine
10
3918.0140393053462
20
343.95369859338871
30
0
11
3918.0140393053471
21
142.09636852097583
31
0
0
LINE
5
192
100
AcDbEntity
8
0
100
AcDbLine
10
4632.2424388491345
20
183.52434446386491
30
0
11
4633.8724390056714
21
171.63209243185167
31
0
0
LINE
5
193
100
AcDbEntity
8
0
100
AcDbLine
10
4633.8724390056714
20
171.63209243185167
30
0
11
4782.4829943835684
21
192.00125614254199
31
0
0
LINE
5
194
100
AcDbEntity
8
0
100
AcDbLine
10
4777.4573362116689
20
203.42808555471981
30
0
11
4632.2424388491345
21
183.52434446386491
31
0
0
SPLINE
5
195
100
AcDbEntity
8
0
100
AcDbSpline
70
1064
71
5
72
48
73
42
74
0
42
0.000000001
43
0.0000000001
44
0.0000000001
40
0.3975203674480064
40
0.3975203674480064
40
0.3975203674480064
40
0.3975203674480064
40
0.3975203674480064
40
0.3975203674480064
40
0.39999999999999997
40
0.41666666666666663
40
0.43333333333333329
40
0.44999999999999996
40
0.46666666666666662
40
0.48333333333333328
40
0.49999999999999994
40
0.51666666666666661
40
0.53333333333333333
40
0.55000000000000004
40
0.56666666666666676
40
0.58333333333333348
40
0.6000000000000002
40
0.61666666666666692
40
0.63333333333333364
40
0.65000000000000036
40
0.66666666666666707
40
0.68333333333333379
40
0.70000000000000051
40
0.71666666666666723
40
0.73333333333333395
40
0.75000000000000067
40
0.76666666666666738
40
0.7833333333333341
40
0.80000000000000082
40
0.81666666666666754
40
0.83333333333333426
40
0.85000000000000098
40
0.8666666666666677
40
0.88333333333333441
40
0.90000000000000113
40
0.91666666666666785
40
0.93333333333333457
40
0.95000000000000129
40
0.96666666666666801
40
0.98333333333333472
40
0.9999957335186892
40
0.9999957335186892
40
0.9999957335186892
40
0.9999957335186892
40
0.9999957335186892
40
0.9999957335186892
10
4782.4829943835693
20
192.00125614254145
30
0
10
4782.8466169153016
20
191.08603056730655
30
0
10
4785.6033431772275
20
184.00019199685059
30
0
10
4790.0197707205698
20
170.48084405988672
30
0
10
4794.3799220539186
20
150.13431746215588
30
0
10
4795.7997499080757
20
123.05116884257018
30
0
10
4790.5958712710217
20
91.725692913288341
30
0
10
4778.4681352337784
20
63.438725144983366
30
0
10
4759.7280886852104
20
39.776617471646887
30
0
10
4735.0736440168648
20
22.057886905598707
30
0
10
4705.5408195783948
20
11.223275921178129
30
0
10
4672.3618359915936
20
7.7451262003433641
30
0
10
4636.8493278361075
20
11.527668002470222
30
0
10
4600.2722130646289
20
21.815756656620664
30
0
10
4563.7301890344161
20
37.084898018484722
30
0
10
4528.0428576751883
20
54.977344219752169
30
0
10
4493.8204190044125
20
72.73998489266198
30
0
10
4461.5210353192733
20
87.625928725006901
30
0
10
4431.5115108867458
20
97.306976802311596
30
0
10
4404.1296043468392
20
100.28823543448297
30
0
10
4379.7378315478572
20
96.308708102537679
30
0
10
4358.800888681958
20
86.789708663797995
30
0
10
4341.5681437139856
20
74.254604063319078
30
0
10
4327.7720927313785
20
61.69671697901876
30
0
10
4316.2475174125657
20
51.965949694295972
30
0
10
4304.7889189673624
20
47.158813287821744
30
0
10
4291.0117093448707
20
48.282754456010792
30
0
10
4273.2158872430873
20
54.712788797476009
30
0
10
4250.4822597122175
20
64.685881393328231
30
0
10
4222.3745338237131
20
76.271710792975469
30
0
10
4188.9065070049055
20
87.991541272607208
30
0
10
4150.0277782425101
20
100.09581283621827
30
0
10
4108.8322614674107
20
111.81263863697239
30
0
10
4069.5177246166945
20
122.05646264607566
30
0
10
4036.2146816479617
20
129.75954745857933
30
0
10
4011.1032888987702
20
134.45445429057685
30
0
10
3993.7280797223589
20
136.46943970477622
30
0
10
3977.4857586255621
20
138.01632843582902
30
0
10
3962.7169737005074
20
139.77454072239081
30
0
10
3950.1672700463396
20
141.54552454058566
30
0
10
3941.1433904011919
20
142.92806426471486
30
0
10
3936.4678177551373
20
143.66965903986858
30
0
0
LINE
5
196
100
AcDbEntity
8
0
100
AcDbLine
10
3936.4678177551368
20
143.66965903986858
30
0
11
3936.4678177551359
21
345.52698911227964
31
0
0
SPLINE
5
197
100
AcDbEntity
8
0
100
AcDbSpline
70
1064
71
3
72
16
73
12
74
0
42
0.000000001
43
0.0000000001
44
0.0000000001
40
-24.487023037313111
40
-24.487023037313111
40
-24.487023037313111
40
-24.487023037313111
40
-24.486937812954277
40
-24.486937812954277
40
-24.486937812954277
40
-19.361239951319224
40
-14.53212430844113
40
-9.574727109361362
40
-9.574727109361362
40
-9.574727109361362
40
-9.5745971626953263
40
-9.5745971626953263
40
-9.5745971626953263
40
-9.5745971626953263
10
3936.4678177551368
20
345.52698911228157
30
0
10
3936.4680613872106
20
345.52685534345619
30
0
10
3936.4683050192843
20
345.52672157463093
30
0
10
3936.4685486513577
20
345.52658780580515
30
0
10
3951.6449786150038
20
337.19380478385375
30
0
10
3981.1197026488162
20
321.01038875030747
30
0
10
4015.988292882535
20
284.24524441578086
30
0
10
4040.7032986300692
20
262.50827519772741
30
0
10
4053.222783583155
20
251.49732655255974
30
0
10
4053.223102800282
20
251.49704579952498
30
0
10
4053.2234220174105
20
251.49676504649048
30
0
10
4053.2237412345376
20
251.49648429345564
30
0
0
SPLINE
5
198
100
AcDbEntity
8
0
100
AcDbSpline
70
1064
71
5
72
35
73
29
74
0
42
0.000000001
43
0.0000000001
44
0.0000000001
40
2.3941503310725007e-06
40
2.3941503310725007e-06
40
2.3941503310725007e-06
40
2.3941503310725007e-06
40
2.3941503310725007e-06
40
2.3941503310725007e-06
40
0.016666666666666666
40
0.033333333333333333
40
0.050000000000000003
40
0.066666666666666666
40
0.083333333333333329
40
0.099999999999999992
40
0.11666666666666665
40
0.13333333333333333
40
0.14999999999999999
40
0.16666666666666666
40
0.18333333333333332
40
0.19999999999999998
40
0.21666666666666665
40
0.23333333333333331
40
0.24999999999999997
40
0.26666666666666666
40
0.28333333333333333
40
0.29999999999999999
40
0.31666666666666665
40
0.33333333333333331
40
0.34999999999999998
40
0.36666666666666664
40
0.3833333333333333
40
0.39123603920092376
40
0.39123603920092376
40
0.39123603920092376
40
0.39123603920092376
40
0.39123603920092376
40
0.39123603920092376
10
4053.223741234538
20
251.49648429345552
30
0
10
4060.7225494851109
20
247.70046274560519
30
0
10
4075.6143096381502
20
240.45735186519556
30
0
10
4097.6316521027102
20
230.6409585273606
30
0
10
4126.3464884718978
20
219.65036830122966
30
0
10
4161.1775669838162
20
209.40379772889261
30
0
10
4194.9716480003426
20
202.62405192976846
30
0
10
4227.7793373036029
20
199.25442982336318
30
0
10
4259.6891526173313
20
199.19347875606132
30
0
10
4290.8348497831694
20
202.2825991216119
30
0
10
4321.4084921820258
20
208.29390588493638
30
0
10
4351.6433611704397
20
216.91404027692883
30
0
10
4381.7889331581846
20
227.72730687289808
30
0
10
4412.0885599737785
20
240.19791968719787
30
0
10
4442.7560824155462
20
253.65439547600758
30
0
10
4473.9527095757003
20
267.26792825189693
30
0
10
4505.7641008788542
20
280.04743227789493
30
0
10
4538.1790878872071
20
290.92818358840293
30
0
10
4571.0686855685626
20
298.84834002605652
30
0
10
4604.1634104121349
20
302.83132502254256
30
0
10
4637.0341709110626
20
302.06315920818491
30
0
10
4669.0638206659278
20
295.97879939706212
30
0
10
4699.4463531699712
20
284.32436057927356
30
0
10
4727.2628225794024
20
267.15479100500949
30
0
10
4748.9893560818846
20
247.18915855145727
30
0
10
4763.1497011163692
20
229.00361564013113
30
0
10
4771.6389137381684
20
214.95113852112237
30
0
10
4776.0898137769282
20
206.25586514495237
30
0
10
4777.4573362116689
20
203.42808555471944
30
0
0
SPLINE
5
199
100
AcDbEntity
8
0
100
AcDbSpline
70
1064
71
5
72
26
73
20
74
0
42
0.000000001
43
0.0000000001
44
0.0000000001
40
0.64213331657965012
40
0.64213331657965012
40
0.64213331657965012
40
0.64213331657965012
40
0.64213331657965012
40
0.64213331657965012
40
0.65000000000000024
40
0.67500000000000027
40
0.70000000000000029
40
0.72500000000000031
40
0.75000000000000033
40
0.77500000000000036
40
0.80000000000000038
40
0.8250000000000004
40
0.85000000000000042
40
0.87500000000000044
40
0.90000000000000047
40
0.92500000000000049
40
0.95000000000000051
40
0.97500000000000053
40
0.99859607127255712
40
0.99859607127255712
40
0.99859607127255712
40
0.99859607127255712
40
0.99859607127255712
40
0.99859607127255712
10
3366.8185179805105
20
1264.8287953303784
30
0
10
3367.2703697063425
20
1265.2407510781998
30
0
10
3369.2599996058143
20
1266.9059557518326
30
0
10
3373.4567711216228
20
1269.3907967675045
30
0
10
3380.5900945761318
20
1271.490218488892
30
0
10
3389.9991976541151
20
1271.4550170629857
30
0
10
3398.9560426937146
20
1269.339104810542
30
0
10
3405.3213004673717
20
1267.0380937230063
30
0
10
3409.824885981493
20
1265.8337530665867
30
0
10
3416.1791563391057
20
1263.4808976383872
30
0
10
3425.7171011999299
20
1258.774822190974
30
0
10
3437.4531853353415
20
1252.182146266128
30
0
10
3449.4013283345407
20
1244.8448944637958
30
0
10
3459.6286933618489
20
1238.3152740129926
30
0
10
3466.7349644405635
20
1233.9249259846026
30
0
10
3472.1425246059953
20
1232.4531888753665
30
0
10
3476.3814331714821
20
1233.0562950024746
30
0
10
3478.8843968720721
20
1233.947370147441
30
0
10
3480.1586870004417
20
1234.63330396643
30
0
10
3480.6855846242133
20
1234.9880769448905
30
0
0
SPLINE
5
200
100
AcDbEntity
8
0
100
AcDbSpline
70
1064
71
5
72
37
73
31
74
0
42
0.000000001
43
0.0000000001
44
0.0000000001
40
0
40
0
40
0
40
0
40
0
40
0
40
0.025000000000000001
40
0.050000000000000003
40
0.075000000000000011
40
0.10000000000000001
40
0.125
40
0.14999999999999999
40
0.17499999999999999
40
0.19999999999999998
40
0.22499999999999998
40
0.24999999999999997
40
0.27499999999999997
40
0.29999999999999999
40
0.32500000000000001
40
0.35000000000000003
40
0.37500000000000006
40
0.40000000000000008
40
0.4250000000000001
40
0.45000000000000012
40
0.47500000000000014
40
0.50000000000000011
40
0.52500000000000013
40
0.55000000000000016
40
0.57500000000000018
40
0.6000000000000002
40
0.62500000000000022
40
0.64213331657964279
40
0.64213331657964279
40
0.64213331657964279
40
0.64213331657964279
40
0.64213331657964279
40
0.64213331657964279
10
3537.2646035237403
20
1202.1900535081081
30
0
10
3535.6584166107996
20
1201.7066712616033
30
0
10
3532.2735372323518
20
1200.6185858053043
30
0
10
3526.6785842536638
20
1198.6222803210612
30
0
10
3518.3435499777261
20
1195.3258025370128
30
0
10
3507.3306301336265
20
1190.6360020918094
30
0
10
3496.7461350997405
20
1185.9612904033422
30
0
10
3487.4097518655412
20
1181.7221424086033
30
0
10
3479.7000699426872
20
1178.1380486440466
30
0
10
3473.0302891910583
20
1174.6753393240651
30
0
10
3465.9931861975269
20
1170.7257214063416
30
0
10
3458.0598392611296
20
1167.6551558457386
30
0
10
3449.5368026442247
20
1167.05218315094
30
0
10
3441.3932643823432
20
1170.1482390697588
30
0
10
3436.6437215058704
20
1176.7446082676299
30
0
10
3436.5843526781873
20
1184.4018607591327
30
0
10
3439.2723484163912
20
1190.7226943420706
30
0
10
3441.6219863080755
20
1194.4977960739809
30
0
10
3439.3567037684829
20
1199.382761889352
30
0
10
3431.6966586805324
20
1206.5180985244397
30
0
10
3419.9791061566907
20
1215.1677955063569
30
0
10
3406.7532602123242
20
1223.7348705352783
30
0
10
3394.4383656827358
20
1230.7007811817123
30
0
10
3384.8278967930833
20
1235.2345713219602
30
0
10
3376.6859200148588
20
1238.8000896824919
30
0
10
3368.0139782706033
20
1244.2160452832213
30
0
10
3362.3195950695026
20
1251.1487584278293
30
0
10
3361.5880400731094
20
1257.3080160055431
30
0
10
3363.6985833441449
20
1261.5690138152302
30
0
10
3365.8344032968425
20
1263.9315724643891
30
0
10
3366.8185179805096
20
1264.8287953303766
30
0
0
SPLINE
5
201
100
AcDbEntity
8
0
100
AcDbSpline
70
1064
71
3
72
12
73
8
74
0
42
0.000000001
43
0.0000000001
44
0.0000000001
40
0
40
0
40
0
40
0
40
0.67625478228623515
40
1.395201152776401
40
2.4323887822364845
40
4.1180722136078529
40
5.0814789236972642
40
5.0814789236972642
40
5.0814789236972642
40
5.0814789236972642
10
3506.8832383797167
20
1273.4708147135129
30
0
10
3507.8808003901554
20
1271.3740750626298
30
0
10
3509.9388999457869
20
1267.0482297531189
30
0
10
3509.087605255329
20
1258.2498947226934
30
0
10
3500.5698377542171
20
1249.5442914536175
30
0
10
3490.8704440937295
20
1241.863200162629
30
0
10
3483.3779407739598
20
1236.8540574006395
30
0
10
3480.6855846242115
20
1234.9880769448919
30
0
0
SPLINE
5
202
100
AcDbEntity
8
0
100
AcDbSpline
70
1064
71
3
72
10
73
6
74
0
42
0.000000001
43
0.0000000001
44
0.0000000001
40
0
40
0
40
0
40
0
40
3.0906370617464844
40
6.2397774709645564
40
9.1991108292574282
40
9.1991108292574282
40
9.1991108292574282
40
9.1991108292574282
10
3427.5307220394689
20
1319.8999837138761
30
0
10
3437.7115739777923
20
1317.2719825230606
30
0
10
3458.265993435914
20
1311.9662341299361
30
0
10
3485.9770778044094
20
1296.251388075025
30
0
10
3500.0603872178021
20
1280.90539175452
30
0
10
3506.8832383797167
20
1273.4708147135129
30
0
0
SPLINE
5
203
100
AcDbEntity
8
0
100
AcDbSpline
70
1064
71
3
72
10
73
6
74
0
42
0.000000001
43
0.0000000001
44
0.0000000001
40
0
40
0
40
0
40
0
40
1.7845380191592906
40
2.8377625085199578
40
4.673779674013792
40
4.673779674013792
40
4.673779674013792
40
4.673779674013792
10
3430.2829938330819
20
1348.8347263215903
30
0
10
3423.8177192365583
20
1347.3734879942585
30
0
10
3413.5366752574942
20
1345.0498348712686
30
0
10
3409.4765641909657
20
1325.9972520721251
30
0
10
3420.5157108033382
20
1322.2691003684313
30
0
10
3427.5307220394689
20
1319.8999837138761
30
0
0
SPLINE
5
204
100
AcDbEntity
8
0
100
AcDbSpline
70
1064
71
3
72
10
73
6
74
0
42
0.000000001
43
0.0000000001
44
0.0000000001
40
0
40
0
40
0
40
0
40
4.3640402432668788
40
7.9010810332790715
40
10.474317183215778
40
10.474317183215778
40
10.474317183215778
40
10.474317183215778
10
3527.4280393373829
20
1311.9188305166106
30
0
10
3515.33192695038
20
1320.3445475124042
30
0
10
3493.4319537993974
20
1335.5992814369986
30
0
10
3460.0668960028634
20
1351.1932415814213
30
0
10
3439.1090315157703
20
1349.5336389234305
30
0
10
3430.2829938330819
20
1348.8347263215903
30
0
0
SPLINE
5
205
100
AcDbEntity
8
0
100
AcDbSpline
70
1064
71
3
72
13
73
9
74
0
42
0.000000001
43
0.0000000001
44
0.0000000001
40
0
40
0
40
0
40
0
40
3.198316588219031
40
5.945548963474713
40
8.4924429036402618
40
10.438676916506415
40
12.419103519599005
40
14.343222779345936
40
14.343222779345936
40
14.343222779345936
40
14.343222779345936
10
3661.1964387218541
20
1302.5194347614988
30
0
10
3650.653983084369
20
1299.9356012462304
30
0
10
3631.0559587928401
20
1295.1323529577107
30
0
10
3602.526481058585
20
1290.1319600758084
30
0
10
3579.5150689632328
20
1281.7587357515115
30
0
10
3555.8040622566409
20
1283.1835769126214
30
0
10
3542.3480984005164
20
1299.1485618787638
30
0
10
3532.3533476877833
20
1307.7031963497072
30
0
10
3527.4280393373829
20
1311.9188305166106
30
0
0
SPLINE
5
206
100
AcDbEntity
8
0
100
AcDbSpline
70
1064
71
3
72
10
73
6
74
0
42
0.000000001
43
0.0000000001
44
0.0000000001
40
0
40
0
40
0
40
0
40
2.6228729365076049
40
4.9244140459655519
40
6.3881620423109045
40
6.3881620423109045
40
6.3881620423109045
40
6.3881620423109045
10
3694.6666384560604
20
1355.4209246306041
30
0
10
3692.829063271904
20
1346.6760501094425
30
0
10
3689.3790368061036
20
1330.2576478594428
30
0
10
3676.7224915374163
20
1311.3926904070879
30
0
10
3665.5425981114286
20
1305.0032974533426
30
0
10
3661.1964387218541
20
1302.5194347614988
30
0
0
SPLINE
5
207
100
AcDbEntity
8
0
100
AcDbSpline
70
1064
71
3
72
10
73
6
74
0
42
0.000000001
43
0.0000000001
44
0.0000000001
40
0
40
0
40
0
40
0
40
4.9523243673511628
40
9.0363006060079165
40
13.725115780165247
40
13.725115780165247
40
13.725115780165247
40
13.725115780165247
10
3638.2574357710473
20
1477.8293452297387
30
0
10
3651.4201923279575
20
1466.7804953401574
30
0
10
3675.4377275758725
20
1446.620117798831
30
0
10
3690.1334533214367
20
1400.7619026353464
30
0
10
3693.0876837370124
20
1371.2136507295488
30
0
10
3694.6666384560604
20
1355.4209246306041
30
0
0
SPLINE
5
208
100
AcDbEntity
8
0
100
AcDbSpline
70
1064
71
3
72
10
73
6
74
0
42
0.000000001
43
0.0000000001
44
0.0000000001
40
0
40
0
40
0
40
0
40
4.8553243626412943
40
9.6072443570983879
40
13.935596046048445
40
13.935596046048445
40
13.935596046048445
40
13.935596046048445
10
3509.7954082051638
20
1535.9208728591441
30
0
10
3525.8013677719168
20
1531.8487505892497
30
0
10
3557.4724062530504
20
1523.791230477955
30
0
10
3600.5294868402098
20
1503.3591990013022
30
0
10
3626.0787186171274
20
1486.0704735411346
30
0
10
3638.2574357710473
20
1477.8293452297387
30
0
0
SPLINE
5
209
100
AcDbEntity
8
0
100
AcDbSpline
70
1064
71
3
72
10
73
6
74
0
42
0.000000001
43
0.0000000001
44
0.0000000001
40
2.621668826279036
40
2.621668826279036
40
2.621668826279036
40
2.621668826279036
40
5.0626330819889507
40
10.098334625298385
40
17.419804487108507
40
17.419804487108507
40
17.419804487108507
40
17.419804487108507
10
3359.150651993099
20
1538.9295415808147
30
0
10
3367.4393547756817
20
1538.9311143731904
30
0
10
3392.8284469127457
20
1539.0649051620542
30
0
10
3443.0892401382198
20
1540.8395954721097
30
0
10
3484.9772720099736
20
1537.7508914504162
30
0
10
3509.7954082051638
20
1535.9208728591441
30
0
0
SPLINE
5
210
100
AcDbEntity
8
0
100
AcDbSpline
70
1064
71
5
72
16
73
10
74
0
42
0.000000001
43
0.0000000001
44
0.0000000001
40
0
40
0
40
0
40
0
40
0
40
0
40
0.050000000000000003
40
0.10000000000000001
40
0.15000000000000002
40
0.20000000000000001
40
0.24300657417657182
40
0.24300657417657182
40
0.24300657417657182
40
0.24300657417657182
40
0.24300657417657182
40
0.24300657417657182
10
3359.1506519930999
20
1538.9295415808137
30
0
10
3356.01908441972
20
1538.9013733018194
30
0
10
3349.7052250528736
20
1538.2771722937239
30
0
10
3340.0912749868485
20
1535.6463116611801
30
0
10
3327.7540438151891
20
1529.6427027642803
30
0
10
3317.3639709116578
20
1522.9359265692292
30
0
10
3314.0589693307293
20
1520.414867842559
30
0
10
3314.3352119075926
20
1520.7144978584504
30
0
10
3314.5418847523611
20
1520.8945657193854
30
0
10
3314.5516038389674
20
1520.9030100042353
30
0
0
SPLINE
5
211
100
AcDbEntity
8
0
100
AcDbSpline
70
1064
71
5
72
21
73
15
74
0
42
0.000000001
43
0.0000000001
44
0.0000000001
40
0.24531251365580686
40
0.24531251365580686
40
0.24531251365580686
40
0.24531251365580686
40
0.24531251365580686
40
0.24531251365580686
40
0.25
40
0.29999999999999999
40
0.34999999999999998
40
0.39999999999999997
40
0.44999999999999996
40
0.49999999999999994
40
0.54999999999999993
40
0.59999999999999998
40
0.65000000000000002
40
0.66801163953208509
40
0.66801163953208509
40
0.66801163953208509
40
0.66801163953208509
40
0.66801163953208509
40
0.66801163953208509
10
3314.5516010123106
20
1520.9030132576229
30
0
10
3314.5504826643446
20
1520.9020513405321
30
0
10
3314.5235193132739
20
1520.8788875215248
30
0
10
3314.130982766897
20
1520.5444868122468
30
0
10
3311.6208157263513
20
1518.4882789107792
30
0
10
3302.5664116951057
20
1511.6325244245299
30
0
10
3288.8452927797084
20
1504.4207594395161
30
0
10
3280.1543669788775
20
1506.3853199304995
30
0
10
3278.3594339299684
20
1517.2134403608802
30
0
10
3279.1636396485455
20
1529.4743076706541
30
0
10
3281.6000388974644
20
1539.8467363028763
30
0
10
3284.1879788623323
20
1546.8644791832367
30
0
10
3286.4014130897517
20
1551.3730521442128
30
0
10
3287.8164736589006
20
1553.849202567045
30
0
10
3288.2011437029432
20
1554.49673028804
30
0
0
SPLINE
5
212
100
AcDbEntity
8
0
100
AcDbSpline
70
1064
71
3
72
12
73
8
74
0
42
0.000000001
43
0.0000000001
44
0.0000000001
40
0
40
0
40
0
40
0
40
1.7079924767694996
40
1.7079924767694996
40
3.2834544115819648
40
3.2834544115819648
40
5.0223360025599968
40
5.0223360025599968
40
5.0223360025599968
40
5.0223360025599968
10
3288.2011437029428
20
1554.4967302880409
30
0
10
3291.1089184703415
20
1559.3914830702315
30
0
10
3295.4792021427656
20
1565.04174641893
30
0
10
3309.4075032710866
20
1576.4714437075415
30
0
10
3317.2660766123427
20
1581.1700541105401
30
0
10
3333.8927115444153
20
1588.6816942257813
30
0
10
3342.5437109258155
20
1591.2490601712373
30
0
10
3351.3247463633115
20
1592.4869551281799
30
0
0
SPLINE
5
213
100
AcDbEntity
8
0
100
AcDbSpline
70
1064
71
3
72
8
73
4
74
0
42
0.000000001
43
0.0000000001
44
0.0000000001
40
0
40
0
40
0
40
0
40
2.3419439833155065
40
2.3419439833155065
40
2.3419439833155065
40
2.3419439833155065
10
3375.0031084726561
20
1595.4009107487022
30
0
10
3367.1121703707036
20
1594.4697260833502
30
0
10
3359.2212322687533
20
1593.5385414179993
30
0
10
3351.324746363332
20
1592.4869551280269
30
0
0
SPLINE
5
214
100
AcDbEntity
8
0
100
AcDbSpline
70
1064
71
3
72
10
73
6
74
0
42
0.000000001
43
0.0000000001
44
0.0000000001
40
0
40
0
40
0
40
0
40
1.6979565738710889
40
3.3469973879739263
40
5.3316673209073624
40
5.3316673209073624
40
5.3316673209073624
40
5.3316673209073624
10
3428.9043788872891
20
1601.8467057261776
30
0
10
3423.2335185227907
20
1600.7726597490862
30
0
10
3412.0551673684508
20
1598.6555095609103
30
0
10
3393.9634968489599
20
1597.5036141217831
30
0
10
3381.7007879056928
20
1596.143682091574
30
0
10
3375.0031084726561
20
1595.4009107487022
30
0
0
SPLINE
5
215
100
AcDbEntity
8
0
100
AcDbSpline
70
1064
71
3
72
10
73
6
74
0
42
0.000000001
43
0.0000000001
44
0.0000000001
40
0
40
0
40
0
40
0
40
1.3319269843294479
40
3.025637398576821
40
4.723381624628824
40
4.723381624628824
40
4.723381624628824
40
4.723381624628824
10
3430.2405673540807
20
1642.369948678439
30
0
10
3432.5746452678004
20
1638.6665173190081
30
0
10
3437.8767928404795
20
1630.2537134971815
30
0
10
3445.3508923792697
20
1612.5184189016406
30
0
10
3434.3908953416371
20
1605.4067629967856
30
0
10
3428.9043788872891
20
1601.8467057261776
30
0
0
SPLINE
5
216
100
AcDbEntity
8
0
100
AcDbSpline
70
1064
71
3
72
10
73
6
74
0
42
0.000000001
43
0.0000000001
44
0.0000000001
40
0
40
0
40
0
40
0
40
2.3171709087775638
40
3.9108663735816016
40
4.9766912340502767
40
4.9766912340502767
40
4.9766912340502767
40
4.9766912340502767
10
3395.3567740489461
20
1678.8471167215787
30
0
10
3401.426966883264
20
1673.8324706218943
30
0
10
3411.6720950897934
20
1665.3688692827009
30
0
10
3423.166140445976
20
1652.8687893609494
30
0
10
3428.2165669739038
20
1645.3736771512647
30
0
10
3430.2405673540807
20
1642.369948678439
30
0
0
SPLINE
5
217
100
AcDbEntity
8
0
100
AcDbSpline
70
1064
71
3
72
10
73
6
74
0
42
0.000000001
43
0.0000000001
44
0.0000000001
40
0
40
0
40
0
40
0
40
1.0863256272499764
40
2.1777679026800483
40
4.1516003084554116
40
4.1516003084554116
40
4.1516003084554116
40
4.1516003084554116
10
3369.341608229779
20
1709.2702628668892
30
0
10
3369.4912206771505
20
1705.417798293232
30
0
10
3369.7911502540114
20
1697.6947238445835
30
0
10
3381.1638812687352
20
1687.9369973810756
30
0
10
3389.7973780651523
20
1682.407648518313
30
0
10
3395.3567740489461
20
1678.8471167215787
30
0
0
SPLINE
5
218
100
AcDbEntity
8
0
100
AcDbSpline
70
1064
71
3
72
10
73
6
74
0
42
0.000000001
43
0.0000000001
44
0.0000000001
40
0
40
0
40
0
40
0
40
3.2223985489126066
40
5.2769420340510917
40
6.7936308583934464
40
6.7936308583934464
40
6.7936308583934464
40
6.7936308583934464
10
3431.8526803038208
20
1700.1388077146451
30
0
10
3422.6338492521541
20
1705.4540595339975
30
0
10
3407.5372569644583
20
1714.1582205250606
30
0
10
3382.6694086277644
20
1721.8932174987297
30
0
10
3373.3145719186814
20
1713.0331148680764
30
0
10
3369.341608229779
20
1709.2702628668892
30
0
0
SPLINE
5
219
100
AcDbEntity
8
0
100
AcDbSpline
70
1064
71
3
72
13
73
9
74
0
42
0.000000001
43
0.0000000001
44
0.0000000001
40
0
40
0
40
0
40
0
40
0.97815329604770584
40
2.5037039022895966
40
4.7629628226685892
40
6.9354372576707455
40
9.2536581499200352
40
11.279393841853441
40
11.279393841853441
40
11.279393841853441
40
11.279393841853441
10
3498.4303360015224
20
1609.5528008440615
30
0
10
3495.7067369103629
20
1611.620490073358
30
0
10
3488.7353493984506
20
1616.9129954639025
30
0
10
3486.0160792576767
20
1633.8676124791666
30
0
10
3478.2592375087097
20
1652.4174933010418
30
0
10
3464.702260714746
20
1671.2133071046733
30
0
10
3448.6977624279461
20
1686.5653000273815
30
0
10
3437.2098753790578
20
1695.8220624473856
30
0
10
3431.8526803038208
20
1700.1388077146451
30
0
0
SPLINE
5
220
100
AcDbEntity
8
0
100
AcDbSpline
70
1064
71
3
72
13
73
9
74
0
42
0.000000001
43
0.0000000001
44
0.0000000001
40
0
40
0
40
0
40
0
40
2.3992236137019511
40
3.5568350609868258
40
4.5256004474174123
40
5.9393482380646603
40
7.3426471343815027
40
8.8039624878001081
40
8.8039624878001081
40
8.8039624878001081
40
8.8039624878001081
10
3560.4385267577959
20
1641.2708889548755
30
0
10
3560.5911521371877
20
1633.2667902154426
30
0
10
3560.8174183749475
20
1621.4007603608534
30
0
10
3553.2963219935232
20
1605.4161451581203
30
0
10
3539.9508193555607
20
1605.943496771197
30
0
10
3527.7139765316429
20
1607.9727597930664
30
0
10
3513.091284869779
20
1609.2537762929217
30
0
10
3503.3828598847731
20
1609.4517892216559
30
0
10
3498.4303360015224
20
1609.5528008440615
30
0
0
SPLINE
5
221
100
AcDbEntity
8
0
100
AcDbSpline
70
1064
71
3
72
10
73
6
74
0
42
0.000000001
43
0.0000000001
44
0.0000000001
40
0
40
0
40
0
40
0
40
2.9737372416313037
40
6.621682491849036
40
10.057541984151495
40
10.057541984151495
40
10.057541984151495
40
10.057541984151495
10
3537.6340536870634
20
1740.5981875173595
30
0
10
3541.2349688043378
20
1731.1679624005601
30
0
10
3549.2532013007622
20
1710.1694842311028
30
0
10
3558.2557904975124
20
1677.0034362409185
30
0
10
3559.7256166371244
20
1652.9416047720676
30
0
10
3560.4385267577959
20
1641.2708889548755
30
0
0
SPLINE
5
222
100
AcDbEntity
8
0
100
AcDbSpline
70
1064
71
3
72
10
73
6
74
0
42
0.000000001
43
0.0000000001
44
0.0000000001
40
0
40
0
40
0
40
0
40
1.3898781772874771
40
3.1527479848855924
40
5.0173745503192704
40
5.0173745503192704
40
5.0173745503192704
40
5.0173745503192704
10
3536.8543483470785
20
1786.7212884427786
30
0
10
3532.977967721572
20
1783.3888637322902
30
0
10
3524.1849300255944
20
1775.8297154109025
30
0
10
3530.4884137264639
20
1757.1882262331005
30
0
10
3535.2080427898477
20
1746.2306591968049
30
0
10
3537.6340536870634
20
1740.5981875173595
30
0
0
SPLINE
5
223
100
AcDbEntity
8
0
100
AcDbSpline
70
1064
71
3
72
13
73
9
74
0
42
0.000000001
43
0.0000000001
44
0.0000000001
40
0
40
0
40
0
40
0
40
3.2397046492188051
40
7.1725185584884708
40
10.495147448887163
40
14.5359221571316
40
17.080171951908248
40
18.32861980296332
40
18.32861980296332
40
18.32861980296332
40
18.32861980296332
10
3606.7925431670869
20
1621.2869078054555
30
0
10
3605.7827771088478
20
1632.2514042289922
30
0
10
3603.5472135076293
20
1656.5261646153281
30
0
10
3596.27626341726
20
1691.4307005761318
30
0
10
3585.9440012606342
20
1728.6122254418465
30
0
10
3569.570603798129
20
1757.9890605335131
30
0
10
3552.5871919558199
20
1779.6042915312241
30
0
10
3540.75061256053
20
1784.9587526251387
30
0
10
3536.8543483470785
20
1786.7212884427786
30
0
0
SPLINE
5
224
100
AcDbEntity
8
0
100
AcDbSpline
70
1064
71
3
72
22
73
18
74
0
42
0.000000001
43
0.0000000001
44
0.0000000001
40
0
40
0
40
0
40
0
40
3.1448553240227057
40
4.9612862188229965
40
7.1439907452351141
40
8.6778909100636508
40
12.298152076728964
40
16.539340189075091
40
19.805934567158328
40
23.02941033442136
40
25.665017932340664
40
27.094890367069368
40
29.087608840424291
40
30.871293313584271
40
32.138519557057009
40
33.596814447126896
40
34.86209203974682
40
34.86209203974682
40
34.86209203974682
40
34.86209203974682
10
3779.6983898816188
20
1733.967765295869
30
0
10
3780.1259447024404
20
1747.3914205614913
30
0
10
3780.8004500840138
20
1768.5684188694361
30
0
10
3749.9665953128374
20
1766.2832581317095
30
0
10
3740.0868821891595
20
1748.3117573457164
30
0
10
3735.2201075851735
20
1724.1222974568327
30
0
10
3725.806757441751
20
1693.4289130801139
30
0
10
3714.3390254496762
20
1657.5976951986152
30
0
10
3700.3843796738215
20
1623.4828455606603
30
0
10
3684.8718668867514
20
1597.7252384025164
30
0
10
3674.7559177139965
20
1572.1440356010041
30
0
10
3652.2832453992146
20
1568.1809958530519
30
0
10
3636.7772192910593
20
1577.9422689411333
30
0
10
3620.2907780541386
20
1582.5188711881035
30
0
10
3608.1641556125669
20
1593.6294681278334
30
0
10
3607.4186096942344
20
1607.8899574436921
30
0
10
3606.9911337215899
20
1617.0373469590604
30
0
10
3606.7925431670869
20
1621.2869078054555
30
0
0
SPLINE
5
225
100
AcDbEntity
8
0
100
AcDbSpline
70
1064
71
3
72
10
73
6
74
0
42
0.000000001
43
0.0000000001
44
0.0000000001
40
0
40
0
40
0
40
0
40
7.0504578825232151
40
12.670653357163749
40
16.944188743936866
40
16.944188743936866
40
16.944188743936866
40
16.944188743936866
10
3729.1123642369303
20
1569.6355844609197
30
0
10
3739.2122186852021
20
1591.4102320034649
30
0
10
3757.363061765775
20
1630.5423019460263
30
0
10
3771.1090145300727
20
1686.6532567513118
30
0
10
3777.1074172216845
20
1719.6954121805445
30
0
10
3779.6983898816188
20
1733.967765295869
30
0
0
SPLINE
5
226
100
AcDbEntity
8
0
100
AcDbSpline
70
1064
71
3
72
10
73
6
74
0
42
0.000000001
43
0.0000000001
44
0.0000000001
40
0
40
0
40
0
40
0
40
1.6093095069491861
40
2.9175094652927127
40
5.2656538693875792
40
5.2656538693875792
40
5.2656538693875792
40
5.2656538693875792
10
3728.8246790188373
20
1520.7314709533002
30
0
10
3725.2590797253333
20
1525.067271522664
30
0
10
3718.7950219146296
20
1532.9276235221525
30
0
10
3718.2165474879093
20
1551.9027715645816
30
0
10
3724.8513934662196
20
1562.7009049252572
30
0
10
3729.1123642369303
20
1569.6355844609197
30
0
0
SPLINE
5
227
100
AcDbEntity
8
0
100
AcDbSpline
70
1064
71
3
72
16
73
12
74
0
42
0.000000001
43
0.0000000001
44
0.0000000001
40
0
40
0
40
0
40
0
40
3.9091538246536204
40
8.6977764552957648
40
12.491158878280547
40
14.918275395891715
40
16.556937289468614
40
17.449033541707117
40
19.635266698577652
40
21.426298703465335
40
22.931750515620383
40
22.931750515620383
40
22.931750515620383
40
22.931750515620383
10
3858.5630281816611
20
1612.2456859348981
30
0
10
3853.0682659659851
20
1600.1334686375335
30
0
10
3840.8425476722914
20
1573.1840665019567
30
0
10
3820.0241804211555
20
1536.5978393446094
30
0
10
3800.7572954527905
20
1503.3757183638691
30
0
10
3784.1168487846494
20
1484.8038142515625
30
0
10
3771.5589758815963
20
1468.6459622585269
30
0
10
3754.8629254875004
20
1476.7006426470798
30
0
10
3752.2526738830493
20
1494.5956207959673
30
0
10
3740.2148953937558
20
1509.1027382938805
30
0
10
3732.3956185745851
20
1517.0857543075501
30
0
10
3728.8246790188373
20
1520.7314709533002
30
0
0
SPLINE
5
228
100
AcDbEntity
8
0
100
AcDbSpline
70
1064
71
3
72
10
73
6
74
0
42
0.000000001
43
0.0000000001
44
0.0000000001
40
0
40
0
40
0
40
0
40
3.989567924230653
40
6.1832263826669305
40
9.6631771202291841
40
9.6631771202291841
40
9.6631771202291841
40
9.6631771202291841
10
3898.5700437127298
20
1592.3966480192782
30
0
10
3903.7279402941613
20
1607.7922600558704
30
0
10
3911.7218992458743
20
1631.6531282826757
30
0
10
3871.4590905234741
20
1648.0355334519195
30
0
10
3863.4657831735763
20
1625.8520759261264
30
0
10
3858.5630281816611
20
1612.2456859348981
30
0
0
SPLINE
5
229
100
AcDbEntity
8
0
100
AcDbSpline
70
1064
71
3
72
10
73
6
74
0
42
0.000000001
43
0.0000000001
44
0.0000000001
40
0
40
0
40
0
40
0
40
5.3656086386813309
40
12.510193884254958
40
18.209334859789507
40
18.209334859789507
40
18.209334859789507
40
18.209334859789507
10
3807.2302849204812
20
1431.6052818174617
30
0
10
3818.1303393771418
20
1446.2180390870024
30
0
10
3843.544379756222
20
1480.2884379803552
30
0
10
3873.8137886937625
20
1534.4933871584137
30
0
10
3890.9612210919772
20
1574.6001097013541
30
0
10
3898.5700437127298
20
1592.3966480192782
30
0
0
SPLINE
5
230
100
AcDbEntity
8
0
100
AcDbSpline
70
1064
71
3
72
10
73
6
74
0
42
0.000000001
43
0.0000000001
44
0.0000000001
40
0
40
0
40
0
40
0
40
1.748334575726568
40
3.6751644750674641
40
6.4119283256422612
40
6.4119283256422612
40
6.4119283256422612
40
6.4119283256422612
10
3784.561532768198
20
1373.0076707927665
30
0
10
3784.0668469455159
20
1378.9651878298391
30
0
10
3783.0269706042918
20
1391.4884515564952
30
0
10
3790.1917564155428
20
1412.8365803742756
30
0
10
3800.9291801095173
20
1424.664332959999
30
0
10
3807.2302849204812
20
1431.6052818174617
30
0
0
SPLINE
5
231
100
AcDbEntity
8
0
100
AcDbSpline
70
1064
71
3
72
8
73
4
74
0
42
0.000000001
43
0.0000000001
44
0.0000000001
40
12.093753805477574
40
12.093753805477574
40
12.093753805477574
40
12.093753805477574
40
17.430113466367434
40
17.430113466367434
40
17.430113466367434
40
17.430113466367434
10
3789.7134765022065
20
1318.8778204723994
30
0
10
3787.1433334400149
20
1336.8067855883189
30
0
10
3785.8524331041031
20
1354.9072281905435
30
0
10
3784.561532768198
20
1373.0076707927676
30
0
0
SPLINE
5
232
100
AcDbEntity
8
0
100
AcDbSpline
70
1064
71
5
72
17
73
11
74
0
42
0.000000001
43
0.0000000001
44
0.0000000001
40
0.82863794993250095
40
0.82863794993250095
40
0.82863794993250095
40
0.82863794993250095
40
0.82863794993250095
40
0.82863794993250095
40
0.83333333333333326
40
0.86666666666666659
40
0.89999999999999991
40
0.93333333333333324
40
0.96666666666666656
40
1
40
1
40
1
40
1
40
1
40
1
10
3825.9237741520633
20
1222.1153766477935
30
0
10
3825.5929322789689
20
1222.6616285315422
30
0
10
3822.9248222418869
20
1227.1000271975108
30
0
10
3818.0932369550942
20
1235.64045999577
30
0
10
3811.5187684800344
20
1248.6504445462126
30
0
10
3803.9642411275258
20
1266.2052238096426
30
0
10
3796.7998377897379
20
1286.6115802437023
30
0
10
3792.8022968387086
20
1301.1902387624943
30
0
10
3790.8459258247558
20
1310.6579112032559
30
0
10
3790.0124908812313
20
1316.2566852147243
30
0
10
3789.7134765022065
20
1318.8778204723994
30
0
0
SPLINE
5
233
100
AcDbEntity
8
0
100
AcDbSpline
70
1064
71
5
72
21
73
15
74
0
42
0.000000001
43
0.0000000001
44
0.0000000001
40
0.51422818089220423
40
0.51422818089220423
40
0.51422818089220423
40
0.51422818089220423
40
0.51422818089220423
40
0.51422818089220423
40
0.53333333333333333
40
0.56666666666666665
40
0.59999999999999998
40
0.6333333333333333
40
0.66666666666666663
40
0.69999999999999996
40
0.73333333333333328
40
0.76666666666666661
40
0.79999999999999993
40
0.82863794993249573
40
0.82863794993249573
40
0.82863794993249573
40
0.82863794993249573
40
0.82863794993249573
40
0.82863794993249573
10
3948.2699571004741
20
1075.5404475183655
30
0
10
3947.9222351121052
20
1077.2810843722527
30
0
10
3946.7022822355466
20
1082.1668905038823
30
0
10
3943.5585249858696
20
1090.5802961927934
30
0
10
3936.8976463154058
20
1102.8099680298387
30
0
10
3925.4083997854627
20
1118.2722722159069
30
0
10
3910.7739433256006
20
1133.8344866200848
30
0
10
3895.2074428431956
20
1147.9470953247064
30
0
10
3879.5115593187006
20
1161.1972875790429
30
0
10
3864.2281743638137
20
1174.5578629203742
30
0
10
3850.1216360160151
20
1188.6749489426522
30
0
10
3839.6714345276359
20
1201.3726188899334
30
0
10
3832.4218558100029
20
1211.7153162022678
30
0
10
3827.9416355679268
20
1218.7836925739005
30
0
10
3825.9237741520633
20
1222.1153766477898
30
0
0
LINE
5
234
100
AcDbEntity
8
0
100
AcDbLine
10
3858.0179069011929
20
1120.7925949870216
30
0
11
3948.2699571004741
21
1075.5404475183655
31
0
0
LINE
5
235
100
AcDbEntity
8
0
100
AcDbLine
10
3852.6403747035743
20
1110.0675060576218
30
0
11
3858.0179069011929
21
1120.7925949870216
31
0
0
SPLINE
5
236
100
AcDbEntity
8
0
100
AcDbSpline
70
1064
71
5
72
24
73
18
74
0
42
0.000000001
43
0.0000000001
44
0.0000000001
40
0.089056319327553979
40
0.089056319327553979
40
0.089056319327553979
40
0.089056319327553979
40
0.089056319327553979
40
0.089056319327553979
40
0.10000000000000001
40
0.13333333333333333
40
0.16666666666666666
40
0.19999999999999998
40
0.23333333333333331
40
0.26666666666666666
40
0.29999999999999999
40
0.33333333333333331
40
0.36666666666666664
40
0.39999999999999997
40
0.43333333333333329
40
0.46666666666666662
40
0.48170609324430269
40
0.48170609324430269
40
0.48170609324430269
40
0.48170609324430269
40
0.48170609324430269
40
0.48170609324430269
10
3758.1683001070223
20
1078.5659989816738
30
0
10
3759.1476435528148
20
1078.650043973601
30
0
10
3763.1332186293025
20
1078.9583304025941
30
0
10
3770.2450439515314
20
1079.2733173459621
30
0
10
3780.3567763635874
20
1079.1548429263753
30
0
10
3792.7437249311652
20
1077.8995258052041
30
0
10
3806.5651616682931
20
1074.8052873324073
30
0
10
3821.217257930291
20
1070.0700770473495
30
0
10
3838.1002069791043
20
1063.9462251644622
30
0
10
3857.9166734331716
20
1057.0696021965164
30
0
10
3879.8743136180497
20
1050.6174048628382
30
0
10
3902.1389601186092
20
1046.0373215605996
30
0
10
3922.3685497716542
20
1044.7573350930461
30
0
10
3936.4922800924933
20
1047.5414230818458
30
0
10
3943.7479329787061
20
1052.6394568908088
30
0
10
3946.8574744190801
20
1057.6372008225094
30
0
10
3947.990310192049
20
1061.0224001122697
30
0
10
3948.2746604079898
20
1062.1141735681042
30
0
0
SPLINE
5
237
100
AcDbEntity
8
0
100
AcDbSpline
70
1064
71
5
72
14
73
8
74
0
42
0.000000001
43
0.0000000001
44
0.0000000001
40
0
40
0
40
0
40
0
40
0
40
0
40
0.033333333333333333
40
0.066666666666666666
40
0.089056319327553812
40
0.089056319327553812
40
0.089056319327553812
40
0.089056319327553812
40
0.089056319327553812
40
0.089056319327553812
10
3729.8546291366188
20
1069.9136929960298
30
0
10
3730.6164180468932
20
1070.9580205019527
30
0
10
3732.7612153028031
20
1072.8967005366035
30
0
10
3737.2866828556016
20
1075.0857342395088
30
0
10
3743.7177338356787
20
1076.745238981247
30
0
10
3751.2379143287626
20
1077.8843597136342
30
0
10
3756.1646634656358
20
1078.394051514138
30
0
10
3758.1683001070223
20
1078.5659989816738
30
0
0
SPLINE
5
238
100
AcDbEntity
8
0
100
AcDbSpline
70
1064
71
3
72
14
73
10
74
0
42
0.000000001
43
0.0000000001
44
0.0000000001
40
7.3489901245756384
40
7.3489901245756384
40
7.3489901245756384
40
7.3489901245756384
40
9.4351058402278127
40
11.536526227650089
40
13.748280207881391
40
15.33498008788454
40
16.976169325994835
40
18.830361030437757
40
19.015007657304601
40
19.015007657304601
40
19.015007657304601
40
19.015007657304601
10
3691.2016410084493
20
959.19505775846562
30
0
10
3693.9600029411781
20
965.72922193390411
30
0
10
3698.8524076092199
20
979.05597969680002
30
0
10
3703.988131340484
20
1000.2396238181381
30
0
10
3707.3925074569274
20
1019.9335245925316
30
0
10
3709.6366458508032
20
1038.4241442709176
30
0
10
3717.6093058718993
20
1054.0552901769699
30
0
10
3725.2751235441087
20
1063.9261232167185
30
0
10
3729.4735245664037
20
1069.4171493494625
30
0
10
3729.8546291366188
20
1069.9136929960298
30
0
0
SPLINE
5
239
100
AcDbEntity
8
0
100
AcDbSpline
70
1064
71
3
72
14
73
10
74
0
42
0.000000001
43
0.0000000001
44
0.0000000001
40
0
40
0
40
0
40
0
40
0.96687128465293304
40
0.96687128465293304
40
2.7550990101748489
40
2.7550990101748489
40
4.7699244745511127
40
4.7699244745511127
40
8.6701781113579059
40
8.6701781113579059
40
8.6701781113579059
40
8.6701781113579059
10
3691.201641008447
20
959.19505775846699
30
0
10
3689.7830665681181
20
956.30114024593922
30
0
10
3687.488303933826
20
952.83187681454717
30
0
10
3676.5242930028103
20
940.69506588855677
30
0
10
3666.5977819485784
20
932.86987803061743
30
0
10
3651.7677364228348
20
922.54997989333606
30
0
10
3647.8419736363776
20
920.9388479600882
30
0
10
3639.2297512620894
20
918.19669374453213
30
0
10
3629.6740821929484
20
916.8892314211339
30
0
10
3627.2923297673128
20
916.58667543327874
30
0
0
SPLINE
5
240
100
AcDbEntity
8
0
100
AcDbSpline
70
1064
71
5
72
24
73
18
74
0
42
0.000000001
43
0.0000000001
44
0.0000000001
40
0.37670592263595404
40
0.37670592263595404
40
0.37670592263595404
40
0.37670592263595404
40
0.37670592263595404
40
0.37670592263595404
40
0.39999999999999997
40
0.44999999999999996
40
0.49999999999999994
40
0.54999999999999993
40
0.59999999999999998
40
0.65000000000000002
40
0.70000000000000007
40
0.75000000000000011
40
0.80000000000000016
40
0.8500000000000002
40
0.90000000000000024
40
0.95000000000000029
40
0.99997886774285061
40
0.99997886774285061
40
0.99997886774285061
40
0.99997886774285061
40
0.99997886774285061
40
0.99997886774285061
10
3627.2923297673128
20
916.58667543327851
30
0
10
3626.1934749195852
20
916.44708698975046
30
0
10
3622.6482919065711
20
916.02786302137918
30
0
10
3616.2672824164074
20
915.4568952349166
30
0
10
3606.7445092486387
20
915.20979480099481
30
0
10
3595.4946426941365
20
916.7108856025153
30
0
10
3587.5854778567668
20
921.44242858944892
30
0
10
3587.2169465363208
20
927.71601109519383
30
0
10
3594.0192310535554
20
934.60941218889639
30
0
10
3605.7273648828118
20
941.76214457247488
30
0
10
3619.2130583856851
20
949.0674658265882
30
0
10
3631.4986229420674
20
956.53145136432738
30
0
10
3641.0018142175886
20
964.02158540124697
30
0
10
3647.4848853384201
20
971.27423986480483
30
0
10
3650.6139207752881
20
976.65490365688595
30
0
10
3652.1112987429365
20
980.34391882859939
30
0
10
3652.784065773742
20
982.63469493332559
30
0
10
3653.0390970963417
20
983.73775353417068
30
0
0
SPLINE
5
241
100
AcDbEntity
8
0
100
AcDbSpline
70
1064
71
3
72
13
73
9
74
0
42
0.000000001
43
0.0000000001
44
0.0000000001
40
0
40
0
40
0
40
0
40
3.060921530137287
40
6.1996877504501331
40
8.7982217767257254
40
10.153920767723736
40
12.876393553836563
40
14.144088754721688
40
14.144088754721688
40
14.144088754721688
40
14.144088754721688
10
3569.7900181226646
20
1055.2679690015536
30
0
10
3579.9206247703069
20
1052.4477822945237
30
0
10
3600.4394774490265
20
1046.7356865059169
30
0
10
3626.6137944307843
20
1036.0944062287801
30
0
10
3658.87641255262
20
1044.6457321451878
30
0
10
3660.9297154176124
20
1017.7600801723506
30
0
10
3657.0613320607567
20
1001.1290414076774
30
0
10
3654.0137614096466
20
987.95409345185431
30
0
10
3653.0390970637886
20
983.73775354169675
30
0
0
SPLINE
5
242
100
AcDbEntity
8
0
100
AcDbSpline
70
1064
71
3
72
13
73
9
74
0
42
0.000000001
43
0.0000000001
44
0.0000000001
40
0
40
0
40
0
40
0
40
2.0595210636128272
40
3.4549266547962816
40
4.4088986069971776
40
5.5600321789800216
40
6.9729822366183125
40
8.6560226645724381
40
8.6560226645724381
40
8.6560226645724381
40
8.6560226645724381
10
3583.0284205834619
20
1091.665275215825
30
0
10
3576.0969980136429
20
1092.7121087266846
30
0
10
3564.4692671711687
20
1094.468212640211
30
0
10
3549.2671591651265
20
1092.2061623844204
30
0
10
3539.5125215423991
20
1083.3414249164948
30
0
10
3542.3263086468023
20
1069.6124750919203
30
0
10
3554.7851168209627
20
1061.2417261297239
30
0
10
3564.5057134246895
20
1057.3717584382337
30
0
10
3569.7900181226646
20
1055.2679690015536
30
0
0
SPLINE
5
243
100
AcDbEntity
8
0
100
AcDbSpline
70
1064
71
3
72
10
73
6
74
0
42
0.000000001
43
0.0000000001
44
0.0000000001
40
0
40
0
40
0
40
0
40
1.701958383731232
40
4.9076054019852693
40
8.9114756971832811
40
8.9114756971832811
40
8.9114756971832811
40
8.9114756971832811
10
3672.9599260376108
20
1086.0090604573911
30
0
10
3667.2879230518129
20
1084.7330467757772
30
0
10
3650.9326744398254
20
1081.0536550252193
30
0
10
3620.5017393373078
20
1085.8553142967164
30
0
10
3596.4087043172754
20
1089.590761183837
30
0
10
3583.0284205834619
20
1091.665275215825
30
0
0
SPLINE
5
244
100
AcDbEntity
8
0
100
AcDbSpline
70
1064
71
5
72
21
73
15
74
0
42
0.000000001
43
0.0000000001
44
0.0000000001
40
-1
40
-1
40
-1
40
-1
40
-1
40
-1
40
-0.89999999999999991
40
-0.79999999999999993
40
-0.69999999999999996
40
-0.59999999999999998
40
-0.5
40
-0.40000000000000002
40
-0.30000000000000004
40
-0.20000000000000001
40
-0.10000000000000001
40
0
40
0
40
0
40
0
40
0
40
0
10
3699.4463418518671
20
1223.6307764213584
30
0
10
3701.2082597836229
20
1221.1462159032137
30
0
10
3704.5229379135458
20
1216.1526461208725
30
0
10
3708.8674585020044
20
1208.5889424732832
30
0
10
3713.3847151647205
20
1198.354916571669
30
0
10
3716.7699137035629
20
1185.29804915969
30
0
10
3717.7241343859646
20
1171.9570212760013
30
0
10
3716.1013348685742
20
1158.3147618226856
30
0
10
3711.9146072319336
20
1144.3728011517583
30
0
10
3705.3475313602985
20
1130.1525981779287
30
0
10
3696.6189705085139
20
1115.6797361394504
30
0
10
3688.0664905543267
20
1103.9179700686634
30
0
10
3680.8283112808545
20
1095.0003481007266
30
0
10
3675.6427441448432
20
1089.0131725157103
30
0
10
3672.9599260376108
20
1086.0090604573911
30
0
0
SPLINE
5
245
100
AcDbEntity
8
0
100
AcDbSpline
70
1064
71
3
72
10
73
6
74
0
42
0.000000001
43
0.0000000001
44
0.0000000001
40
0
40
0
40
0
40
0
40
0.73717640453895594
40
1.6731855703621468
40
2.6490247963261457
40
2.6490247963261457
40
2.6490247963261457
40
2.6490247963261457
10
3674.9995945629371
20
1232.9373727150478
30
0
10
3677.4880943241919
20
1232.8035035767434
30
0
10
3683.1362972058105
20
1232.4996578362309
30
0
10
3692.2576671000775
20
1230.5834741677058
30
0
10
3697.0170656509481
20
1225.9803086718157
30
0
10
3699.4463418518671
20
1223.6307764213584
30
0
0
SPLINE
5
246
100
AcDbEntity
8
0
100
AcDbSpline
70
1064
71
3
72
12
73
8
74
0
42
0.000000001
43
0.0000000001
44
0.0000000001
40
6.4642081203457842
40
6.4642081203457842
40
6.4642081203457842
40
6.4642081203457842
40
9.2691388300222535
40
13.99867734837941
40
16.158656289782769
40
18.262989459071321
40
20.338362902090445
40
20.338362902090445
40
20.338362902090445
40
20.338362902090445
10
3537.2646035237412
20
1202.1900535081083
30
0
10
3546.3168060837052
20
1205.1732545279381
30
0
10
3571.0564157759245
20
1212.1230182724796
30
0
10
3602.8530337128313
20
1220.4378998469172
30
0
10
3632.5894296419938
20
1227.4548150553239
30
0
10
3653.831911939269
20
1231.0953879884376
30
0
10
3667.976367685128
20
1232.3262204755499
30
0
10
3674.9995945629371
20
1232.9373727150478
30
0
0
LINE
5
247
100
AcDbEntity
8
0
100
AcDbLine
10
3948.2752467741811
20
1062.116425450258
30
0
11
3852.6403747035743
21
1110.0675060576218
31
0
0
LINE
5
248
100
AcDbEntity
8
0
100
AcDbLine
10
3948.2746604079898
20
1062.1141735681042
30
0
11
3948.2752467741811
21
1062.116425450258
31
0
0
SPLINE
5
249
100
AcDbEntity
8
0
100
AcDbSpline
70
1064
71
5
72
26
73
20
74
0
42
0.000000001
43
0.0000000001
44
0.0000000001
40
0.64213331657965012
40
0.64213331657965012
40
0.64213331657965012
40
0.64213331657965012
40
0.64213331657965012
40
0.64213331657965012
40
0.65000000000000024
40
0.67500000000000027
40
0.70000000000000029
40
0.72500000000000031
40
0.75000000000000033
40
0.77500000000000036
40
0.80000000000000038
40
0.8250000000000004
40
0.85000000000000042
40
0.87500000000000044
40
0.90000000000000047
40
0.92500000000000049
40
0.95000000000000051
40
0.97500000000000053
40
0.99859607127255712
40
0.99859607127255712
40
0.99859607127255712
40
0.99859607127255712
40
0.99859607127255712
40
0.99859607127255712
10
3587.3359001268573
20
1434.1528469804639
30
0
10
3586.8840484010257
20
1433.7408912326428
30
0
10
3584.8944185015544
20
1432.0756865590097
30
0
10
3580.6976469857455
20
1429.5908455433373
30
0
10
3573.5643235312368
20
1427.4914238219501
30
0
10
3564.1552204532513
20
1427.5266252478559
30
0
10
3555.198375413654
20
1429.6425375002996
30
0
10
3548.833117639997
20
1431.9435485878357
30
0
10
3544.3295321258734
20
1433.1478892442551
30
0
10
3537.975261768263
20
1435.5007446724551
30
0
10
3528.4373169074365
20
1440.2068201198681
30
0
10
3516.7012327720272
20
1446.799496044714
30
0
10
3504.7530897728257
20
1454.1367478470465
30
0
10
3494.5257247455197
20
1460.6663682978497
30
0
10
3487.4194536668051
20
1465.056716326239
30
0
10
3482.0118935013725
20
1466.5284534354755
30
0
10
3477.7729849358843
20
1465.9253473083677
30
0
10
3475.2700212352943
20
1465.0342721634013
30
0
10
3473.9957311069247
20
1464.3483383444109
30
0
10
3473.4688334831544
20
1463.9935653659516
30
0
0
SPLINE
5
250
100
AcDbEntity
8
0
100
AcDbSpline
70
1064
71
5
72
37
73
31
74
0
42
0.000000001
43
0.0000000001
44
0.0000000001
40
0
40
0
40
0
40
0
40
0
40
0
40
0.025000000000000001
40
0.050000000000000003
40
0.075000000000000011
40
0.10000000000000001
40
0.125
40
0.14999999999999999
40
0.17499999999999999
40
0.19999999999999998
40
0.22499999999999998
40
0.24999999999999997
40
0.27499999999999997
40
0.29999999999999999
40
0.32500000000000001
40
0.35000000000000003
40
0.37500000000000006
40
0.40000000000000008
40
0.4250000000000001
40
0.45000000000000012
40
0.47500000000000014
40
0.50000000000000011
40
0.52500000000000013
40
0.55000000000000016
40
0.57500000000000018
40
0.6000000000000002
40
0.62500000000000022
40
0.64213331657964279
40
0.64213331657964279
40
0.64213331657964279
40
0.64213331657964279
40
0.64213331657964279
40
0.64213331657964279
10
3416.889814583626
20
1496.7915888027342
30
0
10
3418.4960014965691
20
1497.274971049239
30
0
10
3421.8808808750146
20
1498.3630565055382
30
0
10
3427.4758338537026
20
1500.3593619897806
30
0
10
3435.8108681296426
20
1503.6558397738293
30
0
10
3446.8237879737399
20
1508.3456402190332
30
0
10
3457.4082830076281
20
1513.0203519075003
30
0
10
3466.7446662418251
20
1517.2594999022385
30
0
10
3474.4543481646792
20
1520.8435936667956
30
0
10
3481.1241289163081
20
1524.3063029867767
30
0
10
3488.1612319098417
20
1528.2559209045007
30
0
10
3496.0945788462368
20
1531.3264864651035
30
0
10
3504.6176154631439
20
1531.9294591599021
30
0
10
3512.7611537250255
20
1528.833403241083
30
0
10
3517.510696601496
20
1522.2370340432121
30
0
10
3517.5700654291813
20
1514.5797815517089
30
0
10
3514.8820696909752
20
1508.2589479687715
30
0
10
3512.5324317992931
20
1504.4838462368614
30
0
10
3514.7977143388857
20
1499.5988804214903
30
0
10
3522.4577594268362
20
1492.4635437864026
30
0
10
3534.175311950678
20
1483.8138468044849
30
0
10
3547.4011578950422
20
1475.246771775564
30
0
10
3559.7160524246328
20
1468.2808611291296
30
0
10
3569.3265213142831
20
1463.7470709888821
30
0
10
3577.4684980925099
20
1460.1815526283503
30
0
10
3586.1404398367654
20
1454.7655970276207
30
0
10
3591.8348230378638
20
1447.8328838830125
30
0
10
3592.5663780342579
20
1441.6736263052987
30
0
10
3590.4558347632228
20
1437.4126284956124
30
0
10
3588.3200148105261
20
1435.0500698464532
30
0
10
3587.3359001268591
20
1434.1528469804655
30
0
0
SPLINE
5
251
100
AcDbEntity
8
0
100
AcDbSpline
70
1064
71
3
72
12
73
8
74
0
42
0.000000001
43
0.0000000001
44
0.0000000001
40
0
40
0
40
0
40
0
40
0.67625478228623515
40
1.395201152776401
40
2.4323887822364845
40
4.1180722136078529
40
5.0814789236972642
40
5.0814789236972642
40
5.0814789236972642
40
5.0814789236972642
10
3447.2711797276497
20
1425.5108275973289
30
0
10
3446.2736177172133
20
1427.6075672482125
30
0
10
3444.2155181615794
20
1431.9334125577234
30
0
10
3445.0668128520397
20
1440.7317475881491
30
0
10
3453.5845803531492
20
1449.4373508572244
30
0
10
3463.2839740136392
20
1457.118442148213
30
0
10
3470.7764773334061
20
1462.1275849102019
30
0
10
3473.4688334831544
20
1463.99356536595
30
0
0
SPLINE
5
252
100
AcDbEntity
8
0
100
AcDbSpline
70
1064
71
3
72
10
73
6
74
0
42
0.000000001
43
0.0000000001
44
0.0000000001
40
0
40
0
40
0
40
0
40
3.0906370617464844
40
6.2397774709645564
40
9.1991108292574282
40
9.1991108292574282
40
9.1991108292574282
40
9.1991108292574282
10
3526.6236960678998
20
1379.0816585969662
30
0
10
3516.4428441295763
20
1381.709659787781
30
0
10
3495.8884246714524
20
1387.0154081809062
30
0
10
3468.1773403029592
20
1402.730254235817
30
0
10
3454.0940308895642
20
1418.0762505563223
30
0
10
3447.2711797276497
20
1425.5108275973289
30
0
0
SPLINE
5
253
100
AcDbEntity
8
0
100
AcDbSpline
70
1064
71
3
72
10
73
6
74
0
42
0.000000001
43
0.0000000001
44
0.0000000001
40
0
40
0
40
0
40
0
40
1.7845380191592906
40
2.8377625085199578
40
4.673779674013792
40
4.673779674013792
40
4.673779674013792
40
4.673779674013792
10
3523.8714242742844
20
1350.146915989252
30
0
10
3530.336698870808
20
1351.6081543165838
30
0
10
3540.6177428498745
20
1353.9318074395737
30
0
10
3544.6778539164006
20
1372.9843902387165
30
0
10
3533.6387073040282
20
1376.712541942411
30
0
10
3526.6236960678998
20
1379.0816585969662
30
0
0
SPLINE
5
254
100
AcDbEntity
8
0
100
AcDbSpline
70
1064
71
3
72
10
73
6
74
0
42
0.000000001
43
0.0000000001
44
0.0000000001
40
0
40
0
40
0
40
0
40
4.3640402432668788
40
7.9010810332790715
40
10.474317183215778
40
10.474317183215778
40
10.474317183215778
40
10.474317183215778
10
3426.7263787699858
20
1387.062811794231
30
0
10
3438.8224911569864
20
1378.6370947984374
30
0
10
3460.7224643079712
20
1363.3823608738435
30
0
10
3494.0875221045053
20
1347.788400729421
30
0
10
3515.0453865915983
20
1349.4480033874117
30
0
10
3523.8714242742844
20
1350.146915989252
30
0
0
SPLINE
5
255
100
AcDbEntity
8
0
100
AcDbSpline
70
1064
71
3
72
13
73
9
74
0
42
0.000000001
43
0.0000000001
44
0.0000000001
40
0
40
0
40
0
40
0
40
3.198316588219031
40
5.945548963474713
40
8.4924429036402618
40
10.438676916506415
40
12.419103519599005
40
14.343222779345936
40
14.343222779345936
40
14.343222779345936
40
14.343222779345936
10
3292.9579793855141
20
1396.4622075493435
30
0
10
3303.5004350230001
20
1399.0460410646119
30
0
10
3323.0984593145286
20
1403.8492893531311
30
0
10
3351.6279370487814
20
1408.8496822350339
30
0
10
3374.6393491441358
20
1417.2229065593301
30
0
10
3398.3503558507277
20
1415.7980653982208
30
0
10
3411.8063197068523
20
1399.8330804320785
30
0
10
3421.8010704195854
20
1391.2784459611344
30
0
10
3426.7263787699858
20
1387.062811794231
30
0
0
SPLINE
5
256
100
AcDbEntity
8
0
100
AcDbSpline
70
1064
71
3
72
10
73
6
74
0
42
0.000000001
43
0.0000000001
44
0.0000000001
40
0
40
0
40
0
40
0
40
2.6228729365076049
40
4.9244140459655519
40
6.3881620423109045
40
6.3881620423109045
40
6.3881620423109045
40
6.3881620423109045
10
3259.4877796513074
20
1343.5607176802375
30
0
10
3261.3253548354642
20
1352.3055922013991
30
0
10
3264.7753813012641
20
1368.7239944513994
30
0
10
3277.4319265699519
20
1387.5889519037542
30
0
10
3288.6118199959396
20
1393.978344857499
30
0
10
3292.9579793855141
20
1396.4622075493435
30
0
0
SPLINE
5
257
100
AcDbEntity
8
0
100
AcDbSpline
70
1064
71
3
72
10
73
6
74
0
42
0.000000001
43
0.0000000001
44
0.0000000001
40
0
40
0
40
0
40
0
40
4.9523243673511628
40
9.0363006060079165
40
13.725115780165247
40
13.725115780165247
40
13.725115780165247
40
13.725115780165247
10
3315.8969823363209
20
1221.1522970811031
30
0
10
3302.7342257794116
20
1232.2011469706847
30
0
10
3278.7166905314944
20
1252.3615245120104
30
0
10
3264.020964785931
20
1298.2197396754959
30
0
10
3261.0667343703562
20
1327.7679915812932
30
0
10
3259.4877796513074
20
1343.5607176802375
30
0
0
SPLINE
5
258
100
AcDbEntity
8
0
100
AcDbSpline
70
1064
71
3
72
10
73
6
74
0
42
0.000000001
43
0.0000000001
44
0.0000000001
40
0
40
0
40
0
40
0
40
4.8553243626412943
40
9.6072443570983879
40
13.935596046048445
40
13.935596046048445
40
13.935596046048445
40
13.935596046048445
10
3444.3590099022049
20
1163.060769451698
30
0
10
3428.3530503354518
20
1167.1328917215922
30
0
10
3396.6820118543183
20
1175.1904118328871
30
0
10
3353.6249312671566
20
1195.6224433095399
30
0
10
3328.0756994902413
20
1212.9111687697073
30
0
10
3315.8969823363209
20
1221.1522970811031
30
0
0
SPLINE
5
259
100
AcDbEntity
8
0
100
AcDbSpline
70
1064
71
3
72
10
73
6
74
0
42
0.000000001
43
0.0000000001
44
0.0000000001
40
2.621668826279036
40
2.621668826279036
40
2.621668826279036
40
2.621668826279036
40
5.0626330819889507
40
10.098334625298385
40
17.419804487108507
40
17.419804487108507
40
17.419804487108507
40
17.419804487108507
10
3595.0037661142678
20
1160.0521007300276
30
0
10
3586.7150633316855
20
1160.0505279376521
30
0
10
3561.325971194623
20
1159.9167371487879
30
0
10
3511.0651779691466
20
1158.1420468387319
30
0
10
3469.1771460973928
20
1161.2307508604258
30
0
10
3444.3590099022049
20
1163.060769451698
30
0
0
SPLINE
5
260
100
AcDbEntity
8
0
100
AcDbSpline
70
1064
71
5
72
16
73
10
74
0
42
0.000000001
43
0.0000000001
44
0.0000000001
40
0
40
0
40
0
40
0
40
0
40
0
40
0.050000000000000003
40
0.10000000000000001
40
0.15000000000000002
40
0.20000000000000001
40
0.24300657417657182
40
0.24300657417657182
40
0.24300657417657182
40
0.24300657417657182
40
0.24300657417657182
40
0.24300657417657182
10
3595.0037661142687
20
1160.0521007300285
30
0
10
3598.1353336876464
20
1160.0802690090225
30
0
10
3604.449193054495
20
1160.7044700171186
30
0
10
3614.0631431205202
20
1163.3353306496615
30
0
10
3626.4003742921795
20
1169.3389395465615
30
0
10
3636.7904471957104
20
1176.0457157416124
30
0
10
3640.0954487766376
20
1178.5667744682826
30
0
10
3639.8192061997747
20
1178.2671444523912
30
0
10
3639.6125333550071
20
1178.0870765914565
30
0
10
3639.6028142684008
20
1178.0786323066072
30
0
0
SPLINE
5
261
100
AcDbEntity
8
0
100
AcDbSpline
70
1064
71
5
72
21
73
15
74
0
42
0.000000001
43
0.0000000001
44
0.0000000001
40
0.24531251365580686
40
0.24531251365580686
40
0.24531251365580686
40
0.24531251365580686
40
0.24531251365580686
40
0.24531251365580686
40
0.25
40
0.29999999999999999
40
0.34999999999999998
40
0.39999999999999997
40
0.44999999999999996
40
0.49999999999999994
40
0.54999999999999993
40
0.59999999999999998
40
0.65000000000000002
40
0.66801163953208509
40
0.66801163953208509
40
0.66801163953208509
40
0.66801163953208509
40
0.66801163953208509
40
0.66801163953208509
10
3639.6028170950576
20
1178.0786290532192
30
0
10
3639.6039354430222
20
1178.0795909703099
30
0
10
3639.6308987940934
20
1178.1027547893175
30
0
10
3640.0234353404699
20
1178.4371554985955
30
0
10
3642.5336023810173
20
1180.4933634000627
30
0
10
3651.5880064122643
20
1187.3491178863121
30
0
10
3665.3091253276602
20
1194.5608828713257
30
0
10
3674.0000511284916
20
1192.5963223803424
30
0
10
3675.7949841774007
20
1181.7682019499621
30
0
10
3674.9907784588231
20
1169.5073346401878
30
0
10
3672.5543792099043
20
1159.1349060079658
30
0
10
3669.9664392450368
20
1152.1171631276052
30
0
10
3667.7530050176174
20
1147.6085901666293
30
0
10
3666.3379444484681
20
1145.1324397437966
30
0
10
3665.9532744044254
20
1144.4849120228018
30
0
0
SPLINE
5
262
100
AcDbEntity
8
0
100
AcDbSpline
70
1064
71
3
72
12
73
8
74
0
42
0.000000001
43
0.0000000001
44
0.0000000001
40
0
40
0
40
0
40
0
40
1.7079924767694996
40
1.7079924767694996
40
3.2834544115819648
40
3.2834544115819648
40
5.0223360025599968
40
5.0223360025599968
40
5.0223360025599968
40
5.0223360025599968
10
3665.9532744044236
20
1144.4849120228012
30
0
10
3663.0454996370281
20
1139.590159240611
30
0
10
3658.6752159646016
20
1133.9398958919121
30
0
10
3644.7469148362825
20
1122.5101986033001
30
0
10
3636.8883414950233
20
1117.8115882003017
30
0
10
3620.2617065629511
20
1110.2999480850606
30
0
10
3611.6107071815532
20
1107.7325821396043
30
0
10
3602.8296717440548
20
1106.4946871826619
30
0
0
SPLINE
5
263
100
AcDbEntity
8
0
100
AcDbSpline
70
1064
71
3
72
8
73
4
74
0
42
0.000000001
43
0.0000000001
44
0.0000000001
40
0
40
0
40
0
40
0
40
2.3419439833155065
40
2.3419439833155065
40
2.3419439833155065
40
2.3419439833155065
10
3579.1513096347126
20
1103.5807315621396
30
0
10
3587.0422477366628
20
1104.5119162274914
30
0
10
3594.9331858386154
20
1105.4431008928425
30
0
10
3602.8296717440367
20
1106.4946871828147
30
0
0
SPLINE
5
264
100
AcDbEntity
8
0
100
AcDbSpline
70
1064
71
3
72
10
73
6
74
0
42
0.000000001
43
0.0000000001
44
0.0000000001
40
0
40
0
40
0
40
0
40
1.6979565738710889
40
3.3469973879739263
40
5.3316673209073624
40
5.3316673209073624
40
5.3316673209073624
40
5.3316673209073624
10
3525.2500392200795
20
1097.1349365846638
30
0
10
3530.9208995845756
20
1098.2089825617554
30
0
10
3542.0992507389178
20
1100.3261327499317
30
0
10
3560.1909212584064
20
1101.4780281890589
30
0
10
3572.4536302016736
20
1102.8379602192679
30
0
10
3579.1513096347126
20
1103.5807315621396
30
0
0
SPLINE
5
265
100
AcDbEntity
8
0
100
AcDbSpline
70
1064
71
3
72
10
73
6
74
0
42
0.000000001
43
0.0000000001
44
0.0000000001
40
0
40
0
40
0
40
0
40
1.3319269843294479
40
3.025637398576821
40
4.723381624628824
40
4.723381624628824
40
4.723381624628824
40
4.723381624628824
10
3523.913850753288
20
1056.6116936324029
30
0
10
3521.579772839566
20
1060.3151249918337
30
0
10
3516.2776252668868
20
1068.7279288136604
30
0
10
3508.803525728099
20
1086.4632234092016
30
0
10
3519.7635227657292
20
1093.5748793140563
30
0
10
3525.2500392200795
20
1097.1349365846638
30
0
0
SPLINE
5
266
100
AcDbEntity
8
0
100
AcDbSpline
70
1064
71
3
72
10
73
6
74
0
42
0.000000001
43
0.0000000001
44
0.0000000001
40
0
40
0
40
0
40
0
40
2.3171709087775638
40
3.9108663735816016
40
4.9766912340502767
40
4.9766912340502767
40
4.9766912340502767
40
4.9766912340502767
10
3558.7976440584202
20
1020.1345255892635
30
0
10
3552.7274512241024
20
1025.1491716889475
30
0
10
3542.4823230175753
20
1033.612773028141
30
0
10
3530.9882776613927
20
1046.1128529498926
30
0
10
3525.9378511334648
20
1053.6079651595774
30
0
10
3523.913850753288
20
1056.6116936324029
30
0
0
SPLINE
5
267
100
AcDbEntity
8
0
100
AcDbSpline
70
1064
71
3
72
10
73
6
74
0
42
0.000000001
43
0.0000000001
44
0.0000000001
40
0
40
0
40
0
40
0
40
1.0863256272499764
40
2.1777679026800483
40
4.1516003084554116
40
4.1516003084554116
40
4.1516003084554116
40
4.1516003084554116
10
3584.8128098775896
20
989.71137944395298
30
0
10
3584.6631974302159
20
993.56384401761022
30
0
10
3584.3632678533572
20
1001.2869184662587
30
0
10
3572.9905368386312
20
1011.0446449297662
30
0
10
3564.3570400422141
20
1016.5739937925289
30
0
10
3558.7976440584202
20
1020.1345255892635
30
0
0
SPLINE
5
268
100
AcDbEntity
8
0
100
AcDbSpline
70
1064
71
3
72
10
73
6
74
0
42
0.000000001
43
0.0000000001
44
0.0000000001
40
0
40
0
40
0
40
0
40
3.2223985489126066
40
5.2769420340510917
40
6.7936308583934464
40
6.7936308583934464
40
6.7936308583934464
40
6.7936308583934464
10
3522.3017378035456
20
998.84283459619712
30
0
10
3531.5205688552123
20
993.52758277684427
30
0
10
3546.6171611429104
20
984.82342178578165
30
0
10
3571.4850094796043
20
977.08842481211241
30
0
10
3580.8398461886873
20
985.94852744276523
30
0
10
3584.8128098775896
20
989.71137944395298
30
0
0
SPLINE
5
269
100
AcDbEntity
8
0
100
AcDbSpline
70
1064
71
3
72
13
73
9
74
0
42
0.000000001
43
0.0000000001
44
0.0000000001
40
0
40
0
40
0
40
0
40
0.97815329604770584
40
2.5037039022895966
40
4.7629628226685892
40
6.9354372576707455
40
9.2536581499200352
40
11.279393841853441
40
11.279393841853441
40
11.279393841853441
40
11.279393841853441
10
3455.7240821058463
20
1089.4288414667803
30
0
10
3458.4476811970035
20
1087.3611522374836
30
0
10
3465.4190687089158
20
1082.0686468469396
30
0
10
3468.138338849692
20
1065.1140298316757
30
0
10
3475.8951805986567
20
1046.5641490098001
30
0
10
3489.4521573926227
20
1027.7683352061686
30
0
10
3505.4566556794225
20
1012.4163422834606
30
0
10
3516.9445427283108
20
1003.1595798634561
30
0
10
3522.3017378035456
20
998.84283459619712
30
0
0
SPLINE
5
270
100
AcDbEntity
8
0
100
AcDbSpline
70
1064
71
3
72
13
73
9
74
0
42
0.000000001
43
0.0000000001
44
0.0000000001
40
0
40
0
40
0
40
0
40
2.3992236137019511
40
3.5568350609868258
40
4.5256004474174123
40
5.9393482380646603
40
7.3426471343815027
40
8.8039624878001081
40
8.8039624878001081
40
8.8039624878001081
40
8.8039624878001081
10
3393.7158913495728
20
1057.7107533559665
30
0
10
3393.563265970181
20
1065.7148520953997
30
0
10
3393.3369997324212
20
1077.5808819499885
30
0
10
3400.8580961138455
20
1093.5654971527222
30
0
10
3414.2035987518079
20
1093.038145539645
30
0
10
3426.4404415757258
20
1091.0088825177754
30
0
10
3441.0631332375897
20
1089.72786601792
30
0
10
3450.7715582225956
20
1089.529853089186
30
0
10
3455.7240821058463
20
1089.4288414667803
30
0
0
SPLINE
5
271
100
AcDbEntity
8
0
100
AcDbSpline
70
1064
71
3
72
10
73
6
74
0
42
0.000000001
43
0.0000000001
44
0.0000000001
40
0
40
0
40
0
40
0
40
2.9737372416313037
40
6.621682491849036
40
10.057541984151495
40
10.057541984151495
40
10.057541984151495
40
10.057541984151495
10
3416.5203644203029
20
958.38345479348277
30
0
10
3412.9194493030309
20
967.81367991028208
30
0
10
3404.9012168066042
20
988.81215807973899
30
0
10
3395.898627609854
20
1021.9782060699231
30
0
10
3394.4288014702443
20
1046.0400375387744
30
0
10
3393.7158913495728
20
1057.7107533559665
30
0
0
SPLINE
5
272
100
AcDbEntity
8
0
100
AcDbSpline
70
1064
71
3
72
10
73
6
74
0
42
0.000000001
43
0.0000000001
44
0.0000000001
40
0
40
0
40
0
40
0
40
1.3898781772874771
40
3.1527479848855924
40
5.0173745503192704
40
5.0173745503192704
40
5.0173745503192704
40
5.0173745503192704
10
3417.3000697602902
20
912.26035386806325
30
0
10
3421.1764503857967
20
915.59277857855159
30
0
10
3429.9694880817742
20
923.15192689993967
30
0
10
3423.6660043809047
20
941.79341607774188
30
0
10
3418.9463753175187
20
952.75098311403724
30
0
10
3416.5203644203029
20
958.38345479348277
30
0
0
SPLINE
5
273
100
AcDbEntity
8
0
100
AcDbSpline
70
1064
71
3
72
13
73
9
74
0
42
0.000000001
43
0.0000000001
44
0.0000000001
40
0
40
0
40
0
40
0
40
3.2397046492188051
40
7.1725185584884708
40
10.495147448887163
40
14.5359221571316
40
17.080171951908248
40
18.32861980296332
40
18.32861980296332
40
18.32861980296332
40
18.32861980296332
10
3347.3618749402794
20
1077.6947345053866
30
0
10
3348.3716409985209
20
1066.7302380818501
30
0
10
3350.6072045997371
20
1042.455477695514
30
0
10
3357.8781546901064
20
1007.5509417347104
30
0
10
3368.2104168467322
20
970.36941686899593
30
0
10
3384.5838143092396
20
940.99258177732895
30
0
10
3401.5672261515465
20
919.37735077961804
30
0
10
3413.4038055468386
20
914.02288968570338
30
0
10
3417.3000697602902
20
912.26035386806325
30
0
0
SPLINE
5
274
100
AcDbEntity
8
0
100
AcDbSpline
70
1064
71
3
72
22
73
18
74
0
42
0.000000001
43
0.0000000001
44
0.0000000001
40
0
40
0
40
0
40
0
40
3.1448553240227057
40
4.9612862188229965
40
7.1439907452351141
40
8.6778909100636508
40
12.298152076728964
40
16.539340189075091
40
19.805934567158328
40
23.02941033442136
40
25.665017932340664
40
27.094890367069368
40
29.087608840424291
40
30.871293313584271
40
32.138519557057009
40
33.596814447126896
40
34.86209203974682
40
34.86209203974682
40
34.86209203974682
40
34.86209203974682
10
3174.4560282257489
20
965.01387701497322
30
0
10
3174.0284734049278
20
951.59022174935114
30
0
10
3173.3539680233544
20
930.41322344140644
30
0
10
3204.1878227945317
20
932.69838417913218
30
0
10
3214.0675359182087
20
950.66988496512545
30
0
10
3218.9343105221947
20
974.85934485400946
30
0
10
3228.3476606656177
20
1005.5527292307281
30
0
10
3239.8153926576929
20
1041.3839471122269
30
0
10
3253.7700384335467
20
1075.4987967501818
30
0
10
3269.2825512206168
20
1101.2564039083256
30
0
10
3279.3985003933722
20
1126.8376067098382
30
0
10
3301.8711727081541
20
1130.80064645779
30
0
10
3317.377198816308
20
1121.0393733697088
30
0
10
3333.8636400532323
20
1116.4627711227386
30
0
10
3345.9902624947995
20
1105.3521741830084
30
0
10
3346.735808413132
20
1091.0916848671498
30
0
10
3347.1632843857765
20
1081.9442953517816
30
0
10
3347.3618749402794
20
1077.6947345053866
30
0
0
SPLINE
5
275
100
AcDbEntity
8
0
100
AcDbSpline
70
1064
71
3
72
10
73
6
74
0
42
0.000000001
43
0.0000000001
44
0.0000000001
40
0
40
0
40
0
40
0
40
7.0504578825232151
40
12.670653357163749
40
16.944188743936866
40
16.944188743936866
40
16.944188743936866
40
16.944188743936866
10
3225.0420538704379
20
1129.3460578499223
30
0
10
3214.9421994221666
20
1107.5714103073769
30
0
10
3196.7913563415941
20
1068.4393403648157
30
0
10
3183.0454035772941
20
1012.3283855595303
30
0
10
3177.0470008856842
20
979.28623013029767
30
0
10
3174.4560282257489
20
965.01387701497322
30
0
0
SPLINE
5
276
100
AcDbEntity
8
0
100
AcDbSpline
70
1064
71
3
72
10
73
6
74
0
42
0.000000001
43
0.0000000001
44
0.0000000001
40
0
40
0
40
0
40
0
40
1.6093095069491861
40
2.9175094652927127
40
5.2656538693875792
40
5.2656538693875792
40
5.2656538693875792
40
5.2656538693875792
10
3225.3297390885314
20
1178.2501713575421
30
0
10
3228.8953383820353
20
1173.9143707881778
30
0
10
3235.3593961927395
20
1166.0540187886895
30
0
10
3235.9378706194593
20
1147.0788707462605
30
0
10
3229.3030246411495
20
1136.2807373855853
30
0
10
3225.0420538704379
20
1129.3460578499223
30
0
0
SPLINE
5
277
100
AcDbEntity
8
0
100
AcDbSpline
70
1064
71
3
72
16
73
12
74
0
42
0.000000001
43
0.0000000001
44
0.0000000001
40
0
40
0
40
0
40
0
40
3.9091538246536204
40
8.6977764552957648
40
12.491158878280547
40
14.918275395891715
40
16.556937289468614
40
17.449033541707117
40
19.635266698577652
40
21.426298703465335
40
22.931750515620383
40
22.931750515620383
40
22.931750515620383
40
22.931750515620383
10
3095.5913899257066
20
1086.7359563759442
30
0
10
3101.0861521413831
20
1098.8481736733083
30
0
10
3113.3118704350777
20
1125.7975758088853
30
0
10
3134.1302376862127
20
1162.3838029662331
30
0
10
3153.3971226545773
20
1195.605923946973
30
0
10
3170.0375693227206
20
1214.1778280592796
30
0
10
3182.5954422257723
20
1230.3356800523152
30
0
10
3199.2914926198664
20
1222.2809996637623
30
0
10
3201.9017442243203
20
1204.3860215148745
30
0
10
3213.9395227136124
20
1189.8789040169613
30
0
10
3221.7587995327831
20
1181.8958880032919
30
0
10
3225.3297390885314
20
1178.2501713575421
30
0
0
SPLINE
5
278
100
AcDbEntity
8
0
100
AcDbSpline
70
1064
71
3
72
10
73
6
74
0
42
0.000000001
43
0.0000000001
44
0.0000000001
40
0
40
0
40
0
40
0
40
3.989567924230653
40
6.1832263826669305
40
9.6631771202291841
40
9.6631771202291841
40
9.6631771202291841
40
9.6631771202291841
10
3055.5843743946393
20
1106.584994291564
30
0
10
3050.4264778132069
20
1091.1893822549714
30
0
10
3042.4325188614939
20
1067.3285140281662
30
0
10
3082.6953275838951
20
1050.9461088589223
30
0
10
3090.6886349337938
20
1073.1295663847154
30
0
10
3095.5913899257066
20
1086.7359563759442
30
0
0
SPLINE
5
279
100
AcDbEntity
8
0
100
AcDbSpline
70
1064
71
3
72
10
73
6
74
0
42
0.000000001
43
0.0000000001
44
0.0000000001
40
0
40
0
40
0
40
0
40
5.3656086386813309
40
12.510193884254958
40
18.209334859789507
40
18.209334859789507
40
18.209334859789507
40
18.209334859789507
10
3146.924133186887
20
1267.3763604933806
30
0
10
3136.0240787302255
20
1252.7636032238395
30
0
10
3110.6100383511466
20
1218.6932043304869
30
0
10
3080.3406294136043
20
1164.4882551524281
30
0
10
3063.193197015391
20
1124.381532609488
30
0
10
3055.5843743946393
20
1106.584994291564
30
0
0
SPLINE
5
280
100
AcDbEntity
8
0
100
AcDbSpline
70
1064
71
3
72
10
73
6
74
0
42
0.000000001
43
0.0000000001
44
0.0000000001
40
0
40
0
40
0
40
0
40
1.748334575726568
40
3.6751644750674641
40
6.4119283256422612
40
6.4119283256422612
40
6.4119283256422612
40
6.4119283256422612
10
3169.5928853391697
20
1325.9739715180758
30
0
10
3170.0875711618519
20
1320.0164544810032
30
0
10
3171.127447503075
20
1307.4931907543469
30
0
10
3163.962661691824
20
1286.145061936566
30
0
10
3153.2252379978509
20
1274.3173093508431
30
0
10
3146.924133186887
20
1267.3763604933806
30
0
0
SPLINE
5
281
100
AcDbEntity
8
0
100
AcDbSpline
70
1064
71
3
72
8
73
4
74
0
42
0.000000001
43
0.0000000001
44
0.0000000001
40
12.093753805477574
40
12.093753805477574
40
12.093753805477574
40
12.093753805477574
40
17.430113466367434
40
17.430113466367434
40
17.430113466367434
40
17.430113466367434
10
3164.4409416051631
20
1380.1038218384429
30
0
10
3167.0110846673542
20
1362.1748567225234
30
0
10
3168.3019850032642
20
1344.0744141202981
30
0
10
3169.5928853391706
20
1325.9739715180744
30
0
0
SPLINE
5
282
100
AcDbEntity
8
0
100
AcDbSpline
70
1064
71
5
72
17
73
11
74
0
42
0.000000001
43
0.0000000001
44
0.0000000001
40
0.82863794993250095
40
0.82863794993250095
40
0.82863794993250095
40
0.82863794993250095
40
0.82863794993250095
40
0.82863794993250095
40
0.83333333333333326
40
0.86666666666666659
40
0.89999999999999991
40
0.93333333333333324
40
0.96666666666666656
40
1
40
1
40
1
40
1
40
1
40
1
10
3128.2306439553054
20
1476.8662656630481
30
0
10
3128.5614858283998
20
1476.3200137793001
30
0
10
3131.2295958654804
20
1471.8816151133315
30
0
10
3136.0611811522726
20
1463.341182315072
30
0
10
3142.6356496273343
20
1450.331197764629
30
0
10
3150.1901769798428
20
1432.7764185011995
30
0
10
3157.3545803176303
20
1412.37006206714
30
0
10
3161.3521212686592
20
1397.7914035483479
30
0
10
3163.3084922826129
20
1388.3237311075864
30
0
10
3164.1419272261369
20
1382.724957096118
30
0
10
3164.4409416051631
20
1380.1038218384429
30
0
0
SPLINE
5
283
100
AcDbEntity
8
0
100
AcDbSpline
70
1064
71
5
72
21
73
15
74
0
42
0.000000001
43
0.0000000001
44
0.0000000001
40
0.51422818089220423
40
0.51422818089220423
40
0.51422818089220423
40
0.51422818089220423
40
0.51422818089220423
40
0.51422818089220423
40
0.53333333333333333
40
0.56666666666666665
40
0.59999999999999998
40
0.6333333333333333
40
0.66666666666666663
40
0.69999999999999996
40
0.73333333333333328
40
0.76666666666666661
40
0.79999999999999993
40
0.82863794993249573
40
0.82863794993249573
40
0.82863794993249573
40
0.82863794993249573
40
0.82863794993249573
40
0.82863794993249573
10
3005.8844610068941
20
1623.4411947924768
30
0
10
3006.2321829952616
20
1621.7005579385891
30
0
10
3007.4521358718212
20
1616.81475180696
30
0
10
3010.5958931214991
20
1608.4013461180484
30
0
10
3017.2567717919619
20
1596.1716742810036
30
0
10
3028.7460183219064
20
1580.7093700949349
30
0
10
3043.3804747817685
20
1565.1471556907568
30
0
10
3058.9469752641735
20
1551.0345469861359
30
0
10
3074.6428587886667
20
1537.7843547317991
30
0
10
3089.9262437435527
20
1524.4237793904676
30
0
10
3104.0327820913517
20
1510.3066933681896
30
0
10
3114.4829835797309
20
1497.6090234209091
30
0
10
3121.7325622973649
20
1487.266326108574
30
0
10
3126.2127825394409
20
1480.1979497369416
30
0
10
3128.230643955304
20
1476.8662656630522
30
0
0
LINE
5
284
100
AcDbEntity
8
0
100
AcDbLine
10
3096.1365112061758
20
1578.1890473238204
30
0
11
3005.8844610068941
21
1623.4411947924768
31
0
0
LINE
5
285
100
AcDbEntity
8
0
100
AcDbLine
10
3101.5140434037944
20
1588.9141362532212
30
0
11
3096.1365112061758
21
1578.1890473238204
31
0
0
SPLINE
5
286
100
AcDbEntity
8
0
100
AcDbSpline
70
1064
71
5
72
24
73
18
74
0
42
0.000000001
43
0.0000000001
44
0.0000000001
40
0.089056319327553979
40
0.089056319327553979
40
0.089056319327553979
40
0.089056319327553979
40
0.089056319327553979
40
0.089056319327553979
40
0.10000000000000001
40
0.13333333333333333
40
0.16666666666666666
40
0.19999999999999998
40
0.23333333333333331
40
0.26666666666666666
40
0.29999999999999999
40
0.33333333333333331
40
0.36666666666666664
40
0.39999999999999997
40
0.43333333333333329
40
0.46666666666666662
40
0.48170609324430269
40
0.48170609324430269
40
0.48170609324430269
40
0.48170609324430269
40
0.48170609324430269
40
0.48170609324430269
10
3195.9861180003445
20
1620.4156433291682
30
0
10
3195.0067745545521
20
1620.3315983372413
30
0
10
3191.0211994780657
20
1620.0233119082482
30
0
10
3183.9093741558372
20
1619.7083249648795
30
0
10
3173.7976417437803
20
1619.8267993844665
30
0
10
3161.410693176203
20
1621.0821165056382
30
0
10
3147.5892564390742
20
1624.176354978435
30
0
10
3132.9371601770781
20
1628.9115652634923
30
0
10
3116.054211128263
20
1635.03541714638
30
0
10
3096.2377446741966
20
1641.9120401143259
30
0
10
3074.2801044893176
20
1648.3642374480041
30
0
10
3052.015457988759
20
1652.9443207502425
30
0
10
3031.7858683357126
20
1654.2243072177957
30
0
10
3017.6621380148754
20
1651.4402192289963
30
0
10
3010.4064851286626
20
1646.3421854200333
30
0
10
3007.2969436882895
20
1641.3444414883327
30
0
10
3006.1641079153192
20
1637.9592421985722
30
0
10
3005.8797576993775
20
1636.8674687427381
30
0
0
SPLINE
5
287
100
AcDbEntity
8
0
100
AcDbSpline
70
1064
71
5
72
14
73
8
74
0
42
0.000000001
43
0.0000000001
44
0.0000000001
40
0
40
0
40
0
40
0
40
0
40
0
40
0.033333333333333333
40
0.066666666666666666
40
0.089056319327553812
40
0.089056319327553812
40
0.089056319327553812
40
0.089056319327553812
40
0.089056319327553812
40
0.089056319327553812
10
3224.2997889707503
20
1629.0679493148123
30
0
10
3223.5380000604746
20
1628.0236218088896
30
0
10
3221.3932028045651
20
1626.0849417742384
30
0
10
3216.867735251767
20
1623.895908071333
30
0
10
3210.43668427169
20
1622.2364033295953
30
0
10
3202.9165037786061
20
1621.0972825972078
30
0
10
3197.9897546417328
20
1620.5875907967038
30
0
10
3195.9861180003445
20
1620.4156433291682
30
0
0
SPLINE
5
288
100
AcDbEntity
8
0
100
AcDbSpline
70
1064
71
3
72
14
73
10
74
0
42
0.000000001
43
0.0000000001
44
0.0000000001
40
7.3489901245756384
40
7.3489901245756384
40
7.3489901245756384
40
7.3489901245756384
40
9.4351058402278127
40
11.536526227650089
40
13.748280207881391
40
15.33498008788454
40
16.976169325994835
40
18.830361030437757
40
19.015007657304601
40
19.015007657304601
40
19.015007657304601
40
19.015007657304601
10
3262.952777098918
20
1739.7865845523761
30
0
10
3260.1944151661901
20
1733.2524203769378
30
0
10
3255.3020104981497
20
1719.9256626140418
30
0
10
3250.1662867668847
20
1698.7420184927037
30
0
10
3246.7619106504408
20
1679.0481177183101
30
0
10
3244.5177722565659
20
1660.5574980399247
30
0
10
3236.5451122354675
20
1644.9263521338726
30
0
10
3228.8792945632599
20
1635.0555190941236
30
0
10
3224.6808935409654
20
1629.5644929613798
30
0
10
3224.2997889707503
20
1629.0679493148123
30
0
0
SPLINE
5
289
100
AcDbEntity
8
0
100
AcDbSpline
70
1064
71
3
72
14
73
10
74
0
42
0.000000001
43
0.0000000001
44
0.0000000001
40
0
40
0
40
0
40
0
40
0.96687128465293304
40
0.96687128465293304
40
2.7550990101748489
40
2.7550990101748489
40
4.7699244745511127
40
4.7699244745511127
40
8.6701781113579059
40
8.6701781113579059
40
8.6701781113579059
40
8.6701781113579059
10
3262.9527770989221
20
1739.7865845523752
30
0
10
3264.3713515392519
20
1742.6805020649026
30
0
10
3266.6661141735426
20
1746.149765496295
30
0
10
3277.6301251045584
20
1758.2865764222856
30
0
10
3287.5566361587903
20
1766.1117642802246
30
0
10
3302.3866816845343
20
1776.4316624175062
30
0
10
3306.3124444709911
20
1778.0427943507539
30
0
10
3314.9246668452811
20
1780.7849485663098
30
0
10
3324.4803359144203
20
1782.0924108897084
30
0
10
3326.8620883400536
20
1782.3949668775635
30
0
0
SPLINE
5
290
100
AcDbEntity
8
0
100
AcDbSpline
70
1064
71
5
72
24
73
18
74
0
42
0.000000001
43
0.0000000001
44
0.0000000001
40
0.37670592263595404
40
0.37670592263595404
40
0.37670592263595404
40
0.37670592263595404
40
0.37670592263595404
40
0.37670592263595404
40
0.39999999999999997
40
0.44999999999999996
40
0.49999999999999994
40
0.54999999999999993
40
0.59999999999999998
40
0.65000000000000002
40
0.70000000000000007
40
0.75000000000000011
40
0.80000000000000016
40
0.8500000000000002
40
0.90000000000000024
40
0.95000000000000029
40
0.99997886774285061
40
0.99997886774285061
40
0.99997886774285061
40
0.99997886774285061
40
0.99997886774285061
40
0.99997886774285061
10
3326.8620883400545
20
1782.3949668775638
30
0
10
3327.9609431877825
20
1782.5345553210918
30
0
10
3331.5061262007966
20
1782.9537792894635
30
0
10
3337.8871356909594
20
1783.5247470759257
30
0
10
3347.4099088587272
20
1783.7718475098472
30
0
10
3358.6597754132322
20
1782.2707567083266
30
0
10
3366.5689402506018
20
1777.539213721393
30
0
10
3366.9374715710478
20
1771.265631215648
30
0
10
3360.135187053811
20
1764.3722301219452
30
0
10
3348.4270532245546
20
1757.2194977383674
30
0
10
3334.9413597216835
20
1749.9141764842539
30
0
10
3322.6557951653012
20
1742.4501909465148
30
0
10
3313.1526038897805
20
1734.9600569095946
30
0
10
3306.6695327689476
20
1727.7074024460367
30
0
10
3303.540497332081
20
1722.326738653956
30
0
10
3302.0431193644326
20
1718.6377234822428
30
0
10
3301.3703523336267
20
1716.3469473775169
30
0
10
3301.115321011026
20
1715.2438887766716
30
0
0
SPLINE
5
291
100
AcDbEntity
8
0
100
AcDbSpline
70
1064
71
3
72
13
73
9
74
0
42
0.000000001
43
0.0000000001
44
0.0000000001
40
0
40
0
40
0
40
0
40
3.060921530137287
40
6.1996877504501331
40
8.7982217767257254
40
10.153920767723736
40
12.876393553836563
40
14.144088754721688
40
14.144088754721688
40
14.144088754721688
40
14.144088754721688
10
3384.3643999847018
20
1643.7136733092889
30
0
10
3374.2337933370618
20
1646.5338600163182
30
0
10
3353.7149406583421
20
1652.2459558049252
30
0
10
3327.5406236765843
20
1662.8872360820617
30
0
10
3295.2780055547487
20
1654.3359101656547
30
0
10
3293.2247026897567
20
1681.2215621384917
30
0
10
3297.0930860466124
20
1697.8526009031648
30
0
10
3300.1406566977216
20
1711.0275488589882
30
0
10
3301.11532104358
20
1715.2438887691458
30
0
0
SPLINE
5
292
100
AcDbEntity
8
0
100
AcDbSpline
70
1064
71
3
72
13
73
9
74
0
42
0.000000001
43
0.0000000001
44
0.0000000001
40
0
40
0
40
0
40
0
40
2.0595210636128272
40
3.4549266547962816
40
4.4088986069971776
40
5.5600321789800216
40
6.9729822366183125
40
8.6560226645724381
40
8.6560226645724381
40
8.6560226645724381
40
8.6560226645724381
10
3371.1259975239068
20
1607.3163670950175
30
0
10
3378.0574200937235
20
1606.2695335841572
30
0
10
3389.6851509361977
20
1604.513429670631
30
0
10
3404.8872589422399
20
1606.7754799264219
30
0
10
3414.6418965649696
20
1615.6402173943475
30
0
10
3411.8281094605641
20
1629.369167218922
30
0
10
3399.369301286406
20
1637.7399161811177
30
0
10
3389.6487046826792
20
1641.6098838726084
30
0
10
3384.3643999847018
20
1643.7136733092889
30
0
0
SPLINE
5
293
100
AcDbEntity
8
0
100
AcDbSpline
70
1064
71
3
72
10
73
6
74
0
42
0.000000001
43
0.0000000001
44
0.0000000001
40
0
40
0
40
0
40
0
40
1.701958383731232
40
4.9076054019852693
40
8.9114756971832811
40
8.9114756971832811
40
8.9114756971832811
40
8.9114756971832811
10
3281.1944920697579
20
1612.9725818534507
30
0
10
3286.8664950555576
20
1614.2485955350651
30
0
10
3303.2217436675428
20
1617.9279872856227
30
0
10
3333.6526787700609
20
1613.1263280141256
30
0
10
3357.745713790091
20
1609.3908811270053
30
0
10
3371.1259975239068
20
1607.3163670950175
30
0
0
SPLINE
5
294
100
AcDbEntity
8
0
100
AcDbSpline
70
1064
71
5
72
21
73
15
74
0
42
0.000000001
43
0.0000000001
44
0.0000000001
40
-1
40
-1
40
-1
40
-1
40
-1
40
-1
40
-0.89999999999999991
40
-0.79999999999999993
40
-0.69999999999999996
40
-0.59999999999999998
40
-0.5
40
-0.40000000000000002
40
-0.30000000000000004
40
-0.20000000000000001
40
-0.10000000000000001
40
0
40
0
40
0
40
0
40
0
40
0
10
3254.7080762555011
20
1475.3508658894834
30
0
10
3252.9461583237435
20
1477.8354264076283
30
0
10
3249.6314801938211
20
1482.8289961899695
30
0
10
3245.2869596053642
20
1490.3926998375591
30
0
10
3240.7697029426486
20
1500.6267257391728
30
0
10
3237.3845044038035
20
1513.6835931511519
30
0
10
3236.4302837214054
20
1527.0246210348409
30
0
10
3238.0530832387931
20
1540.6668804881565
30
0
10
3242.2398108754346
20
1554.6088411590836
30
0
10
3248.8068867470697
20
1568.8290441329132
30
0
10
3257.5354475988552
20
1583.3019061713917
30
0
10
3266.0879275530415
20
1595.0636722421787
30
0
10
3273.3261068265138
20
1603.9812942101157
30
0
10
3278.5116739625246
20
1609.9684697951318
30
0
10
3281.1944920697579
20
1612.9725818534507
30
0
0
SPLINE
5
295
100
AcDbEntity
8
0
100
AcDbSpline
70
1064
71
3
72
10
73
6
74
0
42
0.000000001
43
0.0000000001
44
0.0000000001
40
0
40
0
40
0
40
0
40
0.73717640453895594
40
1.6731855703621468
40
2.6490247963261457
40
2.6490247963261457
40
2.6490247963261457
40
2.6490247963261457
10
3279.1548235444307
20
1466.0442695957943
30
0
10
3276.6663237831754
20
1466.1781387340989
30
0
10
3271.0181209015582
20
1466.4819844746114
30
0
10
3261.8967510072894
20
1468.3981681431362
30
0
10
3257.1373524564206
20
1473.0013336390261
30
0
10
3254.7080762555011
20
1475.3508658894834
30
0
0
SPLINE
5
296
100
AcDbEntity
8
0
100
AcDbSpline
70
1064
71
3
72
12
73
8
74
0
42
0.000000001
43
0.0000000001
44
0.0000000001
40
6.4642081203457842
40
6.4642081203457842
40
6.4642081203457842
40
6.4642081203457842
40
9.2691388300222535
40
13.99867734837941
40
16.158656289782769
40
18.262989459071321
40
20.338362902090445
40
20.338362902090445
40
20.338362902090445
40
20.338362902090445
10
3416.889814583626
20
1496.7915888027337
30
0
10
3407.8376120236626
20
1493.808387782904
30
0
10
3383.0980023314441
20
1486.8586240383624
30
0
10
3351.301384394535
20
1478.5437424639247
30
0
10
3321.564988465374
20
1471.5268272555181
30
0
10
3300.3225061680996
20
1467.8862543224045
30
0
10
3286.1780504222388
20
1466.6554218352921
30
0
10
3279.1548235444307
20
1466.0442695957943
30
0
0
LINE
5
297
100
AcDbEntity
8
0
100
AcDbLine
10
3005.8791713331862
20
1636.8652168605843
30
0
11
3101.5140434037944
21
1588.9141362532212
31
0
0
LINE
5
298
100
AcDbEntity
8
0
100
AcDbLine
10
3005.8797576993775
20
1636.8674687427381
30
0
11
3005.8791713331862
21
1636.8652168605843
31
0
0
LINE
5
299
100
AcDbEntity
8
0
100
AcDbLine
10
4620.7507247368976
20
1641.9784715379428
30
0
11
4619.4392839084103
21
1630.0481079156671
31
0
0
LINE
5
300
100
AcDbEntity
8
0
100
AcDbLine
10
4619.4392839084103
20
1630.0481079156671
30
0
11
4778.4812831914387
21
1612.5654747028211
31
0
0
LINE
5
301
100
AcDbEntity
8
0
100
AcDbLine
10
4779.3375663052475
20
1624.5458713692979
30
0
11
4620.7507247368976
21
1641.9784715379428
31
0
0
SPLINE
5
302
100
AcDbEntity
8
0
100
AcDbSpline
70
1064
71
5
72
26
73
20
74
0
42
0.000000001
43
0.0000000001
44
0.0000000001
40
0.027493675862772304
40
0.027493675862772304
40
0.027493675862772304
40
0.027493675862772304
40
0.027493675862772304
40
0.027493675862772304
40
0.066666666666666666
40
0.13333333333333333
40
0.20000000000000001
40
0.26666666666666666
40
0.33333333333333331
40
0.39999999999999997
40
0.46666666666666662
40
0.53333333333333333
40
0.59999999999999998
40
0.66666666666666663
40
0.73333333333333328
40
0.79999999999999993
40
0.86666666666666659
40
0.93333333333333324
40
1
40
1
40
1
40
1
40
1
40
1
10
4778.4812831914396
20
1612.5654747028211
30
0
10
4778.0456837550983
20
1609.6903794394352
30
0
10
4776.4915966002955
20
1601.6160402237449
30
0
10
4772.2803593535364
20
1587.180530602986
30
0
10
4762.4815053215016
20
1565.0190469730194
30
0
10
4742.2654997627142
20
1536.5154965930196
30
0
10
4710.5784639004187
20
1510.9552088639566
30
0
10
4670.4953934298519
20
1495.1086507038667
30
0
10
4625.9309342385113
20
1489.4719413812227
30
0
10
4581.9889591439005
20
1492.0734827659726
30
0
10
4543.3277397268912
20
1499.9813785930928
30
0
10
4512.7816103852547
20
1510.2574993560397
30
0
10
4489.3711096317829
20
1522.011821959901
30
0
10
4467.7461359645968
20
1535.4091072308995
30
0
10
4440.4617793888829
20
1550.1025442817104
30
0
10
4399.0716665564814
20
1565.889444474064
30
0
10
4348.3347343869591
20
1579.1806875415807
30
0
10
4297.6573795542045
20
1589.4444569450945
30
0
10
4257.920152585486
20
1596.4070408242292
30
0
10
4236.5633989321159
20
1599.9184099243189
30
0
0
SPLINE
5
303
100
AcDbEntity
8
0
100
AcDbSpline
70
1064
71
5
72
16
73
10
74
0
42
0.000000001
43
0.0000000001
44
0.0000000001
40
0
40
0
40
0
40
0
40
0
40
0
40
0.20000000000000001
40
0.40000000000000002
40
0.60000000000000009
40
0.80000000000000004
40
1
40
1
40
1
40
1
40
1
40
1
10
4236.5633989321159
20
1599.9184099243189
30
0
10
4217.9187539311888
20
1599.9183958898784
30
0
10
4185.9204042737147
20
1599.8945178901999
30
0
10
4153.7789473874973
20
1599.7872934643187
30
0
10
4136.1195312298314
20
1599.5887236191793
30
0
10
4126.8419627003068
20
1599.7565769285279
30
0
10
4103.4102634166129
20
1600.7976790830758
30
0
10
4063.0874194003554
20
1602.4475127089704
30
0
10
4023.7316580144557
20
1604.0037334519809
30
0
10
4000.9321316604146
20
1604.8960335960066
30
0
0
SPLINE
5
304
100
AcDbEntity
8
0
100
AcDbSpline
70
1064
71
3
72
10
73
6
74
0
42
0.000000001
43
0.0000000001
44
0.0000000001
40
-7.6233797037516275
40
-7.6233797037516275
40
-7.6233797037516275
40
-7.6233797037516275
40
-4.8472511760551908
40
-2.5952426870034726
40
0
40
0
40
0
40
0
10
4000.9321316604146
20
1604.8960335960066
30
0
10
3991.6684488244127
20
1604.3061510309599
30
0
10
3974.8900230006739
20
1603.2377529610358
30
0
10
3949.4519580985416
20
1601.1845549977393
30
0
10
3933.2360587521885
20
1601.7150355749186
30
0
10
3924.5539845902986
20
1601.9990575470695
30
0
0
LINE
5
305
100
AcDbEntity
8
0
100
AcDbLine
10
3924.5539845902986
20
1601.9990575470695
30
0
11
3924.5539845902986
21
1793.3309839671028
31
0
0
SPLINE
5
306
100
AcDbEntity
8
0
100
AcDbSpline
70
1064
71
3
72
10
73
6
74
0
42
0.000000001
43
0.0000000001
44
0.0000000001
40
-13.08548456509523
40
-13.08548456509523
40
-13.08548456509523
40
-13.08548456509523
40
-8.7764718453395805
40
-3.9404496429967373
40
0
40
0
40
0
40
0
10
3924.5539845902986
20
1793.3309839671028
30
0
10
3936.7671881956967
20
1785.462458537143
30
0
10
3962.6873190344763
20
1768.7630555596347
30
0
10
3992.8549200571742
20
1736.1856689260776
30
0
10
4013.0256814607719
20
1714.5829801524997
30
0
10
4022.0819253560899
20
1704.883831250105
30
0
0
SPLINE
5
307
100
AcDbEntity
8
0
100
AcDbSpline
70
1064
71
5
72
21
73
15
74
0
42
0.000000001
43
0.0000000001
44
0.0000000001
40
-1
40
-1
40
-1
40
-1
40
-1
40
-1
40
-0.89999999999999991
40
-0.79999999999999993
40
-0.69999999999999996
40
-0.59999999999999998
40
-0.5
40
-0.40000000000000002
40
-0.30000000000000004
40
-0.20000000000000001
40
-0.10000000000000001
40
0
40
0
40
0
40
0
40
0
40
0
10
4022.0819253560899
20
1704.883831250105
30
0
10
4024.9283663721008
20
1703.1575441932073
30
0
10
4030.6709078849772
20
1699.8297097475056
30
0
10
4039.4337010020358
20
1695.2121831248455
30
0
10
4051.4202679873783
20
1689.8161919747724
30
0
10
4066.941290509139
20
1684.4221376929249
30
0
10
4083.0435605668567
20
1680.4881193088845
30
0
10
4099.7673078446751
20
1678.1151897808422
30
0
10
4117.1211124799675
20
1677.3249015588813
30
0
10
4135.0668070487272
20
1678.021381876556
30
0
10
4153.553803724114
20
1680.07755915299
30
0
10
4168.7380975854048
20
1682.7139393087491
30
0
10
4180.3337774776437
20
1685.2123420096268
30
0
10
4188.1549186123784
20
1687.1057427119326
30
0
10
4192.0881625568145
20
1688.1093963271826
30
0
0
SPLINE
5
308
100
AcDbEntity
8
0
100
AcDbSpline
70
1064
71
3
72
15
73
11
74
0
42
0.000000001
43
0.0000000001
44
0.0000000001
40
-67.608543268975581
40
-67.608543268975581
40
-67.608543268975581
40
-67.608543268975581
40
-62.440382532335406
40
-59.397731964547347
40
-51.224043264146161
40
-44.233110372979198
40
-34.965553606287735
40
-22.353091240097335
40
-14.373820411925553
40
-8.7762533785341379
40
-8.7762533785341379
40
-8.7762533785341379
40
-8.7762533785341379
10
4192.0881625568145
20
1688.1093963271826
30
0
10
4208.4965257811946
20
1695.9884117754536
30
0
10
4234.5649824556849
20
1708.5060389173073
30
0
10
4288.480841725569
20
1691.6512693527704
30
0
10
4350.5769981348931
20
1690.9459341682641
30
0
10
4428.7122952042555
20
1717.354138985753
30
0
10
4517.3758036019553
20
1755.5029847094606
30
0
10
4618.4378365600051
20
1772.5549915651281
30
0
10
4705.871891558957
20
1753.1622656836844
30
0
10
4743.3859220873719
20
1722.1976843939005
30
0
10
4754.663040691461
20
1706.9318469064081
30
0
0
LINE
5
309
100
AcDbEntity
8
0
100
AcDbLine
10
4754.663040691461
20
1706.9318469064081
30
0
11
4754.6630489404761
21
1706.9318366306572
31
0
0
SPLINE
5
310
100
AcDbEntity
8
0
100
AcDbSpline
70
1064
71
5
72
16
73
10
74
0
42
0.000000001
43
0.0000000001
44
0.0000000001
40
1.4096016748066376e-07
40
1.4096016748066376e-07
40
1.4096016748066376e-07
40
1.4096016748066376e-07
40
1.4096016748066376e-07
40
1.4096016748066376e-07
40
0.20000000000000001
40
0.40000000000000002
40
0.60000000000000009
40
0.80000000000000004
40
0.90107255204940118
40
0.90107255204940118
40
0.90107255204940118
40
0.90107255204940118
40
0.90107255204940118
40
0.90107255204940118
10
4754.6630489404752
20
1706.9318366306579
30
0
10
4757.0038545363404
20
1704.0159086139286
30
0
10
4761.3326929312243
20
1697.7307307413162
30
0
10
4766.7685391636442
20
1686.9445250559011
30
0
10
4772.1582553941298
20
1670.4792677373898
30
0
10
4776.1483316117719
20
1651.4988184745612
30
0
10
4778.1028524895155
20
1638.6149730819764
30
0
10
4778.914594189082
20
1631.2787645874273
30
0
10
4779.1831139954502
20
1627.6851835206387
30
0
10
4779.2482997350853
20
1626.5743066892464
30
0
0
ELLIPSE
5
311
100
AcDbEntity
8
0
100
AcDbEllipse
10
4751.8218194012488
20
1733.8337190416053
30
0
11
26.580169880324824
21
-114.85088318082377
31
0.0
40
0.062495884396362805
41
0.29837716063603159
42
0.35143269316718778
0
LINE
5
312
100
AcDbEntity
8
0
100
AcDbLine
10
4066.5400858203889
20
1442.9220174768016
30
0
11
4067.8515266488766
21
1454.8523810990773
31
0
0
LINE
5
313
100
AcDbEntity
8
0
100
AcDbLine
10
4067.8515266488766
20
1454.8523810990773
30
0
11
3908.8095273658482
21
1472.335014311923
31
0
0
LINE
5
314
100
AcDbEntity
8
0
100
AcDbLine
10
3907.953244252039
20
1460.3546176454465
30
0
11
4066.5400858203889
21
1442.9220174768016
31
0
0
SPLINE
5
315
100
AcDbEntity
8
0
100
AcDbSpline
70
1064
71
5
72
26
73
20
74
0
42
0.000000001
43
0.0000000001
44
0.0000000001
40
0.027493675862772304
40
0.027493675862772304
40
0.027493675862772304
40
0.027493675862772304
40
0.027493675862772304
40
0.027493675862772304
40
0.066666666666666666
40
0.13333333333333333
40
0.20000000000000001
40
0.26666666666666666
40
0.33333333333333331
40
0.39999999999999997
40
0.46666666666666662
40
0.53333333333333333
40
0.59999999999999998
40
0.66666666666666663
40
0.73333333333333328
40
0.79999999999999993
40
0.86666666666666659
40
0.93333333333333324
40
1
40
1
40
1
40
1
40
1
40
1
10
3908.8095273658473
20
1472.3350143119233
30
0
10
3909.2451268021882
20
1475.2101095753092
30
0
10
3910.799213956991
20
1483.2844487909995
30
0
10
3915.0104512037501
20
1497.7199584117584
30
0
10
3924.8093052357854
20
1519.881442041725
30
0
10
3945.0253107945737
20
1548.3849924217247
30
0
10
3976.7123466568682
20
1573.9452801507878
30
0
10
4016.7954171274346
20
1589.7918383108777
30
0
10
4061.3598763187765
20
1595.4285476335217
30
0
10
4105.3018514133864
20
1592.8270062487718
30
0
10
4143.9630708303957
20
1584.9191104216516
30
0
10
4174.5092001720323
20
1574.6429896587047
30
0
10
4197.919700925504
20
1562.8886670548434
30
0
10
4219.5446745926902
20
1549.4913817838449
30
0
10
4246.829031168405
20
1534.797944733034
30
0
10
4288.2191440008064
20
1519.0110445406799
30
0
10
4338.9560761703269
20
1505.719801473163
30
0
10
4389.6334310030825
20
1495.4560320696492
30
0
10
4429.3706579718018
20
1488.4934481905152
30
0
10
4450.727411625171
20
1484.9820790904255
30
0
0
SPLINE
5
316
100
AcDbEntity
8
0
100
AcDbSpline
70
1064
71
5
72
16
73
10
74
0
42
0.000000001
43
0.0000000001
44
0.0000000001
40
0
40
0
40
0
40
0
40
0
40
0
40
0.20000000000000001
40
0.40000000000000002
40
0.60000000000000009
40
0.80000000000000004
40
1
40
1
40
1
40
1
40
1
40
1
10
4450.727411625171
20
1484.9820790904255
30
0
10
4469.3720566260972
20
1484.982093124866
30
0
10
4501.3704062835723
20
1485.0059711245444
30
0
10
4533.5118631697896
20
1485.1131955504256
30
0
10
4551.1712793274555
20
1485.3117653955651
30
0
10
4560.4488478569801
20
1485.1439120862165
30
0
10
4583.880547140674
20
1484.1028099316686
30
0
10
4624.2033911569315
20
1482.452976305774
30
0
10
4663.5591525428308
20
1480.8967555627635
30
0
10
4686.3586788968723
20
1480.0044554187377
30
0
0
SPLINE
5
317
100
AcDbEntity
8
0
100
AcDbSpline
70
1064
71
3
72
10
73
6
74
0
42
0.000000001
43
0.0000000001
44
0.0000000001
40
-7.6233797037516275
40
-7.6233797037516275
40
-7.6233797037516275
40
-7.6233797037516275
40
-4.8472511760551908
40
-2.5952426870034726
40
0
40
0
40
0
40
0
10
4686.3586788968723
20
1480.0044554187377
30
0
10
4695.6223617328742
20
1480.5943379837845
30
0
10
4712.4007875566131
20
1481.6627360537086
30
0
10
4737.8388524587454
20
1483.7159340170051
30
0
10
4754.054751805098
20
1483.1854534398258
30
0
10
4762.7368259669875
20
1482.9014314676749
30
0
0
LINE
5
318
100
AcDbEntity
8
0
100
AcDbLine
10
4762.7368259669875
20
1482.9014314676749
30
0
11
4762.7368259669875
21
1291.5695050476415
31
0
0
SPLINE
5
319
100
AcDbEntity
8
0
100
AcDbSpline
70
1064
71
3
72
10
73
6
74
0
42
0.000000001
43
0.0000000001
44
0.0000000001
40
-13.08548456509523
40
-13.08548456509523
40
-13.08548456509523
40
-13.08548456509523
40
-8.7764718453395805
40
-3.9404496429967373
40
0
40
0
40
0
40
0
10
4762.7368259669875
20
1291.5695050476415
30
0
10
4750.5236223615902
20
1299.4380304776014
30
0
10
4724.6034915228111
20
1316.1374334551097
30
0
10
4694.4358905001127
20
1348.7148200886668
30
0
10
4674.265129096515
20
1370.3175088622447
30
0
10
4665.2088852011966
20
1380.0166577646394
30
0
0
SPLINE
5
320
100
AcDbEntity
8
0
100
AcDbSpline
70
1064
71
5
72
21
73
15
74
0
42
0.000000001
43
0.0000000001
44
0.0000000001
40
-1
40
-1
40
-1
40
-1
40
-1
40
-1
40
-0.89999999999999991
40
-0.79999999999999993
40
-0.69999999999999996
40
-0.59999999999999998
40
-0.5
40
-0.40000000000000002
40
-0.30000000000000004
40
-0.20000000000000001
40
-0.10000000000000001
40
0
40
0
40
0
40
0
40
0
40
0
10
4665.2088852011966
20
1380.0166577646394
30
0
10
4662.3624441851862
20
1381.7429448215371
30
0
10
4656.6199026723098
20
1385.0707792672388
30
0
10
4647.8571095552516
20
1389.6883058898989
30
0
10
4635.870542569909
20
1395.0842970399719
30
0
10
4620.3495200481484
20
1400.4783513218194
30
0
10
4604.2472499904297
20
1404.4123697058599
30
0
10
4587.5235027126118
20
1406.7852992339022
30
0
10
4570.1696980773195
20
1407.5755874558631
30
0
10
4552.2240035085597
20
1406.8791071381884
30
0
10
4533.7370068331729
20
1404.8229298617543
30
0
10
4518.5527129718821
20
1402.1865497059953
30
0
10
4506.9570330796432
20
1399.6881470051176
30
0
10
4499.1358919449085
20
1397.7947463028117
30
0
10
4495.2026480004724
20
1396.7910926875618
30
0
0
SPLINE
5
321
100
AcDbEntity
8
0
100
AcDbSpline
70
1064
71
3
72
15
73
11
74
0
42
0.000000001
43
0.0000000001
44
0.0000000001
40
-67.608543268975581
40
-67.608543268975581
40
-67.608543268975581
40
-67.608543268975581
40
-62.440382532335406
40
-59.397731964547347
40
-51.224043264146161
40
-44.233110372979198
40
-34.965553606287735
40
-22.353091240097335
40
-14.373820411925553
40
-8.7762533785341379
40
-8.7762533785341379
40
-8.7762533785341379
40
-8.7762533785341379
10
4495.2026480004724
20
1396.7910926875618
30
0
10
4478.7942847760914
20
1388.9120772392907
30
0
10
4452.7258281016011
20
1376.3944500974371
30
0
10
4398.8099688317179
20
1393.2492196619733
30
0
10
4336.7138124223939
20
1393.9545548464798
30
0
10
4258.5785153530305
20
1367.5463500289914
30
0
10
4169.9150069553307
20
1329.3975043052837
30
0
10
4068.8529739972819
20
1312.3454974496162
30
0
10
3981.4189189983294
20
1331.73822333106
30
0
10
3943.9048884699146
20
1362.7028046208434
30
0
10
3932.6277698658264
20
1377.9686421083366
30
0
0
LINE
5
322
100
AcDbEntity
8
0
100
AcDbLine
10
3932.6277698658264
20
1377.9686421083366
30
0
11
3932.6277616168109
21
1377.9686523840871
31
0
0
SPLINE
5
323
100
AcDbEntity
8
0
100
AcDbSpline
70
1064
71
5
72
16
73
10
74
0
42
0.000000001
43
0.0000000001
44
0.0000000001
40
1.4096016748066376e-07
40
1.4096016748066376e-07
40
1.4096016748066376e-07
40
1.4096016748066376e-07
40
1.4096016748066376e-07
40
1.4096016748066376e-07
40
0.20000000000000001
40
0.40000000000000002
40
0.60000000000000009
40
0.80000000000000004
40
0.90107255204940118
40
0.90107255204940118
40
0.90107255204940118
40
0.90107255204940118
40
0.90107255204940118
40
0.90107255204940118
10
3932.6277616168127
20
1377.9686523840878
30
0
10
3930.2869560209474
20
1380.8845804008158
30
0
10
3925.9581176260626
20
1387.1697582734284
30
0
10
3920.5222713936428
20
1397.9559639588433
30
0
10
3915.132555163158
20
1414.4212212773548
30
0
10
3911.1424789455145
20
1433.4016705401832
30
0
10
3909.187958067771
20
1446.285515932768
30
0
10
3908.376216368205
20
1453.6217244273171
30
0
10
3908.107696561834
20
1457.2153054941052
30
0
10
3908.0425108222007
20
1458.3261823254975
30
0
0
ELLIPSE
5
324
100
AcDbEntity
8
0
100
AcDbEllipse
10
3935.4689911560376
20
1351.0667699731391
30
0
11
-26.580169880324846
21
114.85088318082383
31
0.0
40
0.062495884396362791
41
0.29837716063603148
42
0.35143269316740172
0
SPLINE
5
325
100
AcDbEntity
8
0
100
AcDbSpline
70
1064
71
3
72
10
73
6
74
0
42
0.000000001
43
0.0000000001
44
0.0000000001
40
0.029115128235982966
40
0.029115128235982966
40
0.029115128235982966
40
0.029115128235982966
40
0.61526569986840352
40
0.61526569986840352
40
1.2267075311502496
40
1.2267075311502496
40
1.2267075311502496
40
1.2267075311502496
10
4350.9052548967074
20
973.52321593970362
30
0
10
4350.2605992762719
20
971.67869623048784
30
0
10
4349.5784322075315
20
969.84635265015538
30
0
10
4348.1020570556602
20
966.13734285873011
30
0
10
4347.3037074935655
20
964.26072257896794
30
0
10
4346.4572282706631
20
962.40659562824919
30
0
0
SPLINE
5
326
100
AcDbEntity
8
0
100
AcDbSpline
70
1064
71
3
72
8
73
4
74
0
42
0.000000001
43
0.0000000001
44
0.0000000001
40
-4.3188189392328367
40
-4.3188189392328367
40
-4.3188189392328367
40
-4.3188189392328367
40
-3.1357495297466782
40
-3.1357495297466782
40
-3.1357495297466782
40
-3.1357495297466782
10
4346.4572282706631
20
962.40659562824919
30
0
10
4348.1046885308879
20
966.01385233050507
30
0
10
4349.581409161482
20
969.73260350131795
30
0
10
4350.9063451882103
20
973.52302552725405
30
0
0
LINE
5
327
100
AcDbEntity
8
0
100
AcDbLine
10
4186.0333699219855
20
1002.3170377035499
30
0
11
4184.0177343017494
21
990.77561583687282
31
0
0
SPLINE
5
328
100
AcDbEntity
8
0
100
AcDbSpline
70
1064
71
3
72
10
73
6
74
0
42
0.000000001
43
0.0000000001
44
0.0000000001
40
-1.200367213510654
40
-1.200367213510654
40
-1.200367213510654
40
-1.200367213510654
40
-0.60018334127211936
40
-0.60018334127211936
40
0
40
0
40
0
40
0
10
4346.33347231472
20
962.13652922752931
30
0
10
4346.3541624631052
20
962.18152908358877
30
0
10
4346.3748204816411
20
962.2265346100271
30
0
10
4346.416072375865
20
962.31655672313411
30
0
10
4346.4366662975781
20
962.36157341010471
30
0
10
4346.4572282704848
20
962.40659562786266
30
0
0
LINE
5
329
100
AcDbEntity
8
0
100
AcDbLine
10
4346.4572282706622
20
962.40659562824931
30
0
11
4184.0177343017494
21
990.77561583687282
31
0
0
LINE
5
330
100
AcDbEntity
8
0
100
AcDbLine
10
4350.9052548967074
20
973.52321593970362
30
0
11
4186.0333699219855
21
1002.3170377035499
31
0
0
SPLINE
5
331
100
AcDbEntity
8
0
100
AcDbSpline
70
1064
71
5
72
19
73
13
74
0
42
0.000000001
43
0.0000000001
44
0.0000000001
40
-0.71246335862284482
40
-0.71246335862284482
40
-0.71246335862284482
40
-0.71246335862284482
40
-0.71246335862284482
40
-0.71246335862284482
40
-0.69999999999999996
40
-0.59999999999999998
40
-0.5
40
-0.40000000000000002
40
-0.30000000000000004
40
-0.20000000000000001
40
-0.10000000000000001
40
-0.006147297408721818
40
-0.006147297408721818
40
-0.006147297408721818
40
-0.006147297408721818
40
-0.006147297408721818
40
-0.006147297408721818
10
4346.3334723146954
20
962.13652922747474
30
0
10
4345.8021817044792
20
960.98100339279927
30
0
10
4340.8878486936701
20
950.66722134218242
30
0
10
4329.5222215388076
20
933.15525008924726
30
0
10
4306.2385090014404
20
913.93878346106067
30
0
10
4260.6569824253929
20
903.29566602094462
30
0
10
4186.1290464888607
20
907.21726519965489
30
0
10
4103.6795055313542
20
928.29023567740921
30
0
10
4028.8131185669135
20
967.30958179366257
30
0
10
3985.902974024541
20
1015.1003886143006
30
0
10
3968.3262522860628
20
1061.2562663433321
30
0
10
3963.7049059493165
20
1096.4782984935055
30
0
10
3963.1113872317756
20
1114.6521653586499
30
0
0
LINE
5
332
100
AcDbEntity
8
0
100
AcDbLine
10
3963.1113872317751
20
1114.6521653586499
30
0
11
4163.8135299867299
21
1114.6521653586494
31
0
0
SPLINE
5
333
100
AcDbEntity
8
0
100
AcDbSpline
70
1064
71
5
72
14
73
8
74
0
42
0.000000001
43
0.0000000001
44
0.0000000001
40
-1
40
-1
40
-1
40
-1
40
-1
40
-1
40
-0.89999999999999991
40
-0.79999999999999993
40
-0.73609738021093973
40
-0.73609738021093973
40
-0.73609738021093973
40
-0.73609738021093973
40
-0.73609738021093973
40
-0.73609738021093973
10
4364.6395035389223
20
1120.6521653586478
30
0
10
4364.6491452621722
20
1110.4748519518664
30
0
10
4364.5909424289021
20
1089.253072250795
30
0
10
4364.307961067484
20
1058.9587289010215
30
0
10
4362.8960908497638
20
1027.0380338489376
30
0
10
4358.0404062575508
20
996.98995238137843
30
0
10
4353.1360684615702
20
979.90189366624395
30
0
10
4350.9063451882103
20
973.52302552725394
30
0
0
SPLINE
5
334
100
AcDbEntity
8
0
100
AcDbSpline
70
1064
71
3
72
10
73
6
74
0
42
0.000000001
43
0.0000000001
44
0.0000000001
40
0.029115128236395522
40
0.029115128236395522
40
0.029115128236395522
40
0.029115128236395522
40
0.61526569986840352
40
0.61526569986840352
40
1.2267075311502496
40
1.2267075311502496
40
1.2267075311502496
40
1.2267075311502496
10
4350.9052548967074
20
1267.7811147775951
30
0
10
4350.2605992762728
20
1269.6256344868093
30
0
10
4349.5784322075306
20
1271.4579780671418
30
0
10
4348.102057055662
20
1275.1669878585662
30
0
10
4347.3037074935655
20
1277.0436081383261
30
0
10
4346.4572282706649
20
1278.8977350890443
30
0
0
SPLINE
5
335
100
AcDbEntity
8
0
100
AcDbSpline
70
1064
71
3
72
8
73
4
74
0
42
0.000000001
43
0.0000000001
44
0.0000000001
40
-4.3188189392328367
40
-4.3188189392328367
40
-4.3188189392328367
40
-4.3188189392328367
40
-3.1357495297468128
40
-3.1357495297468128
40
-3.1357495297468128
40
-3.1357495297468128
10
4346.4572282706649
20
1278.8977350890443
30
0
10
4348.1046885308897
20
1275.2904783867898
30
0
10
4349.5814091614857
20
1271.5717272159764
30
0
10
4350.9063451882121
20
1267.781305190043
30
0
0
LINE
5
336
100
AcDbEntity
8
0
100
AcDbLine
10
4346.457228270664
20
1278.8977350890443
30
0
11
4184.0177343017494
21
1250.528714880425
31
0
0
LINE
5
337
100
AcDbEntity
8
0
100
AcDbLine
10
4186.0333699219846
20
1238.9872930137494
30
0
11
4184.0177343017494
21
1250.528714880425
31
0
0
SPLINE
5
338
100
AcDbEntity
8
0
100
AcDbSpline
70
1064
71
3
72
10
73
6
74
0
42
0.000000001
43
0.0000000001
44
0.0000000001
40
-1.200367213510654
40
-1.200367213510654
40
-1.200367213510654
40
-1.200367213510654
40
-0.60018334127211936
40
-0.60018334127211936
40
0
40
0
40
0
40
0
10
4346.3334723147218
20
1279.1678014897666
30
0
10
4346.354162463108
20
1279.1228016337066
30
0
10
4346.3748204816429
20
1279.0777961072658
30
0
10
4346.416072375865
20
1278.9877739941612
30
0
10
4346.4366662975808
20
1278.9427573071912
30
0
10
4346.4572282704867
20
1278.8977350894338
30
0
0
LINE
5
339
100
AcDbEntity
8
0
100
AcDbLine
10
4350.9052548967074
20
1267.7811147775951
30
0
11
4186.0333699219846
21
1238.9872930137494
31
0
0
SPLINE
5
340
100
AcDbEntity
8
0
100
AcDbSpline
70
1064
71
5
72
14
73
8
74
0
42
0.000000001
43
0.0000000001
44
0.0000000001
40
-1
40
-1
40
-1
40
-1
40
-1
40
-1
40
-0.89999999999999991
40
-0.79999999999999993
40
-0.73609738021093973
40
-0.73609738021093973
40
-0.73609738021093973
40
-0.73609738021093973
40
-0.73609738021093973
40
-0.73609738021093973
10
4364.6395035389223
20
1120.6521653586478
30
0
10
4364.6491452621758
20
1130.8294787654277
30
0
10
4364.5909424289021
20
1152.0512584664998
30
0
10
4364.307961067484
20
1182.3456018162715
30
0
10
4362.8960908497638
20
1214.2662968683583
30
0
10
4358.0404062575499
20
1244.3143783359158
30
0
10
4353.136068461572
20
1261.4024370510531
30
0
10
4350.9063451882121
20
1267.7813051900425
30
0
0
LINE
5
341
100
AcDbEntity
8
0
100
AcDbLine
10
4163.8135299867299
20
1114.6521653586494
30
0
11
4163.8135299867299
21
1126.6521653586483
31
0
0
LINE
5
342
100
AcDbEntity
8
0
100
AcDbLine
10
3963.1113872317756
20
1126.6521653586512
30
0
11
4163.8135299867299
21
1126.6521653586483
31
0
0
SPLINE
5
343
100
AcDbEntity
8
0
100
AcDbSpline
70
1064
71
5
72
19
73
13
74
0
42
0.000000001
43
0.0000000001
44
0.0000000001
40
-0.71246335862284482
40
-0.71246335862284482
40
-0.71246335862284482
40
-0.71246335862284482
40
-0.71246335862284482
40
-0.71246335862284482
40
-0.69999999999999996
40
-0.59999999999999998
40
-0.5
40
-0.40000000000000002
40
-0.30000000000000004
40
-0.20000000000000001
40
-0.10000000000000001
40
-0.006147297408721818
40
-0.006147297408721818
40
-0.006147297408721818
40
-0.006147297408721818
40
-0.006147297408721818
40
-0.006147297408721818
10
4346.3334723146963
20
1279.1678014898234
30
0
10
4345.8021817044801
20
1280.3233273244969
30
0
10
4340.8878486936701
20
1290.6371093751102
30
0
10
4329.5222215388058
20
1308.1490806280472
30
0
10
4306.2385090014423
20
1327.3655472562332
30
0
10
4260.6569824253929
20
1338.0086646963514
30
0
10
4186.1290464888634
20
1334.0870655176404
30
0
10
4103.6795055313532
20
1313.0140950398895
30
0
10
4028.8131185669154
20
1273.9947489236372
30
0
10
3985.9029740245433
20
1226.2039421029986
30
0
10
3968.3262522860632
20
1180.048064373967
30
0
10
3963.7049059493174
20
1144.8260322237943
30
0
10
3963.1113872317783
20
1126.652165358651
30
0
0
LINE
5
344
100
AcDbEntity
8
0
100
AcDbLine
10
4571.5662726512019
20
994.73493989819735
30
0
11
4569.5344937376576
21
1006.3292903853624
31
0
0
LINE
5
345
100
AcDbEntity
8
0
100
AcDbLine
10
4569.5344937376576
20
1006.3292903853624
30
0
11
4399.3126279804392
21
976.49983181823143
31
0
0
LINE
5
346
100
AcDbEntity
8
0
100
AcDbLine
10
4405.1263294137852
20
965.37946878522018
30
0
11
4405.1508346163482
21
965.33779222024691
31
0
0
SPLINE
5
347
100
AcDbEntity
8
0
100
AcDbSpline
70
1064
71
5
72
27
73
21
74
0
42
0.000000001
43
0.0000000001
44
0.0000000001
40
0.0069594121591837026
40
0.0069594121591837026
40
0.0069594121591837026
40
0.0069594121591837026
40
0.0069594121591837026
40
0.0069594121591837026
40
0.050000000000000003
40
0.10000000000000001
40
0.15000000000000002
40
0.20000000000000001
40
0.25
40
0.29999999999999999
40
0.34999999999999998
40
0.39999999999999997
40
0.44999999999999996
40
0.49999999999999994
40
0.54999999999999993
40
0.59999999999999998
40
0.65000000000000002
40
0.70000000000000007
40
0.75000000000000011
40
0.7865322407908184
40
0.7865322407908184
40
0.7865322407908184
40
0.7865322407908184
40
0.7865322407908184
40
0.7865322407908184
10
4790.5184156019195
20
1118.8212357725113
30
0
10
4790.346095438359
20
1111.4792763122937
30
0
10
4789.3985062677511
20
1096.1387406150338
30
0
10
4786.0465987944262
20
1074.3010814364661
30
0
10
4777.8465812190379
20
1048.1704184933662
30
0
10
4762.5925567909035
20
1019.5209560200492
30
0
10
4742.4840419939837
20
993.04890410956421
30
0
10
4718.2934615451904
20
968.65569457430001
30
0
10
4686.5404890848286
20
947.32711791589043
30
0
10
4644.8447713322203
20
931.51660208984185
30
0
10
4604.192276244974
20
921.48138751059366
30
0
10
4574.1449961175022
20
916.43236714817976
30
0
10
4561.092343581402
20
914.86598178813426
30
0
10
4550.8209287998043
20
913.67092025714317
30
0
10
4523.818626467074
20
911.71276406854406
30
0
10
4486.0317760220905
20
913.0952144222947
30
0
10
4449.2409353245221
20
921.81691004633524
30
0
10
4427.2267982633148
20
936.46203104596668
30
0
10
4414.5556739664844
20
950.67027015827921
30
0
10
4407.7911936571818
20
960.84934256933809
30
0
10
4405.1508346163464
20
965.3377922202485
30
0
0
SPLINE
5
348
100
AcDbEntity
8
0
100
AcDbSpline
70
1064
71
3
72
10
73
6
74
0
42
0.000000001
43
0.0000000001
44
0.0000000001
40
-1.2008070186042952
40
-1.2008070186042952
40
-1.2008070186042952
40
-1.2008070186042952
40
-0.60031077377027486
40
-0.60031077377027486
40
-0.23508272780735776
40
-0.23508272780735776
40
-0.23508272780735776
40
-0.23508272780735776
10
4405.0259278462272
20
965.55062627892869
30
0
10
4405.0467140371993
20
965.51512434763924
30
0
10
4405.0675032505133
20
965.47965898908262
30
0
10
4405.1009723390334
20
965.42262949914505
30
0
10
4405.1136453568824
20
965.40105080349736
30
0
10
4405.1263294137843
20
965.37946878522166
30
0
0
LINE
5
349
100
AcDbEntity
8
0
100
AcDbLine
10
4571.5662726512019
20
994.73493989819735
30
0
11
4405.0259278462272
21
965.55062627892869
31
0
0
LINE
5
350
100
AcDbEntity
8
0
100
AcDbLine
10
4583.9466822504992
20
1118.8212357725124
30
0
11
4790.5184156019195
21
1118.8212357725113
31
0
0
SPLINE
5
351
100
AcDbEntity
8
0
100
AcDbSpline
70
1064
71
5
72
15
73
9
74
0
42
0.000000001
43
0.0000000001
44
0.0000000001
40
0.80402237868425386
40
0.80402237868425386
40
0.80402237868425386
40
0.80402237868425386
40
0.80402237868425386
40
0.80402237868425386
40
0.8500000000000002
40
0.90000000000000024
40
0.95000000000000029
40
1
40
1
40
1
40
1
40
1
40
1
10
4399.3126279804392
20
976.49983181822893
30
0
10
4396.4904012862144
20
982.57709236068297
30
0
10
4391.2594912190571
20
995.80611041006011
30
0
10
4385.24607692682
20
1017.3974103793062
30
0
10
4380.3793492288614
20
1048.2544938956817
30
0
10
4378.2711003909008
20
1079.4520708041221
30
0
10
4377.5310663681184
20
1102.5476325189873
30
0
10
4377.3315804885633
20
1117.4749888553899
30
0
10
4377.3052632359504
20
1124.8212357725122
30
0
0
LINE
5
352
100
AcDbEntity
8
0
100
AcDbLine
10
4571.5662726512037
20
1254.9075316468245
30
0
11
4569.5344937376594
21
1243.3131811596602
31
0
0
LINE
5
353
100
AcDbEntity
8
0
100
AcDbLine
10
4569.5344937376594
20
1243.3131811596602
30
0
11
4399.3126279804392
21
1273.1426397267919
31
0
0
LINE
5
354
100
AcDbEntity
8
0
100
AcDbLine
10
4405.1263294137834
20
1284.2630027598016
30
0
11
4405.1508346163455
21
1284.304679324775
31
0
0
SPLINE
5
355
100
AcDbEntity
8
0
100
AcDbSpline
70
1064
71
3
72
10
73
6
74
0
42
0.000000001
43
0.0000000001
44
0.0000000001
40
-1.2008070186042952
40
-1.2008070186042952
40
-1.2008070186042952
40
-1.2008070186042952
40
-0.60031077377027486
40
-0.60031077377027486
40
-0.23508272780735776
40
-0.23508272780735776
40
-0.23508272780735776
40
-0.23508272780735776
10
4405.0259278462272
20
1284.0918452660924
30
0
10
4405.0467140371984
20
1284.1273471973818
30
0
10
4405.0675032505151
20
1284.16281255594
30
0
10
4405.1009723390334
20
1284.2198420458767
30
0
10
4405.1136453568834
20
1284.2414207415243
30
0
10
4405.1263294137825
20
1284.2630027598011
30
0
0
SPLINE
5
356
100
AcDbEntity
8
0
100
AcDbSpline
70
1064
71
5
72
27
73
21
74
0
42
0.000000001
43
0.0000000001
44
0.0000000001
40
0.0069594121591837026
40
0.0069594121591837026
40
0.0069594121591837026
40
0.0069594121591837026
40
0.0069594121591837026
40
0.0069594121591837026
40
0.050000000000000003
40
0.10000000000000001
40
0.15000000000000002
40
0.20000000000000001
40
0.25
40
0.29999999999999999
40
0.34999999999999998
40
0.39999999999999997
40
0.44999999999999996
40
0.49999999999999994
40
0.54999999999999993
40
0.59999999999999998
40
0.65000000000000002
40
0.70000000000000007
40
0.75000000000000011
40
0.7865322407908184
40
0.7865322407908184
40
0.7865322407908184
40
0.7865322407908184
40
0.7865322407908184
40
0.7865322407908184
10
4790.5184156019186
20
1130.8212357725113
30
0
10
4790.3460954383581
20
1138.16319523273
30
0
10
4789.3985062677511
20
1153.5037309299894
30
0
10
4786.0465987944262
20
1175.3413901085546
30
0
10
4777.8465812190407
20
1201.4720530516563
30
0
10
4762.5925567909053
20
1230.1215155249733
30
0
10
4742.4840419939828
20
1256.59356743546
30
0
10
4718.2934615451913
20
1280.9867769707243
30
0
10
4686.5404890848286
20
1302.3153536291318
30
0
10
4644.8447713322194
20
1318.1258694551798
30
0
10
4604.192276244974
20
1328.1610840344274
30
0
10
4574.1449961175031
20
1333.2101043968423
30
0
10
4561.092343581402
20
1334.7764897568895
30
0
10
4550.8209287998043
20
1335.9715512878784
30
0
10
4523.818626467074
20
1337.9297074764777
30
0
10
4486.0317760220905
20
1336.5472571227281
30
0
10
4449.2409353245221
20
1327.8255614986851
30
0
10
4427.2267982633148
20
1313.1804404990555
30
0
10
4414.5556739664862
20
1298.9722013867431
30
0
10
4407.7911936571809
20
1288.7931289756834
30
0
10
4405.1508346163464
20
1284.3046793247754
30
0
0
LINE
5
357
100
AcDbEntity
8
0
100
AcDbLine
10
4571.5662726512037
20
1254.9075316468245
30
0
11
4405.0259278462272
21
1284.0918452660924
31
0
0
LINE
5
358
100
AcDbEntity
8
0
100
AcDbLine
10
4583.9466822504983
20
1130.8212357725113
30
0
11
4790.5184156019186
21
1130.8212357725113
31
0
0
LINE
5
359
100
AcDbEntity
8
0
100
AcDbLine
10
4583.9466822504983
20
1130.8212357725113
30
0
11
4583.9466822504992
21
1118.8212357725124
31
0
0
SPLINE
5
360
100
AcDbEntity
8
0
100
AcDbSpline
70
1064
71
5
72
15
73
9
74
0
42
0.000000001
43
0.0000000001
44
0.0000000001
40
0.80402237868425386
40
0.80402237868425386
40
0.80402237868425386
40
0.80402237868425386
40
0.80402237868425386
40
0.80402237868425386
40
0.8500000000000002
40
0.90000000000000024
40
0.95000000000000029
40
1
40
1
40
1
40
1
40
1
40
1
10
4399.3126279804392
20
1273.1426397267926
30
0
10
4396.4904012862153
20
1267.0653791843386
30
0
10
4391.2594912190571
20
1253.8363611349625
30
0
10
4385.2460769268191
20
1232.2450611657152
30
0
10
4380.3793492288614
20
1201.3879776493409
30
0
10
4378.2711003908989
20
1170.1904007408993
30
0
10
4377.5310663681194
20
1147.0948390260364
30
0
10
4377.3315804885624
20
1132.1674826896315
30
0
10
4377.3052632359504
20
1124.8212357725122
30
0
0
LWPOLYLINE
5
361
100
AcDbEntity
8
0
100
AcDbPolyline
90
4
70
1
43
0.0
10
3032.6318359375
20
910
10
3010
20
910
10
3010
20
920
10
3032.6318359375
20
920
0
LWPOLYLINE
5
362
100
AcDbEntity
8
0
100
AcDbPolyline
90
4
70
1
43
0.0
10
3232.6318359375
20
910
10
3210
20
910
10
3210
20
920
10
3232.6318359375
20
920
0
LWPOLYLINE
5
363
100
AcDbEntity
8
0
100
AcDbPolyline
90
4
70
1
43
0.0
10
3432.6318359375
20
910
10
3410
20
910
10
3410
20
920
10
3432.6318359375
20
920
0
LWPOLYLINE
5
364
100
AcDbEntity
8
0
100
AcDbPolyline
90
4
70
1
43
0.0
10
3632.6318359375
20
910
10
3610
20
910
10
3610
20
920
10
3632.6318359375
20
920
0
LWPOLYLINE
5
365
100
AcDbEntity
8
0
100
AcDbPolyline
90
4
70
1
43
0.0
10
3832.6318359375
20
910
10
3810
20
910
10
3810
20
920
10
3832.6318359375
20
920
0
LWPOLYLINE
5
366
100
AcDbEntity
8
0
100
AcDbPolyline
90
4
70
1
43
0.0
10
4032.6318359375
20
910
10
4010
20
910
10
4010
20
920
10
4032.6318359375
20
920
0
LWPOLYLINE
5
367
100
AcDbEntity
8
0
100
AcDbPolyline
90
4
70
1
43
0.0
10
4232.6318359375
20
910
10
4210
20
910
10
4210
20
920
10
4232.6318359375
20
920
0
LWPOLYLINE
5
368
100
AcDbEntity
8
0
100
AcDbPolyline
90
4
70
1
43
0.0
10
4432.6318359375
20
910
10
4410
20
910
10
4410
20
920
10
4432.6318359375
20
920
0
LWPOLYLINE
5
369
100
AcDbEntity
8
0
100
AcDbPolyline
90
4
70
1
43
0.0
10
4622.6318359375
20
900
10
4600
20
900
10
4600
20
910
10
4622.6318359375
20
910
0
LWPOLYLINE
5
370
100
AcDbEntity
8
0
100
AcDbPolyline
90
4
70
1
43
0.0
10
3048.9404296875
20
1225
10
3025
20
1225
10
3025
20
1235
10
3048.9404296875
20
1235
0
LWPOLYLINE
5
371
100
AcDbEntity
8
0
100
AcDbPolyline
90
4
70
1
43
0.0
10
3248.9404296875
20
1225
10
3225
20
1225
10
3225
20
1235
10
3248.9404296875
20
1235
0
LWPOLYLINE
5
372
100
AcDbEntity
8
0
100
AcDbPolyline
90
4
70
1
43
0.0
10
3448.2858962341215
20
1225.8332585773903
10
3424.3454665466215
20
1225.8332585773903
10
3424.3454665466215
20
1235.8332585773903
10
3448.2858962341215
20
1235.8332585773903
0
LWPOLYLINE
5
373
100
AcDbEntity
8
0
100
AcDbPolyline
90
4
70
1
43
0.0
10
3649.7799576900916
20
1225.787075813367
10
3625.8395280025916
20
1225.787075813367
10
3625.8395280025916
20
1235.787075813367
10
3649.7799576900916
20
1235.787075813367
0
LWPOLYLINE
5
374
100
AcDbEntity
8
0
100
AcDbPolyline
90
4
70
1
43
0.0
10
3849.8642038395633
20
1222.1153766477935
10
3825.9237741520633
20
1222.1153766477935
10
3825.9237741520633
20
1232.1153766477935
10
3849.8642038395633
20
1232.1153766477935
0
LWPOLYLINE
5
375
100
AcDbEntity
8
0
100
AcDbPolyline
90
4
70
1
43
0.0
10
4023.9404296875
20
1200
10
4000
20
1200
10
4000
20
1210
10
4023.9404296875
20
1210
0
LWPOLYLINE
5
376
100
AcDbEntity
8
0
100
AcDbPolyline
90
4
70
1
43
0.0
10
4223.9404296875
20
1200
10
4200
20
1200
10
4200
20
1210
10
4223.9404296875
20
1210
0
LWPOLYLINE
5
377
100
AcDbEntity
8
0
100
AcDbPolyline
90
4
70
1
43
0.0
10
4423.9404296875
20
1200
10
4400
20
1200
10
4400
20
1210
10
4423.9404296875
20
1210
0
LWPOLYLINE
5
378
100
AcDbEntity
8
0
100
AcDbPolyline
90
4
70
1
43
0.0
10
3024.013671875
20
1500
10
3000
20
1500
10
3000
20
1510
10
3024.013671875
20
1510
0
LWPOLYLINE
5
379
100
AcDbEntity
8
0
100
AcDbPolyline
90
4
70
1
43
0.0
10
3224.013671875
20
1500
10
3200
20
1500
10
3200
20
1510
10
3224.013671875
20
1510
0
LWPOLYLINE
5
380
100
AcDbEntity
8
0
100
AcDbPolyline
90
4
70
1
43
0.0
10
3424.013671875
20
1500
10
3400
20
1500
10
3400
20
1510
10
3424.013671875
20
1510
0
LWPOLYLINE
5
381
100
AcDbEntity
8
0
100
AcDbPolyline
90
4
70
1
43
0.0
10
3627.9965600537657
20
1500
10
3603.9828881787657
20
1500
10
3603.9828881787657
20
1510
10
3627.9965600537657
20
1510
0
LWPOLYLINE
5
382
100
AcDbEntity
8
0
100
AcDbPolyline
90
4
70
1
43
0.0
10
3824.013671875
20
1500
10
3800
20
1500
10
3800
20
1510
10
3824.013671875
20
1510
0
LWPOLYLINE
5
383
100
AcDbEntity
8
0
100
AcDbPolyline
90
4
70
1
43
0.0
10
4024.013671875
20
1500
10
4000
20
1500
10
4000
20
1510
10
4024.013671875
20
1510
0
LWPOLYLINE
5
384
100
AcDbEntity
8
0
100
AcDbPolyline
90
4
70
1
43
0.0
10
4224.013671875
20
1500
10
4200
20
1500
10
4200
20
1510
10
4224.013671875
20
1510
0
LWPOLYLINE
5
385
100
AcDbEntity
8
0
100
AcDbPolyline
90
4
70
1
43
0.0
10
4424.013671875
20
1500
10
4400
20
1500
10
4400
20
1510
10
4424.013671875
20
1510
0
LWPOLYLINE
5
386
100
AcDbEntity
8
0
100
AcDbPolyline
90
4
70
1
43
0.0
10
4624.013671875
20
1500
10
4600
20
1500
10
4600
20
1510
10
4624.013671875
20
1510
0
LWPOLYLINE
5
387
100
AcDbEntity
8
0
100
AcDbPolyline
90
4
70
1
43
0.0
10
4623.9404296875
20
1200
10
4600
20
1200
10
4600
20
1210
10
4623.9404296875
20
1210
0
LWPOLYLINE
5
388
100
AcDbEntity
8
0
100
AcDbPolyline
90
4
70
1
43
0.0
10
3021.884765625
20
0
10
3000
20
0
10
3000
20
10
10
3021.884765625
20
10
0
LWPOLYLINE
5
389
100
AcDbEntity
8
0
100
AcDbPolyline
90
4
70
1
43
0.0
10
3023.193359375
20
300
10
3000
20
300
10
3000
20
310
10
3023.193359375
20
310
0
LWPOLYLINE
5
390
100
AcDbEntity
8
0
100
AcDbPolyline
90
4
70
1
43
0.0
10
3023.2666015625
20
600
10
3000
20
600
10
3000
20
610
10
3023.2666015625
20
610
0
LWPOLYLINE
5
391
100
AcDbEntity
8
0
100
AcDbPolyline
90
4
70
1
43
0.0
10
3221.884765625
20
0
10
3200
20
0
10
3200
20
10
10
3221.884765625
20
10
0
LWPOLYLINE
5
392
100
AcDbEntity
8
0
100
AcDbPolyline
90
4
70
1
43
0.0
10
3223.193359375
20
300
10
3200
20
300
10
3200
20
310
10
3223.193359375
20
310
0
LWPOLYLINE
5
393
100
AcDbEntity
8
0
100
AcDbPolyline
90
4
70
1
43
0.0
10
3223.2666015625
20
600
10
3200
20
600
10
3200
20
610
10
3223.2666015625
20
610
0
LWPOLYLINE
5
394
100
AcDbEntity
8
0
100
AcDbPolyline
90
4
70
1
43
0.0
10
3421.884765625
20
0
10
3400
20
0
10
3400
20
10
10
3421.884765625
20
10
0
LWPOLYLINE
5
395
100
AcDbEntity
8
0
100
AcDbPolyline
90
4
70
1
43
0.0
10
3423.193359375
20
300
10
3400
20
300
10
3400
20
310
10
3423.193359375
20
310
0
LWPOLYLINE
5
396
100
AcDbEntity
8
0
100
AcDbPolyline
90
4
70
1
43
0.0
10
3423.2666015625
20
600
10
3400
20
600
10
3400
20
610
10
3423.2666015625
20
610
0
LWPOLYLINE
5
397
100
AcDbEntity
8
0
100
AcDbPolyline
90
4
70
1
43
0.0
10
3621.884765625
20
0
10
3600
20
0
10
3600
20
10
10
3621.884765625
20
10
0
LWPOLYLINE
5
398
100
AcDbEntity
8
0
100
AcDbPolyline
90
4
70
1
43
0.0
10
3623.193359375
20
300
10
3600
20
300
10
3600
20
310
10
3623.193359375
20
310
0
LWPOLYLINE
5
399
100
AcDbEntity
8
0
100
AcDbPolyline
90
4
70
1
43
0.0
10
3623.2666015625
20
600
10
3600
20
600
10
3600
20
610
10
3623.2666015625
20
610
0
LWPOLYLINE
5
400
100
AcDbEntity
8
0
100
AcDbPolyline
90
4
70
1
43
0.0
10
3821.884765625
20
0
10
3800
20
0
10
3800
20
10
10
3821.884765625
20
10
0
LWPOLYLINE
5
401
100
AcDbEntity
8
0
100
AcDbPolyline
90
4
70
1
43
0.0
10
3823.193359375
20
300
10
3800
20
300
10
3800
20
310
10
3823.193359375
20
310
0
LWPOLYLINE
5
402
100
AcDbEntity
8
0
100
AcDbPolyline
90
4
70
1
43
0.0
10
3823.2666015625
20
600
10
3800
20
600
10
3800
20
610
10
3823.2666015625
20
610
0
LWPOLYLINE
5
403
100
AcDbEntity
8
0
100
AcDbPolyline
90
4
70
1
43
0.0
10
4021.884765625
20
0
10
4000
20
0
10
4000
20
10
10
4021.884765625
20
10
0
LWPOLYLINE
5
404
100
AcDbEntity
8
0
100
AcDbPolyline
90
4
70
1
43
0.0
10
4023.193359375
20
300
10
4000
20
300
10
4000
20
310
10
4023.193359375
20
310
0
LWPOLYLINE
5
405
100
AcDbEntity
8
0
100
AcDbPolyline
90
4
70
1
43
0.0
10
4023.2666015625
20
600
10
4000
20
600
10
4000
20
610
10
4023.2666015625
20
610
0
LWPOLYLINE
5
406
100
AcDbEntity
8
0
100
AcDbPolyline
90
4
70
1
43
0.0
10
4221.884765625
20
0
10
4200
20
0
10
4200
20
10
10
4221.884765625
20
10
0
LWPOLYLINE
5
407
100
AcDbEntity
8
0
100
AcDbPolyline
90
4
70
1
43
0.0
10
4223.193359375
20
300
10
4200
20
300
10
4200
20
310
10
4223.193359375
20
310
0
LWPOLYLINE
5
408
100
AcDbEntity
8
0
100
AcDbPolyline
90
4
70
1
43
0.0
10
4223.2666015625
20
600
10
4200
20
600
10
4200
20
610
10
4223.2666015625
20
610
0
LWPOLYLINE
5
409
100
AcDbEntity
8
0
100
AcDbPolyline
90
4
70
1
43
0.0
10
4421.884765625
20
0
10
4400
20
0
10
4400
20
10
10
4421.884765625
20
10
0
LWPOLYLINE
5
410
100
AcDbEntity
8
0
100
AcDbPolyline
90
4
70
1
43
0.0
10
4423.193359375
20
300
10
4400
20
300
10
4400
20
310
10
4423.193359375
20
310
0
LWPOLYLINE
5
411
100
AcDbEntity
8
0
100
AcDbPolyline
90
4
70
1
43
0.0
10
4423.2666015625
20
600
10
4400
20
600
10
4400
20
610
10
4423.2666015625
20
610
0
LWPOLYLINE
5
412
100
AcDbEntity
8
0
100
AcDbPolyline
90
4
70
1
43
0.0
10
4621.884765625
20
0
10
4600
20
0
10
4600
20
10
10
4621.884765625
20
10
0
LWPOLYLINE
5
413
100
AcDbEntity
8
0
100
AcDbPolyline
90
4
70
1
43
0.0
10
4623.193359375
20
300
10
4600
20
300
10
4600
20
310
10
4623.193359375
20
310
0
LWPOLYLINE
5
414
100
AcDbEntity
8
0
100
AcDbPolyline
90
4
70
1
43
0.0
10
4623.2666015625
20
600
10
4600
20
600
10
4600
20
610
10
4623.2666015625
20
610
0
ENDSEC
0
SECTION
2
OBJECTS
0
DICTIONARY
5
C
100
AcDbDictionary
3
ACAD_GROUP
350
D
3
ACAD_MLINESTYLE
350
17
0
DICTIONARY
5
D
100
AcDbDictionary
0
DICTIONARY
5
1A
330
C
100
AcDbDictionary
0
DICTIONARY
5
17
100
AcDbDictionary
0
ENDSEC
0
EOF
