  0
SECTION
  2
HEADER
  9
$ACADVER
  1
AC1027
  9
$ACADMAINTVER
 70
   105
  9
$DWGCODEPAGE
  3
ANSI_1252
  9
$LASTSAVEDBY
  1
Jure
  9
$REQUIREDVERSIONS
160
                 0
  9
$INSBASE
 10
0.0
 20
0.0
 30
0.0
  9
$EXTMIN
 10
-0.0214081500719203
 20
-0.0000000000001137
 30
0.0
  9
$EXTMAX
 10
1515.32194526817
 20
1248.276543333368
 30
0.0
  9
$LIMMIN
 10
0.0
 20
0.0
  9
$LIMMAX
 10
12.0
 20
9.0
  9
$ORTHOMODE
 70
     0
  9
$REGENMODE
 70
     1
  9
$FILLMODE
 70
     1
  9
$QTEXTMODE
 70
     0
  9
$MIRRTEXT
 70
     1
  9
$LTSCALE
 40
1.0
  9
$ATTMODE
 70
     1
  9
$TEXTSIZE
 40
0.2
  9
$TRACEWID
 40
0.05
  9
$TEXTSTYLE
  7
Standard
  9
$CLAYER
  8
0
  9
$CELTYPE
  6
ByLayer
  9
$CECOLOR
 62
   256
  9
$CELTSCALE
 40
1.0
  9
$DISPSILH
 70
     0
  9
$DIMSCALE
 40
1.0
  9
$DIMASZ
 40
2.5
  9
$DIMEXO
 40
0.625
  9
$DIMDLI
 40
5.0
  9
$DIMRND
 40
0.0
  9
$DIMDLE
 40
0.0
  9
$DIMEXE
 40
1.25
  9
$DIMTP
 40
0.0
  9
$DIMTM
 40
0.0
  9
$DIMTXT
 40
2.5
  9
$DIMCEN
 40
0.09
  9
$DIMTSZ
 40
0.0
  9
$DIMTOL
 70
     0
  9
$DIMLIM
 70
     0
  9
$DIMTIH
 70
     1
  9
$DIMTOH
 70
     1
  9
$DIMSE1
 70
     0
  9
$DIMSE2
 70
     0
  9
$DIMTAD
 70
     0
  9
$DIMZIN
 70
     8
  9
$DIMBLK
  1

  9
$DIMASO
 70
     1
  9
$DIMSHO
 70
     1
  9
$DIMPOST
  1

  9
$DIMAPOST
  1

  9
$DIMALT
 70
     0
  9
$DIMALTD
 70
     2
  9
$DIMALTF
 40
25.4
  9
$DIMLFAC
 40
1.0
  9
$DIMTOFL
 70
     0
  9
$DIMTVP
 40
0.0
  9
$DIMTIX
 70
     0
  9
$DIMSOXD
 70
     0
  9
$DIMSAH
 70
     0
  9
$DIMBLK1
  1

  9
$DIMBLK2
  1

  9
$DIMSTYLE
  2
Standard
  9
$DIMCLRD
 70
     0
  9
$DIMCLRE
 70
     0
  9
$DIMCLRT
 70
     0
  9
$DIMTFAC
 40
1.0
  9
$DIMGAP
 40
0.625
  9
$DIMJUST
 70
     0
  9
$DIMSD1
 70
     0
  9
$DIMSD2
 70
     0
  9
$DIMTOLJ
 70
     1
  9
$DIMTZIN
 70
     0
  9
$DIMALTZ
 70
     0
  9
$DIMALTTZ
 70
     0
  9
$DIMUPT
 70
     0
  9
$DIMDEC
 70
     4
  9
$DIMTDEC
 70
     4
  9
$DIMALTU
 70
     2
  9
$DIMALTTD
 70
     2
  9
$DIMTXSTY
  7
Standard
  9
$DIMAUNIT
 70
     0
  9
$DIMADEC
 70
     0
  9
$DIMALTRND
 40
0.0
  9
$DIMAZIN
 70
     2
  9
$DIMDSEP
 70
    46
  9
$DIMATFIT
 70
     3
  9
$DIMFRAC
 70
     0
  9
$DIMLDRBLK
  1

  9
$DIMLUNIT
 70
     2
  9
$DIMLWD
 70
    -2
  9
$DIMLWE
 70
    -2
  9
$DIMTMOVE
 70
     0
  9
$DIMFXL
 40
1.0
  9
$DIMFXLON
 70
     0
  9
$DIMJOGANG
 40
0.7853981633974483
  9
$DIMTFILL
 70
     0
  9
$DIMTFILLCLR
 70
     0
  9
$DIMARCSYM
 70
     0
  9
$DIMLTYPE
  6

  9
$DIMLTEX1
  6

  9
$DIMLTEX2
  6

  9
$DIMTXTDIRECTION
 70
     0
  9
$LUNITS
 70
     2
  9
$LUPREC
 70
     4
  9
$SKETCHINC
 40
0.1
  9
$FILLETRAD
 40
0.5
  9
$AUNITS
 70
     0
  9
$AUPREC
 70
     0
  9
$MENU
  1
.
  9
$ELEVATION
 40
0.0
  9
$PELEVATION
 40
0.0
  9
$THICKNESS
 40
0.0
  9
$LIMCHECK
 70
     0
  9
$CHAMFERA
 40
0.0
  9
$CHAMFERB
 40
0.0
  9
$CHAMFERC
 40
0.0
  9
$CHAMFERD
 40
0.0
  9
$SKPOLY
 70
     0
  9
$TDCREATE
 40
2459043.770792419
  9
$TDUCREATE
 40
2459043.687459086
  9
$TDUPDATE
 40
2459043.770792789
  9
$TDUUPDATE
 40
2459043.687459456
  9
$TDINDWG
 40
0.0000000116
  9
$TDUSRTIMER
 40
0.0000000116
  9
$USRTIMER
 70
     1
  9
$ANGBASE
 50
0.0
  9
$ANGDIR
 70
     0
  9
$PDMODE
 70
     0
  9
$PDSIZE
 40
0.0
  9
$PLINEWID
 40
0.0
  9
$SPLFRAME
 70
     0
  9
$SPLINETYPE
 70
     6
  9
$SPLINESEGS
 70
     8
  9
$HANDSEED
  5
4C1
  9
$SURFTAB1
 70
     6
  9
$SURFTAB2
 70
     6
  9
$SURFTYPE
 70
     6
  9
$SURFU
 70
     6
  9
$SURFV
 70
     6
  9
$UCSBASE
  2

  9
$UCSNAME
  2

  9
$UCSORG
 10
0.0
 20
0.0
 30
0.0
  9
$UCSXDIR
 10
1.0
 20
0.0
 30
0.0
  9
$UCSYDIR
 10
0.0
 20
1.0
 30
0.0
  9
$UCSORTHOREF
  2

  9
$UCSORTHOVIEW
 70
     0
  9
$UCSORGTOP
 10
0.0
 20
0.0
 30
0.0
  9
$UCSORGBOTTOM
 10
0.0
 20
0.0
 30
0.0
  9
$UCSORGLEFT
 10
0.0
 20
0.0
 30
0.0
  9
$UCSORGRIGHT
 10
0.0
 20
0.0
 30
0.0
  9
$UCSORGFRONT
 10
0.0
 20
0.0
 30
0.0
  9
$UCSORGBACK
 10
0.0
 20
0.0
 30
0.0
  9
$PUCSBASE
  2

  9
$PUCSNAME
  2

  9
$PUCSORG
 10
0.0
 20
0.0
 30
0.0
  9
$PUCSXDIR
 10
1.0
 20
0.0
 30
0.0
  9
$PUCSYDIR
 10
0.0
 20
1.0
 30
0.0
  9
$PUCSORTHOREF
  2

  9
$PUCSORTHOVIEW
 70
     0
  9
$PUCSORGTOP
 10
0.0
 20
0.0
 30
0.0
  9
$PUCSORGBOTTOM
 10
0.0
 20
0.0
 30
0.0
  9
$PUCSORGLEFT
 10
0.0
 20
0.0
 30
0.0
  9
$PUCSORGRIGHT
 10
0.0
 20
0.0
 30
0.0
  9
$PUCSORGFRONT
 10
0.0
 20
0.0
 30
0.0
  9
$PUCSORGBACK
 10
0.0
 20
0.0
 30
0.0
  9
$USERI1
 70
     0
  9
$USERI2
 70
     0
  9
$USERI3
 70
     0
  9
$USERI4
 70
     0
  9
$USERI5
 70
     0
  9
$USERR1
 40
0.0
  9
$USERR2
 40
0.0
  9
$USERR3
 40
0.0
  9
$USERR4
 40
0.0
  9
$USERR5
 40
0.0
  9
$WORLDVIEW
 70
     1
  9
$SHADEDGE
 70
     3
  9
$SHADEDIF
 70
    70
  9
$TILEMODE
 70
     1
  9
$MAXACTVP
 70
    64
  9
$PINSBASE
 10
0.0
 20
0.0
 30
0.0
  9
$PLIMCHECK
 70
     0
  9
$PEXTMIN
 10
0.0
 20
0.0
 30
0.0
  9
$PEXTMAX
 10
0.0
 20
0.0
 30
0.0
  9
$PLIMMIN
 10
-20.0
 20
-7.5
  9
$PLIMMAX
 10
277.0
 20
202.5
  9
$UNITMODE
 70
     0
  9
$VISRETAIN
 70
     1
  9
$PLINEGEN
 70
     0
  9
$PSLTSCALE
 70
     1
  9
$TREEDEPTH
 70
  3020
  9
$CMLSTYLE
  2
Standard
  9
$CMLJUST
 70
     0
  9
$CMLSCALE
 40
1.0
  9
$PROXYGRAPHICS
 70
     1
  9
$MEASUREMENT
 70
     1
  9
$CELWEIGHT
370
    -1
  9
$ENDCAPS
280
     0
  9
$JOINSTYLE
280
     0
  9
$LWDISPLAY
290
     0
  9
$INSUNITS
 70
     4
  9
$HYPERLINKBASE
  1

  9
$STYLESHEET
  1

  9
$XEDIT
290
     1
  9
$CEPSNTYPE
380
     0
  9
$PSTYLEMODE
290
     1
  9
$FINGERPRINTGUID
  2
{1db8893e-3720-4db8-bbde-1975270954a4}
  9
$VERSIONGUID
  2
{FAEB1C32-E019-11D5-929B-00C0DF256EC4}
  9
$EXTNAMES
290
     1
  9
$PSVPSCALE
 40
0.0
  9
$OLESTARTUP
290
     0
  9
$SORTENTS
280
   127
  9
$INDEXCTL
280
     0
  9
$HIDETEXT
280
     1
  9
$XCLIPFRAME
280
     2
  9
$HALOGAP
280
     0
  9
$OBSCOLOR
 70
   257
  9
$OBSLTYPE
280
     0
  9
$INTERSECTIONDISPLAY
280
     0
  9
$INTERSECTIONCOLOR
 70
   257
  9
$DIMASSOC
280
     2
  9
$PROJECTNAME
  1

  9
$CAMERADISPLAY
290
     0
  9
$LENSLENGTH
 40
50.0
  9
$CAMERAHEIGHT
 40
0.0
  9
$STEPSPERSEC
 40
2.0
  9
$STEPSIZE
 40
6.0
  9
$3DDWFPREC
 40
2.0
  9
$PSOLWIDTH
 40
0.25
  9
$PSOLHEIGHT
 40
4.0
  9
$LOFTANG1
 40
1.570796326794897
  9
$LOFTANG2
 40
1.570796326794897
  9
$LOFTMAG1
 40
0.0
  9
$LOFTMAG2
 40
0.0
  9
$LOFTPARAM
 70
     7
  9
$LOFTNORMALS
280
     1
  9
$LATITUDE
 40
37.795
  9
$LONGITUDE
 40
-122.394
  9
$NORTHDIRECTION
 40
0.0
  9
$TIMEZONE
 70
 -8000
  9
$LIGHTGLYPHDISPLAY
280
     1
  9
$TILEMODELIGHTSYNCH
280
     1
  9
$CMATERIAL
347
405
  9
$SOLIDHIST
280
     0
  9
$SHOWHIST
280
     1
  9
$DWFFRAME
280
     2
  9
$DGNFRAME
280
     2
  9
$REALWORLDSCALE
290
     1
  9
$INTERFERECOLOR
 62
   256
  9
$CSHADOW
280
     0
  9
$SHADOWPLANELOCATION
 40
0.0
  0
ENDSEC
  0
SECTION
  2
CLASSES
  0
CLASS
  1
ACDBDICTIONARYWDFLT
  2
AcDbDictionaryWithDefault
  3
ObjectDBX Classes
 90
        0
 91
        3
280
     0
281
     0
  0
CLASS
  1
VISUALSTYLE
  2
AcDbVisualStyle
  3
ObjectDBX Classes
 90
     4095
 91
        3
280
     0
281
     0
  0
CLASS
  1
MATERIAL
  2
AcDbMaterial
  3
ObjectDBX Classes
 90
     1153
 91
        3
280
     0
281
     0
  0
CLASS
  1
SCALE
  2
AcDbScale
  3
ObjectDBX Classes
 90
     1153
 91
        3
280
     0
281
     0
  0
CLASS
  1
TABLESTYLE
  2
AcDbTableStyle
  3
ObjectDBX Classes
 90
     4095
 91
        3
280
     0
281
     0
  0
CLASS
  1
MLEADERSTYLE
  2
AcDbMLeaderStyle
  3
ACDB_MLEADERSTYLE_CLASS
 90
     4095
 91
        3
280
     0
281
     0
  0
CLASS
  1
SUN
  2
AcDbSun
  3
SCENEOE
 90
     1153
 91
        3
280
     0
281
     0
  0
CLASS
  1
DICTIONARYVAR
  2
AcDbDictionaryVar
  3
ObjectDBX Classes
 90
        0
 91
        3
280
     0
281
     0
  0
CLASS
  1
CELLSTYLEMAP
  2
AcDbCellStyleMap
  3
ObjectDBX Classes
 90
     1152
 91
        3
280
     0
281
     0
  0
ENDSEC
  0
SECTION
  2
TABLES
  0
TABLE
  2
VPORT
  5
3CA
330
0
100
AcDbSymbolTable
 70
     1
  0
VPORT
  5
3EA
330
3CA
100
AcDbSymbolTableRecord
100
AcDbViewportTableRecord
  2
*Active
 70
     0
 10
0.0
 20
0.0
 11
1.0
 21
1.0
 12
954.3939755471627
 22
541.2190019498054
 13
0.0
 23
0.0
 14
0.5
 24
0.5
 15
0.5
 25
0.5
 16
0.0
 26
0.0
 36
1.0
 17
0.0
 27
0.0
 37
0.0
 40
1761.577218751905
 41
1.816120906801008
 42
50.0
 43
0.0
 44
0.0
 50
0.0
 51
0.0
 71
     0
 72
   100
 73
     1
 74
     3
 75
     0
 76
     0
 77
     0
 78
     0
281
     0
 65
     1
110
0.0
120
0.0
130
0.0
111
1.0
121
0.0
131
0.0
112
0.0
122
1.0
132
0.0
 79
     0
146
0.0
348
3F0
 60
     3
 61
     5
292
     1
282
     1
141
0.0
142
0.0
 63
   250
361
42E
  0
ENDTAB
  0
TABLE
  2
LTYPE
  5
3C7
330
0
100
AcDbSymbolTable
 70
    48
  0
LTYPE
  5
3D5
330
3C7
100
AcDbSymbolTableRecord
100
AcDbLinetypeTableRecord
  2
ByBlock
 70
     0
  3

 72
    65
 73
     0
 40
0.0
  0
LTYPE
  5
3D6
330
3C7
100
AcDbSymbolTableRecord
100
AcDbLinetypeTableRecord
  2
ByLayer
 70
     0
  3

 72
    65
 73
     0
 40
0.0
  0
LTYPE
  5
3D7
330
3C7
100
AcDbSymbolTableRecord
100
AcDbLinetypeTableRecord
  2
Continuous
 70
     0
  3
Solid line
 72
    65
 73
     0
 40
0.0
  0
LTYPE
  5
469
330
3C7
100
AcDbSymbolTableRecord
100
AcDbLinetypeTableRecord
  2
ZIGZAG
 70
     0
  3
Zig zag /\/\/\/\/\/\/\/\/\/\/\/\/\/\/\/\/\/\/\/\/\/\/\/
 72
    65
 73
     4
 40
20.32254
 49
0.00254
 74
     0
 49
-5.08
 74
     2
 75
     0
340
467
 46
5.08
 50
0.0
 44
-5.08
 45
0.0
  9
ZIG
 49
-10.16
 74
     2
 75
     0
340
468
 46
5.08
 50
180.0
 44
5.08
 45
0.0
  9
ZIG
 49
-5.08
 74
     0
  0
LTYPE
  5
46B
330
3C7
100
AcDbSymbolTableRecord
100
AcDbLinetypeTableRecord
  2
TRACKS
 70
     0
  3
Tracks -|-|-|-|-|-|-|-|-|-|-|-|-|-|-|-|-|-|-|-|-|-|-|-|-
 72
    65
 73
     2
 40
7.62
 49
3.81
 74
     2
 75
     0
340
46A
 46
6.35
 50
0.0
 44
0.0
 45
0.0
  9
TRACK1
 49
3.81
 74
     0
  0
LTYPE
  5
46C
330
3C7
100
AcDbSymbolTableRecord
100
AcDbLinetypeTableRecord
  2
PHANTOMX2
 70
     0
  3
Phantom (2x) ____________    ____    ____   _
 72
    65
 73
     6
 40
127.0
 49
63.5
 74
     0
 49
-12.7
 74
     0
 49
12.7
 74
     0
 49
-12.7
 74
     0
 49
12.7
 74
     0
 49
-12.7
 74
     0
  0
LTYPE
  5
46D
330
3C7
100
AcDbSymbolTableRecord
100
AcDbLinetypeTableRecord
  2
PHANTOM2
 70
     0
  3
Phantom (.5x) ___ _ _ ___ _ _ ___ _ _ ___ _ _
 72
    65
 73
     6
 40
31.75
 49
15.875
 74
     0
 49
-3.175
 74
     0
 49
3.175
 74
     0
 49
-3.175
 74
     0
 49
3.175
 74
     0
 49
-3.175
 74
     0
  0
LTYPE
  5
46E
330
3C7
100
AcDbSymbolTableRecord
100
AcDbLinetypeTableRecord
  2
PHANTOM
 70
     0
  3
Phantom ______  __  __  ______  __  __  ______ 
 72
    65
 73
     6
 40
63.50000000000001
 49
31.75
 74
     0
 49
-6.35
 74
     0
 49
6.35
 74
     0
 49
-6.35
 74
     0
 49
6.35
 74
     0
 49
-6.35
 74
     0
  0
LTYPE
  5
470
330
3C7
100
AcDbSymbolTableRecord
100
AcDbLinetypeTableRecord
  2
HOT_WATER_SUPPLY
 70
     0
  3
Hot water supply ---- HW ---- HW ---- HW ----
 72
    65
 73
     3
 40
22.86
 49
12.7
 74
     0
 49
-5.08
 74
     2
 75
     0
340
46F
 46
2.54
 50
0.0
 44
-2.54
 45
-1.27
  9
HW
 49
-5.08
 74
     0
  0
LTYPE
  5
471
330
3C7
100
AcDbSymbolTableRecord
100
AcDbLinetypeTableRecord
  2
HIDDENX2
 70
     0
  3
Hidden (2x) ____ ____ ____ ____ ____ ____ ____ 
 72
    65
 73
     2
 40
19.05
 49
12.7
 74
     0
 49
-6.35
 74
     0
  0
LTYPE
  5
472
330
3C7
100
AcDbSymbolTableRecord
100
AcDbLinetypeTableRecord
  2
HIDDEN2
 70
     0
  3
Hidden (.5x) _ _ _ _ _ _ _ _ _ _ _ _ _ _ _ _ _ 
 72
    65
 73
     2
 40
4.762499999999999
 49
3.175
 74
     0
 49
-1.5875
 74
     0
  0
LTYPE
  5
473
330
3C7
100
AcDbSymbolTableRecord
100
AcDbLinetypeTableRecord
  2
HIDDEN
 70
     0
  3
Hidden __ __ __ __ __ __ __ __ __ __ __ __ __ __
 72
    65
 73
     2
 40
9.524999999999999
 49
6.35
 74
     0
 49
-3.175
 74
     0
  0
LTYPE
  5
475
330
3C7
100
AcDbSymbolTableRecord
100
AcDbLinetypeTableRecord
  2
GAS_LINE
 70
     0
  3
Gas line ----GAS----GAS----GAS----GAS----GAS----GAS--
 72
    65
 73
     3
 40
24.13
 49
12.7
 74
     0
 49
-5.08
 74
     2
 75
     0
340
474
 46
2.54
 50
0.0
 44
-2.54
 45
-1.27
  9
GAS
 49
-6.35
 74
     0
  0
LTYPE
  5
477
330
3C7
100
AcDbSymbolTableRecord
100
AcDbLinetypeTableRecord
  2
FENCELINE2
 70
     0
  3
Fenceline square ----[]-----[]----[]-----[]----[]---
 72
    65
 73
     4
 40
36.83
 49
6.35
 74
     0
 49
-2.54
 74
     2
 75
     0
340
476
 46
2.54
 50
0.0
 44
-2.54
 45
0.0
  9
BOX
 49
-2.54
 74
     0
 49
25.4
 74
     0
  0
LTYPE
  5
479
330
3C7
100
AcDbSymbolTableRecord
100
AcDbLinetypeTableRecord
  2
FENCELINE1
 70
     0
  3
Fenceline circle ----0-----0----0-----0----0-----0--
 72
    65
 73
     4
 40
36.83
 49
6.35
 74
     0
 49
-2.54
 74
     2
 75
     0
340
478
 46
2.54
 50
0.0
 44
-2.54
 45
0.0
  9
CIRC1
 49
-2.54
 74
     0
 49
25.4
 74
     0
  0
LTYPE
  5
47B
330
3C7
100
AcDbSymbolTableRecord
100
AcDbLinetypeTableRecord
  2
DRAINAGE2
 70
     0
  3
Drainage reversed----<----<----<----
 72
    65
 73
     2
 40
10.16
 49
5.08
 74
     2
 75
     0
340
47A
 46
2.54
 50
0.0
 44
0.0
 45
0.0
  9
RIGHT_ARROW
 49
5.08
 74
     0
  0
LTYPE
  5
47D
330
3C7
100
AcDbSymbolTableRecord
100
AcDbLinetypeTableRecord
  2
DRAINAGE
 70
     0
  3
Drainage ---->---->---->----
 72
    65
 73
     2
 40
10.16
 49
5.08
 74
     2
 75
     0
340
47C
 46
2.54
 50
180.0
 44
0.0
 45
0.0
  9
RIGHT_ARROW
 49
5.08
 74
     0
  0
LTYPE
  5
47E
330
3C7
100
AcDbSymbolTableRecord
100
AcDbLinetypeTableRecord
  2
DOTX2
 70
     0
  3
Dot (2x) .  .  .  .  .  .  .  .  .  .  .  .  .  .
 72
    65
 73
     2
 40
12.7
 49
0.0
 74
     0
 49
-12.7
 74
     0
  0
LTYPE
  5
47F
330
3C7
100
AcDbSymbolTableRecord
100
AcDbLinetypeTableRecord
  2
DOT2
 70
     0
  3
Dot (.5x) ........................................
 72
    65
 73
     2
 40
3.175
 49
0.0
 74
     0
 49
-3.175
 74
     0
  0
LTYPE
  5
480
330
3C7
100
AcDbSymbolTableRecord
100
AcDbLinetypeTableRecord
  2
DOT
 70
     0
  3
Dot . . . . . . . . . . . . . . . . . . . . . . . .
 72
    65
 73
     2
 40
6.35
 49
0.0
 74
     0
 49
-6.35
 74
     0
  0
LTYPE
  5
481
330
3C7
100
AcDbSymbolTableRecord
100
AcDbLinetypeTableRecord
  2
DIVIDEX2
 70
     0
  3
Divide (2x) ________  .  .  ________  .  .  _
 72
    65
 73
     6
 40
63.5
 49
25.4
 74
     0
 49
-12.7
 74
     0
 49
0.0
 74
     0
 49
-12.7
 74
     0
 49
0.0
 74
     0
 49
-12.7
 74
     0
  0
LTYPE
  5
482
330
3C7
100
AcDbSymbolTableRecord
100
AcDbLinetypeTableRecord
  2
DIVIDE2
 70
     0
  3
Divide (.5x) __..__..__..__..__..__..__..__.._
 72
    65
 73
     6
 40
15.875
 49
6.35
 74
     0
 49
-3.175
 74
     0
 49
0.0
 74
     0
 49
-3.175
 74
     0
 49
0.0
 74
     0
 49
-3.175
 74
     0
  0
LTYPE
  5
483
330
3C7
100
AcDbSymbolTableRecord
100
AcDbLinetypeTableRecord
  2
DIVIDE
 70
     0
  3
Divide ____ . . ____ . . ____ . . ____ . . ____
 72
    65
 73
     6
 40
31.75
 49
12.7
 74
     0
 49
-6.35
 74
     0
 49
0.0
 74
     0
 49
-6.35
 74
     0
 49
0.0
 74
     0
 49
-6.35
 74
     0
  0
LTYPE
  5
484
330
3C7
100
AcDbSymbolTableRecord
100
AcDbLinetypeTableRecord
  2
DASHEDX2
 70
     0
  3
Dashed (2x) ____  ____  ____  ____  ____  ___
 72
    65
 73
     2
 40
38.09999999999999
 49
25.4
 74
     0
 49
-12.7
 74
     0
  0
LTYPE
  5
485
330
3C7
100
AcDbSymbolTableRecord
100
AcDbLinetypeTableRecord
  2
DASHED2
 70
     0
  3
Dashed (.5x) _ _ _ _ _ _ _ _ _ _ _ _ _ _ _ _ _ 
 72
    65
 73
     2
 40
9.524999999999999
 49
6.35
 74
     0
 49
-3.175
 74
     0
  0
LTYPE
  5
486
330
3C7
100
AcDbSymbolTableRecord
100
AcDbLinetypeTableRecord
  2
DASHED
 70
     0
  3
Dashed __ __ __ __ __ __ __ __ __ __ __ __ __ _
 72
    65
 73
     2
 40
19.05
 49
12.7
 74
     0
 49
-6.35
 74
     0
  0
LTYPE
  5
487
330
3C7
100
AcDbSymbolTableRecord
100
AcDbLinetypeTableRecord
  2
DASHDOTX2
 70
     0
  3
Dash dot (2x) ____  .  ____  .  ____  .  ___
 72
    65
 73
     4
 40
50.8
 49
25.4
 74
     0
 49
-12.7
 74
     0
 49
0.0
 74
     0
 49
-12.7
 74
     0
  0
LTYPE
  5
488
330
3C7
100
AcDbSymbolTableRecord
100
AcDbLinetypeTableRecord
  2
DASHDOT2
 70
     0
  3
Dash dot (.5x) _._._._._._._._._._._._._._._.
 72
    65
 73
     4
 40
12.7
 49
6.35
 74
     0
 49
-3.175
 74
     0
 49
0.0
 74
     0
 49
-3.175
 74
     0
  0
LTYPE
  5
489
330
3C7
100
AcDbSymbolTableRecord
100
AcDbLinetypeTableRecord
  2
DASHDOT
 70
     0
  3
Dash dot __ . __ . __ . __ . __ . __ . __ . __
 72
    65
 73
     4
 40
25.4
 49
12.7
 74
     0
 49
-6.35
 74
     0
 49
0.0
 74
     0
 49
-6.35
 74
     0
  0
LTYPE
  5
48A
330
3C7
100
AcDbSymbolTableRecord
100
AcDbLinetypeTableRecord
  2
CENTERX2
 70
     0
  3
Center (2x) ________  __  ________  __  _____
 72
    65
 73
     4
 40
101.6
 49
63.5
 74
     0
 49
-12.7
 74
     0
 49
12.7
 74
     0
 49
-12.7
 74
     0
  0
LTYPE
  5
48B
330
3C7
100
AcDbSymbolTableRecord
100
AcDbLinetypeTableRecord
  2
CENTER2
 70
     0
  3
Center (.5x) ___ _ ___ _ ___ _ ___ _ ___ _ ___
 72
    65
 73
     4
 40
28.575
 49
19.05
 74
     0
 49
-3.175
 74
     0
 49
3.175
 74
     0
 49
-3.175
 74
     0
  0
LTYPE
  5
48C
330
3C7
100
AcDbSymbolTableRecord
100
AcDbLinetypeTableRecord
  2
CENTER
 70
     0
  3
Center ____ _ ____ _ ____ _ ____ _ ____ _ ____
 72
    65
 73
     4
 40
50.8
 49
31.75
 74
     0
 49
-6.35
 74
     0
 49
6.35
 74
     0
 49
-6.35
 74
     0
  0
LTYPE
  5
48D
330
3C7
100
AcDbSymbolTableRecord
100
AcDbLinetypeTableRecord
  2
BORDERX2
 70
     0
  3
Border (2x) ____  ____  .  ____  ____  .  ___
 72
    65
 73
     6
 40
88.89999999999999
 49
25.4
 74
     0
 49
-12.7
 74
     0
 49
25.4
 74
     0
 49
-12.7
 74
     0
 49
0.0
 74
     0
 49
-12.7
 74
     0
  0
LTYPE
  5
48E
330
3C7
100
AcDbSymbolTableRecord
100
AcDbLinetypeTableRecord
  2
BORDER2
 70
     0
  3
Border (.5x) __.__.__.__.__.__.__.__.__.__.__.
 72
    65
 73
     6
 40
22.225
 49
6.35
 74
     0
 49
-3.175
 74
     0
 49
6.35
 74
     0
 49
-3.175
 74
     0
 49
0.0
 74
     0
 49
-3.175
 74
     0
  0
LTYPE
  5
48F
330
3C7
100
AcDbSymbolTableRecord
100
AcDbLinetypeTableRecord
  2
BORDER
 70
     0
  3
Border __ __ . __ __ . __ __ . __ __ . __ __ .
 72
    65
 73
     6
 40
44.45
 49
12.7
 74
     0
 49
-6.35
 74
     0
 49
12.7
 74
     0
 49
-6.35
 74
     0
 49
0.0
 74
     0
 49
-6.35
 74
     0
  0
LTYPE
  5
492
330
3C7
100
AcDbSymbolTableRecord
100
AcDbLinetypeTableRecord
  2
BATTING
 70
     0
  3
Batting SSSSSSSSSSSSSSSSSSSSSSSSSSSSSSSSSSSSSSSSSSSSSSS
 72
    65
 73
     4
 40
10.16254
 49
0.00254
 74
     0
 49
-2.54
 74
     2
 75
     0
340
490
 46
2.54
 50
0.0
 44
-2.54
 45
0.0
  9
BAT
 49
-5.08
 74
     2
 75
     0
340
491
 46
2.54
 50
180.0
 44
2.54
 45
0.0
  9
BAT
 49
-2.54
 74
     0
  0
LTYPE
  5
493
330
3C7
100
AcDbSymbolTableRecord
100
AcDbLinetypeTableRecord
  2
ACAD_ISO15W100
 70
     0
  3
ISO double-dash triple-dot __ __ . . . __ __ . .
 72
    65
 73
    10
 40
39.0
 49
12.0
 74
     0
 49
-3.0
 74
     0
 49
12.0
 74
     0
 49
-3.0
 74
     0
 49
0.0
 74
     0
 49
-3.0
 74
     0
 49
0.0
 74
     0
 49
-3.0
 74
     0
 49
0.0
 74
     0
 49
-3.0
 74
     0
  0
LTYPE
  5
494
330
3C7
100
AcDbSymbolTableRecord
100
AcDbLinetypeTableRecord
  2
ACAD_ISO14W100
 70
     0
  3
ISO dash triple-dot __ . . . __ . . . __ . . . _
 72
    65
 73
     8
 40
24.0
 49
12.0
 74
     0
 49
-3.0
 74
     0
 49
0.0
 74
     0
 49
-3.0
 74
     0
 49
0.0
 74
     0
 49
-3.0
 74
     0
 49
0.0
 74
     0
 49
-3.0
 74
     0
  0
LTYPE
  5
495
330
3C7
100
AcDbSymbolTableRecord
100
AcDbLinetypeTableRecord
  2
ACAD_ISO13W100
 70
     0
  3
ISO double-dash double-dot __ __ . . __ __ . . _
 72
    65
 73
     8
 40
36.0
 49
12.0
 74
     0
 49
-3.0
 74
     0
 49
12.0
 74
     0
 49
-3.0
 74
     0
 49
0.0
 74
     0
 49
-3.0
 74
     0
 49
0.0
 74
     0
 49
-3.0
 74
     0
  0
LTYPE
  5
496
330
3C7
100
AcDbSymbolTableRecord
100
AcDbLinetypeTableRecord
  2
ACAD_ISO12W100
 70
     0
  3
ISO dash double-dot __ . . __ . . __ . . __ . . 
 72
    65
 73
     6
 40
21.0
 49
12.0
 74
     0
 49
-3.0
 74
     0
 49
0.0
 74
     0
 49
-3.0
 74
     0
 49
0.0
 74
     0
 49
-3.0
 74
     0
  0
LTYPE
  5
497
330
3C7
100
AcDbSymbolTableRecord
100
AcDbLinetypeTableRecord
  2
ACAD_ISO11W100
 70
     0
  3
ISO double-dash dot __ __ . __ __ . __ __ . __ _
 72
    65
 73
     6
 40
33.0
 49
12.0
 74
     0
 49
-3.0
 74
     0
 49
12.0
 74
     0
 49
-3.0
 74
     0
 49
0.0
 74
     0
 49
-3.0
 74
     0
  0
LTYPE
  5
498
330
3C7
100
AcDbSymbolTableRecord
100
AcDbLinetypeTableRecord
  2
ACAD_ISO10W100
 70
     0
  3
ISO dash dot __ . __ . __ . __ . __ . __ . __ . 
 72
    65
 73
     4
 40
18.0
 49
12.0
 74
     0
 49
-3.0
 74
     0
 49
0.0
 74
     0
 49
-3.0
 74
     0
  0
LTYPE
  5
499
330
3C7
100
AcDbSymbolTableRecord
100
AcDbLinetypeTableRecord
  2
ACAD_ISO09W100
 70
     0
  3
ISO long-dash double-short-dash ____ __ __ ____
 72
    65
 73
     6
 40
45.0
 49
24.0
 74
     0
 49
-3.0
 74
     0
 49
6.0
 74
     0
 49
-3.0
 74
     0
 49
6.0
 74
     0
 49
-3.0
 74
     0
  0
LTYPE
  5
49A
330
3C7
100
AcDbSymbolTableRecord
100
AcDbLinetypeTableRecord
  2
ACAD_ISO08W100
 70
     0
  3
ISO long-dash short-dash ____ __ ____ __ ____ _
 72
    65
 73
     4
 40
36.0
 49
24.0
 74
     0
 49
-3.0
 74
     0
 49
6.0
 74
     0
 49
-3.0
 74
     0
  0
LTYPE
  5
49B
330
3C7
100
AcDbSymbolTableRecord
100
AcDbLinetypeTableRecord
  2
ACAD_ISO07W100
 70
     0
  3
ISO dot . . . . . . . . . . . . . . . . . . . . 
 72
    65
 73
     2
 40
3.0
 49
0.0
 74
     0
 49
-3.0
 74
     0
  0
LTYPE
  5
49C
330
3C7
100
AcDbSymbolTableRecord
100
AcDbLinetypeTableRecord
  2
ACAD_ISO06W100
 70
     0
  3
ISO long-dash triple-dot ____ ... ____ ... ____
 72
    65
 73
     8
 40
36.0
 49
24.0
 74
     0
 49
-3.0
 74
     0
 49
0.0
 74
     0
 49
-3.0
 74
     0
 49
0.0
 74
     0
 49
-3.0
 74
     0
 49
0.0
 74
     0
 49
-3.0
 74
     0
  0
LTYPE
  5
49D
330
3C7
100
AcDbSymbolTableRecord
100
AcDbLinetypeTableRecord
  2
ACAD_ISO05W100
 70
     0
  3
ISO long-dash double-dot ____ .. ____ .. ____ . 
 72
    65
 73
     6
 40
33.0
 49
24.0
 74
     0
 49
-3.0
 74
     0
 49
0.0
 74
     0
 49
-3.0
 74
     0
 49
0.0
 74
     0
 49
-3.0
 74
     0
  0
LTYPE
  5
49E
330
3C7
100
AcDbSymbolTableRecord
100
AcDbLinetypeTableRecord
  2
ACAD_ISO04W100
 70
     0
  3
ISO long-dash dot ____ . ____ . ____ . ____ . _
 72
    65
 73
     4
 40
30.0
 49
24.0
 74
     0
 49
-3.0
 74
     0
 49
0.0
 74
     0
 49
-3.0
 74
     0
  0
LTYPE
  5
49F
330
3C7
100
AcDbSymbolTableRecord
100
AcDbLinetypeTableRecord
  2
ACAD_ISO03W100
 70
     0
  3
ISO dash space __    __    __    __    __    __
 72
    65
 73
     2
 40
30.0
 49
12.0
 74
     0
 49
-18.0
 74
     0
  0
LTYPE
  5
4A0
330
3C7
100
AcDbSymbolTableRecord
100
AcDbLinetypeTableRecord
  2
ACAD_ISO02W100
 70
     0
  3
ISO dash __ __ __ __ __ __ __ __ __ __ __ __ __
 72
    65
 73
     2
 40
15.0
 49
12.0
 74
     0
 49
-3.0
 74
     0
  0
ENDTAB
  0
TABLE
  2
LAYER
  5
3C5
330
0
100
AcDbSymbolTable
 70
     1
  0
LAYER
  5
3D2
330
3C5
100
AcDbSymbolTableRecord
100
AcDbLayerTableRecord
  2
0
 70
     0
 62
     7
  6
Continuous
370
    25
390
3D1
347
407
348
0
  0
ENDTAB
  0
TABLE
  2
STYLE
  5
3C6
330
0
100
AcDbSymbolTable
 70
    12
  0
STYLE
  5
3D3
330
3C6
100
AcDbSymbolTableRecord
100
AcDbTextStyleTableRecord
  2
Standard
 70
     0
 40
0.0
 41
1.0
 50
0.0
 71
     0
 42
0.2
  3
txt
  4

  0
STYLE
  5
467
330
3C6
100
AcDbSymbolTableRecord
100
AcDbTextStyleTableRecord
  2
textstyle0
 70
     0
 40
0.0
 41
1.0
 50
0.0
 71
     0
 42
0.2
  3
ltypeshp.shx
  4

  0
STYLE
  5
468
330
3C6
100
AcDbSymbolTableRecord
100
AcDbTextStyleTableRecord
  2
textstyle1
 70
     0
 40
0.0
 41
1.0
 50
0.0
 71
     0
 42
0.2
  3
ltypeshp.shx
  4

  0
STYLE
  5
46A
330
3C6
100
AcDbSymbolTableRecord
100
AcDbTextStyleTableRecord
  2
textstyle2
 70
     0
 40
0.0
 41
1.0
 50
0.0
 71
     0
 42
0.2
  3
ltypeshp.shx
  4

  0
STYLE
  5
46F
330
3C6
100
AcDbSymbolTableRecord
100
AcDbTextStyleTableRecord
  2
textstyle3
 70
     0
 40
0.0
 41
1.0
 50
0.0
 71
     0
 42
0.2
  3
STANDARD
  4

  0
STYLE
  5
474
330
3C6
100
AcDbSymbolTableRecord
100
AcDbTextStyleTableRecord
  2
textstyle4
 70
     0
 40
0.0
 41
1.0
 50
0.0
 71
     0
 42
0.2
  3
STANDARD
  4

  0
STYLE
  5
476
330
3C6
100
AcDbSymbolTableRecord
100
AcDbTextStyleTableRecord
  2
textstyle5
 70
     0
 40
0.0
 41
1.0
 50
0.0
 71
     0
 42
0.2
  3
ltypeshp.shx
  4

  0
STYLE
  5
478
330
3C6
100
AcDbSymbolTableRecord
100
AcDbTextStyleTableRecord
  2
textstyle6
 70
     0
 40
0.0
 41
1.0
 50
0.0
 71
     0
 42
0.2
  3
ltypeshp.shx
  4

  0
STYLE
  5
47A
330
3C6
100
AcDbSymbolTableRecord
100
AcDbTextStyleTableRecord
  2
textstyle7
 70
     0
 40
0.0
 41
1.0
 50
0.0
 71
     0
 42
0.2
  3
qcadshp.shx
  4

  0
STYLE
  5
47C
330
3C6
100
AcDbSymbolTableRecord
100
AcDbTextStyleTableRecord
  2
textstyle8
 70
     0
 40
0.0
 41
1.0
 50
0.0
 71
     0
 42
0.2
  3
qcadshp.shx
  4

  0
STYLE
  5
490
330
3C6
100
AcDbSymbolTableRecord
100
AcDbTextStyleTableRecord
  2
textstyle9
 70
     0
 40
0.0
 41
1.0
 50
0.0
 71
     0
 42
0.2
  3
ltypeshp.shx
  4

  0
STYLE
  5
491
330
3C6
100
AcDbSymbolTableRecord
100
AcDbTextStyleTableRecord
  2
textstyle10
 70
     0
 40
0.0
 41
1.0
 50
0.0
 71
     0
 42
0.2
  3
ltypeshp.shx
  4

  0
ENDTAB
  0
TABLE
  2
VIEW
  5
3C8
330
0
100
AcDbSymbolTable
 70
     0
  0
ENDTAB
  0
TABLE
  2
UCS
  5
3C9
330
0
100
AcDbSymbolTable
 70
     0
  0
ENDTAB
  0
TABLE
  2
APPID
  5
3CB
330
0
100
AcDbSymbolTable
 70
     2
  0
APPID
  5
3D4
330
3CB
100
AcDbSymbolTableRecord
100
AcDbRegAppTableRecord
  2
ACAD
 70
     0
  0
APPID
  5
42F
330
3CB
100
AcDbSymbolTableRecord
100
AcDbRegAppTableRecord
  2
QCAD
 70
     0
  0
ENDTAB
  0
TABLE
  2
DIMSTYLE
  5
3CC
330
0
100
AcDbSymbolTable
 70
     2
100
AcDbDimStyleTable
  0
DIMSTYLE
105
3E8
330
3CC
100
AcDbSymbolTableRecord
100
AcDbDimStyleTableRecord
  2
Standard
 70
     0
178
     0
340
3D3
  0
DIMSTYLE
105
466
330
3CC
100
AcDbSymbolTableRecord
100
AcDbDimStyleTableRecord
  2
QCADDimStyle
 70
     0
 41
2.5
 42
0.625
 44
1.25
 73
     0
 77
     1
140
2.5
147
0.625
178
     0
340
3D3
  0
ENDTAB
  0
TABLE
  2
BLOCK_RECORD
  5
3C4
330
0
100
AcDbSymbolTable
 70
     7
  0
BLOCK_RECORD
  5
3E0
330
3C4
100
AcDbSymbolTableRecord
100
AcDbBlockTableRecord
  2
*Model_Space
340
3E3
 70
     0
280
     1
281
     0
  0
BLOCK_RECORD
  5
3DC
330
3C4
100
AcDbSymbolTableRecord
100
AcDbBlockTableRecord
  2
*Paper_Space
340
3DF
 70
     0
280
     1
281
     0
  0
BLOCK_RECORD
  5
4A3
330
3C4
100
AcDbSymbolTableRecord
100
AcDbBlockTableRecord
  2
block 1
340
0
102
{BLKREFS
331
2B5
102
}
 70
     0
280
     1
281
     0
  0
BLOCK_RECORD
  5
4A6
330
3C4
100
AcDbSymbolTableRecord
100
AcDbBlockTableRecord
  2
block 2
340
0
102
{BLKREFS
331
3A2
331
3BF
102
}
 70
     0
280
     1
281
     0
  0
BLOCK_RECORD
  5
4A9
330
3C4
100
AcDbSymbolTableRecord
100
AcDbBlockTableRecord
  2
block 3
340
0
102
{BLKREFS
331
C0
331
3C1
102
}
 70
     0
280
     1
281
     0
  0
BLOCK_RECORD
  5
4AC
330
3C4
100
AcDbSymbolTableRecord
100
AcDbBlockTableRecord
  2
block 4
340
0
102
{BLKREFS
331
3A9
102
}
 70
     0
280
     1
281
     0
  0
BLOCK_RECORD
  5
4AF
330
3C4
100
AcDbSymbolTableRecord
100
AcDbBlockTableRecord
  2
block 5
340
0
102
{BLKREFS
331
3B0
102
}
 70
     0
280
     1
281
     0
  0
BLOCK_RECORD
  5
4B2
330
3C4
100
AcDbSymbolTableRecord
100
AcDbBlockTableRecord
  2
block 6
340
0
102
{BLKREFS
331
3B7
102
}
 70
     0
280
     1
281
     0
  0
BLOCK_RECORD
  5
4B5
330
3C4
100
AcDbSymbolTableRecord
100
AcDbBlockTableRecord
  2
block 7
340
0
102
{BLKREFS
331
3BE
102
}
 70
     0
280
     1
281
     0
  0
ENDTAB
  0
ENDSEC
  0
SECTION
  2
BLOCKS
  0
BLOCK
  5
3E1
330
3E0
100
AcDbEntity
  8
0
100
AcDbBlockBegin
  2
*Model_Space
 70
     0
 10
0.0
 20
0.0
 30
0.0
  3
*Model_Space
  1

  0
ENDBLK
  5
3E2
330
3E0
100
AcDbEntity
  8
0
100
AcDbBlockEnd
  0
BLOCK
  5
3DD
330
3DC
100
AcDbEntity
 67
     1
  8
0
100
AcDbBlockBegin
  2
*Paper_Space
 70
     0
 10
0.0
 20
0.0
 30
0.0
  3
*Paper_Space
  1

  0
ENDBLK
  5
3DE
330
3DC
100
AcDbEntity
 67
     1
  8
0
100
AcDbBlockEnd
  0
BLOCK
  5
4A4
330
4A3
100
AcDbEntity
  8
0
100
AcDbBlockBegin
  2
block 1
 70
     0
 10
0.0
 20
0.0
 30
0.0
  3
block 1
  1

  0
LWPOLYLINE
  5
163
330
4A3
100
AcDbEntity
  8
0
100
AcDbPolyline
 90
        8
 70
     1
 43
0.0
 10
112.4499999999998
 20
253.0500000000001
 42
-0.9999999999999998
 10
115.4499999999999
 20
253.0500000000001
 10
134.5499999999998
 20
253.0500000000001
 42
-0.9999999999999998
 10
137.55
 20
253.0500000000001
 10
137.55
 20
246.9499999999999
 42
-0.9999999999999998
 10
134.5499999999998
 20
246.9499999999999
 10
115.4499999999999
 20
246.9499999999999
 42
-0.9999999999999998
 10
112.4499999999998
 20
246.9499999999999
  0
LWPOLYLINE
  5
162
330
4A3
100
AcDbEntity
  8
0
100
AcDbPolyline
 90
        8
 70
     1
 43
0.0
 10
362.4499999999998
 20
253.0500000000001
 42
-0.9999999999999998
 10
365.4499999999997
 20
253.0500000000001
 10
384.5499999999997
 20
253.0500000000001
 42
-0.9999999999999998
 10
387.5499999999998
 20
253.0500000000001
 10
387.5499999999998
 20
246.9499999999999
 42
-0.9999999999999998
 10
384.5499999999997
 20
246.9499999999999
 10
365.4499999999997
 20
246.9499999999999
 42
-0.9999999999999998
 10
362.4499999999997
 20
246.9499999999999
  0
LWPOLYLINE
  5
161
330
4A3
100
AcDbEntity
  8
0
100
AcDbPolyline
 90
        8
 70
     1
 43
0.0
 10
612.4499999999998
 20
253.0500000000001
 42
-0.9999999999999998
 10
615.4499999999997
 20
253.0500000000001
 10
634.5499999999997
 20
253.0500000000001
 42
-0.9999999999999998
 10
637.5499999999997
 20
253.0500000000001
 10
637.5499999999997
 20
246.9499999999999
 42
-0.9999999999999998
 10
634.5499999999997
 20
246.9499999999999
 10
615.4499999999997
 20
246.9499999999999
 42
-0.9999999999999998
 10
612.4499999999997
 20
246.9499999999999
  0
LWPOLYLINE
  5
160
330
4A3
100
AcDbEntity
  8
0
100
AcDbPolyline
 90
        8
 70
     1
 43
0.0
 10
862.4499999999998
 20
253.0500000000002
 42
-0.9999999999999998
 10
865.4499999999996
 20
253.0500000000002
 10
884.5499999999997
 20
253.0500000000002
 42
-0.9999999999999998
 10
887.5499999999997
 20
253.0500000000002
 10
887.5499999999997
 20
246.95
 42
-0.9999999999999998
 10
884.5499999999997
 20
246.95
 10
865.4499999999996
 20
246.95
 42
-0.9999999999999998
 10
862.4499999999996
 20
246.95
  0
LWPOLYLINE
  5
15F
330
4A3
100
AcDbEntity
  8
0
100
AcDbPolyline
 90
        8
 70
     1
 43
0.0
 10
1112.45
 20
253.0500000000002
 42
-0.9999999999999998
 10
1115.45
 20
253.0500000000002
 10
1134.55
 20
253.0500000000002
 42
-0.9999999999999998
 10
1137.55
 20
253.0500000000002
 10
1137.55
 20
246.95
 42
-0.9999999999999998
 10
1134.55
 20
246.95
 10
1115.45
 20
246.95
 42
-0.9999999999999998
 10
1112.45
 20
246.95
  0
LWPOLYLINE
  5
15E
330
4A3
100
AcDbEntity
  8
0
100
AcDbPolyline
 90
        8
 70
     1
 43
0.0
 10
112.4499999999998
 20
503.05
 42
-0.9999999999999998
 10
115.4499999999999
 20
503.05
 10
134.5499999999998
 20
503.05
 42
-0.9999999999999998
 10
137.55
 20
503.05
 10
137.55
 20
496.9499999999999
 42
-0.9999999999999998
 10
134.5499999999998
 20
496.9499999999999
 10
115.4499999999999
 20
496.9499999999999
 42
-0.9999999999999998
 10
112.4499999999998
 20
496.9499999999999
  0
LWPOLYLINE
  5
15D
330
4A3
100
AcDbEntity
  8
0
100
AcDbPolyline
 90
        8
 70
     1
 43
0.0
 10
362.45
 20
503.05
 42
-0.9999999999999998
 10
365.4499999999998
 20
503.05
 10
384.55
 20
503.05
 42
-0.9999999999999998
 10
387.5499999999998
 20
503.05
 10
387.5499999999998
 20
496.9499999999999
 42
-0.9999999999999998
 10
384.55
 20
496.9499999999999
 10
365.4499999999998
 20
496.9499999999999
 42
-0.9999999999999998
 10
362.4499999999998
 20
496.9499999999999
  0
LWPOLYLINE
  5
15C
330
4A3
100
AcDbEntity
  8
0
100
AcDbPolyline
 90
        8
 70
     1
 43
0.0
 10
612.45
 20
503.05
 42
-0.9999999999999998
 10
615.4499999999998
 20
503.05
 10
634.5499999999997
 20
503.05
 42
-0.9999999999999998
 10
637.55
 20
503.05
 10
637.55
 20
496.9499999999999
 42
-0.9999999999999998
 10
634.5499999999997
 20
496.9499999999999
 10
615.4499999999998
 20
496.9499999999999
 42
-0.9999999999999998
 10
612.4499999999998
 20
496.9499999999999
  0
LWPOLYLINE
  5
15B
330
4A3
100
AcDbEntity
  8
0
100
AcDbPolyline
 90
        8
 70
     1
 43
0.0
 10
862.4499999999999
 20
503.0500000000001
 42
-0.9999999999999998
 10
865.4499999999998
 20
503.0500000000001
 10
884.5499999999997
 20
503.0500000000001
 42
-0.9999999999999998
 10
887.5499999999998
 20
503.0500000000001
 10
887.5499999999998
 20
496.95
 42
-0.9999999999999998
 10
884.5499999999997
 20
496.95
 10
865.4499999999998
 20
496.95
 42
-0.9999999999999998
 10
862.4499999999998
 20
496.95
  0
LWPOLYLINE
  5
15A
330
4A3
100
AcDbEntity
  8
0
100
AcDbPolyline
 90
        8
 70
     1
 43
0.0
 10
1112.45
 20
503.0500000000001
 42
-0.9999999999999998
 10
1115.45
 20
503.0500000000001
 10
1134.55
 20
503.0500000000001
 42
-0.9999999999999998
 10
1137.55
 20
503.0500000000001
 10
1137.55
 20
496.95
 42
-0.9999999999999998
 10
1134.55
 20
496.95
 10
1115.45
 20
496.95
 42
-0.9999999999999998
 10
1112.45
 20
496.95
  0
LINE
  5
159
330
4A3
100
AcDbEntity
  8
0
100
AcDbLine
 10
137.5499999999998
 20
6.100000000000136
 30
0.0
 11
137.5499999999998
 21
-0.0000000000001137
 31
0.0
  0
LINE
  5
158
330
4A3
100
AcDbEntity
  8
0
100
AcDbLine
 10
137.5499999999998
 20
-0.0000000000001137
 30
0.0
 11
362.4499999999998
 21
-0.0000000000001137
 31
0.0
  0
LINE
  5
157
330
4A3
100
AcDbEntity
  8
0
100
AcDbLine
 10
362.4499999999998
 20
-0.0000000000001137
 30
0.0
 11
362.4499999999998
 21
6.100000000000136
 31
0.0
  0
ARC
  5
156
330
4A3
100
AcDbEntity
  8
0
100
AcDbCircle
 10
363.9499999999998
 20
6.100000000000136
 30
0.0
 40
1.5
100
AcDbArc
 50
0.0
 51
180.0
  0
LINE
  5
155
330
4A3
100
AcDbEntity
  8
0
100
AcDbLine
 10
365.4499999999998
 20
6.100000000000136
 30
0.0
 11
384.5499999999997
 21
6.100000000000136
 31
0.0
  0
ARC
  5
154
330
4A3
100
AcDbEntity
  8
0
100
AcDbCircle
 10
386.0499999999997
 20
6.100000000000136
 30
0.0
 40
1.500000000000057
100
AcDbArc
 50
0.0
 51
180.0
  0
LINE
  5
153
330
4A3
100
AcDbEntity
  8
0
100
AcDbLine
 10
387.5499999999998
 20
6.100000000000136
 30
0.0
 11
387.5499999999998
 21
-0.0000000000001137
 31
0.0
  0
LINE
  5
152
330
4A3
100
AcDbEntity
  8
0
100
AcDbLine
 10
387.5499999999998
 20
-0.0000000000001137
 30
0.0
 11
612.4499999999998
 21
-0.0000000000001137
 31
0.0
  0
LINE
  5
151
330
4A3
100
AcDbEntity
  8
0
100
AcDbLine
 10
612.4499999999998
 20
-0.0000000000001137
 30
0.0
 11
612.4499999999998
 21
6.100000000000136
 31
0.0
  0
ARC
  5
150
330
4A3
100
AcDbEntity
  8
0
100
AcDbCircle
 10
613.9499999999998
 20
6.100000000000136
 30
0.0
 40
1.5
100
AcDbArc
 50
0.0
 51
180.0
  0
LINE
  5
14F
330
4A3
100
AcDbEntity
  8
0
100
AcDbLine
 10
615.4499999999998
 20
6.100000000000136
 30
0.0
 11
634.5499999999997
 21
6.100000000000136
 31
0.0
  0
ARC
  5
14E
330
4A3
100
AcDbEntity
  8
0
100
AcDbCircle
 10
636.0499999999997
 20
6.100000000000136
 30
0.0
 40
1.499999999999972
100
AcDbArc
 50
0.0
 51
180.0
  0
LINE
  5
14D
330
4A3
100
AcDbEntity
  8
0
100
AcDbLine
 10
637.5499999999997
 20
6.100000000000136
 30
0.0
 11
637.5499999999997
 21
-0.0000000000001137
 31
0.0
  0
LINE
  5
14C
330
4A3
100
AcDbEntity
  8
0
100
AcDbLine
 10
887.5499999999997
 20
0.0
 30
0.0
 11
1112.45
 21
0.0
 31
0.0
  0
LINE
  5
14A
330
4A3
100
AcDbEntity
  8
0
100
AcDbLine
 10
1112.45
 20
0.0
 30
0.0
 11
1112.45
 21
6.10000000000025
 31
0.0
  0
ARC
  5
148
330
4A3
100
AcDbEntity
  8
0
100
AcDbCircle
 10
1113.95
 20
6.10000000000025
 30
0.0
 40
1.5
100
AcDbArc
 50
0.0
 51
180.0
  0
LINE
  5
146
330
4A3
100
AcDbEntity
  8
0
100
AcDbLine
 10
1115.45
 20
6.10000000000025
 30
0.0
 11
1134.55
 21
6.10000000000025
 31
0.0
  0
ARC
  5
144
330
4A3
100
AcDbEntity
  8
0
100
AcDbCircle
 10
1136.05
 20
6.10000000000025
 30
0.0
 40
1.5
100
AcDbArc
 50
0.0
 51
180.0
  0
LINE
  5
142
330
4A3
100
AcDbEntity
  8
0
100
AcDbLine
 10
1137.55
 20
6.10000000000025
 30
0.0
 11
1137.55
 21
0.0
 31
0.0
  0
LINE
  5
140
330
4A3
100
AcDbEntity
  8
0
100
AcDbLine
 10
1137.55
 20
0.0
 30
0.0
 11
1250.0
 21
0.0
 31
0.0
  0
LINE
  5
13E
330
4A3
100
AcDbEntity
  8
0
100
AcDbLine
 10
1250.0
 20
0.0
 30
0.0
 11
1250.0
 21
112.45
 31
0.0
  0
LINE
  5
13C
330
4A3
100
AcDbEntity
  8
0
100
AcDbLine
 10
1250.0
 20
112.45
 30
0.0
 11
1243.9
 21
112.45
 31
0.0
  0
ARC
  5
183
330
4A3
100
AcDbEntity
  8
0
100
AcDbCircle
 10
1243.9
 20
113.95
 30
0.0
 40
1.5
100
AcDbArc
 50
90.00000000000004
 51
270.0
  0
LINE
  5
182
330
4A3
100
AcDbEntity
  8
0
100
AcDbLine
 10
1243.9
 20
115.45
 30
0.0
 11
1243.9
 21
134.55
 31
0.0
  0
ARC
  5
181
330
4A3
100
AcDbEntity
  8
0
100
AcDbCircle
 10
1243.9
 20
136.05
 30
0.0
 40
1.5
100
AcDbArc
 50
90.0
 51
270.0
  0
LINE
  5
180
330
4A3
100
AcDbEntity
  8
0
100
AcDbLine
 10
1243.9
 20
137.55
 30
0.0
 11
1250.0
 21
137.55
 31
0.0
  0
LINE
  5
17F
330
4A3
100
AcDbEntity
  8
0
100
AcDbLine
 10
1250.0
 20
137.55
 30
0.0
 11
1250.0
 21
362.45
 31
0.0
  0
LINE
  5
17E
330
4A3
100
AcDbEntity
  8
0
100
AcDbLine
 10
1250.0
 20
362.45
 30
0.0
 11
1243.9
 21
362.45
 31
0.0
  0
ARC
  5
17D
330
4A3
100
AcDbEntity
  8
0
100
AcDbCircle
 10
1243.9
 20
363.95
 30
0.0
 40
1.5
100
AcDbArc
 50
90.00000000000004
 51
270.0
  0
ARC
  5
17C
330
4A3
100
AcDbEntity
  8
0
100
AcDbCircle
 10
1243.9
 20
386.05
 30
0.0
 40
1.499999999999943
100
AcDbArc
 50
90.0
 51
270.0
  0
LINE
  5
17B
330
4A3
100
AcDbEntity
  8
0
100
AcDbLine
 10
1243.9
 20
387.5499999999998
 30
0.0
 11
1250.0
 21
387.55
 31
0.0
  0
LINE
  5
17A
330
4A3
100
AcDbEntity
  8
0
100
AcDbLine
 10
1250.0
 20
387.55
 30
0.0
 11
1250.0
 21
612.4499999999999
 31
0.0
  0
LINE
  5
179
330
4A3
100
AcDbEntity
  8
0
100
AcDbLine
 10
1250.0
 20
612.4499999999999
 30
0.0
 11
1243.9
 21
612.4499999999999
 31
0.0
  0
ARC
  5
178
330
4A3
100
AcDbEntity
  8
0
100
AcDbCircle
 10
1243.9
 20
613.9499999999999
 30
0.0
 40
1.5
100
AcDbArc
 50
90.00000000000009
 51
270.0000000000001
  0
LINE
  5
177
330
4A3
100
AcDbEntity
  8
0
100
AcDbLine
 10
1243.9
 20
615.4499999999999
 30
0.0
 11
1243.9
 21
634.55
 31
0.0
  0
ARC
  5
176
330
4A3
100
AcDbEntity
  8
0
100
AcDbCircle
 10
1243.9
 20
636.05
 30
0.0
 40
1.5
100
AcDbArc
 50
90.0
 51
270.0
  0
LINE
  5
175
330
4A3
100
AcDbEntity
  8
0
100
AcDbLine
 10
1243.9
 20
637.55
 30
0.0
 11
1250.0
 21
637.55
 31
0.0
  0
LINE
  5
174
330
4A3
100
AcDbEntity
  8
0
100
AcDbLine
 10
1250.0
 20
637.55
 30
0.0
 11
1250.0
 21
750.0
 31
0.0
  0
LINE
  5
173
330
4A3
100
AcDbEntity
  8
0
100
AcDbLine
 10
1250.0
 20
750.0
 30
0.0
 11
1137.55
 21
749.9999999999999
 31
0.0
  0
LINE
  5
172
330
4A3
100
AcDbEntity
  8
0
100
AcDbLine
 10
1137.55
 20
749.9999999999999
 30
0.0
 11
1137.55
 21
743.8999999999999
 31
0.0
  0
ARC
  5
171
330
4A3
100
AcDbEntity
  8
0
100
AcDbCircle
 10
1136.05
 20
743.8999999999999
 30
0.0
 40
1.5
100
AcDbArc
 50
180.0
 51
0.0
  0
LINE
  5
170
330
4A3
100
AcDbEntity
  8
0
100
AcDbLine
 10
1134.55
 20
743.8999999999999
 30
0.0
 11
1115.45
 21
743.8999999999999
 31
0.0
  0
ARC
  5
16F
330
4A3
100
AcDbEntity
  8
0
100
AcDbCircle
 10
1113.95
 20
743.8999999999999
 30
0.0
 40
1.5
100
AcDbArc
 50
180.0
 51
0.0
  0
LINE
  5
16E
330
4A3
100
AcDbEntity
  8
0
100
AcDbLine
 10
1112.45
 20
743.8999999999999
 30
0.0
 11
1112.45
 21
749.9999999999999
 31
0.0
  0
LINE
  5
16D
330
4A3
100
AcDbEntity
  8
0
100
AcDbLine
 10
1112.45
 20
749.9999999999999
 30
0.0
 11
887.55
 21
749.9999999999999
 31
0.0
  0
LINE
  5
16C
330
4A3
100
AcDbEntity
  8
0
100
AcDbLine
 10
637.55
 20
749.9999999999998
 30
0.0
 11
637.55
 21
743.8999999999997
 31
0.0
  0
ARC
  5
16B
330
4A3
100
AcDbEntity
  8
0
100
AcDbCircle
 10
636.05
 20
743.8999999999997
 30
0.0
 40
1.5
100
AcDbArc
 50
180.0
 51
0.0
  0
LINE
  5
16A
330
4A3
100
AcDbEntity
  8
0
100
AcDbLine
 10
634.55
 20
743.8999999999997
 30
0.0
 11
615.45
 21
743.8999999999997
 31
0.0
  0
ARC
  5
169
330
4A3
100
AcDbEntity
  8
0
100
AcDbCircle
 10
613.95
 20
743.8999999999997
 30
0.0
 40
1.500000000000057
100
AcDbArc
 50
180.0
 51
0.0
  0
LINE
  5
168
330
4A3
100
AcDbEntity
  8
0
100
AcDbLine
 10
612.45
 20
743.8999999999997
 30
0.0
 11
612.45
 21
749.9999999999998
 31
0.0
  0
LINE
  5
167
330
4A3
100
AcDbEntity
  8
0
100
AcDbLine
 10
612.45
 20
749.9999999999998
 30
0.0
 11
387.5500000000001
 21
749.9999999999998
 31
0.0
  0
LINE
  5
166
330
4A3
100
AcDbEntity
  8
0
100
AcDbLine
 10
387.5500000000001
 20
749.9999999999998
 30
0.0
 11
387.5500000000001
 21
743.8999999999997
 31
0.0
  0
ARC
  5
165
330
4A3
100
AcDbEntity
  8
0
100
AcDbCircle
 10
386.05
 20
743.8999999999997
 30
0.0
 40
1.500000000000057
100
AcDbArc
 50
180.0
 51
0.0
  0
LINE
  5
164
330
4A3
100
AcDbEntity
  8
0
100
AcDbLine
 10
384.55
 20
743.8999999999997
 30
0.0
 11
365.45
 21
743.8999999999997
 31
0.0
  0
ARC
  5
2A3
330
4A3
100
AcDbEntity
  8
0
100
AcDbCircle
 10
363.95
 20
743.8999999999997
 30
0.0
 40
1.5
100
AcDbArc
 50
180.0
 51
0.0
  0
LINE
  5
2A2
330
4A3
100
AcDbEntity
  8
0
100
AcDbLine
 10
362.45
 20
743.8999999999997
 30
0.0
 11
362.45
 21
749.9999999999998
 31
0.0
  0
LINE
  5
2A1
330
4A3
100
AcDbEntity
  8
0
100
AcDbLine
 10
362.45
 20
749.9999999999998
 30
0.0
 11
137.55
 21
749.9999999999998
 31
0.0
  0
LINE
  5
2A0
330
4A3
100
AcDbEntity
  8
0
100
AcDbLine
 10
137.55
 20
749.9999999999998
 30
0.0
 11
137.55
 21
743.8999999999997
 31
0.0
  0
ARC
  5
29F
330
4A3
100
AcDbEntity
  8
0
100
AcDbCircle
 10
136.05
 20
743.8999999999997
 30
0.0
 40
1.5
100
AcDbArc
 50
180.0
 51
0.0
  0
LINE
  5
29E
330
4A3
100
AcDbEntity
  8
0
100
AcDbLine
 10
134.55
 20
743.8999999999997
 30
0.0
 11
115.45
 21
743.8999999999997
 31
0.0
  0
ARC
  5
29D
330
4A3
100
AcDbEntity
  8
0
100
AcDbCircle
 10
113.95
 20
743.8999999999997
 30
0.0
 40
1.5
100
AcDbArc
 50
180.0
 51
0.0
  0
LINE
  5
29C
330
4A3
100
AcDbEntity
  8
0
100
AcDbLine
 10
112.45
 20
743.8999999999997
 30
0.0
 11
112.45
 21
749.9999999999998
 31
0.0
  0
LINE
  5
29B
330
4A3
100
AcDbEntity
  8
0
100
AcDbLine
 10
112.45
 20
749.9999999999998
 30
0.0
 11
0.0
 21
749.9999999999998
 31
0.0
  0
LINE
  5
29A
330
4A3
100
AcDbEntity
  8
0
100
AcDbLine
 10
0.0
 20
749.9999999999998
 30
0.0
 11
0.0
 21
637.5499999999998
 31
0.0
  0
LINE
  5
299
330
4A3
100
AcDbEntity
  8
0
100
AcDbLine
 10
0.0
 20
637.5499999999998
 30
0.0
 11
6.100000000000023
 21
637.5499999999998
 31
0.0
  0
ARC
  5
298
330
4A3
100
AcDbEntity
  8
0
100
AcDbCircle
 10
6.100000000000023
 20
636.0499999999998
 30
0.0
 40
1.5
100
AcDbArc
 50
270.0
 51
90.0
  0
LINE
  5
297
330
4A3
100
AcDbEntity
  8
0
100
AcDbLine
 10
6.100000000000023
 20
634.5499999999998
 30
0.0
 11
6.100000000000023
 21
615.4499999999998
 31
0.0
  0
ARC
  5
296
330
4A3
100
AcDbEntity
  8
0
100
AcDbCircle
 10
6.100000000000023
 20
613.9499999999998
 30
0.0
 40
1.5
100
AcDbArc
 50
270.0
 51
90.0
  0
LINE
  5
295
330
4A3
100
AcDbEntity
  8
0
100
AcDbLine
 10
6.100000000000023
 20
612.4499999999998
 30
0.0
 11
0.0
 21
612.4499999999998
 31
0.0
  0
LINE
  5
294
330
4A3
100
AcDbEntity
  8
0
100
AcDbLine
 10
0.0
 20
612.4499999999998
 30
0.0
 11
0.0
 21
387.5499999999998
 31
0.0
  0
LINE
  5
293
330
4A3
100
AcDbEntity
  8
0
100
AcDbLine
 10
0.0
 20
387.5499999999998
 30
0.0
 11
6.100000000000023
 21
387.5499999999998
 31
0.0
  0
ARC
  5
292
330
4A3
100
AcDbEntity
  8
0
100
AcDbCircle
 10
6.100000000000023
 20
386.0499999999998
 30
0.0
 40
1.5
100
AcDbArc
 50
270.0
 51
90.0
  0
ARC
  5
291
330
4A3
100
AcDbEntity
  8
0
100
AcDbCircle
 10
6.100000000000023
 20
363.9499999999999
 30
0.0
 40
1.5
100
AcDbArc
 50
270.0
 51
90.0
  0
LINE
  5
290
330
4A3
100
AcDbEntity
  8
0
100
AcDbLine
 10
6.100000000000023
 20
362.4499999999999
 30
0.0
 11
0.0
 21
362.4499999999999
 31
0.0
  0
LINE
  5
28F
330
4A3
100
AcDbEntity
  8
0
100
AcDbLine
 10
0.0
 20
362.4499999999999
 30
0.0
 11
0.0
 21
137.5499999999998
 31
0.0
  0
LINE
  5
28E
330
4A3
100
AcDbEntity
  8
0
100
AcDbLine
 10
0.0
 20
137.5499999999998
 30
0.0
 11
6.099999999999909
 21
137.5499999999998
 31
0.0
  0
ARC
  5
28D
330
4A3
100
AcDbEntity
  8
0
100
AcDbCircle
 10
6.099999999999909
 20
136.0499999999998
 30
0.0
 40
1.500000000000057
100
AcDbArc
 50
270.0
 51
90.0
  0
LINE
  5
28C
330
4A3
100
AcDbEntity
  8
0
100
AcDbLine
 10
6.099999999999909
 20
134.5499999999997
 30
0.0
 11
6.099999999999909
 21
115.4499999999998
 31
0.0
  0
ARC
  5
28B
330
4A3
100
AcDbEntity
  8
0
100
AcDbCircle
 10
6.099999999999909
 20
113.9499999999999
 30
0.0
 40
1.499999999999943
100
AcDbArc
 50
270.0
 51
90.0
  0
LINE
  5
28A
330
4A3
100
AcDbEntity
  8
0
100
AcDbLine
 10
6.099999999999909
 20
112.4499999999999
 30
0.0
 11
0.0
 21
112.4499999999999
 31
0.0
  0
LINE
  5
289
330
4A3
100
AcDbEntity
  8
0
100
AcDbLine
 10
0.0
 20
112.4499999999999
 30
0.0
 11
0.0
 21
0.0000000000001137
 31
0.0
  0
LINE
  5
288
330
4A3
100
AcDbEntity
  8
0
100
AcDbLine
 10
0.0
 20
0.0000000000001137
 30
0.0
 11
112.4499999999998
 21
-0.0000000000001137
 31
0.0
  0
LINE
  5
287
330
4A3
100
AcDbEntity
  8
0
100
AcDbLine
 10
112.4499999999998
 20
-0.0000000000001137
 30
0.0
 11
112.4499999999998
 21
6.100000000000136
 31
0.0
  0
ARC
  5
286
330
4A3
100
AcDbEntity
  8
0
100
AcDbCircle
 10
113.9499999999998
 20
6.100000000000136
 30
0.0
 40
1.499999999999943
100
AcDbArc
 50
0.0
 51
180.0
  0
LINE
  5
285
330
4A3
100
AcDbEntity
  8
0
100
AcDbLine
 10
115.4499999999997
 20
6.100000000000136
 30
0.0
 11
134.5499999999998
 21
6.100000000000136
 31
0.0
  0
ARC
  5
284
330
4A3
100
AcDbEntity
  8
0
100
AcDbCircle
 10
136.0499999999998
 20
6.100000000000136
 30
0.0
 40
1.5
100
AcDbArc
 50
0.0
 51
180.0
  0
LINE
  5
D0
330
4A3
100
AcDbEntity
  8
0
100
AcDbLine
 10
6.100000000000023
 20
384.5499999999998
 30
0.0
 11
6.100000000000023
 21
374.9999999999999
 31
0.0
  0
LINE
  5
CF
330
4A3
100
AcDbEntity
  8
0
100
AcDbLine
 10
6.100000000000023
 20
374.9999999999999
 30
0.0
 11
6.100000000000023
 21
365.4499999999999
 31
0.0
  0
LINE
  5
CE
330
4A3
100
AcDbEntity
  8
0
100
AcDbLine
 10
1243.9
 20
365.45
 30
0.0
 11
1243.9
 21
375.0
 31
0.0
  0
LINE
  5
CD
330
4A3
100
AcDbEntity
  8
0
100
AcDbLine
 10
1243.9
 20
375.0
 30
0.0
 11
1243.9
 21
384.55
 31
0.0
  0
LINE
  5
CC
330
4A3
100
AcDbEntity
  8
0
100
AcDbLine
 10
637.5499999999997
 20
0.0
 30
0.0
 11
862.4499999999998
 21
0.0
 31
0.0
  0
LINE
  5
CB
330
4A3
100
AcDbEntity
  8
0
100
AcDbLine
 10
862.4499999999998
 20
0.0
 30
0.0
 11
862.4499999999998
 21
6.10000000000025
 31
0.0
  0
ARC
  5
CA
330
4A3
100
AcDbEntity
  8
0
100
AcDbCircle
 10
863.9499999999998
 20
6.10000000000025
 30
0.0
 40
1.5
100
AcDbArc
 50
0.0
 51
180.0
  0
LINE
  5
C9
330
4A3
100
AcDbEntity
  8
0
100
AcDbLine
 10
865.4499999999998
 20
6.10000000000025
 30
0.0
 11
884.5499999999997
 21
6.10000000000025
 31
0.0
  0
ARC
  5
C8
330
4A3
100
AcDbEntity
  8
0
100
AcDbCircle
 10
886.0499999999997
 20
6.10000000000025
 30
0.0
 40
1.499999999999972
100
AcDbArc
 50
0.0
 51
180.0
  0
LINE
  5
C7
330
4A3
100
AcDbEntity
  8
0
100
AcDbLine
 10
887.5499999999997
 20
6.10000000000025
 30
0.0
 11
887.5499999999997
 21
0.0
 31
0.0
  0
LINE
  5
C6
330
4A3
100
AcDbEntity
  8
0
100
AcDbLine
 10
887.55
 20
749.9999999999999
 30
0.0
 11
887.55
 21
743.8999999999999
 31
0.0
  0
ARC
  5
C5
330
4A3
100
AcDbEntity
  8
0
100
AcDbCircle
 10
886.05
 20
743.8999999999999
 30
0.0
 40
1.5
100
AcDbArc
 50
180.0
 51
0.0
  0
LINE
  5
C4
330
4A3
100
AcDbEntity
  8
0
100
AcDbLine
 10
884.55
 20
743.8999999999999
 30
0.0
 11
865.45
 21
743.8999999999999
 31
0.0
  0
ARC
  5
C3
330
4A3
100
AcDbEntity
  8
0
100
AcDbCircle
 10
863.95
 20
743.8999999999999
 30
0.0
 40
1.500000000000057
100
AcDbArc
 50
180.0
 51
0.0
  0
LINE
  5
C2
330
4A3
100
AcDbEntity
  8
0
100
AcDbLine
 10
862.4499999999999
 20
743.8999999999999
 30
0.0
 11
862.4499999999999
 21
749.9999999999999
 31
0.0
  0
LINE
  5
2B4
330
4A3
100
AcDbEntity
  8
0
100
AcDbLine
 10
862.4499999999999
 20
749.9999999999999
 30
0.0
 11
637.55
 21
749.9999999999999
 31
0.0
  0
LWPOLYLINE
  5
2B3
330
4A3
100
AcDbEntity
  8
0
100
AcDbPolyline
 90
        8
 70
     1
 43
0.0
 10
253.05
 20
137.5499999999998
 42
-0.9999999999999998
 10
253.05
 20
134.5499999999997
 10
253.05
 20
115.4499999999998
 42
-0.9999999999999998
 10
253.05
 20
112.4499999999999
 10
246.95
 20
112.4499999999999
 42
-0.9999999999999998
 10
246.95
 20
115.4499999999999
 10
246.95
 20
134.5499999999998
 42
-0.9999999999999998
 10
246.95
 20
137.5499999999998
  0
LWPOLYLINE
  5
2B2
330
4A3
100
AcDbEntity
  8
0
100
AcDbPolyline
 90
        8
 70
     1
 43
0.0
 10
253.0500000000001
 20
387.5499999999997
 42
-0.9999999999999998
 10
253.0500000000001
 20
384.5499999999998
 10
253.0500000000001
 20
365.4499999999999
 42
-0.9999999999999998
 10
253.0500000000001
 20
362.4499999999998
 10
246.95
 20
362.4499999999998
 42
-0.9999999999999998
 10
246.95
 20
365.4499999999999
 10
246.95
 20
384.5499999999998
 42
-0.9999999999999998
 10
246.95
 20
387.5499999999997
  0
LWPOLYLINE
  5
2B1
330
4A3
100
AcDbEntity
  8
0
100
AcDbPolyline
 90
        8
 70
     1
 43
0.0
 10
253.0500000000001
 20
637.5499999999998
 42
-0.9999999999999998
 10
253.0500000000001
 20
634.5499999999998
 10
253.0500000000001
 20
615.4499999999998
 42
-0.9999999999999998
 10
253.0500000000001
 20
612.4499999999998
 10
246.95
 20
612.4499999999998
 42
-0.9999999999999998
 10
246.95
 20
615.4499999999998
 10
246.95
 20
634.5499999999998
 42
-0.9999999999999998
 10
246.95
 20
637.5499999999998
  0
LWPOLYLINE
  5
2B0
330
4A3
100
AcDbEntity
  8
0
100
AcDbPolyline
 90
        8
 70
     1
 43
0.0
 10
503.0499999999999
 20
137.5499999999998
 42
-0.9999999999999998
 10
503.0499999999999
 20
134.5499999999997
 10
503.0499999999999
 20
115.4499999999998
 42
-0.9999999999999998
 10
503.0499999999999
 20
112.4499999999999
 10
496.9499999999999
 20
112.4499999999999
 42
-0.9999999999999998
 10
496.9499999999999
 20
115.4499999999999
 10
496.9499999999999
 20
134.5499999999998
 42
-0.9999999999999998
 10
496.9499999999999
 20
137.5499999999998
  0
LWPOLYLINE
  5
2AF
330
4A3
100
AcDbEntity
  8
0
100
AcDbPolyline
 90
        8
 70
     1
 43
0.0
 10
753.0499999999998
 20
137.55
 42
-0.9999999999999998
 10
753.0499999999998
 20
134.5499999999998
 10
753.0499999999998
 20
115.4499999999999
 42
-0.9999999999999998
 10
753.0499999999998
 20
112.45
 10
746.9499999999998
 20
112.45
 42
-0.9999999999999998
 10
746.9499999999998
 20
115.45
 10
746.9499999999998
 20
134.55
 42
-0.9999999999999998
 10
746.9499999999998
 20
137.55
  0
LWPOLYLINE
  5
2AE
330
4A3
100
AcDbEntity
  8
0
100
AcDbPolyline
 90
        8
 70
     1
 43
0.0
 10
503.05
 20
387.5499999999997
 42
-0.9999999999999998
 10
503.05
 20
384.5499999999998
 10
503.05
 20
365.4499999999999
 42
-0.9999999999999998
 10
503.05
 20
362.4499999999998
 10
496.9500000000001
 20
362.4499999999998
 42
-0.9999999999999998
 10
496.9500000000001
 20
365.4499999999999
 10
496.9500000000001
 20
384.5499999999998
 42
-0.9999999999999998
 10
496.9500000000001
 20
387.5499999999997
  0
LWPOLYLINE
  5
2AD
330
4A3
100
AcDbEntity
  8
0
100
AcDbPolyline
 90
        8
 70
     1
 43
0.0
 10
753.05
 20
387.5499999999998
 42
-0.9999999999999998
 10
753.05
 20
384.55
 10
753.05
 20
365.45
 42
-0.9999999999999998
 10
753.05
 20
362.4499999999999
 10
746.95
 20
362.4499999999999
 42
-0.9999999999999998
 10
746.95
 20
365.45
 10
746.95
 20
384.55
 42
-0.9999999999999998
 10
746.95
 20
387.5499999999998
  0
LWPOLYLINE
  5
2AC
330
4A3
100
AcDbEntity
  8
0
100
AcDbPolyline
 90
        8
 70
     1
 43
0.0
 10
503.05
 20
637.5499999999998
 42
-0.9999999999999998
 10
503.05
 20
634.5499999999998
 10
503.05
 20
615.4499999999998
 42
-0.9999999999999998
 10
503.05
 20
612.4499999999998
 10
496.9500000000001
 20
612.4499999999998
 42
-0.9999999999999998
 10
496.9500000000001
 20
615.4499999999998
 10
496.9500000000001
 20
634.5499999999998
 42
-0.9999999999999998
 10
496.9500000000001
 20
637.5499999999998
  0
LWPOLYLINE
  5
2AB
330
4A3
100
AcDbEntity
  8
0
100
AcDbPolyline
 90
        8
 70
     1
 43
0.0
 10
753.05
 20
637.55
 42
-0.9999999999999998
 10
753.05
 20
634.55
 10
753.05
 20
615.4499999999999
 42
-0.9999999999999998
 10
753.05
 20
612.4499999999999
 10
746.95
 20
612.4499999999999
 42
-0.9999999999999998
 10
746.95
 20
615.4499999999999
 10
746.95
 20
634.55
 42
-0.9999999999999998
 10
746.95
 20
637.55
  0
LWPOLYLINE
  5
2AA
330
4A3
100
AcDbEntity
  8
0
100
AcDbPolyline
 90
        8
 70
     1
 43
0.0
 10
1003.05
 20
137.55
 42
-0.9999999999999998
 10
1003.05
 20
134.5499999999998
 10
1003.05
 20
115.4499999999999
 42
-0.9999999999999998
 10
1003.05
 20
112.45
 10
996.9499999999998
 20
112.45
 42
-0.9999999999999998
 10
996.9499999999998
 20
115.45
 10
996.9499999999998
 20
134.55
 42
-0.9999999999999998
 10
996.9499999999998
 20
137.55
  0
LWPOLYLINE
  5
2A9
330
4A3
100
AcDbEntity
  8
0
100
AcDbPolyline
 90
        8
 70
     1
 43
0.0
 10
1003.05
 20
387.5499999999998
 42
-0.9999999999999998
 10
1003.05
 20
384.55
 10
1003.05
 20
365.45
 42
-0.9999999999999998
 10
1003.05
 20
362.4499999999999
 10
996.9499999999999
 20
362.4499999999999
 42
-0.9999999999999998
 10
996.9499999999999
 20
365.45
 10
996.9499999999999
 20
384.55
 42
-0.9999999999999998
 10
996.9499999999999
 20
387.5499999999998
  0
LWPOLYLINE
  5
2A8
330
4A3
100
AcDbEntity
  8
0
100
AcDbPolyline
 90
        8
 70
     1
 43
0.0
 10
1003.05
 20
637.55
 42
-0.9999999999999998
 10
1003.05
 20
634.55
 10
1003.05
 20
615.4499999999999
 42
-0.9999999999999998
 10
1003.05
 20
612.4499999999999
 10
996.9499999999999
 20
612.4499999999999
 42
-0.9999999999999998
 10
996.9499999999999
 20
615.4499999999999
 10
996.9499999999999
 20
634.55
 42
-0.9999999999999998
 10
996.9499999999999
 20
637.55
  0
CIRCLE
  5
2A7
330
4A3
100
AcDbEntity
  8
0
100
AcDbCircle
 10
1225.0
 20
725.0
 30
0.0
 40
8.0
  0
CIRCLE
  5
2A6
330
4A3
100
AcDbEntity
  8
0
100
AcDbCircle
 10
1225.0
 20
675.0
 30
0.0
 40
8.0
  0
CIRCLE
  5
2A5
330
4A3
100
AcDbEntity
  8
0
100
AcDbCircle
 10
1225.0
 20
625.0
 30
0.0
 40
8.0
  0
CIRCLE
  5
2A4
330
4A3
100
AcDbEntity
  8
0
100
AcDbCircle
 10
1225.0
 20
575.0
 30
0.0
 40
8.0
  0
CIRCLE
  5
F0
330
4A3
100
AcDbEntity
  8
0
100
AcDbCircle
 10
1225.0
 20
525.0
 30
0.0
 40
8.0
  0
CIRCLE
  5
EF
330
4A3
100
AcDbEntity
  8
0
100
AcDbCircle
 10
1225.0
 20
475.0
 30
0.0
 40
8.0
  0
CIRCLE
  5
EE
330
4A3
100
AcDbEntity
  8
0
100
AcDbCircle
 10
1225.0
 20
425.0
 30
0.0
 40
8.0
  0
CIRCLE
  5
ED
330
4A3
100
AcDbEntity
  8
0
100
AcDbCircle
 10
1225.0
 20
375.0
 30
0.0
 40
8.0
  0
CIRCLE
  5
EC
330
4A3
100
AcDbEntity
  8
0
100
AcDbCircle
 10
1225.0
 20
325.0
 30
0.0
 40
8.0
  0
CIRCLE
  5
EB
330
4A3
100
AcDbEntity
  8
0
100
AcDbCircle
 10
1225.0
 20
275.0
 30
0.0
 40
8.0
  0
CIRCLE
  5
EA
330
4A3
100
AcDbEntity
  8
0
100
AcDbCircle
 10
1225.0
 20
225.0
 30
0.0
 40
8.0
  0
CIRCLE
  5
E9
330
4A3
100
AcDbEntity
  8
0
100
AcDbCircle
 10
1225.0
 20
175.0
 30
0.0
 40
8.0
  0
CIRCLE
  5
E8
330
4A3
100
AcDbEntity
  8
0
100
AcDbCircle
 10
1225.0
 20
125.0
 30
0.0
 40
8.0
  0
CIRCLE
  5
E7
330
4A3
100
AcDbEntity
  8
0
100
AcDbCircle
 10
1225.0
 20
75.0
 30
0.0
 40
8.0
  0
CIRCLE
  5
E6
330
4A3
100
AcDbEntity
  8
0
100
AcDbCircle
 10
1225.0
 20
25.0
 30
0.0
 40
8.0
  0
CIRCLE
  5
E5
330
4A3
100
AcDbEntity
  8
0
100
AcDbCircle
 10
1175.0
 20
725.0
 30
0.0
 40
8.0
  0
CIRCLE
  5
E4
330
4A3
100
AcDbEntity
  8
0
100
AcDbCircle
 10
1175.0
 20
675.0
 30
0.0
 40
8.0
  0
CIRCLE
  5
E3
330
4A3
100
AcDbEntity
  8
0
100
AcDbCircle
 10
1175.0
 20
625.0
 30
0.0
 40
8.0
  0
CIRCLE
  5
E2
330
4A3
100
AcDbEntity
  8
0
100
AcDbCircle
 10
1175.0
 20
575.0
 30
0.0
 40
8.0
  0
CIRCLE
  5
E1
330
4A3
100
AcDbEntity
  8
0
100
AcDbCircle
 10
1175.0
 20
525.0
 30
0.0
 40
8.0
  0
CIRCLE
  5
E0
330
4A3
100
AcDbEntity
  8
0
100
AcDbCircle
 10
1175.0
 20
475.0
 30
0.0
 40
8.0
  0
CIRCLE
  5
DF
330
4A3
100
AcDbEntity
  8
0
100
AcDbCircle
 10
1175.0
 20
425.0
 30
0.0
 40
8.0
  0
CIRCLE
  5
DE
330
4A3
100
AcDbEntity
  8
0
100
AcDbCircle
 10
1175.0
 20
375.0
 30
0.0
 40
8.0
  0
CIRCLE
  5
DD
330
4A3
100
AcDbEntity
  8
0
100
AcDbCircle
 10
1175.0
 20
325.0
 30
0.0
 40
8.0
  0
CIRCLE
  5
DC
330
4A3
100
AcDbEntity
  8
0
100
AcDbCircle
 10
1175.0
 20
275.0
 30
0.0
 40
8.0
  0
CIRCLE
  5
DB
330
4A3
100
AcDbEntity
  8
0
100
AcDbCircle
 10
1175.0
 20
225.0
 30
0.0
 40
8.0
  0
CIRCLE
  5
DA
330
4A3
100
AcDbEntity
  8
0
100
AcDbCircle
 10
1175.0
 20
175.0
 30
0.0
 40
8.0
  0
CIRCLE
  5
D9
330
4A3
100
AcDbEntity
  8
0
100
AcDbCircle
 10
1175.0
 20
125.0
 30
0.0
 40
8.0
  0
CIRCLE
  5
D8
330
4A3
100
AcDbEntity
  8
0
100
AcDbCircle
 10
1175.0
 20
75.0
 30
0.0
 40
8.0
  0
CIRCLE
  5
D7
330
4A3
100
AcDbEntity
  8
0
100
AcDbCircle
 10
1175.0
 20
25.0
 30
0.0
 40
8.0
  0
CIRCLE
  5
D6
330
4A3
100
AcDbEntity
  8
0
100
AcDbCircle
 10
1125.0
 20
725.0
 30
0.0
 40
8.0
  0
CIRCLE
  5
D5
330
4A3
100
AcDbEntity
  8
0
100
AcDbCircle
 10
1125.0
 20
675.0
 30
0.0
 40
8.0
  0
CIRCLE
  5
D4
330
4A3
100
AcDbEntity
  8
0
100
AcDbCircle
 10
1125.0
 20
625.0
 30
0.0
 40
8.0
  0
CIRCLE
  5
D3
330
4A3
100
AcDbEntity
  8
0
100
AcDbCircle
 10
1125.0
 20
575.0
 30
0.0
 40
8.0
  0
CIRCLE
  5
D2
330
4A3
100
AcDbEntity
  8
0
100
AcDbCircle
 10
1125.0
 20
525.0
 30
0.0
 40
8.0
  0
CIRCLE
  5
D1
330
4A3
100
AcDbEntity
  8
0
100
AcDbCircle
 10
1125.0
 20
475.0
 30
0.0
 40
8.0
  0
CIRCLE
  5
110
330
4A3
100
AcDbEntity
  8
0
100
AcDbCircle
 10
1125.0
 20
425.0
 30
0.0
 40
8.0
  0
CIRCLE
  5
10F
330
4A3
100
AcDbEntity
  8
0
100
AcDbCircle
 10
1125.0
 20
375.0
 30
0.0
 40
8.0
  0
CIRCLE
  5
10E
330
4A3
100
AcDbEntity
  8
0
100
AcDbCircle
 10
1125.0
 20
325.0
 30
0.0
 40
8.0
  0
CIRCLE
  5
10D
330
4A3
100
AcDbEntity
  8
0
100
AcDbCircle
 10
1125.0
 20
275.0
 30
0.0
 40
8.0
  0
CIRCLE
  5
10C
330
4A3
100
AcDbEntity
  8
0
100
AcDbCircle
 10
1125.0
 20
225.0
 30
0.0
 40
8.0
  0
CIRCLE
  5
10B
330
4A3
100
AcDbEntity
  8
0
100
AcDbCircle
 10
1125.0
 20
175.0
 30
0.0
 40
8.0
  0
CIRCLE
  5
10A
330
4A3
100
AcDbEntity
  8
0
100
AcDbCircle
 10
1125.0
 20
125.0
 30
0.0
 40
8.0
  0
CIRCLE
  5
109
330
4A3
100
AcDbEntity
  8
0
100
AcDbCircle
 10
1125.0
 20
75.0
 30
0.0
 40
8.0
  0
CIRCLE
  5
108
330
4A3
100
AcDbEntity
  8
0
100
AcDbCircle
 10
1125.0
 20
25.0
 30
0.0
 40
8.0
  0
CIRCLE
  5
107
330
4A3
100
AcDbEntity
  8
0
100
AcDbCircle
 10
1075.0
 20
725.0
 30
0.0
 40
8.0
  0
CIRCLE
  5
106
330
4A3
100
AcDbEntity
  8
0
100
AcDbCircle
 10
1075.0
 20
675.0
 30
0.0
 40
8.0
  0
CIRCLE
  5
105
330
4A3
100
AcDbEntity
  8
0
100
AcDbCircle
 10
1075.0
 20
625.0
 30
0.0
 40
8.0
  0
CIRCLE
  5
104
330
4A3
100
AcDbEntity
  8
0
100
AcDbCircle
 10
1075.0
 20
575.0
 30
0.0
 40
8.0
  0
CIRCLE
  5
103
330
4A3
100
AcDbEntity
  8
0
100
AcDbCircle
 10
1075.0
 20
525.0
 30
0.0
 40
8.0
  0
CIRCLE
  5
102
330
4A3
100
AcDbEntity
  8
0
100
AcDbCircle
 10
1075.0
 20
475.0
 30
0.0
 40
8.0
  0
CIRCLE
  5
101
330
4A3
100
AcDbEntity
  8
0
100
AcDbCircle
 10
1075.0
 20
425.0
 30
0.0
 40
8.0
  0
CIRCLE
  5
100
330
4A3
100
AcDbEntity
  8
0
100
AcDbCircle
 10
1075.0
 20
375.0
 30
0.0
 40
8.0
  0
CIRCLE
  5
FF
330
4A3
100
AcDbEntity
  8
0
100
AcDbCircle
 10
1075.0
 20
325.0
 30
0.0
 40
8.0
  0
CIRCLE
  5
FE
330
4A3
100
AcDbEntity
  8
0
100
AcDbCircle
 10
1075.0
 20
275.0
 30
0.0
 40
8.0
  0
CIRCLE
  5
FD
330
4A3
100
AcDbEntity
  8
0
100
AcDbCircle
 10
1075.0
 20
225.0
 30
0.0
 40
8.0
  0
CIRCLE
  5
FC
330
4A3
100
AcDbEntity
  8
0
100
AcDbCircle
 10
1075.0
 20
175.0
 30
0.0
 40
8.0
  0
CIRCLE
  5
FB
330
4A3
100
AcDbEntity
  8
0
100
AcDbCircle
 10
1075.0
 20
125.0
 30
0.0
 40
8.0
  0
CIRCLE
  5
FA
330
4A3
100
AcDbEntity
  8
0
100
AcDbCircle
 10
1075.0
 20
75.0
 30
0.0
 40
8.0
  0
CIRCLE
  5
F9
330
4A3
100
AcDbEntity
  8
0
100
AcDbCircle
 10
1075.0
 20
25.0
 30
0.0
 40
8.0
  0
CIRCLE
  5
F8
330
4A3
100
AcDbEntity
  8
0
100
AcDbCircle
 10
1025.0
 20
725.0
 30
0.0
 40
8.0
  0
CIRCLE
  5
F7
330
4A3
100
AcDbEntity
  8
0
100
AcDbCircle
 10
1025.0
 20
675.0
 30
0.0
 40
8.0
  0
CIRCLE
  5
F6
330
4A3
100
AcDbEntity
  8
0
100
AcDbCircle
 10
1025.0
 20
625.0
 30
0.0
 40
8.0
  0
CIRCLE
  5
F5
330
4A3
100
AcDbEntity
  8
0
100
AcDbCircle
 10
1025.0
 20
575.0
 30
0.0
 40
8.0
  0
CIRCLE
  5
F4
330
4A3
100
AcDbEntity
  8
0
100
AcDbCircle
 10
1025.0
 20
525.0
 30
0.0
 40
8.0
  0
CIRCLE
  5
F3
330
4A3
100
AcDbEntity
  8
0
100
AcDbCircle
 10
1025.0
 20
475.0
 30
0.0
 40
8.0
  0
CIRCLE
  5
F2
330
4A3
100
AcDbEntity
  8
0
100
AcDbCircle
 10
1025.0
 20
425.0
 30
0.0
 40
8.0
  0
CIRCLE
  5
F1
330
4A3
100
AcDbEntity
  8
0
100
AcDbCircle
 10
1025.0
 20
375.0
 30
0.0
 40
8.0
  0
CIRCLE
  5
223
330
4A3
100
AcDbEntity
  8
0
100
AcDbCircle
 10
1025.0
 20
325.0
 30
0.0
 40
8.0
  0
CIRCLE
  5
222
330
4A3
100
AcDbEntity
  8
0
100
AcDbCircle
 10
1025.0
 20
275.0
 30
0.0
 40
8.0
  0
CIRCLE
  5
221
330
4A3
100
AcDbEntity
  8
0
100
AcDbCircle
 10
1025.0
 20
225.0
 30
0.0
 40
8.0
  0
CIRCLE
  5
220
330
4A3
100
AcDbEntity
  8
0
100
AcDbCircle
 10
1025.0
 20
175.0
 30
0.0
 40
8.0
  0
CIRCLE
  5
21F
330
4A3
100
AcDbEntity
  8
0
100
AcDbCircle
 10
1025.0
 20
125.0
 30
0.0
 40
8.0
  0
CIRCLE
  5
21E
330
4A3
100
AcDbEntity
  8
0
100
AcDbCircle
 10
1025.0
 20
75.0
 30
0.0
 40
8.0
  0
CIRCLE
  5
21D
330
4A3
100
AcDbEntity
  8
0
100
AcDbCircle
 10
1025.0
 20
25.0
 30
0.0
 40
8.0
  0
CIRCLE
  5
21C
330
4A3
100
AcDbEntity
  8
0
100
AcDbCircle
 10
975.0
 20
725.0
 30
0.0
 40
8.0
  0
CIRCLE
  5
21B
330
4A3
100
AcDbEntity
  8
0
100
AcDbCircle
 10
975.0
 20
675.0
 30
0.0
 40
8.0
  0
CIRCLE
  5
21A
330
4A3
100
AcDbEntity
  8
0
100
AcDbCircle
 10
975.0
 20
625.0
 30
0.0
 40
8.0
  0
CIRCLE
  5
219
330
4A3
100
AcDbEntity
  8
0
100
AcDbCircle
 10
975.0
 20
575.0
 30
0.0
 40
8.0
  0
CIRCLE
  5
218
330
4A3
100
AcDbEntity
  8
0
100
AcDbCircle
 10
975.0
 20
525.0
 30
0.0
 40
8.0
  0
CIRCLE
  5
217
330
4A3
100
AcDbEntity
  8
0
100
AcDbCircle
 10
975.0
 20
475.0
 30
0.0
 40
8.0
  0
CIRCLE
  5
216
330
4A3
100
AcDbEntity
  8
0
100
AcDbCircle
 10
975.0
 20
425.0
 30
0.0
 40
8.0
  0
CIRCLE
  5
215
330
4A3
100
AcDbEntity
  8
0
100
AcDbCircle
 10
975.0
 20
375.0
 30
0.0
 40
8.0
  0
CIRCLE
  5
214
330
4A3
100
AcDbEntity
  8
0
100
AcDbCircle
 10
974.9999999999998
 20
325.0
 30
0.0
 40
8.0
  0
CIRCLE
  5
213
330
4A3
100
AcDbEntity
  8
0
100
AcDbCircle
 10
974.9999999999998
 20
275.0
 30
0.0
 40
8.0
  0
CIRCLE
  5
212
330
4A3
100
AcDbEntity
  8
0
100
AcDbCircle
 10
974.9999999999998
 20
225.0
 30
0.0
 40
8.0
  0
CIRCLE
  5
211
330
4A3
100
AcDbEntity
  8
0
100
AcDbCircle
 10
974.9999999999998
 20
175.0
 30
0.0
 40
8.0
  0
CIRCLE
  5
210
330
4A3
100
AcDbEntity
  8
0
100
AcDbCircle
 10
974.9999999999998
 20
125.0
 30
0.0
 40
8.0
  0
CIRCLE
  5
20F
330
4A3
100
AcDbEntity
  8
0
100
AcDbCircle
 10
974.9999999999998
 20
75.0
 30
0.0
 40
8.0
  0
CIRCLE
  5
20E
330
4A3
100
AcDbEntity
  8
0
100
AcDbCircle
 10
974.9999999999998
 20
25.0
 30
0.0
 40
8.0
  0
CIRCLE
  5
20D
330
4A3
100
AcDbEntity
  8
0
100
AcDbCircle
 10
925.0
 20
725.0
 30
0.0
 40
8.0
  0
CIRCLE
  5
20C
330
4A3
100
AcDbEntity
  8
0
100
AcDbCircle
 10
925.0
 20
675.0
 30
0.0
 40
8.0
  0
CIRCLE
  5
20B
330
4A3
100
AcDbEntity
  8
0
100
AcDbCircle
 10
925.0
 20
625.0
 30
0.0
 40
8.0
  0
CIRCLE
  5
20A
330
4A3
100
AcDbEntity
  8
0
100
AcDbCircle
 10
925.0
 20
575.0
 30
0.0
 40
8.0
  0
CIRCLE
  5
209
330
4A3
100
AcDbEntity
  8
0
100
AcDbCircle
 10
925.0
 20
525.0
 30
0.0
 40
8.0
  0
CIRCLE
  5
208
330
4A3
100
AcDbEntity
  8
0
100
AcDbCircle
 10
925.0
 20
475.0
 30
0.0
 40
8.0
  0
CIRCLE
  5
207
330
4A3
100
AcDbEntity
  8
0
100
AcDbCircle
 10
925.0
 20
425.0
 30
0.0
 40
8.0
  0
CIRCLE
  5
206
330
4A3
100
AcDbEntity
  8
0
100
AcDbCircle
 10
925.0
 20
375.0
 30
0.0
 40
8.0
  0
CIRCLE
  5
205
330
4A3
100
AcDbEntity
  8
0
100
AcDbCircle
 10
924.9999999999998
 20
325.0
 30
0.0
 40
8.0
  0
CIRCLE
  5
204
330
4A3
100
AcDbEntity
  8
0
100
AcDbCircle
 10
924.9999999999998
 20
275.0
 30
0.0
 40
8.0
  0
CIRCLE
  5
243
330
4A3
100
AcDbEntity
  8
0
100
AcDbCircle
 10
924.9999999999998
 20
225.0
 30
0.0
 40
8.0
  0
CIRCLE
  5
242
330
4A3
100
AcDbEntity
  8
0
100
AcDbCircle
 10
924.9999999999998
 20
175.0
 30
0.0
 40
8.0
  0
CIRCLE
  5
241
330
4A3
100
AcDbEntity
  8
0
100
AcDbCircle
 10
924.9999999999998
 20
125.0
 30
0.0
 40
8.0
  0
CIRCLE
  5
240
330
4A3
100
AcDbEntity
  8
0
100
AcDbCircle
 10
924.9999999999998
 20
75.0
 30
0.0
 40
8.0
  0
CIRCLE
  5
23F
330
4A3
100
AcDbEntity
  8
0
100
AcDbCircle
 10
924.9999999999998
 20
25.0
 30
0.0
 40
8.0
  0
CIRCLE
  5
23E
330
4A3
100
AcDbEntity
  8
0
100
AcDbCircle
 10
625.0
 20
724.9999999999998
 30
0.0
 40
8.0
  0
CIRCLE
  5
23D
330
4A3
100
AcDbEntity
  8
0
100
AcDbCircle
 10
875.0
 20
725.0
 30
0.0
 40
8.0
  0
CIRCLE
  5
23C
330
4A3
100
AcDbEntity
  8
0
100
AcDbCircle
 10
625.0
 20
674.9999999999998
 30
0.0
 40
8.0
  0
CIRCLE
  5
23B
330
4A3
100
AcDbEntity
  8
0
100
AcDbCircle
 10
875.0
 20
675.0
 30
0.0
 40
8.0
  0
CIRCLE
  5
23A
330
4A3
100
AcDbEntity
  8
0
100
AcDbCircle
 10
625.0
 20
624.9999999999998
 30
0.0
 40
8.0
  0
CIRCLE
  5
239
330
4A3
100
AcDbEntity
  8
0
100
AcDbCircle
 10
875.0
 20
625.0
 30
0.0
 40
8.0
  0
CIRCLE
  5
238
330
4A3
100
AcDbEntity
  8
0
100
AcDbCircle
 10
625.0
 20
574.9999999999998
 30
0.0
 40
8.0
  0
CIRCLE
  5
237
330
4A3
100
AcDbEntity
  8
0
100
AcDbCircle
 10
875.0
 20
575.0
 30
0.0
 40
8.0
  0
CIRCLE
  5
236
330
4A3
100
AcDbEntity
  8
0
100
AcDbCircle
 10
625.0
 20
524.9999999999998
 30
0.0
 40
8.0
  0
CIRCLE
  5
235
330
4A3
100
AcDbEntity
  8
0
100
AcDbCircle
 10
875.0
 20
525.0
 30
0.0
 40
8.0
  0
CIRCLE
  5
234
330
4A3
100
AcDbEntity
  8
0
100
AcDbCircle
 10
625.0
 20
474.9999999999999
 30
0.0
 40
8.0
  0
CIRCLE
  5
233
330
4A3
100
AcDbEntity
  8
0
100
AcDbCircle
 10
875.0
 20
475.0
 30
0.0
 40
8.0
  0
CIRCLE
  5
232
330
4A3
100
AcDbEntity
  8
0
100
AcDbCircle
 10
625.0
 20
424.9999999999999
 30
0.0
 40
8.0
  0
CIRCLE
  5
231
330
4A3
100
AcDbEntity
  8
0
100
AcDbCircle
 10
875.0
 20
425.0
 30
0.0
 40
8.0
  0
CIRCLE
  5
230
330
4A3
100
AcDbEntity
  8
0
100
AcDbCircle
 10
625.0
 20
374.9999999999999
 30
0.0
 40
8.0
  0
CIRCLE
  5
22F
330
4A3
100
AcDbEntity
  8
0
100
AcDbCircle
 10
875.0
 20
375.0
 30
0.0
 40
8.0
  0
CIRCLE
  5
22E
330
4A3
100
AcDbEntity
  8
0
100
AcDbCircle
 10
624.9999999999999
 20
324.9999999999999
 30
0.0
 40
8.0
  0
CIRCLE
  5
22D
330
4A3
100
AcDbEntity
  8
0
100
AcDbCircle
 10
874.9999999999998
 20
325.0
 30
0.0
 40
8.0
  0
CIRCLE
  5
22C
330
4A3
100
AcDbEntity
  8
0
100
AcDbCircle
 10
624.9999999999999
 20
274.9999999999999
 30
0.0
 40
8.0
  0
CIRCLE
  5
22B
330
4A3
100
AcDbEntity
  8
0
100
AcDbCircle
 10
874.9999999999998
 20
275.0
 30
0.0
 40
8.0
  0
CIRCLE
  5
22A
330
4A3
100
AcDbEntity
  8
0
100
AcDbCircle
 10
624.9999999999999
 20
224.9999999999999
 30
0.0
 40
8.0
  0
CIRCLE
  5
229
330
4A3
100
AcDbEntity
  8
0
100
AcDbCircle
 10
874.9999999999998
 20
225.0
 30
0.0
 40
8.0
  0
CIRCLE
  5
228
330
4A3
100
AcDbEntity
  8
0
100
AcDbCircle
 10
624.9999999999999
 20
174.9999999999999
 30
0.0
 40
8.0
  0
CIRCLE
  5
227
330
4A3
100
AcDbEntity
  8
0
100
AcDbCircle
 10
874.9999999999998
 20
175.0
 30
0.0
 40
8.0
  0
CIRCLE
  5
226
330
4A3
100
AcDbEntity
  8
0
100
AcDbCircle
 10
624.9999999999999
 20
124.9999999999999
 30
0.0
 40
8.0
  0
CIRCLE
  5
225
330
4A3
100
AcDbEntity
  8
0
100
AcDbCircle
 10
874.9999999999998
 20
125.0
 30
0.0
 40
8.0
  0
CIRCLE
  5
224
330
4A3
100
AcDbEntity
  8
0
100
AcDbCircle
 10
624.9999999999999
 20
74.99999999999989
 30
0.0
 40
8.0
  0
CIRCLE
  5
263
330
4A3
100
AcDbEntity
  8
0
100
AcDbCircle
 10
874.9999999999998
 20
75.0
 30
0.0
 40
8.0
  0
CIRCLE
  5
262
330
4A3
100
AcDbEntity
  8
0
100
AcDbCircle
 10
624.9999999999999
 20
24.99999999999989
 30
0.0
 40
8.0
  0
CIRCLE
  5
261
330
4A3
100
AcDbEntity
  8
0
100
AcDbCircle
 10
874.9999999999998
 20
25.0
 30
0.0
 40
8.0
  0
CIRCLE
  5
260
330
4A3
100
AcDbEntity
  8
0
100
AcDbCircle
 10
575.0
 20
724.9999999999998
 30
0.0
 40
8.0
  0
CIRCLE
  5
25F
330
4A3
100
AcDbEntity
  8
0
100
AcDbCircle
 10
825.0
 20
725.0
 30
0.0
 40
8.0
  0
CIRCLE
  5
25E
330
4A3
100
AcDbEntity
  8
0
100
AcDbCircle
 10
575.0
 20
674.9999999999998
 30
0.0
 40
8.0
  0
CIRCLE
  5
25D
330
4A3
100
AcDbEntity
  8
0
100
AcDbCircle
 10
825.0
 20
675.0
 30
0.0
 40
8.0
  0
CIRCLE
  5
25C
330
4A3
100
AcDbEntity
  8
0
100
AcDbCircle
 10
575.0
 20
624.9999999999998
 30
0.0
 40
8.0
  0
CIRCLE
  5
25B
330
4A3
100
AcDbEntity
  8
0
100
AcDbCircle
 10
825.0
 20
625.0
 30
0.0
 40
8.0
  0
CIRCLE
  5
25A
330
4A3
100
AcDbEntity
  8
0
100
AcDbCircle
 10
575.0
 20
574.9999999999998
 30
0.0
 40
8.0
  0
CIRCLE
  5
259
330
4A3
100
AcDbEntity
  8
0
100
AcDbCircle
 10
825.0
 20
575.0
 30
0.0
 40
8.0
  0
CIRCLE
  5
258
330
4A3
100
AcDbEntity
  8
0
100
AcDbCircle
 10
575.0
 20
524.9999999999998
 30
0.0
 40
8.0
  0
CIRCLE
  5
257
330
4A3
100
AcDbEntity
  8
0
100
AcDbCircle
 10
825.0
 20
525.0
 30
0.0
 40
8.0
  0
CIRCLE
  5
256
330
4A3
100
AcDbEntity
  8
0
100
AcDbCircle
 10
575.0
 20
474.9999999999999
 30
0.0
 40
8.0
  0
CIRCLE
  5
255
330
4A3
100
AcDbEntity
  8
0
100
AcDbCircle
 10
825.0
 20
475.0
 30
0.0
 40
8.0
  0
CIRCLE
  5
254
330
4A3
100
AcDbEntity
  8
0
100
AcDbCircle
 10
575.0
 20
424.9999999999999
 30
0.0
 40
8.0
  0
CIRCLE
  5
253
330
4A3
100
AcDbEntity
  8
0
100
AcDbCircle
 10
825.0
 20
425.0
 30
0.0
 40
8.0
  0
CIRCLE
  5
252
330
4A3
100
AcDbEntity
  8
0
100
AcDbCircle
 10
575.0
 20
374.9999999999999
 30
0.0
 40
8.0
  0
CIRCLE
  5
251
330
4A3
100
AcDbEntity
  8
0
100
AcDbCircle
 10
825.0
 20
375.0
 30
0.0
 40
8.0
  0
CIRCLE
  5
250
330
4A3
100
AcDbEntity
  8
0
100
AcDbCircle
 10
575.0
 20
324.9999999999999
 30
0.0
 40
8.0
  0
CIRCLE
  5
24F
330
4A3
100
AcDbEntity
  8
0
100
AcDbCircle
 10
825.0
 20
325.0
 30
0.0
 40
8.0
  0
CIRCLE
  5
24E
330
4A3
100
AcDbEntity
  8
0
100
AcDbCircle
 10
575.0
 20
274.9999999999999
 30
0.0
 40
8.0
  0
CIRCLE
  5
24D
330
4A3
100
AcDbEntity
  8
0
100
AcDbCircle
 10
825.0
 20
275.0
 30
0.0
 40
8.0
  0
CIRCLE
  5
24C
330
4A3
100
AcDbEntity
  8
0
100
AcDbCircle
 10
575.0
 20
224.9999999999999
 30
0.0
 40
8.0
  0
CIRCLE
  5
24B
330
4A3
100
AcDbEntity
  8
0
100
AcDbCircle
 10
825.0
 20
225.0
 30
0.0
 40
8.0
  0
CIRCLE
  5
24A
330
4A3
100
AcDbEntity
  8
0
100
AcDbCircle
 10
575.0
 20
174.9999999999999
 30
0.0
 40
8.0
  0
CIRCLE
  5
249
330
4A3
100
AcDbEntity
  8
0
100
AcDbCircle
 10
825.0
 20
175.0
 30
0.0
 40
8.0
  0
CIRCLE
  5
248
330
4A3
100
AcDbEntity
  8
0
100
AcDbCircle
 10
575.0
 20
124.9999999999999
 30
0.0
 40
8.0
  0
CIRCLE
  5
247
330
4A3
100
AcDbEntity
  8
0
100
AcDbCircle
 10
825.0
 20
125.0
 30
0.0
 40
8.0
  0
CIRCLE
  5
246
330
4A3
100
AcDbEntity
  8
0
100
AcDbCircle
 10
575.0
 20
74.99999999999989
 30
0.0
 40
8.0
  0
CIRCLE
  5
245
330
4A3
100
AcDbEntity
  8
0
100
AcDbCircle
 10
825.0
 20
75.0
 30
0.0
 40
8.0
  0
CIRCLE
  5
244
330
4A3
100
AcDbEntity
  8
0
100
AcDbCircle
 10
575.0
 20
24.99999999999989
 30
0.0
 40
8.0
  0
CIRCLE
  5
283
330
4A3
100
AcDbEntity
  8
0
100
AcDbCircle
 10
825.0
 20
25.0
 30
0.0
 40
8.0
  0
CIRCLE
  5
282
330
4A3
100
AcDbEntity
  8
0
100
AcDbCircle
 10
525.0
 20
724.9999999999998
 30
0.0
 40
8.0
  0
CIRCLE
  5
281
330
4A3
100
AcDbEntity
  8
0
100
AcDbCircle
 10
775.0
 20
725.0
 30
0.0
 40
8.0
  0
CIRCLE
  5
280
330
4A3
100
AcDbEntity
  8
0
100
AcDbCircle
 10
525.0
 20
674.9999999999998
 30
0.0
 40
8.0
  0
CIRCLE
  5
27F
330
4A3
100
AcDbEntity
  8
0
100
AcDbCircle
 10
775.0
 20
675.0
 30
0.0
 40
8.0
  0
CIRCLE
  5
27E
330
4A3
100
AcDbEntity
  8
0
100
AcDbCircle
 10
525.0
 20
624.9999999999998
 30
0.0
 40
8.0
  0
CIRCLE
  5
27D
330
4A3
100
AcDbEntity
  8
0
100
AcDbCircle
 10
775.0
 20
625.0
 30
0.0
 40
8.0
  0
CIRCLE
  5
27C
330
4A3
100
AcDbEntity
  8
0
100
AcDbCircle
 10
525.0
 20
574.9999999999998
 30
0.0
 40
8.0
  0
CIRCLE
  5
27B
330
4A3
100
AcDbEntity
  8
0
100
AcDbCircle
 10
775.0
 20
575.0
 30
0.0
 40
8.0
  0
CIRCLE
  5
27A
330
4A3
100
AcDbEntity
  8
0
100
AcDbCircle
 10
525.0
 20
524.9999999999998
 30
0.0
 40
8.0
  0
CIRCLE
  5
279
330
4A3
100
AcDbEntity
  8
0
100
AcDbCircle
 10
775.0
 20
525.0
 30
0.0
 40
8.0
  0
CIRCLE
  5
278
330
4A3
100
AcDbEntity
  8
0
100
AcDbCircle
 10
525.0
 20
474.9999999999999
 30
0.0
 40
8.0
  0
CIRCLE
  5
277
330
4A3
100
AcDbEntity
  8
0
100
AcDbCircle
 10
775.0
 20
475.0
 30
0.0
 40
8.0
  0
CIRCLE
  5
276
330
4A3
100
AcDbEntity
  8
0
100
AcDbCircle
 10
525.0
 20
424.9999999999999
 30
0.0
 40
8.0
  0
CIRCLE
  5
275
330
4A3
100
AcDbEntity
  8
0
100
AcDbCircle
 10
775.0
 20
425.0
 30
0.0
 40
8.0
  0
CIRCLE
  5
274
330
4A3
100
AcDbEntity
  8
0
100
AcDbCircle
 10
525.0
 20
374.9999999999999
 30
0.0
 40
8.0
  0
CIRCLE
  5
273
330
4A3
100
AcDbEntity
  8
0
100
AcDbCircle
 10
775.0
 20
375.0
 30
0.0
 40
8.0
  0
CIRCLE
  5
272
330
4A3
100
AcDbEntity
  8
0
100
AcDbCircle
 10
525.0
 20
324.9999999999999
 30
0.0
 40
8.0
  0
CIRCLE
  5
271
330
4A3
100
AcDbEntity
  8
0
100
AcDbCircle
 10
775.0
 20
325.0
 30
0.0
 40
8.0
  0
CIRCLE
  5
270
330
4A3
100
AcDbEntity
  8
0
100
AcDbCircle
 10
525.0
 20
274.9999999999999
 30
0.0
 40
8.0
  0
CIRCLE
  5
26F
330
4A3
100
AcDbEntity
  8
0
100
AcDbCircle
 10
775.0
 20
275.0
 30
0.0
 40
8.0
  0
CIRCLE
  5
26E
330
4A3
100
AcDbEntity
  8
0
100
AcDbCircle
 10
525.0
 20
224.9999999999999
 30
0.0
 40
8.0
  0
CIRCLE
  5
26D
330
4A3
100
AcDbEntity
  8
0
100
AcDbCircle
 10
775.0
 20
225.0
 30
0.0
 40
8.0
  0
CIRCLE
  5
26C
330
4A3
100
AcDbEntity
  8
0
100
AcDbCircle
 10
525.0
 20
174.9999999999999
 30
0.0
 40
8.0
  0
CIRCLE
  5
26B
330
4A3
100
AcDbEntity
  8
0
100
AcDbCircle
 10
775.0
 20
175.0
 30
0.0
 40
8.0
  0
CIRCLE
  5
26A
330
4A3
100
AcDbEntity
  8
0
100
AcDbCircle
 10
525.0
 20
124.9999999999999
 30
0.0
 40
8.0
  0
CIRCLE
  5
269
330
4A3
100
AcDbEntity
  8
0
100
AcDbCircle
 10
775.0
 20
125.0
 30
0.0
 40
8.0
  0
CIRCLE
  5
268
330
4A3
100
AcDbEntity
  8
0
100
AcDbCircle
 10
525.0
 20
74.99999999999989
 30
0.0
 40
8.0
  0
CIRCLE
  5
267
330
4A3
100
AcDbEntity
  8
0
100
AcDbCircle
 10
775.0
 20
75.0
 30
0.0
 40
8.0
  0
CIRCLE
  5
266
330
4A3
100
AcDbEntity
  8
0
100
AcDbCircle
 10
525.0
 20
24.99999999999989
 30
0.0
 40
8.0
  0
CIRCLE
  5
265
330
4A3
100
AcDbEntity
  8
0
100
AcDbCircle
 10
775.0
 20
25.0
 30
0.0
 40
8.0
  0
CIRCLE
  5
264
330
4A3
100
AcDbEntity
  8
0
100
AcDbCircle
 10
475.0
 20
724.9999999999998
 30
0.0
 40
8.0
  0
CIRCLE
  5
1A3
330
4A3
100
AcDbEntity
  8
0
100
AcDbCircle
 10
725.0
 20
725.0
 30
0.0
 40
8.0
  0
CIRCLE
  5
1A2
330
4A3
100
AcDbEntity
  8
0
100
AcDbCircle
 10
475.0
 20
674.9999999999998
 30
0.0
 40
8.0
  0
CIRCLE
  5
1A1
330
4A3
100
AcDbEntity
  8
0
100
AcDbCircle
 10
725.0
 20
675.0
 30
0.0
 40
8.0
  0
CIRCLE
  5
1A0
330
4A3
100
AcDbEntity
  8
0
100
AcDbCircle
 10
475.0
 20
624.9999999999998
 30
0.0
 40
8.0
  0
CIRCLE
  5
19F
330
4A3
100
AcDbEntity
  8
0
100
AcDbCircle
 10
725.0
 20
625.0
 30
0.0
 40
8.0
  0
CIRCLE
  5
19E
330
4A3
100
AcDbEntity
  8
0
100
AcDbCircle
 10
475.0
 20
574.9999999999998
 30
0.0
 40
8.0
  0
CIRCLE
  5
19D
330
4A3
100
AcDbEntity
  8
0
100
AcDbCircle
 10
725.0
 20
575.0
 30
0.0
 40
8.0
  0
CIRCLE
  5
19C
330
4A3
100
AcDbEntity
  8
0
100
AcDbCircle
 10
475.0
 20
524.9999999999998
 30
0.0
 40
8.0
  0
CIRCLE
  5
19B
330
4A3
100
AcDbEntity
  8
0
100
AcDbCircle
 10
725.0
 20
525.0
 30
0.0
 40
8.0
  0
CIRCLE
  5
19A
330
4A3
100
AcDbEntity
  8
0
100
AcDbCircle
 10
475.0
 20
474.9999999999999
 30
0.0
 40
8.0
  0
CIRCLE
  5
199
330
4A3
100
AcDbEntity
  8
0
100
AcDbCircle
 10
725.0
 20
475.0
 30
0.0
 40
8.0
  0
CIRCLE
  5
198
330
4A3
100
AcDbEntity
  8
0
100
AcDbCircle
 10
475.0
 20
424.9999999999999
 30
0.0
 40
8.0
  0
CIRCLE
  5
197
330
4A3
100
AcDbEntity
  8
0
100
AcDbCircle
 10
725.0
 20
425.0
 30
0.0
 40
8.0
  0
CIRCLE
  5
196
330
4A3
100
AcDbEntity
  8
0
100
AcDbCircle
 10
475.0
 20
374.9999999999999
 30
0.0
 40
8.0
  0
CIRCLE
  5
195
330
4A3
100
AcDbEntity
  8
0
100
AcDbCircle
 10
725.0
 20
375.0
 30
0.0
 40
8.0
  0
CIRCLE
  5
194
330
4A3
100
AcDbEntity
  8
0
100
AcDbCircle
 10
475.0
 20
324.9999999999999
 30
0.0
 40
8.0
  0
CIRCLE
  5
193
330
4A3
100
AcDbEntity
  8
0
100
AcDbCircle
 10
725.0
 20
325.0
 30
0.0
 40
8.0
  0
CIRCLE
  5
192
330
4A3
100
AcDbEntity
  8
0
100
AcDbCircle
 10
475.0
 20
274.9999999999999
 30
0.0
 40
8.0
  0
CIRCLE
  5
191
330
4A3
100
AcDbEntity
  8
0
100
AcDbCircle
 10
725.0
 20
275.0
 30
0.0
 40
8.0
  0
CIRCLE
  5
190
330
4A3
100
AcDbEntity
  8
0
100
AcDbCircle
 10
475.0
 20
224.9999999999999
 30
0.0
 40
8.0
  0
CIRCLE
  5
18F
330
4A3
100
AcDbEntity
  8
0
100
AcDbCircle
 10
725.0
 20
225.0
 30
0.0
 40
8.0
  0
CIRCLE
  5
18E
330
4A3
100
AcDbEntity
  8
0
100
AcDbCircle
 10
475.0
 20
174.9999999999999
 30
0.0
 40
8.0
  0
CIRCLE
  5
18D
330
4A3
100
AcDbEntity
  8
0
100
AcDbCircle
 10
725.0
 20
175.0
 30
0.0
 40
8.0
  0
CIRCLE
  5
18C
330
4A3
100
AcDbEntity
  8
0
100
AcDbCircle
 10
475.0
 20
124.9999999999999
 30
0.0
 40
8.0
  0
CIRCLE
  5
18B
330
4A3
100
AcDbEntity
  8
0
100
AcDbCircle
 10
725.0
 20
125.0
 30
0.0
 40
8.0
  0
CIRCLE
  5
18A
330
4A3
100
AcDbEntity
  8
0
100
AcDbCircle
 10
475.0
 20
74.99999999999989
 30
0.0
 40
8.0
  0
CIRCLE
  5
189
330
4A3
100
AcDbEntity
  8
0
100
AcDbCircle
 10
725.0
 20
75.0
 30
0.0
 40
8.0
  0
CIRCLE
  5
188
330
4A3
100
AcDbEntity
  8
0
100
AcDbCircle
 10
475.0
 20
24.99999999999989
 30
0.0
 40
8.0
  0
CIRCLE
  5
187
330
4A3
100
AcDbEntity
  8
0
100
AcDbCircle
 10
725.0
 20
25.0
 30
0.0
 40
8.0
  0
CIRCLE
  5
186
330
4A3
100
AcDbEntity
  8
0
100
AcDbCircle
 10
425.0
 20
724.9999999999998
 30
0.0
 40
8.0
  0
CIRCLE
  5
185
330
4A3
100
AcDbEntity
  8
0
100
AcDbCircle
 10
675.0
 20
725.0
 30
0.0
 40
8.0
  0
CIRCLE
  5
184
330
4A3
100
AcDbEntity
  8
0
100
AcDbCircle
 10
425.0
 20
674.9999999999998
 30
0.0
 40
8.0
  0
CIRCLE
  5
1C3
330
4A3
100
AcDbEntity
  8
0
100
AcDbCircle
 10
675.0
 20
675.0
 30
0.0
 40
8.0
  0
CIRCLE
  5
1C2
330
4A3
100
AcDbEntity
  8
0
100
AcDbCircle
 10
425.0
 20
624.9999999999998
 30
0.0
 40
8.0
  0
CIRCLE
  5
1C1
330
4A3
100
AcDbEntity
  8
0
100
AcDbCircle
 10
675.0
 20
625.0
 30
0.0
 40
8.0
  0
CIRCLE
  5
1C0
330
4A3
100
AcDbEntity
  8
0
100
AcDbCircle
 10
425.0
 20
574.9999999999998
 30
0.0
 40
8.0
  0
CIRCLE
  5
1BF
330
4A3
100
AcDbEntity
  8
0
100
AcDbCircle
 10
675.0
 20
575.0
 30
0.0
 40
8.0
  0
CIRCLE
  5
1BE
330
4A3
100
AcDbEntity
  8
0
100
AcDbCircle
 10
425.0
 20
524.9999999999998
 30
0.0
 40
8.0
  0
CIRCLE
  5
1BD
330
4A3
100
AcDbEntity
  8
0
100
AcDbCircle
 10
675.0
 20
525.0
 30
0.0
 40
8.0
  0
CIRCLE
  5
1BC
330
4A3
100
AcDbEntity
  8
0
100
AcDbCircle
 10
425.0
 20
474.9999999999999
 30
0.0
 40
8.0
  0
CIRCLE
  5
1BB
330
4A3
100
AcDbEntity
  8
0
100
AcDbCircle
 10
675.0
 20
475.0
 30
0.0
 40
8.0
  0
CIRCLE
  5
1BA
330
4A3
100
AcDbEntity
  8
0
100
AcDbCircle
 10
425.0
 20
424.9999999999999
 30
0.0
 40
8.0
  0
CIRCLE
  5
1B9
330
4A3
100
AcDbEntity
  8
0
100
AcDbCircle
 10
675.0
 20
425.0
 30
0.0
 40
8.0
  0
CIRCLE
  5
1B8
330
4A3
100
AcDbEntity
  8
0
100
AcDbCircle
 10
425.0
 20
374.9999999999999
 30
0.0
 40
8.0
  0
CIRCLE
  5
1B7
330
4A3
100
AcDbEntity
  8
0
100
AcDbCircle
 10
675.0
 20
375.0
 30
0.0
 40
8.0
  0
CIRCLE
  5
1B6
330
4A3
100
AcDbEntity
  8
0
100
AcDbCircle
 10
425.0
 20
324.9999999999999
 30
0.0
 40
8.0
  0
CIRCLE
  5
1B5
330
4A3
100
AcDbEntity
  8
0
100
AcDbCircle
 10
675.0
 20
325.0
 30
0.0
 40
8.0
  0
CIRCLE
  5
1B4
330
4A3
100
AcDbEntity
  8
0
100
AcDbCircle
 10
425.0
 20
274.9999999999999
 30
0.0
 40
8.0
  0
CIRCLE
  5
1B3
330
4A3
100
AcDbEntity
  8
0
100
AcDbCircle
 10
675.0
 20
275.0
 30
0.0
 40
8.0
  0
CIRCLE
  5
1B2
330
4A3
100
AcDbEntity
  8
0
100
AcDbCircle
 10
425.0
 20
224.9999999999999
 30
0.0
 40
8.0
  0
CIRCLE
  5
1B1
330
4A3
100
AcDbEntity
  8
0
100
AcDbCircle
 10
675.0
 20
225.0
 30
0.0
 40
8.0
  0
CIRCLE
  5
1B0
330
4A3
100
AcDbEntity
  8
0
100
AcDbCircle
 10
425.0
 20
174.9999999999999
 30
0.0
 40
8.0
  0
CIRCLE
  5
1AF
330
4A3
100
AcDbEntity
  8
0
100
AcDbCircle
 10
675.0
 20
175.0
 30
0.0
 40
8.0
  0
CIRCLE
  5
1AE
330
4A3
100
AcDbEntity
  8
0
100
AcDbCircle
 10
425.0
 20
124.9999999999999
 30
0.0
 40
8.0
  0
CIRCLE
  5
1AD
330
4A3
100
AcDbEntity
  8
0
100
AcDbCircle
 10
675.0
 20
125.0
 30
0.0
 40
8.0
  0
CIRCLE
  5
1AC
330
4A3
100
AcDbEntity
  8
0
100
AcDbCircle
 10
425.0
 20
74.99999999999989
 30
0.0
 40
8.0
  0
CIRCLE
  5
1AB
330
4A3
100
AcDbEntity
  8
0
100
AcDbCircle
 10
675.0
 20
75.0
 30
0.0
 40
8.0
  0
CIRCLE
  5
1AA
330
4A3
100
AcDbEntity
  8
0
100
AcDbCircle
 10
425.0
 20
24.99999999999989
 30
0.0
 40
8.0
  0
CIRCLE
  5
1A9
330
4A3
100
AcDbEntity
  8
0
100
AcDbCircle
 10
675.0
 20
25.0
 30
0.0
 40
8.0
  0
CIRCLE
  5
1A8
330
4A3
100
AcDbEntity
  8
0
100
AcDbCircle
 10
375.0
 20
724.9999999999998
 30
0.0
 40
8.0
  0
CIRCLE
  5
1A7
330
4A3
100
AcDbEntity
  8
0
100
AcDbCircle
 10
375.0
 20
674.9999999999998
 30
0.0
 40
8.0
  0
CIRCLE
  5
1A6
330
4A3
100
AcDbEntity
  8
0
100
AcDbCircle
 10
375.0
 20
624.9999999999998
 30
0.0
 40
8.0
  0
CIRCLE
  5
1A5
330
4A3
100
AcDbEntity
  8
0
100
AcDbCircle
 10
375.0
 20
574.9999999999998
 30
0.0
 40
8.0
  0
CIRCLE
  5
1A4
330
4A3
100
AcDbEntity
  8
0
100
AcDbCircle
 10
375.0
 20
524.9999999999998
 30
0.0
 40
8.0
  0
CIRCLE
  5
1E3
330
4A3
100
AcDbEntity
  8
0
100
AcDbCircle
 10
375.0
 20
474.9999999999999
 30
0.0
 40
8.0
  0
CIRCLE
  5
1E2
330
4A3
100
AcDbEntity
  8
0
100
AcDbCircle
 10
375.0
 20
424.9999999999999
 30
0.0
 40
8.0
  0
CIRCLE
  5
1E1
330
4A3
100
AcDbEntity
  8
0
100
AcDbCircle
 10
375.0
 20
374.9999999999999
 30
0.0
 40
8.0
  0
CIRCLE
  5
1E0
330
4A3
100
AcDbEntity
  8
0
100
AcDbCircle
 10
375.0
 20
324.9999999999999
 30
0.0
 40
8.0
  0
CIRCLE
  5
1DF
330
4A3
100
AcDbEntity
  8
0
100
AcDbCircle
 10
375.0
 20
274.9999999999999
 30
0.0
 40
8.0
  0
CIRCLE
  5
1DE
330
4A3
100
AcDbEntity
  8
0
100
AcDbCircle
 10
375.0
 20
224.9999999999999
 30
0.0
 40
8.0
  0
CIRCLE
  5
1DD
330
4A3
100
AcDbEntity
  8
0
100
AcDbCircle
 10
375.0
 20
174.9999999999999
 30
0.0
 40
8.0
  0
CIRCLE
  5
1DC
330
4A3
100
AcDbEntity
  8
0
100
AcDbCircle
 10
375.0
 20
124.9999999999999
 30
0.0
 40
8.0
  0
CIRCLE
  5
1DB
330
4A3
100
AcDbEntity
  8
0
100
AcDbCircle
 10
375.0
 20
74.99999999999989
 30
0.0
 40
8.0
  0
CIRCLE
  5
1DA
330
4A3
100
AcDbEntity
  8
0
100
AcDbCircle
 10
375.0
 20
24.99999999999989
 30
0.0
 40
8.0
  0
CIRCLE
  5
1D9
330
4A3
100
AcDbEntity
  8
0
100
AcDbCircle
 10
325.0
 20
724.9999999999998
 30
0.0
 40
8.0
  0
CIRCLE
  5
1D8
330
4A3
100
AcDbEntity
  8
0
100
AcDbCircle
 10
325.0
 20
674.9999999999998
 30
0.0
 40
8.0
  0
CIRCLE
  5
1D7
330
4A3
100
AcDbEntity
  8
0
100
AcDbCircle
 10
325.0
 20
624.9999999999998
 30
0.0
 40
8.0
  0
CIRCLE
  5
1D6
330
4A3
100
AcDbEntity
  8
0
100
AcDbCircle
 10
325.0
 20
574.9999999999998
 30
0.0
 40
8.0
  0
CIRCLE
  5
1D5
330
4A3
100
AcDbEntity
  8
0
100
AcDbCircle
 10
325.0
 20
524.9999999999998
 30
0.0
 40
8.0
  0
CIRCLE
  5
1D4
330
4A3
100
AcDbEntity
  8
0
100
AcDbCircle
 10
325.0
 20
474.9999999999999
 30
0.0
 40
8.0
  0
CIRCLE
  5
1D3
330
4A3
100
AcDbEntity
  8
0
100
AcDbCircle
 10
325.0
 20
424.9999999999999
 30
0.0
 40
8.0
  0
CIRCLE
  5
1D2
330
4A3
100
AcDbEntity
  8
0
100
AcDbCircle
 10
325.0
 20
374.9999999999999
 30
0.0
 40
8.0
  0
CIRCLE
  5
1D1
330
4A3
100
AcDbEntity
  8
0
100
AcDbCircle
 10
325.0
 20
324.9999999999999
 30
0.0
 40
8.0
  0
CIRCLE
  5
1D0
330
4A3
100
AcDbEntity
  8
0
100
AcDbCircle
 10
325.0
 20
274.9999999999999
 30
0.0
 40
8.0
  0
CIRCLE
  5
1CF
330
4A3
100
AcDbEntity
  8
0
100
AcDbCircle
 10
325.0
 20
224.9999999999999
 30
0.0
 40
8.0
  0
CIRCLE
  5
1CE
330
4A3
100
AcDbEntity
  8
0
100
AcDbCircle
 10
325.0
 20
174.9999999999999
 30
0.0
 40
8.0
  0
CIRCLE
  5
1CD
330
4A3
100
AcDbEntity
  8
0
100
AcDbCircle
 10
325.0
 20
124.9999999999999
 30
0.0
 40
8.0
  0
CIRCLE
  5
1CC
330
4A3
100
AcDbEntity
  8
0
100
AcDbCircle
 10
325.0
 20
74.99999999999989
 30
0.0
 40
8.0
  0
CIRCLE
  5
1CB
330
4A3
100
AcDbEntity
  8
0
100
AcDbCircle
 10
325.0
 20
24.99999999999989
 30
0.0
 40
8.0
  0
CIRCLE
  5
1CA
330
4A3
100
AcDbEntity
  8
0
100
AcDbCircle
 10
275.0
 20
724.9999999999998
 30
0.0
 40
8.0
  0
CIRCLE
  5
1C9
330
4A3
100
AcDbEntity
  8
0
100
AcDbCircle
 10
275.0
 20
674.9999999999998
 30
0.0
 40
8.0
  0
CIRCLE
  5
1C8
330
4A3
100
AcDbEntity
  8
0
100
AcDbCircle
 10
275.0
 20
624.9999999999998
 30
0.0
 40
8.0
  0
CIRCLE
  5
1C7
330
4A3
100
AcDbEntity
  8
0
100
AcDbCircle
 10
275.0
 20
574.9999999999998
 30
0.0
 40
8.0
  0
CIRCLE
  5
1C6
330
4A3
100
AcDbEntity
  8
0
100
AcDbCircle
 10
275.0
 20
524.9999999999998
 30
0.0
 40
8.0
  0
CIRCLE
  5
1C5
330
4A3
100
AcDbEntity
  8
0
100
AcDbCircle
 10
275.0
 20
474.9999999999999
 30
0.0
 40
8.0
  0
CIRCLE
  5
1C4
330
4A3
100
AcDbEntity
  8
0
100
AcDbCircle
 10
275.0
 20
424.9999999999999
 30
0.0
 40
8.0
  0
CIRCLE
  5
203
330
4A3
100
AcDbEntity
  8
0
100
AcDbCircle
 10
275.0
 20
374.9999999999999
 30
0.0
 40
8.0
  0
CIRCLE
  5
202
330
4A3
100
AcDbEntity
  8
0
100
AcDbCircle
 10
275.0
 20
324.9999999999999
 30
0.0
 40
8.0
  0
CIRCLE
  5
201
330
4A3
100
AcDbEntity
  8
0
100
AcDbCircle
 10
275.0
 20
274.9999999999999
 30
0.0
 40
8.0
  0
CIRCLE
  5
200
330
4A3
100
AcDbEntity
  8
0
100
AcDbCircle
 10
275.0
 20
224.9999999999999
 30
0.0
 40
8.0
  0
CIRCLE
  5
1FF
330
4A3
100
AcDbEntity
  8
0
100
AcDbCircle
 10
275.0
 20
174.9999999999999
 30
0.0
 40
8.0
  0
CIRCLE
  5
1FE
330
4A3
100
AcDbEntity
  8
0
100
AcDbCircle
 10
275.0
 20
124.9999999999999
 30
0.0
 40
8.0
  0
CIRCLE
  5
1FD
330
4A3
100
AcDbEntity
  8
0
100
AcDbCircle
 10
275.0
 20
74.99999999999989
 30
0.0
 40
8.0
  0
CIRCLE
  5
1FC
330
4A3
100
AcDbEntity
  8
0
100
AcDbCircle
 10
275.0
 20
24.99999999999989
 30
0.0
 40
8.0
  0
CIRCLE
  5
1FB
330
4A3
100
AcDbEntity
  8
0
100
AcDbCircle
 10
225.0
 20
724.9999999999998
 30
0.0
 40
8.0
  0
CIRCLE
  5
1FA
330
4A3
100
AcDbEntity
  8
0
100
AcDbCircle
 10
225.0
 20
674.9999999999998
 30
0.0
 40
8.0
  0
CIRCLE
  5
1F9
330
4A3
100
AcDbEntity
  8
0
100
AcDbCircle
 10
225.0
 20
624.9999999999998
 30
0.0
 40
8.0
  0
CIRCLE
  5
1F8
330
4A3
100
AcDbEntity
  8
0
100
AcDbCircle
 10
225.0
 20
574.9999999999998
 30
0.0
 40
8.0
  0
CIRCLE
  5
1F7
330
4A3
100
AcDbEntity
  8
0
100
AcDbCircle
 10
225.0
 20
524.9999999999998
 30
0.0
 40
8.0
  0
CIRCLE
  5
1F6
330
4A3
100
AcDbEntity
  8
0
100
AcDbCircle
 10
225.0
 20
474.9999999999999
 30
0.0
 40
8.0
  0
CIRCLE
  5
1F5
330
4A3
100
AcDbEntity
  8
0
100
AcDbCircle
 10
225.0
 20
424.9999999999999
 30
0.0
 40
8.0
  0
CIRCLE
  5
1F4
330
4A3
100
AcDbEntity
  8
0
100
AcDbCircle
 10
225.0
 20
374.9999999999999
 30
0.0
 40
8.0
  0
CIRCLE
  5
1F3
330
4A3
100
AcDbEntity
  8
0
100
AcDbCircle
 10
225.0
 20
324.9999999999999
 30
0.0
 40
8.0
  0
CIRCLE
  5
1F2
330
4A3
100
AcDbEntity
  8
0
100
AcDbCircle
 10
225.0
 20
274.9999999999999
 30
0.0
 40
8.0
  0
CIRCLE
  5
1F1
330
4A3
100
AcDbEntity
  8
0
100
AcDbCircle
 10
225.0
 20
224.9999999999999
 30
0.0
 40
8.0
  0
CIRCLE
  5
1F0
330
4A3
100
AcDbEntity
  8
0
100
AcDbCircle
 10
225.0
 20
174.9999999999999
 30
0.0
 40
8.0
  0
CIRCLE
  5
1EF
330
4A3
100
AcDbEntity
  8
0
100
AcDbCircle
 10
225.0
 20
124.9999999999999
 30
0.0
 40
8.0
  0
CIRCLE
  5
1EE
330
4A3
100
AcDbEntity
  8
0
100
AcDbCircle
 10
225.0
 20
74.99999999999989
 30
0.0
 40
8.0
  0
CIRCLE
  5
1ED
330
4A3
100
AcDbEntity
  8
0
100
AcDbCircle
 10
225.0
 20
24.99999999999989
 30
0.0
 40
8.0
  0
CIRCLE
  5
1EC
330
4A3
100
AcDbEntity
  8
0
100
AcDbCircle
 10
175.0
 20
724.9999999999998
 30
0.0
 40
8.0
  0
CIRCLE
  5
1EB
330
4A3
100
AcDbEntity
  8
0
100
AcDbCircle
 10
175.0
 20
674.9999999999998
 30
0.0
 40
8.0
  0
CIRCLE
  5
1EA
330
4A3
100
AcDbEntity
  8
0
100
AcDbCircle
 10
175.0
 20
624.9999999999998
 30
0.0
 40
8.0
  0
CIRCLE
  5
1E9
330
4A3
100
AcDbEntity
  8
0
100
AcDbCircle
 10
175.0
 20
574.9999999999998
 30
0.0
 40
8.0
  0
CIRCLE
  5
1E8
330
4A3
100
AcDbEntity
  8
0
100
AcDbCircle
 10
175.0
 20
524.9999999999998
 30
0.0
 40
8.0
  0
CIRCLE
  5
1E7
330
4A3
100
AcDbEntity
  8
0
100
AcDbCircle
 10
175.0
 20
474.9999999999999
 30
0.0
 40
8.0
  0
CIRCLE
  5
1E6
330
4A3
100
AcDbEntity
  8
0
100
AcDbCircle
 10
175.0
 20
424.9999999999999
 30
0.0
 40
8.0
  0
CIRCLE
  5
1E5
330
4A3
100
AcDbEntity
  8
0
100
AcDbCircle
 10
175.0
 20
374.9999999999999
 30
0.0
 40
8.0
  0
CIRCLE
  5
1E4
330
4A3
100
AcDbEntity
  8
0
100
AcDbCircle
 10
174.9999999999999
 20
324.9999999999999
 30
0.0
 40
8.0
  0
CIRCLE
  5
130
330
4A3
100
AcDbEntity
  8
0
100
AcDbCircle
 10
174.9999999999999
 20
274.9999999999999
 30
0.0
 40
8.0
  0
CIRCLE
  5
12F
330
4A3
100
AcDbEntity
  8
0
100
AcDbCircle
 10
174.9999999999999
 20
224.9999999999999
 30
0.0
 40
8.0
  0
CIRCLE
  5
12E
330
4A3
100
AcDbEntity
  8
0
100
AcDbCircle
 10
174.9999999999999
 20
174.9999999999999
 30
0.0
 40
8.0
  0
CIRCLE
  5
12D
330
4A3
100
AcDbEntity
  8
0
100
AcDbCircle
 10
174.9999999999999
 20
124.9999999999999
 30
0.0
 40
8.0
  0
CIRCLE
  5
12C
330
4A3
100
AcDbEntity
  8
0
100
AcDbCircle
 10
174.9999999999999
 20
74.99999999999989
 30
0.0
 40
8.0
  0
CIRCLE
  5
12B
330
4A3
100
AcDbEntity
  8
0
100
AcDbCircle
 10
174.9999999999999
 20
24.99999999999989
 30
0.0
 40
8.0
  0
CIRCLE
  5
12A
330
4A3
100
AcDbEntity
  8
0
100
AcDbCircle
 10
125.0
 20
724.9999999999998
 30
0.0
 40
8.0
  0
CIRCLE
  5
129
330
4A3
100
AcDbEntity
  8
0
100
AcDbCircle
 10
125.0
 20
674.9999999999998
 30
0.0
 40
8.0
  0
CIRCLE
  5
128
330
4A3
100
AcDbEntity
  8
0
100
AcDbCircle
 10
125.0
 20
624.9999999999998
 30
0.0
 40
8.0
  0
CIRCLE
  5
127
330
4A3
100
AcDbEntity
  8
0
100
AcDbCircle
 10
125.0
 20
574.9999999999998
 30
0.0
 40
8.0
  0
CIRCLE
  5
126
330
4A3
100
AcDbEntity
  8
0
100
AcDbCircle
 10
125.0
 20
524.9999999999998
 30
0.0
 40
8.0
  0
CIRCLE
  5
125
330
4A3
100
AcDbEntity
  8
0
100
AcDbCircle
 10
125.0
 20
474.9999999999999
 30
0.0
 40
8.0
  0
CIRCLE
  5
124
330
4A3
100
AcDbEntity
  8
0
100
AcDbCircle
 10
125.0
 20
424.9999999999999
 30
0.0
 40
8.0
  0
CIRCLE
  5
123
330
4A3
100
AcDbEntity
  8
0
100
AcDbCircle
 10
125.0
 20
374.9999999999999
 30
0.0
 40
8.0
  0
CIRCLE
  5
122
330
4A3
100
AcDbEntity
  8
0
100
AcDbCircle
 10
124.9999999999999
 20
324.9999999999999
 30
0.0
 40
8.0
  0
CIRCLE
  5
121
330
4A3
100
AcDbEntity
  8
0
100
AcDbCircle
 10
124.9999999999999
 20
274.9999999999999
 30
0.0
 40
8.0
  0
CIRCLE
  5
120
330
4A3
100
AcDbEntity
  8
0
100
AcDbCircle
 10
124.9999999999999
 20
224.9999999999999
 30
0.0
 40
8.0
  0
CIRCLE
  5
11F
330
4A3
100
AcDbEntity
  8
0
100
AcDbCircle
 10
124.9999999999999
 20
174.9999999999999
 30
0.0
 40
8.0
  0
CIRCLE
  5
11E
330
4A3
100
AcDbEntity
  8
0
100
AcDbCircle
 10
124.9999999999999
 20
124.9999999999999
 30
0.0
 40
8.0
  0
CIRCLE
  5
11D
330
4A3
100
AcDbEntity
  8
0
100
AcDbCircle
 10
124.9999999999999
 20
74.99999999999989
 30
0.0
 40
8.0
  0
CIRCLE
  5
11C
330
4A3
100
AcDbEntity
  8
0
100
AcDbCircle
 10
124.9999999999999
 20
24.99999999999989
 30
0.0
 40
8.0
  0
CIRCLE
  5
11B
330
4A3
100
AcDbEntity
  8
0
100
AcDbCircle
 10
75.0
 20
724.9999999999998
 30
0.0
 40
8.0
  0
CIRCLE
  5
11A
330
4A3
100
AcDbEntity
  8
0
100
AcDbCircle
 10
75.0
 20
674.9999999999998
 30
0.0
 40
8.0
  0
CIRCLE
  5
119
330
4A3
100
AcDbEntity
  8
0
100
AcDbCircle
 10
75.0
 20
624.9999999999998
 30
0.0
 40
8.0
  0
CIRCLE
  5
118
330
4A3
100
AcDbEntity
  8
0
100
AcDbCircle
 10
75.0
 20
574.9999999999998
 30
0.0
 40
8.0
  0
CIRCLE
  5
117
330
4A3
100
AcDbEntity
  8
0
100
AcDbCircle
 10
75.0
 20
524.9999999999998
 30
0.0
 40
8.0
  0
CIRCLE
  5
116
330
4A3
100
AcDbEntity
  8
0
100
AcDbCircle
 10
75.0
 20
474.9999999999999
 30
0.0
 40
8.0
  0
CIRCLE
  5
115
330
4A3
100
AcDbEntity
  8
0
100
AcDbCircle
 10
75.0
 20
424.9999999999999
 30
0.0
 40
8.0
  0
CIRCLE
  5
114
330
4A3
100
AcDbEntity
  8
0
100
AcDbCircle
 10
75.0
 20
374.9999999999999
 30
0.0
 40
8.0
  0
CIRCLE
  5
113
330
4A3
100
AcDbEntity
  8
0
100
AcDbCircle
 10
74.99999999999989
 20
324.9999999999999
 30
0.0
 40
8.0
  0
CIRCLE
  5
112
330
4A3
100
AcDbEntity
  8
0
100
AcDbCircle
 10
74.99999999999989
 20
274.9999999999999
 30
0.0
 40
8.0
  0
CIRCLE
  5
111
330
4A3
100
AcDbEntity
  8
0
100
AcDbCircle
 10
74.99999999999989
 20
224.9999999999999
 30
0.0
 40
8.0
  0
CIRCLE
  5
14B
330
4A3
100
AcDbEntity
  8
0
100
AcDbCircle
 10
74.99999999999989
 20
174.9999999999999
 30
0.0
 40
8.0
  0
CIRCLE
  5
149
330
4A3
100
AcDbEntity
  8
0
100
AcDbCircle
 10
74.99999999999989
 20
124.9999999999999
 30
0.0
 40
8.0
  0
CIRCLE
  5
147
330
4A3
100
AcDbEntity
  8
0
100
AcDbCircle
 10
74.99999999999989
 20
74.99999999999989
 30
0.0
 40
8.0
  0
CIRCLE
  5
145
330
4A3
100
AcDbEntity
  8
0
100
AcDbCircle
 10
74.99999999999989
 20
24.99999999999989
 30
0.0
 40
8.0
  0
CIRCLE
  5
143
330
4A3
100
AcDbEntity
  8
0
100
AcDbCircle
 10
25.0
 20
724.9999999999998
 30
0.0
 40
8.0
  0
CIRCLE
  5
141
330
4A3
100
AcDbEntity
  8
0
100
AcDbCircle
 10
25.0
 20
674.9999999999998
 30
0.0
 40
8.0
  0
CIRCLE
  5
13F
330
4A3
100
AcDbEntity
  8
0
100
AcDbCircle
 10
25.0
 20
624.9999999999998
 30
0.0
 40
8.0
  0
CIRCLE
  5
13D
330
4A3
100
AcDbEntity
  8
0
100
AcDbCircle
 10
25.0
 20
574.9999999999998
 30
0.0
 40
8.0
  0
CIRCLE
  5
13B
330
4A3
100
AcDbEntity
  8
0
100
AcDbCircle
 10
25.0
 20
524.9999999999998
 30
0.0
 40
8.0
  0
CIRCLE
  5
13A
330
4A3
100
AcDbEntity
  8
0
100
AcDbCircle
 10
25.0
 20
474.9999999999999
 30
0.0
 40
8.0
  0
CIRCLE
  5
139
330
4A3
100
AcDbEntity
  8
0
100
AcDbCircle
 10
25.0
 20
424.9999999999999
 30
0.0
 40
8.0
  0
CIRCLE
  5
138
330
4A3
100
AcDbEntity
  8
0
100
AcDbCircle
 10
25.0
 20
374.9999999999999
 30
0.0
 40
8.0
  0
CIRCLE
  5
137
330
4A3
100
AcDbEntity
  8
0
100
AcDbCircle
 10
24.99999999999989
 20
324.9999999999999
 30
0.0
 40
8.0
  0
CIRCLE
  5
136
330
4A3
100
AcDbEntity
  8
0
100
AcDbCircle
 10
24.99999999999989
 20
274.9999999999999
 30
0.0
 40
8.0
  0
CIRCLE
  5
135
330
4A3
100
AcDbEntity
  8
0
100
AcDbCircle
 10
24.99999999999989
 20
224.9999999999999
 30
0.0
 40
8.0
  0
CIRCLE
  5
134
330
4A3
100
AcDbEntity
  8
0
100
AcDbCircle
 10
24.99999999999989
 20
174.9999999999999
 30
0.0
 40
8.0
  0
CIRCLE
  5
133
330
4A3
100
AcDbEntity
  8
0
100
AcDbCircle
 10
24.99999999999989
 20
124.9999999999999
 30
0.0
 40
8.0
  0
CIRCLE
  5
132
330
4A3
100
AcDbEntity
  8
0
100
AcDbCircle
 10
24.99999999999989
 20
74.99999999999989
 30
0.0
 40
8.0
  0
CIRCLE
  5
131
330
4A3
100
AcDbEntity
  8
0
100
AcDbCircle
 10
24.99999999999989
 20
24.99999999999989
 30
0.0
 40
8.0
  0
ENDBLK
  5
4A5
330
4A3
100
AcDbEntity
  8
0
100
AcDbBlockEnd
  0
BLOCK
  5
4A7
330
4A6
100
AcDbEntity
  8
0
100
AcDbBlockBegin
  2
block 2
 70
     0
 10
0.0
 20
0.0
 30
0.0
  3
block 2
  1

  0
LINE
  5
2DE
330
4A6
100
AcDbEntity
  8
0
100
AcDbLine
 10
887.5000000000006
 20
149.9999999999986
 30
0.0
 11
887.5000000000008
 21
155.9999999999985
 31
0.0
  0
LINE
  5
2DD
330
4A6
100
AcDbEntity
  8
0
100
AcDbLine
 10
887.5000000000008
 20
155.9999999999985
 30
0.0
 11
880.0000000000006
 21
155.9999999999989
 31
0.0
  0
LINE
  5
2DC
330
4A6
100
AcDbEntity
  8
0
100
AcDbLine
 10
880.0000000000006
 20
155.9999999999989
 30
0.0
 11
880.0000000000003
 21
149.9999999999982
 31
0.0
  0
LINE
  5
2DB
330
4A6
100
AcDbEntity
  8
0
100
AcDbLine
 10
880.0000000000003
 20
149.9999999999982
 30
0.0
 11
870.0000000000008
 21
149.9999999999983
 31
0.0
  0
LINE
  5
2DA
330
4A6
100
AcDbEntity
  8
0
100
AcDbLine
 10
870.0000000000008
 20
149.9999999999983
 30
0.0
 11
870.0000000000003
 21
155.999999999999
 31
0.0
  0
LINE
  5
2D9
330
4A6
100
AcDbEntity
  8
0
100
AcDbLine
 10
870.0000000000003
 20
155.999999999999
 30
0.0
 11
862.5000000000006
 21
155.9999999999994
 31
0.0
  0
LINE
  5
2D8
330
4A6
100
AcDbEntity
  8
0
100
AcDbLine
 10
862.5000000000006
 20
155.9999999999994
 30
0.0
 11
862.5000000000006
 21
149.9999999999986
 31
0.0
  0
LINE
  5
2D7
330
4A6
100
AcDbEntity
  8
0
100
AcDbLine
 10
862.5000000000006
 20
149.9999999999986
 30
0.0
 11
750.0000000000006
 21
149.999999999999
 31
0.0
  0
LINE
  5
2D6
330
4A6
100
AcDbEntity
  8
0
100
AcDbLine
 10
750.0000000000003
 20
-0.0000000000013642
 30
0.0
 11
1000.000000000001
 21
-0.0000000000015916
 31
0.0
  0
LINE
  5
2D5
330
4A6
100
AcDbEntity
  8
0
100
AcDbLine
 10
1000.000000000001
 20
149.9999999999984
 30
0.0
 11
887.5000000000006
 21
149.9999999999986
 31
0.0
  0
LINE
  5
2D4
330
4A6
100
AcDbEntity
  8
0
100
AcDbLine
 10
6.100000000000136
 20
112.4499999999999
 30
0.0
 11
0.0
 21
112.4499999999995
 31
0.0
  0
LINE
  5
2D3
330
4A6
100
AcDbEntity
  8
0
100
AcDbLine
 10
0.0
 20
112.4499999999995
 30
0.0
 11
0.0000000000004547
 21
37.54999999999882
 31
0.0
  0
LINE
  5
2D2
330
4A6
100
AcDbEntity
  8
0
100
AcDbLine
 10
0.0000000000004547
 20
37.54999999999882
 30
0.0
 11
6.100000000000364
 21
37.54999999999916
 31
0.0
  0
ARC
  5
2FE
330
4A6
100
AcDbEntity
  8
0
100
AcDbCircle
 10
6.100000000000364
 20
36.04999999999882
 30
0.0
 40
1.500000000000384
100
AcDbArc
 50
270.0
 51
90.0
  0
LINE
  5
2FD
330
4A6
100
AcDbEntity
  8
0
100
AcDbLine
 10
6.100000000000364
 20
34.54999999999836
 30
0.0
 11
6.100000000000136
 21
15.44999999999857
 31
0.0
  0
ARC
  5
2FC
330
4A6
100
AcDbEntity
  8
0
100
AcDbCircle
 10
6.100000000000023
 20
13.94999999999891
 30
0.0
 40
1.499999999999602
100
AcDbArc
 50
269.9999999999956
 51
89.99999999999567
  0
LINE
  5
2FB
330
4A6
100
AcDbEntity
  8
0
100
AcDbLine
 10
6.099999999999909
 20
12.44999999999936
 30
0.0
 11
0.0000000000004547
 21
12.44999999999891
 31
0.0
  0
LINE
  5
2FA
330
4A6
100
AcDbEntity
  8
0
100
AcDbLine
 10
0.0000000000004547
 20
12.44999999999891
 30
0.0
 11
0.0
 21
0.0
 31
0.0
  0
LINE
  5
2F9
330
4A6
100
AcDbEntity
  8
0
100
AcDbLine
 10
0.0
 20
0.0
 30
0.0
 11
37.45000000000005
 21
-0.0000000000009095
 31
0.0
  0
LINE
  5
2F8
330
4A6
100
AcDbEntity
  8
0
100
AcDbLine
 10
37.45000000000005
 20
-0.0000000000009095
 30
0.0
 11
37.44999999999982
 21
6.099999999999909
 31
0.0
  0
ARC
  5
2F7
330
4A6
100
AcDbEntity
  8
0
100
AcDbCircle
 10
38.95000000000005
 20
6.099999999999454
 30
0.0
 40
1.500000000000284
100
AcDbArc
 50
0.0
 51
180.0
  0
LINE
  5
2F6
330
4A6
100
AcDbEntity
  8
0
100
AcDbLine
 10
40.45000000000039
 20
6.099999999999227
 30
0.0
 11
59.55000000000007
 21
6.099999999999909
 31
0.0
  0
ARC
  5
2F5
330
4A6
100
AcDbEntity
  8
0
100
AcDbCircle
 10
61.05000000000018
 20
6.099999999999568
 30
0.0
 40
1.500000000000114
100
AcDbArc
 50
0.0
 51
180.0
  0
LINE
  5
2F4
330
4A6
100
AcDbEntity
  8
0
100
AcDbLine
 10
62.5500000000003
 20
6.099999999999227
 30
0.0
 11
62.54999999999984
 21
-0.0000000000006821
 31
0.0
  0
LINE
  5
2F3
330
4A6
100
AcDbEntity
  8
0
100
AcDbLine
 10
62.54999999999984
 20
-0.0000000000006821
 30
0.0
 11
187.4500000000002
 21
-0.0000000000006821
 31
0.0
  0
LINE
  5
2F2
330
4A6
100
AcDbEntity
  8
0
100
AcDbLine
 10
187.4500000000002
 20
-0.0000000000006821
 30
0.0
 11
187.45
 21
6.099999999999454
 31
0.0
  0
ARC
  5
2F1
330
4A6
100
AcDbEntity
  8
0
100
AcDbCircle
 10
188.9500000000001
 20
6.099999999999227
 30
0.0
 40
1.500000000000057
100
AcDbArc
 50
0.0
 51
180.0
  0
LINE
  5
2F0
330
4A6
100
AcDbEntity
  8
0
100
AcDbLine
 10
190.4500000000002
 20
6.099999999999
 30
0.0
 11
209.5500000000001
 21
6.099999999999227
 31
0.0
  0
ARC
  5
2EF
330
4A6
100
AcDbEntity
  8
0
100
AcDbCircle
 10
211.0500000000001
 20
6.099999999999341
 30
0.0
 40
1.5
100
AcDbArc
 50
0.0
 51
180.0
  0
LINE
  5
2EE
330
4A6
100
AcDbEntity
  8
0
100
AcDbLine
 10
212.5500000000001
 20
6.099999999999454
 30
0.0
 11
212.5499999999998
 21
-0.0000000000006821
 31
0.0
  0
LINE
  5
2ED
330
4A6
100
AcDbEntity
  8
0
100
AcDbLine
 10
1037.45
 20
-0.0000000000015916
 30
0.0
 11
1037.450000000001
 21
6.099999999998317
 31
0.0
  0
ARC
  5
2EC
330
4A6
100
AcDbEntity
  8
0
100
AcDbCircle
 10
1038.950000000001
 20
6.099999999998317
 30
0.0
 40
1.499999999999829
100
AcDbArc
 50
0.0
 51
180.0
  0
LINE
  5
2EB
330
4A6
100
AcDbEntity
  8
0
100
AcDbLine
 10
1040.450000000001
 20
6.099999999998317
 30
0.0
 11
1059.55
 21
6.099999999998317
 31
0.0
  0
ARC
  5
2EA
330
4A6
100
AcDbEntity
  8
0
100
AcDbCircle
 10
1061.050000000001
 20
6.099999999998317
 30
0.0
 40
1.500000000000398
100
AcDbArc
 50
0.0
 51
180.0
  0
LINE
  5
2E9
330
4A6
100
AcDbEntity
  8
0
100
AcDbLine
 10
1062.550000000001
 20
6.099999999998317
 30
0.0
 11
1062.55
 21
-0.0000000000015916
 31
0.0
  0
LINE
  5
2E8
330
4A6
100
AcDbEntity
  8
0
100
AcDbLine
 10
1062.55
 20
-0.0000000000015916
 30
0.0
 11
1187.450000000001
 21
-0.0000000000015916
 31
0.0
  0
LINE
  5
2E7
330
4A6
100
AcDbEntity
  8
0
100
AcDbLine
 10
1187.450000000001
 20
-0.0000000000015916
 30
0.0
 11
1187.450000000001
 21
6.099999999998317
 31
0.0
  0
ARC
  5
2E6
330
4A6
100
AcDbEntity
  8
0
100
AcDbCircle
 10
1188.950000000001
 20
6.099999999998317
 30
0.0
 40
1.499999999999829
100
AcDbArc
 50
0.0
 51
180.0
  0
LINE
  5
2E5
330
4A6
100
AcDbEntity
  8
0
100
AcDbLine
 10
1190.45
 20
6.099999999998317
 30
0.0
 11
1209.550000000001
 21
6.099999999998317
 31
0.0
  0
ARC
  5
2E4
330
4A6
100
AcDbEntity
  8
0
100
AcDbCircle
 10
1211.050000000001
 20
6.099999999998317
 30
0.0
 40
1.499999999999886
100
AcDbArc
 50
0.0
 51
180.0
  0
LINE
  5
2E3
330
4A6
100
AcDbEntity
  8
0
100
AcDbLine
 10
1212.550000000001
 20
6.099999999998317
 30
0.0
 11
1212.550000000001
 21
-0.0000000000015916
 31
0.0
  0
LINE
  5
2E2
330
4A6
100
AcDbEntity
  8
0
100
AcDbLine
 10
1212.550000000001
 20
-0.0000000000015916
 30
0.0
 11
1250.000000000001
 21
-0.0000000000015916
 31
0.0
  0
LINE
  5
2E1
330
4A6
100
AcDbEntity
  8
0
100
AcDbLine
 10
1250.000000000001
 20
-0.0000000000015916
 30
0.0
 11
1250.000000000001
 21
12.44999999999845
 31
0.0
  0
LINE
  5
2E0
330
4A6
100
AcDbEntity
  8
0
100
AcDbLine
 10
1250.000000000001
 20
12.44999999999845
 30
0.0
 11
1243.900000000001
 21
12.44999999999845
 31
0.0
  0
ARC
  5
2DF
330
4A6
100
AcDbEntity
  8
0
100
AcDbCircle
 10
1243.900000000001
 20
13.94999999999845
 30
0.0
 40
1.5
100
AcDbArc
 50
90.0000000000087
 51
270.0000000000086
  0
LINE
  5
31E
330
4A6
100
AcDbEntity
  8
0
100
AcDbLine
 10
1243.900000000001
 20
15.44999999999845
 30
0.0
 11
1243.900000000001
 21
34.54999999999836
 31
0.0
  0
ARC
  5
31D
330
4A6
100
AcDbEntity
  8
0
100
AcDbCircle
 10
1243.900000000001
 20
36.04999999999836
 30
0.0
 40
1.5
100
AcDbArc
 50
90.00000000000436
 51
270.0000000000043
  0
LINE
  5
31C
330
4A6
100
AcDbEntity
  8
0
100
AcDbLine
 10
1243.900000000001
 20
37.54999999999836
 30
0.0
 11
1250.0
 21
37.54999999999836
 31
0.0
  0
LINE
  5
31B
330
4A6
100
AcDbEntity
  8
0
100
AcDbLine
 10
1250.0
 20
37.54999999999836
 30
0.0
 11
1250.000000000001
 21
112.4499999999985
 31
0.0
  0
LINE
  5
31A
330
4A6
100
AcDbEntity
  8
0
100
AcDbLine
 10
1250.000000000001
 20
112.4499999999985
 30
0.0
 11
1243.900000000001
 21
112.4499999999985
 31
0.0
  0
ARC
  5
319
330
4A6
100
AcDbEntity
  8
0
100
AcDbCircle
 10
1243.900000000001
 20
113.9499999999985
 30
0.0
 40
1.5
100
AcDbArc
 50
90.00000000000436
 51
270.0000000000086
  0
LINE
  5
318
330
4A6
100
AcDbEntity
  8
0
100
AcDbLine
 10
1243.900000000001
 20
115.4499999999985
 30
0.0
 11
1243.900000000001
 21
134.5499999999984
 31
0.0
  0
ARC
  5
317
330
4A6
100
AcDbEntity
  8
0
100
AcDbCircle
 10
1243.900000000001
 20
136.0499999999984
 30
0.0
 40
1.5
100
AcDbArc
 50
89.99999999999567
 51
270.0
  0
LINE
  5
316
330
4A6
100
AcDbEntity
  8
0
100
AcDbLine
 10
1243.900000000001
 20
137.5499999999984
 30
0.0
 11
1250.000000000001
 21
137.5499999999984
 31
0.0
  0
LINE
  5
315
330
4A6
100
AcDbEntity
  8
0
100
AcDbLine
 10
1250.000000000001
 20
137.5499999999984
 30
0.0
 11
1250.000000000001
 21
149.9999999999984
 31
0.0
  0
LINE
  5
314
330
4A6
100
AcDbEntity
  8
0
100
AcDbLine
 10
1250.000000000001
 20
149.9999999999984
 30
0.0
 11
1137.500000000002
 21
149.9999999999983
 31
0.0
  0
LINE
  5
313
330
4A6
100
AcDbEntity
  8
0
100
AcDbLine
 10
1137.500000000002
 20
149.9999999999983
 30
0.0
 11
1137.500000000001
 21
155.9999999999984
 31
0.0
  0
LINE
  5
312
330
4A6
100
AcDbEntity
  8
0
100
AcDbLine
 10
1137.500000000001
 20
155.9999999999984
 30
0.0
 11
1130.0
 21
155.9999999999983
 31
0.0
  0
LINE
  5
311
330
4A6
100
AcDbEntity
  8
0
100
AcDbLine
 10
1130.0
 20
155.9999999999983
 30
0.0
 11
1130.000000000001
 21
149.9999999999984
 31
0.0
  0
LINE
  5
310
330
4A6
100
AcDbEntity
  8
0
100
AcDbLine
 10
1130.000000000001
 20
149.9999999999984
 30
0.0
 11
1120.000000000001
 21
149.9999999999984
 31
0.0
  0
LINE
  5
30F
330
4A6
100
AcDbEntity
  8
0
100
AcDbLine
 10
1120.000000000001
 20
149.9999999999984
 30
0.0
 11
1120.000000000001
 21
155.9999999999983
 31
0.0
  0
LINE
  5
30E
330
4A6
100
AcDbEntity
  8
0
100
AcDbLine
 10
1120.000000000001
 20
155.9999999999983
 30
0.0
 11
1112.499999999998
 21
155.9999999999984
 31
0.0
  0
LINE
  5
30D
330
4A6
100
AcDbEntity
  8
0
100
AcDbLine
 10
1112.499999999998
 20
155.9999999999984
 30
0.0
 11
1112.500000000001
 21
149.9999999999984
 31
0.0
  0
LINE
  5
30C
330
4A6
100
AcDbEntity
  8
0
100
AcDbLine
 10
637.5000000000001
 20
149.9999999999991
 30
0.0
 11
637.5000000000002
 21
155.9999999999991
 31
0.0
  0
LINE
  5
30B
330
4A6
100
AcDbEntity
  8
0
100
AcDbLine
 10
637.5000000000002
 20
155.9999999999991
 30
0.0
 11
630.0000000000001
 21
155.9999999999993
 31
0.0
  0
LINE
  5
30A
330
4A6
100
AcDbEntity
  8
0
100
AcDbLine
 10
630.0000000000001
 20
155.9999999999993
 30
0.0
 11
630.0
 21
149.9999999999987
 31
0.0
  0
LINE
  5
309
330
4A6
100
AcDbEntity
  8
0
100
AcDbLine
 10
630.0
 20
149.9999999999987
 30
0.0
 11
620.0000000000002
 21
149.9999999999987
 31
0.0
  0
LINE
  5
308
330
4A6
100
AcDbEntity
  8
0
100
AcDbLine
 10
620.0000000000002
 20
149.9999999999987
 30
0.0
 11
620.0
 21
155.9999999999995
 31
0.0
  0
LINE
  5
307
330
4A6
100
AcDbEntity
  8
0
100
AcDbLine
 10
620.0
 20
155.9999999999995
 30
0.0
 11
612.5000000000001
 21
155.9999999999999
 31
0.0
  0
LINE
  5
306
330
4A6
100
AcDbEntity
  8
0
100
AcDbLine
 10
612.5000000000001
 20
155.9999999999999
 30
0.0
 11
612.5000000000001
 21
149.9999999999991
 31
0.0
  0
LINE
  5
305
330
4A6
100
AcDbEntity
  8
0
100
AcDbLine
 10
387.5
 20
149.9999999999999
 30
0.0
 11
387.5000000000002
 21
155.9999999999977
 31
0.0
  0
LINE
  5
304
330
4A6
100
AcDbEntity
  8
0
100
AcDbLine
 10
387.5000000000002
 20
155.9999999999977
 30
0.0
 11
380.0
 21
156.0000000000001
 31
0.0
  0
LINE
  5
303
330
4A6
100
AcDbEntity
  8
0
100
AcDbLine
 10
380.0
 20
156.0000000000001
 30
0.0
 11
380.0
 21
149.9999999999975
 31
0.0
  0
LINE
  5
302
330
4A6
100
AcDbEntity
  8
0
100
AcDbLine
 10
380.0
 20
149.9999999999975
 30
0.0
 11
370.0000000000001
 21
149.9999999999989
 31
0.0
  0
LINE
  5
301
330
4A6
100
AcDbEntity
  8
0
100
AcDbLine
 10
370.0000000000001
 20
149.9999999999989
 30
0.0
 11
370.0000000000002
 21
156.0
 31
0.0
  0
LINE
  5
300
330
4A6
100
AcDbEntity
  8
0
100
AcDbLine
 10
370.0000000000002
 20
156.0
 30
0.0
 11
362.5000000000002
 21
155.9999999999992
 31
0.0
  0
LINE
  5
2FF
330
4A6
100
AcDbEntity
  8
0
100
AcDbLine
 10
362.5000000000002
 20
155.9999999999992
 30
0.0
 11
362.5
 21
150.0000000000002
 31
0.0
  0
LINE
  5
33E
330
4A6
100
AcDbEntity
  8
0
100
AcDbLine
 10
362.5
 20
150.0000000000002
 30
0.0
 11
137.4999999999999
 21
150.0000000000013
 31
0.0
  0
LINE
  5
33D
330
4A6
100
AcDbEntity
  8
0
100
AcDbLine
 10
137.4999999999999
 20
150.0000000000013
 30
0.0
 11
137.5
 21
156.0000000000018
 31
0.0
  0
LINE
  5
33C
330
4A6
100
AcDbEntity
  8
0
100
AcDbLine
 10
137.5
 20
156.0000000000018
 30
0.0
 11
129.9999999999998
 21
155.9999999999998
 31
0.0
  0
LINE
  5
33B
330
4A6
100
AcDbEntity
  8
0
100
AcDbLine
 10
129.9999999999998
 20
155.9999999999998
 30
0.0
 11
130.0000000000002
 21
149.9999999999986
 31
0.0
  0
LINE
  5
33A
330
4A6
100
AcDbEntity
  8
0
100
AcDbLine
 10
130.0000000000002
 20
149.9999999999986
 30
0.0
 11
120.0
 21
149.9999999999965
 31
0.0
  0
LINE
  5
339
330
4A6
100
AcDbEntity
  8
0
100
AcDbLine
 10
120.0
 20
149.9999999999965
 30
0.0
 11
120.0000000000003
 21
156.0000000000026
 31
0.0
  0
LINE
  5
338
330
4A6
100
AcDbEntity
  8
0
100
AcDbLine
 10
120.0000000000003
 20
156.0000000000026
 30
0.0
 11
112.5
 21
156.0000000000011
 31
0.0
  0
LINE
  5
337
330
4A6
100
AcDbEntity
  8
0
100
AcDbLine
 10
112.5
 20
156.0000000000011
 30
0.0
 11
112.5
 21
149.9999999999984
 31
0.0
  0
LINE
  5
336
330
4A6
100
AcDbEntity
  8
0
100
AcDbLine
 10
112.5
 20
149.9999999999984
 30
0.0
 11
0.0
 21
150.0000000000002
 31
0.0
  0
LINE
  5
335
330
4A6
100
AcDbEntity
  8
0
100
AcDbLine
 10
0.0
 20
150.0000000000002
 30
0.0
 11
0.0
 21
137.5500000000018
 31
0.0
  0
LINE
  5
334
330
4A6
100
AcDbEntity
  8
0
100
AcDbLine
 10
0.0
 20
137.5500000000018
 30
0.0
 11
6.100000000000364
 21
137.5499999999988
 31
0.0
  0
ARC
  5
333
330
4A6
100
AcDbEntity
  8
0
100
AcDbCircle
 10
6.100000000000136
 20
136.0499999999994
 30
0.0
 40
1.499999999999417
100
AcDbArc
 50
269.9999999999913
 51
89.99999999999133
  0
LINE
  5
332
330
4A6
100
AcDbEntity
  8
0
100
AcDbLine
 10
6.099999999999909
 20
134.55
 30
0.0
 11
6.100000000000364
 21
115.4499999999987
 31
0.0
  0
ARC
  5
331
330
4A6
100
AcDbEntity
  8
0
100
AcDbCircle
 10
6.10000000000025
 20
113.9499999999992
 30
0.0
 40
1.499999999999346
100
AcDbArc
 50
269.9999999999956
 51
89.99999999999567
  0
LINE
  5
330
330
4A6
100
AcDbEntity
  8
0
100
AcDbLine
 10
212.5499999999998
 20
-0.0000000000006821
 30
0.0
 11
499.9999999999999
 21
-0.0000000000009095
 31
0.0
  0
LINE
  5
32F
330
4A6
100
AcDbEntity
  8
0
100
AcDbLine
 10
612.5000000000001
 20
149.9999999999991
 30
0.0
 11
500.0000000000001
 21
149.9999999999995
 31
0.0
  0
LINE
  5
32E
330
4A6
100
AcDbEntity
  8
0
100
AcDbLine
 10
500.0000000000001
 20
149.9999999999995
 30
0.0
 11
387.5
 21
149.9999999999999
 31
0.0
  0
LINE
  5
32D
330
4A6
100
AcDbEntity
  8
0
100
AcDbLine
 10
499.9999999999999
 20
-0.0000000000009095
 30
0.0
 11
750.0000000000001
 21
-0.0000000000011369
 31
0.0
  0
LINE
  5
32C
330
4A6
100
AcDbEntity
  8
0
100
AcDbLine
 10
1000.000000000001
 20
-0.0000000000015916
 30
0.0
 11
1037.45
 21
-0.0000000000015916
 31
0.0
  0
LINE
  5
32B
330
4A6
100
AcDbEntity
  8
0
100
AcDbLine
 10
1112.500000000001
 20
149.9999999999984
 30
0.0
 11
1000.000000000001
 21
149.9999999999985
 31
0.0
  0
LINE
  5
32A
330
4A6
100
AcDbEntity
  8
0
100
AcDbLine
 10
750.0000000000006
 20
149.999999999999
 30
0.0
 11
637.5000000000001
 21
149.9999999999991
 31
0.0
  0
LWPOLYLINE
  5
329
330
4A6
100
AcDbEntity
  8
0
100
AcDbPolyline
 90
        8
 70
     1
 43
0.0
 10
253.0500000000003
 20
137.549999999998
 42
-0.9999999999999998
 10
253.0499999999998
 20
134.5499999999986
 10
253.0500000000002
 20
115.4499999999999
 42
-0.9999999999999998
 10
253.0500000000003
 20
112.4499999999981
 10
246.9500000000002
 20
112.4499999999991
 42
-0.9999999999999998
 10
246.9499999999999
 20
115.4500000000005
 10
246.9500000000003
 20
134.5499999999992
 42
-0.9999999999999998
 10
246.95
 20
137.55
  0
ARC
  5
328
330
4A6
100
AcDbEntity
  8
0
100
AcDbCircle
 10
753.0500000000005
 20
136.0499999999986
 30
0.0
 40
1.49999999999973
100
AcDbArc
 50
270.0
 51
90.0
  0
LINE
  5
327
330
4A6
100
AcDbEntity
  8
0
100
AcDbLine
 10
753.0500000000005
 20
134.5499999999988
 30
0.0
 11
753.0500000000005
 21
115.4499999999981
 31
0.0
  0
ARC
  5
326
330
4A6
100
AcDbEntity
  8
0
100
AcDbCircle
 10
753.0500000000005
 20
113.9499999999982
 30
0.0
 40
1.499999999999872
100
AcDbArc
 50
270.0
 51
90.0
  0
LINE
  5
325
330
4A6
100
AcDbEntity
  8
0
100
AcDbLine
 10
750.0000000000006
 20
137.5499999999985
 30
0.0
 11
753.0500000000005
 21
137.5499999999984
 31
0.0
  0
LINE
  5
324
330
4A6
100
AcDbEntity
  8
0
100
AcDbLine
 10
753.0500000000005
 20
112.4499999999983
 30
0.0
 11
750.0000000000008
 21
112.4499999999986
 31
0.0
  0
ARC
  5
323
330
4A6
100
AcDbEntity
  8
0
100
AcDbCircle
 10
503.05
 20
136.049999999999
 30
0.0
 40
1.49999999999973
100
AcDbArc
 50
270.0
 51
90.0
  0
LINE
  5
322
330
4A6
100
AcDbEntity
  8
0
100
AcDbLine
 10
503.05
 20
134.5499999999994
 30
0.0
 11
503.0500000000002
 21
115.4499999999987
 31
0.0
  0
ARC
  5
321
330
4A6
100
AcDbEntity
  8
0
100
AcDbCircle
 10
503.0500000000002
 20
113.9499999999987
 30
0.0
 40
1.499999999999872
100
AcDbArc
 50
270.0
 51
90.0
  0
ARC
  5
320
330
4A6
100
AcDbEntity
  8
0
100
AcDbCircle
 10
496.9500000000003
 20
113.949999999999
 30
0.0
 40
1.49999999999973
100
AcDbArc
 50
90.00000000000217
 51
270.0000000000021
  0
LINE
  5
31F
330
4A6
100
AcDbEntity
  8
0
100
AcDbLine
 10
496.9500000000003
 20
115.4499999999988
 30
0.0
 11
496.95
 21
134.5499999999993
 31
0.0
  0
ARC
  5
35E
330
4A6
100
AcDbEntity
  8
0
100
AcDbCircle
 10
496.9500000000002
 20
136.0499999999993
 30
0.0
 40
1.499999999999957
100
AcDbArc
 50
89.99999999999567
 51
269.9999999999956
  0
LINE
  5
35D
330
4A6
100
AcDbEntity
  8
0
100
AcDbLine
 10
496.9500000000003
 20
137.5499999999992
 30
0.0
 11
500.0000000000001
 21
137.549999999999
 31
0.0
  0
LINE
  5
35C
330
4A6
100
AcDbEntity
  8
0
100
AcDbLine
 10
500.0000000000001
 20
137.549999999999
 30
0.0
 11
503.05
 21
137.5499999999988
 31
0.0
  0
LINE
  5
35B
330
4A6
100
AcDbEntity
  8
0
100
AcDbLine
 10
503.0500000000002
 20
112.4499999999989
 30
0.0
 11
500.0000000000003
 21
112.4499999999991
 31
0.0
  0
LINE
  5
35A
330
4A6
100
AcDbEntity
  8
0
100
AcDbLine
 10
500.0000000000003
 20
112.4499999999991
 30
0.0
 11
496.9500000000004
 21
112.4499999999994
 31
0.0
  0
ARC
  5
359
330
4A6
100
AcDbEntity
  8
0
100
AcDbCircle
 10
996.9500000000006
 20
113.9499999999985
 30
0.0
 40
1.499999999999872
100
AcDbArc
 50
89.99999999999133
 51
269.9999999999913
  0
LINE
  5
358
330
4A6
100
AcDbEntity
  8
0
100
AcDbLine
 10
996.9500000000011
 20
115.4499999999982
 30
0.0
 11
996.9500000000006
 21
134.5499999999985
 31
0.0
  0
ARC
  5
357
330
4A6
100
AcDbEntity
  8
0
100
AcDbCircle
 10
996.9500000000006
 20
136.0499999999984
 30
0.0
 40
1.499999999999886
100
AcDbArc
 50
90.00000000000436
 51
270.0
  0
LINE
  5
356
330
4A6
100
AcDbEntity
  8
0
100
AcDbLine
 10
996.9500000000004
 20
137.5499999999982
 30
0.0
 11
1000.0
 21
137.5499999999984
 31
0.0
  0
LINE
  5
355
330
4A6
100
AcDbEntity
  8
0
100
AcDbLine
 10
1000.000000000001
 20
112.4499999999985
 30
0.0
 11
996.9500000000006
 21
112.4499999999985
 31
0.0
  0
ARC
  5
354
330
4A6
100
AcDbEntity
  8
0
100
AcDbCircle
 10
1003.050000000001
 20
136.0499999999984
 30
0.0
 40
1.500000000000014
100
AcDbArc
 50
270.0000000000043
 51
90.0000000000087
  0
LINE
  5
353
330
4A6
100
AcDbEntity
  8
0
100
AcDbLine
 10
1003.050000000001
 20
134.5499999999984
 30
0.0
 11
1003.050000000001
 21
115.4499999999983
 31
0.0
  0
ARC
  5
352
330
4A6
100
AcDbEntity
  8
0
100
AcDbCircle
 10
1003.050000000001
 20
113.9499999999983
 30
0.0
 40
1.499999999999972
100
AcDbArc
 50
270.0
 51
90.0
  0
ARC
  5
351
330
4A6
100
AcDbEntity
  8
0
100
AcDbCircle
 10
746.9500000000003
 20
113.9499999999989
 30
0.0
 40
1.499999999999872
100
AcDbArc
 50
89.99999999999133
 51
269.9999999999913
  0
LINE
  5
350
330
4A6
100
AcDbEntity
  8
0
100
AcDbLine
 10
746.9500000000005
 20
115.4499999999988
 30
0.0
 11
746.95
 21
134.549999999999
 31
0.0
  0
ARC
  5
34F
330
4A6
100
AcDbEntity
  8
0
100
AcDbCircle
 10
746.95
 20
136.0499999999988
 30
0.0
 40
1.499999999999886
100
AcDbArc
 50
90.00000000000436
 51
270.0
  0
LINE
  5
34E
330
4A6
100
AcDbEntity
  8
0
100
AcDbLine
 10
746.9499999999999
 20
137.5499999999988
 30
0.0
 11
750.0
 21
137.5499999999988
 31
0.0
  0
LINE
  5
34D
330
4A6
100
AcDbEntity
  8
0
100
AcDbLine
 10
1000.0
 20
137.5499999999984
 30
0.0
 11
1003.05
 21
137.5499999999984
 31
0.0
  0
LINE
  5
34C
330
4A6
100
AcDbEntity
  8
0
100
AcDbLine
 10
1003.050000000001
 20
112.4499999999985
 30
0.0
 11
1000.000000000001
 21
112.4499999999985
 31
0.0
  0
LINE
  5
34B
330
4A6
100
AcDbEntity
  8
0
100
AcDbLine
 10
750.0000000000001
 20
112.4499999999989
 30
0.0
 11
746.95
 21
112.449999999999
 31
0.0
  0
LWPOLYLINE
  5
34A
330
4A6
100
AcDbEntity
  8
0
100
AcDbPolyline
 90
        8
 70
     1
 43
0.0
 10
253.0500000000002
 20
37.5499999999995
 42
-0.9999999999999998
 10
253.05
 20
34.54999999999995
 10
253.0500000000002
 20
15.44999999999891
 42
-0.9999999999999998
 10
253.0500000000001
 20
12.44999999999914
 10
246.9500000000004
 20
12.44999999999914
 42
-0.9999999999999998
 10
246.9500000000002
 20
15.44999999999914
 10
246.9499999999999
 20
34.54999999999927
 42
-0.9999999999999998
 10
246.9500000000003
 20
37.54999999999927
  0
ARC
  5
349
330
4A6
100
AcDbEntity
  8
0
100
AcDbCircle
 10
753.0500000000005
 20
36.04999999999859
 30
0.0
 40
1.500000000000071
100
AcDbArc
 50
270.0000000000086
 51
90.0000000000087
  0
LINE
  5
348
330
4A6
100
AcDbEntity
  8
0
100
AcDbLine
 10
753.050000000001
 20
34.54999999999859
 30
0.0
 11
753.050000000001
 21
15.44999999999823
 31
0.0
  0
ARC
  5
347
330
4A6
100
AcDbEntity
  8
0
100
AcDbCircle
 10
753.050000000001
 20
13.94999999999845
 30
0.0
 40
1.499999999999872
100
AcDbArc
 50
270.0
 51
90.0
  0
LINE
  5
346
330
4A6
100
AcDbEntity
  8
0
100
AcDbLine
 10
753.050000000001
 20
12.44999999999845
 30
0.0
 11
750.0000000000008
 21
12.44999999999845
 31
0.0
  0
LINE
  5
345
330
4A6
100
AcDbEntity
  8
0
100
AcDbLine
 10
750.0000000000003
 20
37.54999999999859
 30
0.0
 11
753.0500000000005
 21
37.54999999999859
 31
0.0
  0
ARC
  5
344
330
4A6
100
AcDbEntity
  8
0
100
AcDbCircle
 10
503.0500000000002
 20
36.04999999999905
 30
0.0
 40
1.500000000000071
100
AcDbArc
 50
270.0000000000086
 51
90.0000000000087
  0
LINE
  5
343
330
4A6
100
AcDbEntity
  8
0
100
AcDbLine
 10
503.0500000000004
 20
34.54999999999905
 30
0.0
 11
503.0500000000004
 21
15.44999999999868
 31
0.0
  0
ARC
  5
342
330
4A6
100
AcDbEntity
  8
0
100
AcDbCircle
 10
503.0500000000004
 20
13.94999999999891
 30
0.0
 40
1.499999999999872
100
AcDbArc
 50
270.0
 51
90.0
  0
ARC
  5
341
330
4A6
100
AcDbEntity
  8
0
100
AcDbCircle
 10
496.9500000000002
 20
13.94999999999891
 30
0.0
 40
1.500000000000085
100
AcDbArc
 50
90.00000000000217
 51
270.0000000000021
  0
LINE
  5
340
330
4A6
100
AcDbEntity
  8
0
100
AcDbLine
 10
496.9500000000002
 20
15.44999999999891
 30
0.0
 11
496.9500000000003
 21
34.54999999999859
 31
0.0
  0
ARC
  5
33F
330
4A6
100
AcDbEntity
  8
0
100
AcDbCircle
 10
496.9500000000001
 20
36.04999999999882
 30
0.0
 40
1.500000000000313
100
AcDbArc
 50
90.00000000000651
 51
270.0000000000065
  0
LINE
  5
37E
330
4A6
100
AcDbEntity
  8
0
100
AcDbLine
 10
503.0500000000004
 20
12.44999999999891
 30
0.0
 11
500.0000000000003
 21
12.44999999999891
 31
0.0
  0
LINE
  5
37D
330
4A6
100
AcDbEntity
  8
0
100
AcDbLine
 10
500.0000000000003
 20
12.44999999999891
 30
0.0
 11
496.9500000000003
 21
12.44999999999868
 31
0.0
  0
LINE
  5
37C
330
4A6
100
AcDbEntity
  8
0
100
AcDbLine
 10
496.9499999999999
 20
37.54999999999927
 30
0.0
 11
499.9999999999999
 21
37.54999999999916
 31
0.0
  0
LINE
  5
37B
330
4A6
100
AcDbEntity
  8
0
100
AcDbLine
 10
499.9999999999999
 20
37.54999999999916
 30
0.0
 11
503.05
 21
37.54999999999916
 31
0.0
  0
ARC
  5
37A
330
4A6
100
AcDbEntity
  8
0
100
AcDbCircle
 10
996.9500000000002
 20
13.94999999999845
 30
0.0
 40
1.500000000000028
100
AcDbArc
 50
90.0
 51
270.0
  0
LINE
  5
379
330
4A6
100
AcDbEntity
  8
0
100
AcDbLine
 10
996.9500000000002
 20
15.44999999999845
 30
0.0
 11
996.9500000000006
 21
34.54999999999836
 31
0.0
  0
ARC
  5
378
330
4A6
100
AcDbEntity
  8
0
100
AcDbCircle
 10
996.9500000000004
 20
36.04999999999848
 30
0.0
 40
1.500000000000028
100
AcDbArc
 50
90.00000000001303
 51
270.000000000013
  0
LINE
  5
377
330
4A6
100
AcDbEntity
  8
0
100
AcDbLine
 10
996.9500000000002
 20
37.54999999999859
 30
0.0
 11
1000.0
 21
37.54999999999848
 31
0.0
  0
LINE
  5
376
330
4A6
100
AcDbEntity
  8
0
100
AcDbLine
 10
1000.0
 20
12.44999999999845
 30
0.0
 11
996.9500000000002
 21
12.44999999999834
 31
0.0
  0
ARC
  5
375
330
4A6
100
AcDbEntity
  8
0
100
AcDbCircle
 10
1003.050000000001
 20
36.04999999999836
 30
0.0
 40
1.500000000000085
100
AcDbArc
 50
270.0000000000086
 51
90.00000000001303
  0
LINE
  5
374
330
4A6
100
AcDbEntity
  8
0
100
AcDbLine
 10
1003.050000000001
 20
34.54999999999836
 30
0.0
 11
1003.05
 21
15.44999999999845
 31
0.0
  0
ARC
  5
373
330
4A6
100
AcDbEntity
  8
0
100
AcDbCircle
 10
1003.050000000001
 20
13.94999999999845
 30
0.0
 40
1.500000000000014
100
AcDbArc
 50
270.0000000000043
 51
90.0000000000087
  0
ARC
  5
372
330
4A6
100
AcDbEntity
  8
0
100
AcDbCircle
 10
746.9499999999996
 20
13.94999999999891
 30
0.0
 40
1.500000000000028
100
AcDbArc
 50
90.0
 51
270.0
  0
LINE
  5
371
330
4A6
100
AcDbEntity
  8
0
100
AcDbLine
 10
746.9499999999996
 20
15.44999999999891
 30
0.0
 11
746.9500000000003
 21
34.54999999999905
 31
0.0
  0
ARC
  5
370
330
4A6
100
AcDbEntity
  8
0
100
AcDbCircle
 10
746.9499999999999
 20
36.04999999999905
 30
0.0
 40
1.500000000000028
100
AcDbArc
 50
90.00000000001303
 51
270.000000000013
  0
LINE
  5
36F
330
4A6
100
AcDbEntity
  8
0
100
AcDbLine
 10
746.9499999999996
 20
37.54999999999905
 30
0.0
 11
749.9999999999998
 21
37.54999999999905
 31
0.0
  0
LINE
  5
36E
330
4A6
100
AcDbEntity
  8
0
100
AcDbLine
 10
1000.0
 20
37.54999999999859
 30
0.0
 11
1003.05
 21
37.54999999999859
 31
0.0
  0
LINE
  5
36D
330
4A6
100
AcDbEntity
  8
0
100
AcDbLine
 10
1003.050000000001
 20
12.44999999999845
 30
0.0
 11
1000.0
 21
12.44999999999845
 31
0.0
  0
LINE
  5
36C
330
4A6
100
AcDbEntity
  8
0
100
AcDbLine
 10
750.0
 20
12.44999999999891
 30
0.0
 11
746.9499999999996
 21
12.44999999999891
 31
0.0
  0
CIRCLE
  5
36B
330
4A6
100
AcDbEntity
  8
0
100
AcDbCircle
 10
1225.0
 20
24.99999999999841
 30
0.0
 40
8.0
  0
CIRCLE
  5
36A
330
4A6
100
AcDbEntity
  8
0
100
AcDbCircle
 10
1225.0
 20
74.9999999999983
 30
0.0
 40
8.0
  0
CIRCLE
  5
369
330
4A6
100
AcDbEntity
  8
0
100
AcDbCircle
 10
1225.000000000001
 20
124.9999999999984
 30
0.0
 40
8.0
  0
CIRCLE
  5
368
330
4A6
100
AcDbEntity
  8
0
100
AcDbCircle
 10
1175.000000000001
 20
24.99999999999841
 30
0.0
 40
8.0
  0
CIRCLE
  5
367
330
4A6
100
AcDbEntity
  8
0
100
AcDbCircle
 10
1175.000000000001
 20
74.9999999999983
 30
0.0
 40
8.0
  0
CIRCLE
  5
366
330
4A6
100
AcDbEntity
  8
0
100
AcDbCircle
 10
1175.0
 20
124.9999999999983
 30
0.0
 40
8.0
  0
CIRCLE
  5
365
330
4A6
100
AcDbEntity
  8
0
100
AcDbCircle
 10
1124.999999999997
 20
24.99999999999841
 30
0.0
 40
8.0
  0
CIRCLE
  5
364
330
4A6
100
AcDbEntity
  8
0
100
AcDbCircle
 10
1125.000000000002
 20
74.99999999999841
 30
0.0
 40
8.0
  0
CIRCLE
  5
363
330
4A6
100
AcDbEntity
  8
0
100
AcDbCircle
 10
1125.0
 20
124.9999999999984
 30
0.0
 40
8.0
  0
CIRCLE
  5
362
330
4A6
100
AcDbEntity
  8
0
100
AcDbCircle
 10
1075.0
 20
24.99999999999841
 30
0.0
 40
8.0
  0
CIRCLE
  5
361
330
4A6
100
AcDbEntity
  8
0
100
AcDbCircle
 10
1075.0
 20
74.9999999999983
 30
0.0
 40
8.0
  0
CIRCLE
  5
360
330
4A6
100
AcDbEntity
  8
0
100
AcDbCircle
 10
1075.000000000001
 20
124.9999999999984
 30
0.0
 40
8.0
  0
CIRCLE
  5
35F
330
4A6
100
AcDbEntity
  8
0
100
AcDbCircle
 10
1025.0
 20
24.99999999999818
 30
0.0
 40
8.0
  0
CIRCLE
  5
39E
330
4A6
100
AcDbEntity
  8
0
100
AcDbCircle
 10
1025.000000000001
 20
74.99999999999841
 30
0.0
 40
8.0
  0
CIRCLE
  5
39D
330
4A6
100
AcDbEntity
  8
0
100
AcDbCircle
 10
1025.000000000001
 20
124.9999999999984
 30
0.0
 40
8.0
  0
CIRCLE
  5
39C
330
4A6
100
AcDbEntity
  8
0
100
AcDbCircle
 10
975.0000000000003
 20
24.99999999999841
 30
0.0
 40
8.0
  0
CIRCLE
  5
39B
330
4A6
100
AcDbEntity
  8
0
100
AcDbCircle
 10
725.0
 20
24.99999999999909
 30
0.0
 40
8.0
  0
CIRCLE
  5
39A
330
4A6
100
AcDbEntity
  8
0
100
AcDbCircle
 10
975.0000000000003
 20
74.99999999999841
 30
0.0
 40
8.0
  0
CIRCLE
  5
399
330
4A6
100
AcDbEntity
  8
0
100
AcDbCircle
 10
724.9999999999999
 20
74.99999999999886
 30
0.0
 40
8.0
  0
CIRCLE
  5
398
330
4A6
100
AcDbEntity
  8
0
100
AcDbCircle
 10
975.0000000000003
 20
124.9999999999984
 30
0.0
 40
8.0
  0
CIRCLE
  5
397
330
4A6
100
AcDbEntity
  8
0
100
AcDbCircle
 10
725.0
 20
124.9999999999989
 30
0.0
 40
8.0
  0
CIRCLE
  5
396
330
4A6
100
AcDbEntity
  8
0
100
AcDbCircle
 10
925.0000000000008
 20
24.99999999999852
 30
0.0
 40
8.0
  0
CIRCLE
  5
395
330
4A6
100
AcDbEntity
  8
0
100
AcDbCircle
 10
675.0000000000002
 20
24.99999999999909
 30
0.0
 40
8.0
  0
CIRCLE
  5
394
330
4A6
100
AcDbEntity
  8
0
100
AcDbCircle
 10
925.0000000000006
 20
74.99999999999841
 30
0.0
 40
8.0
  0
CIRCLE
  5
393
330
4A6
100
AcDbEntity
  8
0
100
AcDbCircle
 10
675.0000000000001
 20
74.99999999999886
 30
0.0
 40
8.0
  0
CIRCLE
  5
392
330
4A6
100
AcDbEntity
  8
0
100
AcDbCircle
 10
925.0000000000003
 20
124.9999999999987
 30
0.0
 40
8.0
  0
CIRCLE
  5
391
330
4A6
100
AcDbEntity
  8
0
100
AcDbCircle
 10
675.0
 20
124.9999999999992
 30
0.0
 40
8.0
  0
CIRCLE
  5
390
330
4A6
100
AcDbEntity
  8
0
100
AcDbCircle
 10
875.0000000000003
 20
24.99999999999852
 30
0.0
 40
8.0
  0
CIRCLE
  5
38F
330
4A6
100
AcDbEntity
  8
0
100
AcDbCircle
 10
624.9999999999998
 20
24.99999999999909
 30
0.0
 40
8.0
  0
CIRCLE
  5
38E
330
4A6
100
AcDbEntity
  8
0
100
AcDbCircle
 10
875.0000000000003
 20
74.99999999999852
 30
0.0
 40
8.0
  0
CIRCLE
  5
38D
330
4A6
100
AcDbEntity
  8
0
100
AcDbCircle
 10
624.9999999999999
 20
74.99999999999898
 30
0.0
 40
8.0
  0
CIRCLE
  5
38C
330
4A6
100
AcDbEntity
  8
0
100
AcDbCircle
 10
875.0000000000008
 20
124.999999999998
 30
0.0
 40
8.0
  0
CIRCLE
  5
38B
330
4A6
100
AcDbEntity
  8
0
100
AcDbCircle
 10
625.0000000000002
 20
124.9999999999984
 30
0.0
 40
8.0
  0
CIRCLE
  5
38A
330
4A6
100
AcDbEntity
  8
0
100
AcDbCircle
 10
825.0000000000003
 20
24.99999999999864
 30
0.0
 40
8.0
  0
CIRCLE
  5
389
330
4A6
100
AcDbEntity
  8
0
100
AcDbCircle
 10
574.9999999999998
 20
24.99999999999909
 30
0.0
 40
8.0
  0
CIRCLE
  5
388
330
4A6
100
AcDbEntity
  8
0
100
AcDbCircle
 10
825.0000000000003
 20
74.99999999999852
 30
0.0
 40
8.0
  0
CIRCLE
  5
387
330
4A6
100
AcDbEntity
  8
0
100
AcDbCircle
 10
575.0
 20
74.99999999999909
 30
0.0
 40
8.0
  0
CIRCLE
  5
386
330
4A6
100
AcDbEntity
  8
0
100
AcDbCircle
 10
825.0000000000008
 20
124.9999999999985
 30
0.0
 40
8.0
  0
CIRCLE
  5
385
330
4A6
100
AcDbEntity
  8
0
100
AcDbCircle
 10
575.0000000000005
 20
124.9999999999991
 30
0.0
 40
8.0
  0
CIRCLE
  5
384
330
4A6
100
AcDbEntity
  8
0
100
AcDbCircle
 10
775.0000000000003
 20
24.99999999999818
 30
0.0
 40
8.0
  0
CIRCLE
  5
383
330
4A6
100
AcDbEntity
  8
0
100
AcDbCircle
 10
525.0
 20
24.99999999999886
 30
0.0
 40
8.0
  0
CIRCLE
  5
382
330
4A6
100
AcDbEntity
  8
0
100
AcDbCircle
 10
775.0000000000003
 20
74.99999999999864
 30
0.0
 40
8.0
  0
CIRCLE
  5
381
330
4A6
100
AcDbEntity
  8
0
100
AcDbCircle
 10
524.9999999999998
 20
74.9999999999992
 30
0.0
 40
8.0
  0
CIRCLE
  5
380
330
4A6
100
AcDbEntity
  8
0
100
AcDbCircle
 10
775.0000000000003
 20
124.9999999999985
 30
0.0
 40
8.0
  0
CIRCLE
  5
37F
330
4A6
100
AcDbEntity
  8
0
100
AcDbCircle
 10
524.9999999999998
 20
124.9999999999991
 30
0.0
 40
8.0
  0
CIRCLE
  5
2D1
330
4A6
100
AcDbEntity
  8
0
100
AcDbCircle
 10
475.0000000000002
 20
24.99999999999909
 30
0.0
 40
8.0
  0
CIRCLE
  5
2D0
330
4A6
100
AcDbEntity
  8
0
100
AcDbCircle
 10
474.9999999999997
 20
74.99999999999943
 30
0.0
 40
8.0
  0
CIRCLE
  5
2CF
330
4A6
100
AcDbEntity
  8
0
100
AcDbCircle
 10
475.0000000000001
 20
124.9999999999995
 30
0.0
 40
8.0
  0
CIRCLE
  5
2CE
330
4A6
100
AcDbEntity
  8
0
100
AcDbCircle
 10
424.9999999999999
 20
24.99999999999909
 30
0.0
 40
8.0
  0
CIRCLE
  5
2CD
330
4A6
100
AcDbEntity
  8
0
100
AcDbCircle
 10
425.0
 20
74.99999999999898
 30
0.0
 40
8.0
  0
CIRCLE
  5
2CC
330
4A6
100
AcDbEntity
  8
0
100
AcDbCircle
 10
425.0000000000001
 20
124.9999999999993
 30
0.0
 40
8.0
  0
CIRCLE
  5
2CB
330
4A6
100
AcDbEntity
  8
0
100
AcDbCircle
 10
375.0
 20
24.99999999999886
 30
0.0
 40
8.0
  0
CIRCLE
  5
2CA
330
4A6
100
AcDbEntity
  8
0
100
AcDbCircle
 10
374.9999999999999
 20
74.99999999999943
 30
0.0
 40
8.0
  0
CIRCLE
  5
2C9
330
4A6
100
AcDbEntity
  8
0
100
AcDbCircle
 10
374.9999999999999
 20
124.9999999999984
 30
0.0
 40
8.0
  0
CIRCLE
  5
2C8
330
4A6
100
AcDbEntity
  8
0
100
AcDbCircle
 10
325.0
 20
24.9999999999992
 30
0.0
 40
8.0
  0
CIRCLE
  5
2C7
330
4A6
100
AcDbEntity
  8
0
100
AcDbCircle
 10
325.0000000000001
 20
74.99999999999943
 30
0.0
 40
8.0
  0
CIRCLE
  5
2C6
330
4A6
100
AcDbEntity
  8
0
100
AcDbCircle
 10
324.9999999999999
 20
124.9999999999994
 30
0.0
 40
8.0
  0
CIRCLE
  5
2C5
330
4A6
100
AcDbEntity
  8
0
100
AcDbCircle
 10
274.9999999999999
 20
24.99999999999886
 30
0.0
 40
8.0
  0
CIRCLE
  5
2C4
330
4A6
100
AcDbEntity
  8
0
100
AcDbCircle
 10
274.9999999999998
 20
74.99999999999966
 30
0.0
 40
8.0
  0
CIRCLE
  5
2C3
330
4A6
100
AcDbEntity
  8
0
100
AcDbCircle
 10
274.9999999999999
 20
124.9999999999986
 30
0.0
 40
8.0
  0
CIRCLE
  5
2C2
330
4A6
100
AcDbEntity
  8
0
100
AcDbCircle
 10
225.0
 20
24.99999999999932
 30
0.0
 40
8.0
  0
CIRCLE
  5
2C1
330
4A6
100
AcDbEntity
  8
0
100
AcDbCircle
 10
224.9999999999999
 20
74.99999999999932
 30
0.0
 40
8.0
  0
CIRCLE
  5
2C0
330
4A6
100
AcDbEntity
  8
0
100
AcDbCircle
 10
224.9999999999999
 20
124.9999999999998
 30
0.0
 40
8.0
  0
CIRCLE
  5
2BF
330
4A6
100
AcDbEntity
  8
0
100
AcDbCircle
 10
175.0000000000001
 20
24.99999999999909
 30
0.0
 40
8.0
  0
CIRCLE
  5
2BE
330
4A6
100
AcDbEntity
  8
0
100
AcDbCircle
 10
175.0000000000001
 20
74.99999999999852
 30
0.0
 40
8.0
  0
CIRCLE
  5
2BD
330
4A6
100
AcDbEntity
  8
0
100
AcDbCircle
 10
175.0000000000001
 20
124.9999999999982
 30
0.0
 40
8.0
  0
CIRCLE
  5
2BC
330
4A6
100
AcDbEntity
  8
0
100
AcDbCircle
 10
124.9999999999999
 20
24.99999999999977
 30
0.0
 40
8.0
  0
CIRCLE
  5
2BB
330
4A6
100
AcDbEntity
  8
0
100
AcDbCircle
 10
125.0000000000001
 20
74.99999999999977
 30
0.0
 40
8.0
  0
CIRCLE
  5
2BA
330
4A6
100
AcDbEntity
  8
0
100
AcDbCircle
 10
125.0000000000002
 20
124.9999999999982
 30
0.0
 40
8.0
  0
CIRCLE
  5
2B9
330
4A6
100
AcDbEntity
  8
0
100
AcDbCircle
 10
75.00000000000034
 20
24.99999999999875
 30
0.0
 40
8.0
  0
CIRCLE
  5
2B8
330
4A6
100
AcDbEntity
  8
0
100
AcDbCircle
 10
75.00000000000034
 20
74.99999999999864
 30
0.0
 40
8.0
  0
CIRCLE
  5
2B7
330
4A6
100
AcDbEntity
  8
0
100
AcDbCircle
 10
74.99999999999989
 20
124.9999999999993
 30
0.0
 40
8.0
  0
CIRCLE
  5
3A1
330
4A6
100
AcDbEntity
  8
0
100
AcDbCircle
 10
25.0
 20
24.99999999999932
 30
0.0
 40
8.0
  0
CIRCLE
  5
3A0
330
4A6
100
AcDbEntity
  8
0
100
AcDbCircle
 10
24.99999999999989
 20
74.99999999999955
 30
0.0
 40
8.0
  0
CIRCLE
  5
39F
330
4A6
100
AcDbEntity
  8
0
100
AcDbCircle
 10
25.00000000000011
 20
124.9999999999984
 30
0.0
 40
8.0
  0
ENDBLK
  5
4A8
330
4A6
100
AcDbEntity
  8
0
100
AcDbBlockEnd
  0
BLOCK
  5
4AA
330
4A9
100
AcDbEntity
  8
0
100
AcDbBlockBegin
  2
block 3
 70
     0
 10
0.0
 20
0.0
 30
0.0
  3
block 3
  1

  0
LWPOLYLINE
  5
BF
330
4A9
100
AcDbEntity
  8
0
100
AcDbPolyline
 90
        8
 70
     1
 43
0.0
 10
253.05
 20
25.04999999999995
 42
-0.9999999999999998
 10
253.05
 20
22.04999999999995
 10
253.05
 20
2.950000000000045
 42
-0.9999999999999998
 10
253.05
 20
-0.0499999999999545
 10
246.9499999999998
 20
-0.0499999999999545
 42
-0.9999999999999998
 10
246.9499999999998
 20
2.950000000000045
 10
246.9499999999998
 20
22.04999999999995
 42
-0.9999999999999998
 10
246.9499999999998
 20
25.04999999999995
  0
LWPOLYLINE
  5
BE
330
4A9
100
AcDbEntity
  8
0
100
AcDbPolyline
 90
        8
 70
     1
 43
0.0
 10
253.05
 20
125.05
 42
-0.9999999999999998
 10
253.05
 20
122.05
 10
253.0499999999999
 20
102.95
 42
-0.9999999999999998
 10
253.05
 20
99.95000000000005
 10
246.9499999999998
 20
99.95000000000005
 42
-0.9999999999999998
 10
246.9499999999998
 20
102.95
 10
246.9499999999998
 20
122.05
 42
-0.9999999999999998
 10
246.9499999999998
 20
125.05
  0
LWPOLYLINE
  5
58
330
4A9
100
AcDbEntity
  8
0
100
AcDbPolyline
 90
        8
 70
     1
 43
0.0
 10
503.0500000000001
 20
25.04999999999995
 42
-0.9999999999999998
 10
503.05
 20
22.04999999999995
 10
503.05
 20
2.950000000000045
 42
-0.9999999999999998
 10
503.05
 20
-0.0499999999999545
 10
496.9500000000001
 20
-0.0499999999999545
 42
-0.9999999999999998
 10
496.9500000000001
 20
2.950000000000045
 10
496.9500000000001
 20
22.04999999999995
 42
-0.9999999999999998
 10
496.9500000000001
 20
25.04999999999995
  0
LWPOLYLINE
  5
57
330
4A9
100
AcDbEntity
  8
0
100
AcDbPolyline
 90
        8
 70
     1
 43
0.0
 10
503.05
 20
125.05
 42
-0.9999999999999998
 10
503.05
 20
122.05
 10
503.05
 20
102.95
 42
-0.9999999999999998
 10
503.05
 20
99.94999999999982
 10
496.9500000000002
 20
99.95000000000005
 42
-0.9999999999999998
 10
496.9500000000001
 20
102.95
 10
496.9500000000001
 20
122.05
 42
-0.9999999999999998
 10
496.9500000000001
 20
125.05
  0
LINE
  5
56
330
4A9
100
AcDbEntity
  8
0
100
AcDbLine
 10
62.55000000000018
 20
-6.399999999999864
 30
0.0
 11
62.55000000000018
 21
-12.5
 31
0.0
  0
LINE
  5
55
330
4A9
100
AcDbEntity
  8
0
100
AcDbLine
 10
62.55000000000018
 20
-12.5
 30
0.0
 11
187.4499999999999
 21
-12.5
 31
0.0
  0
LINE
  5
54
330
4A9
100
AcDbEntity
  8
0
100
AcDbLine
 10
187.4499999999999
 20
-12.5
 30
0.0
 11
187.4499999999999
 21
-6.399999999999864
 31
0.0
  0
ARC
  5
53
330
4A9
100
AcDbEntity
  8
0
100
AcDbCircle
 10
188.95
 20
-6.399999999999864
 30
0.0
 40
1.500000000000057
100
AcDbArc
 50
0.0
 51
180.0
  0
LINE
  5
52
330
4A9
100
AcDbEntity
  8
0
100
AcDbLine
 10
190.45
 20
-6.399999999999864
 30
0.0
 11
209.55
 21
-6.399999999999864
 31
0.0
  0
ARC
  5
51
330
4A9
100
AcDbEntity
  8
0
100
AcDbCircle
 10
211.05
 20
-6.400000000000091
 30
0.0
 40
1.5
100
AcDbArc
 50
0.0
 51
180.0
  0
LINE
  5
50
330
4A9
100
AcDbEntity
  8
0
100
AcDbLine
 10
212.55
 20
-6.400000000000091
 30
0.0
 11
212.55
 21
-12.5
 31
0.0
  0
LINE
  5
4F
330
4A9
100
AcDbEntity
  8
0
100
AcDbLine
 10
537.4499999999998
 20
-12.50000000000023
 30
0.0
 11
537.4499999999998
 21
-6.399999999999864
 31
0.0
  0
ARC
  5
4E
330
4A9
100
AcDbEntity
  8
0
100
AcDbCircle
 10
538.9499999999998
 20
-6.399999999999864
 30
0.0
 40
1.5
100
AcDbArc
 50
0.0
 51
180.0
  0
LINE
  5
4D
330
4A9
100
AcDbEntity
  8
0
100
AcDbLine
 10
540.4499999999998
 20
-6.399999999999864
 30
0.0
 11
559.55
 21
-6.400000000000091
 31
0.0
  0
ARC
  5
4C
330
4A9
100
AcDbEntity
  8
0
100
AcDbCircle
 10
561.0499999999997
 20
-6.399999999999864
 30
0.0
 40
1.499999999999943
100
AcDbArc
 50
0.0
 51
180.0
  0
LINE
  5
4B
330
4A9
100
AcDbEntity
  8
0
100
AcDbLine
 10
562.5499999999997
 20
-6.399999999999864
 30
0.0
 11
562.55
 21
-12.50000000000023
 31
0.0
  0
LINE
  5
4A
330
4A9
100
AcDbEntity
  8
0
100
AcDbLine
 10
562.55
 20
-12.50000000000023
 30
0.0
 11
687.4499999999998
 21
-12.50000000000023
 31
0.0
  0
LINE
  5
49
330
4A9
100
AcDbEntity
  8
0
100
AcDbLine
 10
687.4499999999998
 20
-12.50000000000023
 30
0.0
 11
687.4499999999998
 21
-6.399999999999864
 31
0.0
  0
ARC
  5
48
330
4A9
100
AcDbEntity
  8
0
100
AcDbCircle
 10
688.9499999999996
 20
-6.399999999999864
 30
0.0
 40
1.499999999999943
100
AcDbArc
 50
0.0
 51
180.0
  0
LINE
  5
47
330
4A9
100
AcDbEntity
  8
0
100
AcDbLine
 10
690.4499999999996
 20
-6.399999999999864
 30
0.0
 11
709.5499999999997
 21
-6.399999999999864
 31
0.0
  0
ARC
  5
46
330
4A9
100
AcDbEntity
  8
0
100
AcDbCircle
 10
711.0499999999997
 20
-6.399999999999864
 30
0.0
 40
1.5
100
AcDbArc
 50
0.0
 51
180.0
  0
LINE
  5
45
330
4A9
100
AcDbEntity
  8
0
100
AcDbLine
 10
712.5499999999997
 20
-6.400000000000091
 30
0.0
 11
712.5499999999997
 21
-12.50000000000023
 31
0.0
  0
LINE
  5
44
330
4A9
100
AcDbEntity
  8
0
100
AcDbLine
 10
712.5499999999997
 20
-12.50000000000023
 30
0.0
 11
743.9999999999998
 21
-12.50000000000023
 31
0.0
  0
LINE
  5
43
330
4A9
100
AcDbEntity
  8
0
100
AcDbLine
 10
743.9999999999998
 20
-12.50000000000023
 30
0.0
 11
743.9999999999998
 21
0.0
 31
0.0
  0
LINE
  5
42
330
4A9
100
AcDbEntity
  8
0
100
AcDbLine
 10
743.9999999999998
 20
0.0
 30
0.0
 11
750.0
 21
-0.0000000000002274
 31
0.0
  0
LINE
  5
41
330
4A9
100
AcDbEntity
  8
0
100
AcDbLine
 10
750.0
 20
-0.0000000000002274
 30
0.0
 11
749.9999999999998
 21
7.500000000000227
 31
0.0
  0
LINE
  5
40
330
4A9
100
AcDbEntity
  8
0
100
AcDbLine
 10
749.9999999999998
 20
7.500000000000227
 30
0.0
 11
743.9999999999998
 21
7.499999999999773
 31
0.0
  0
LINE
  5
3F
330
4A9
100
AcDbEntity
  8
0
100
AcDbLine
 10
743.9999999999998
 20
7.499999999999773
 30
0.0
 11
744.0
 21
17.50000000000023
 31
0.0
  0
LINE
  5
3E
330
4A9
100
AcDbEntity
  8
0
100
AcDbLine
 10
744.0
 20
17.50000000000023
 30
0.0
 11
750.0
 21
17.5
 31
0.0
  0
LINE
  5
3D
330
4A9
100
AcDbEntity
  8
0
100
AcDbLine
 10
750.0
 20
17.5
 30
0.0
 11
749.9999999999998
 21
25.0
 31
0.0
  0
LINE
  5
3C
330
4A9
100
AcDbEntity
  8
0
100
AcDbLine
 10
749.9999999999998
 20
25.0
 30
0.0
 11
743.9999999999998
 21
25.0
 31
0.0
  0
LINE
  5
3B
330
4A9
100
AcDbEntity
  8
0
100
AcDbLine
 10
743.9999999999998
 20
25.0
 30
0.0
 11
743.9999999999998
 21
99.99999999999977
 31
0.0
  0
LINE
  5
3A
330
4A9
100
AcDbEntity
  8
0
100
AcDbLine
 10
743.9999999999998
 20
99.99999999999977
 30
0.0
 11
749.9999999999998
 21
100.0
 31
0.0
  0
LINE
  5
39
330
4A9
100
AcDbEntity
  8
0
100
AcDbLine
 10
749.9999999999998
 20
100.0
 30
0.0
 11
749.9999999999998
 21
107.5
 31
0.0
  0
LINE
  5
78
330
4A9
100
AcDbEntity
  8
0
100
AcDbLine
 10
749.9999999999998
 20
107.5
 30
0.0
 11
743.9999999999998
 21
107.4999999999998
 31
0.0
  0
LINE
  5
77
330
4A9
100
AcDbEntity
  8
0
100
AcDbLine
 10
743.9999999999998
 20
107.4999999999998
 30
0.0
 11
744.0
 21
117.5000000000002
 31
0.0
  0
LINE
  5
76
330
4A9
100
AcDbEntity
  8
0
100
AcDbLine
 10
744.0
 20
117.5000000000002
 30
0.0
 11
749.9999999999998
 21
117.5
 31
0.0
  0
LINE
  5
75
330
4A9
100
AcDbEntity
  8
0
100
AcDbLine
 10
749.9999999999998
 20
117.5
 30
0.0
 11
749.9999999999998
 21
125.0
 31
0.0
  0
LINE
  5
74
330
4A9
100
AcDbEntity
  8
0
100
AcDbLine
 10
749.9999999999998
 20
125.0
 30
0.0
 11
744.0
 21
125.0000000000002
 31
0.0
  0
LINE
  5
73
330
4A9
100
AcDbEntity
  8
0
100
AcDbLine
 10
744.0
 20
125.0000000000002
 30
0.0
 11
743.9999999999998
 21
137.5000000000002
 31
0.0
  0
LINE
  5
72
330
4A9
100
AcDbEntity
  8
0
100
AcDbLine
 10
743.9999999999998
 20
137.5000000000002
 30
0.0
 11
637.4999999999998
 21
137.5
 31
0.0
  0
LINE
  5
71
330
4A9
100
AcDbEntity
  8
0
100
AcDbLine
 10
637.4999999999998
 20
137.5
 30
0.0
 11
637.4999999999998
 21
143.5000000000002
 31
0.0
  0
LINE
  5
70
330
4A9
100
AcDbEntity
  8
0
100
AcDbLine
 10
637.4999999999998
 20
143.5000000000002
 30
0.0
 11
629.9999999999998
 21
143.5000000000002
 31
0.0
  0
LINE
  5
6F
330
4A9
100
AcDbEntity
  8
0
100
AcDbLine
 10
629.9999999999998
 20
143.5000000000002
 30
0.0
 11
629.9999999999998
 21
137.5
 31
0.0
  0
LINE
  5
6E
330
4A9
100
AcDbEntity
  8
0
100
AcDbLine
 10
629.9999999999998
 20
137.5
 30
0.0
 11
619.9999999999998
 21
137.5
 31
0.0
  0
LINE
  5
6D
330
4A9
100
AcDbEntity
  8
0
100
AcDbLine
 10
619.9999999999998
 20
137.5
 30
0.0
 11
619.9999999999998
 21
143.4999999999998
 31
0.0
  0
LINE
  5
6C
330
4A9
100
AcDbEntity
  8
0
100
AcDbLine
 10
619.9999999999998
 20
143.4999999999998
 30
0.0
 11
612.4999999999998
 21
143.5000000000002
 31
0.0
  0
LINE
  5
6B
330
4A9
100
AcDbEntity
  8
0
100
AcDbLine
 10
612.4999999999998
 20
143.5000000000002
 30
0.0
 11
612.4999999999998
 21
137.5
 31
0.0
  0
LINE
  5
6A
330
4A9
100
AcDbEntity
  8
0
100
AcDbLine
 10
387.4999999999999
 20
137.5
 30
0.0
 11
387.4999999999999
 21
143.5
 31
0.0
  0
LINE
  5
69
330
4A9
100
AcDbEntity
  8
0
100
AcDbLine
 10
387.4999999999999
 20
143.5
 30
0.0
 11
380.0
 21
143.5
 31
0.0
  0
LINE
  5
68
330
4A9
100
AcDbEntity
  8
0
100
AcDbLine
 10
380.0
 20
143.5
 30
0.0
 11
379.9999999999999
 21
137.5
 31
0.0
  0
LINE
  5
67
330
4A9
100
AcDbEntity
  8
0
100
AcDbLine
 10
379.9999999999999
 20
137.5
 30
0.0
 11
370.0
 21
137.5
 31
0.0
  0
LINE
  5
66
330
4A9
100
AcDbEntity
  8
0
100
AcDbLine
 10
370.0
 20
137.5
 30
0.0
 11
370.0
 21
143.5
 31
0.0
  0
LINE
  5
65
330
4A9
100
AcDbEntity
  8
0
100
AcDbLine
 10
370.0
 20
143.5
 30
0.0
 11
362.5
 21
143.5
 31
0.0
  0
LINE
  5
64
330
4A9
100
AcDbEntity
  8
0
100
AcDbLine
 10
362.5
 20
143.5
 30
0.0
 11
362.4999999999999
 21
137.5
 31
0.0
  0
LINE
  5
63
330
4A9
100
AcDbEntity
  8
0
100
AcDbLine
 10
362.4999999999999
 20
137.5
 30
0.0
 11
137.5000000000001
 21
137.5
 31
0.0
  0
LINE
  5
62
330
4A9
100
AcDbEntity
  8
0
100
AcDbLine
 10
137.5000000000001
 20
137.5
 30
0.0
 11
137.5000000000001
 21
143.5
 31
0.0
  0
LINE
  5
61
330
4A9
100
AcDbEntity
  8
0
100
AcDbLine
 10
137.5000000000001
 20
143.5
 30
0.0
 11
129.9999999999999
 21
143.5
 31
0.0
  0
LINE
  5
60
330
4A9
100
AcDbEntity
  8
0
100
AcDbLine
 10
129.9999999999999
 20
143.5
 30
0.0
 11
130.0
 21
137.5
 31
0.0
  0
LINE
  5
5F
330
4A9
100
AcDbEntity
  8
0
100
AcDbLine
 10
130.0
 20
137.5
 30
0.0
 11
120.0
 21
137.5
 31
0.0
  0
LINE
  5
5E
330
4A9
100
AcDbEntity
  8
0
100
AcDbLine
 10
120.0
 20
137.5
 30
0.0
 11
119.9999999999999
 21
143.5
 31
0.0
  0
LINE
  5
5D
330
4A9
100
AcDbEntity
  8
0
100
AcDbLine
 10
119.9999999999999
 20
143.5
 30
0.0
 11
112.5000000000001
 21
143.5
 31
0.0
  0
LINE
  5
5C
330
4A9
100
AcDbEntity
  8
0
100
AcDbLine
 10
112.5000000000001
 20
143.5
 30
0.0
 11
112.5000000000001
 21
137.5
 31
0.0
  0
LINE
  5
5B
330
4A9
100
AcDbEntity
  8
0
100
AcDbLine
 10
112.5000000000001
 20
137.5
 30
0.0
 11
6.0
 21
137.5
 31
0.0
  0
LINE
  5
5A
330
4A9
100
AcDbEntity
  8
0
100
AcDbLine
 10
6.0
 20
137.5
 30
0.0
 11
6.0
 21
125.0
 31
0.0
  0
LINE
  5
59
330
4A9
100
AcDbEntity
  8
0
100
AcDbLine
 10
6.0
 20
125.0
 30
0.0
 11
0.0000000000000568
 21
125.0
 31
0.0
  0
LINE
  5
98
330
4A9
100
AcDbEntity
  8
0
100
AcDbLine
 10
0.0000000000000568
 20
125.0
 30
0.0
 11
0.0
 21
117.5
 31
0.0
  0
LINE
  5
97
330
4A9
100
AcDbEntity
  8
0
100
AcDbLine
 10
0.0
 20
117.5
 30
0.0
 11
6.0
 21
117.5
 31
0.0
  0
LINE
  5
96
330
4A9
100
AcDbEntity
  8
0
100
AcDbLine
 10
6.0
 20
117.5
 30
0.0
 11
6.0
 21
107.4999999999998
 31
0.0
  0
LINE
  5
95
330
4A9
100
AcDbEntity
  8
0
100
AcDbLine
 10
6.0
 20
107.4999999999998
 30
0.0
 11
-0.0000000000000568
 21
107.4999999999998
 31
0.0
  0
LINE
  5
94
330
4A9
100
AcDbEntity
  8
0
100
AcDbLine
 10
-0.0000000000000568
 20
107.4999999999998
 30
0.0
 11
0.0000000000001705
 21
99.99999999999977
 31
0.0
  0
LINE
  5
93
330
4A9
100
AcDbEntity
  8
0
100
AcDbLine
 10
0.0000000000001705
 20
99.99999999999977
 30
0.0
 11
6.0
 21
99.99999999999977
 31
0.0
  0
LINE
  5
92
330
4A9
100
AcDbEntity
  8
0
100
AcDbLine
 10
6.0
 20
99.99999999999977
 30
0.0
 11
6.0
 21
25.0
 31
0.0
  0
LINE
  5
91
330
4A9
100
AcDbEntity
  8
0
100
AcDbLine
 10
6.0
 20
25.0
 30
0.0
 11
0.0
 21
25.0
 31
0.0
  0
LINE
  5
90
330
4A9
100
AcDbEntity
  8
0
100
AcDbLine
 10
0.0
 20
25.0
 30
0.0
 11
0.0
 21
17.5
 31
0.0
  0
LINE
  5
8F
330
4A9
100
AcDbEntity
  8
0
100
AcDbLine
 10
0.0
 20
17.5
 30
0.0
 11
6.0
 21
17.5
 31
0.0
  0
LINE
  5
8E
330
4A9
100
AcDbEntity
  8
0
100
AcDbLine
 10
6.0
 20
17.5
 30
0.0
 11
6.0
 21
7.5
 31
0.0
  0
LINE
  5
8D
330
4A9
100
AcDbEntity
  8
0
100
AcDbLine
 10
6.0
 20
7.5
 30
0.0
 11
0.0
 21
7.5
 31
0.0
  0
LINE
  5
8C
330
4A9
100
AcDbEntity
  8
0
100
AcDbLine
 10
0.0
 20
7.5
 30
0.0
 11
0.0
 21
0.0
 31
0.0
  0
LINE
  5
8B
330
4A9
100
AcDbEntity
  8
0
100
AcDbLine
 10
0.0
 20
0.0
 30
0.0
 11
6.0
 21
0.0
 31
0.0
  0
LINE
  5
8A
330
4A9
100
AcDbEntity
  8
0
100
AcDbLine
 10
6.0
 20
0.0
 30
0.0
 11
6.0
 21
-12.5
 31
0.0
  0
LINE
  5
89
330
4A9
100
AcDbEntity
  8
0
100
AcDbLine
 10
6.0
 20
-12.5
 30
0.0
 11
37.45000000000016
 21
-12.5
 31
0.0
  0
LINE
  5
88
330
4A9
100
AcDbEntity
  8
0
100
AcDbLine
 10
37.45000000000016
 20
-12.5
 30
0.0
 11
37.45000000000016
 21
-6.399999999999864
 31
0.0
  0
ARC
  5
87
330
4A9
100
AcDbEntity
  8
0
100
AcDbCircle
 10
38.95000000000022
 20
-6.399999999999864
 30
0.0
 40
1.500000000000053
100
AcDbArc
 50
0.0
 51
180.0
  0
LINE
  5
86
330
4A9
100
AcDbEntity
  8
0
100
AcDbLine
 10
40.45000000000027
 20
-6.399999999999864
 30
0.0
 11
59.55000000000018
 21
-6.399999999999864
 31
0.0
  0
ARC
  5
85
330
4A9
100
AcDbEntity
  8
0
100
AcDbCircle
 10
61.05000000000018
 20
-6.399999999999864
 30
0.0
 40
1.500000000000007
100
AcDbArc
 50
0.0
 51
180.0
  0
LINE
  5
84
330
4A9
100
AcDbEntity
  8
0
100
AcDbLine
 10
499.9999999999999
 20
137.4999999999998
 30
0.0
 11
387.4999999999999
 21
137.5
 31
0.0
  0
LINE
  5
83
330
4A9
100
AcDbEntity
  8
0
100
AcDbLine
 10
212.55
 20
-12.5
 30
0.0
 11
499.9999999999999
 21
-12.50000000000023
 31
0.0
  0
LINE
  5
82
330
4A9
100
AcDbEntity
  8
0
100
AcDbLine
 10
499.9999999999999
 20
-12.50000000000023
 30
0.0
 11
537.4499999999998
 21
-12.50000000000023
 31
0.0
  0
LINE
  5
81
330
4A9
100
AcDbEntity
  8
0
100
AcDbLine
 10
612.4999999999998
 20
137.5
 30
0.0
 11
499.9999999999998
 21
137.5000000000002
 31
0.0
  0
CIRCLE
  5
80
330
4A9
100
AcDbEntity
  8
0
100
AcDbCircle
 10
725.0
 20
12.49999999999977
 30
0.0
 40
8.0
  0
CIRCLE
  5
7F
330
4A9
100
AcDbEntity
  8
0
100
AcDbCircle
 10
724.9999999999998
 20
62.49999999999977
 30
0.0
 40
8.0
  0
CIRCLE
  5
7E
330
4A9
100
AcDbEntity
  8
0
100
AcDbCircle
 10
725.0
 20
112.4999999999998
 30
0.0
 40
8.0
  0
CIRCLE
  5
7D
330
4A9
100
AcDbEntity
  8
0
100
AcDbCircle
 10
674.9999999999998
 20
12.50000000000023
 30
0.0
 40
8.0
  0
CIRCLE
  5
7C
330
4A9
100
AcDbEntity
  8
0
100
AcDbCircle
 10
674.9999999999998
 20
62.5
 30
0.0
 40
8.0
  0
CIRCLE
  5
7B
330
4A9
100
AcDbEntity
  8
0
100
AcDbCircle
 10
674.9999999999998
 20
112.4999999999998
 30
0.0
 40
8.0
  0
CIRCLE
  5
7A
330
4A9
100
AcDbEntity
  8
0
100
AcDbCircle
 10
625.0
 20
12.50000000000023
 30
0.0
 40
8.0
  0
CIRCLE
  5
79
330
4A9
100
AcDbEntity
  8
0
100
AcDbCircle
 10
624.9999999999998
 20
62.49999999999977
 30
0.0
 40
8.0
  0
CIRCLE
  5
B8
330
4A9
100
AcDbEntity
  8
0
100
AcDbCircle
 10
624.9999999999998
 20
112.5
 30
0.0
 40
8.0
  0
CIRCLE
  5
B7
330
4A9
100
AcDbEntity
  8
0
100
AcDbCircle
 10
574.9999999999998
 20
12.49999999999977
 30
0.0
 40
8.0
  0
CIRCLE
  5
B6
330
4A9
100
AcDbEntity
  8
0
100
AcDbCircle
 10
574.9999999999998
 20
62.50000000000023
 30
0.0
 40
8.0
  0
CIRCLE
  5
B5
330
4A9
100
AcDbEntity
  8
0
100
AcDbCircle
 10
575.0
 20
112.5
 30
0.0
 40
8.0
  0
CIRCLE
  5
B4
330
4A9
100
AcDbEntity
  8
0
100
AcDbCircle
 10
524.9999999999998
 20
12.5
 30
0.0
 40
8.0
  0
CIRCLE
  5
B3
330
4A9
100
AcDbEntity
  8
0
100
AcDbCircle
 10
524.9999999999998
 20
62.5
 30
0.0
 40
8.0
  0
CIRCLE
  5
B2
330
4A9
100
AcDbEntity
  8
0
100
AcDbCircle
 10
524.9999999999998
 20
112.5
 30
0.0
 40
8.0
  0
CIRCLE
  5
B1
330
4A9
100
AcDbEntity
  8
0
100
AcDbCircle
 10
475.0
 20
12.49999999999977
 30
0.0
 40
8.0
  0
CIRCLE
  5
B0
330
4A9
100
AcDbEntity
  8
0
100
AcDbCircle
 10
475.0
 20
62.5
 30
0.0
 40
8.0
  0
CIRCLE
  5
AF
330
4A9
100
AcDbEntity
  8
0
100
AcDbCircle
 10
475.0
 20
112.4999999999998
 30
0.0
 40
8.0
  0
CIRCLE
  5
AE
330
4A9
100
AcDbEntity
  8
0
100
AcDbCircle
 10
425.0
 20
12.5
 30
0.0
 40
8.0
  0
CIRCLE
  5
AD
330
4A9
100
AcDbEntity
  8
0
100
AcDbCircle
 10
425.0
 20
62.49999999999977
 30
0.0
 40
8.0
  0
CIRCLE
  5
AC
330
4A9
100
AcDbEntity
  8
0
100
AcDbCircle
 10
425.0
 20
112.5
 30
0.0
 40
8.0
  0
CIRCLE
  5
AB
330
4A9
100
AcDbEntity
  8
0
100
AcDbCircle
 10
375.0
 20
12.5
 30
0.0
 40
8.0
  0
CIRCLE
  5
AA
330
4A9
100
AcDbEntity
  8
0
100
AcDbCircle
 10
375.0
 20
62.5
 30
0.0
 40
8.0
  0
CIRCLE
  5
A9
330
4A9
100
AcDbEntity
  8
0
100
AcDbCircle
 10
375.0
 20
112.4999999999998
 30
0.0
 40
8.0
  0
CIRCLE
  5
A8
330
4A9
100
AcDbEntity
  8
0
100
AcDbCircle
 10
325.0
 20
12.5
 30
0.0
 40
8.0
  0
CIRCLE
  5
A7
330
4A9
100
AcDbEntity
  8
0
100
AcDbCircle
 10
325.0
 20
62.49999999999977
 30
0.0
 40
8.0
  0
CIRCLE
  5
A6
330
4A9
100
AcDbEntity
  8
0
100
AcDbCircle
 10
325.0
 20
112.5
 30
0.0
 40
8.0
  0
CIRCLE
  5
A5
330
4A9
100
AcDbEntity
  8
0
100
AcDbCircle
 10
274.9999999999999
 20
12.5
 30
0.0
 40
8.0
  0
CIRCLE
  5
A4
330
4A9
100
AcDbEntity
  8
0
100
AcDbCircle
 10
274.9999999999999
 20
62.5
 30
0.0
 40
8.0
  0
CIRCLE
  5
A3
330
4A9
100
AcDbEntity
  8
0
100
AcDbCircle
 10
274.9999999999999
 20
112.5
 30
0.0
 40
8.0
  0
CIRCLE
  5
A2
330
4A9
100
AcDbEntity
  8
0
100
AcDbCircle
 10
225.0
 20
12.5
 30
0.0
 40
8.0
  0
CIRCLE
  5
A1
330
4A9
100
AcDbEntity
  8
0
100
AcDbCircle
 10
225.0
 20
62.5
 30
0.0
 40
8.0
  0
CIRCLE
  5
A0
330
4A9
100
AcDbEntity
  8
0
100
AcDbCircle
 10
225.0
 20
112.5
 30
0.0
 40
8.0
  0
CIRCLE
  5
9F
330
4A9
100
AcDbEntity
  8
0
100
AcDbCircle
 10
175.0
 20
12.5
 30
0.0
 40
8.0
  0
CIRCLE
  5
9E
330
4A9
100
AcDbEntity
  8
0
100
AcDbCircle
 10
175.0
 20
62.5
 30
0.0
 40
8.0
  0
CIRCLE
  5
9D
330
4A9
100
AcDbEntity
  8
0
100
AcDbCircle
 10
175.0
 20
112.5
 30
0.0
 40
8.0
  0
CIRCLE
  5
9C
330
4A9
100
AcDbEntity
  8
0
100
AcDbCircle
 10
125.0
 20
12.5
 30
0.0
 40
8.0
  0
CIRCLE
  5
9B
330
4A9
100
AcDbEntity
  8
0
100
AcDbCircle
 10
125.0
 20
62.5
 30
0.0
 40
8.0
  0
CIRCLE
  5
9A
330
4A9
100
AcDbEntity
  8
0
100
AcDbCircle
 10
125.0
 20
112.4999999999998
 30
0.0
 40
8.0
  0
CIRCLE
  5
99
330
4A9
100
AcDbEntity
  8
0
100
AcDbCircle
 10
75.0
 20
12.5
 30
0.0
 40
8.0
  0
CIRCLE
  5
BD
330
4A9
100
AcDbEntity
  8
0
100
AcDbCircle
 10
74.99999999999994
 20
62.5
 30
0.0
 40
8.0
  0
CIRCLE
  5
BC
330
4A9
100
AcDbEntity
  8
0
100
AcDbCircle
 10
74.99999999999994
 20
112.4999999999998
 30
0.0
 40
8.0
  0
CIRCLE
  5
BB
330
4A9
100
AcDbEntity
  8
0
100
AcDbCircle
 10
25.0
 20
12.5
 30
0.0
 40
8.0
  0
CIRCLE
  5
BA
330
4A9
100
AcDbEntity
  8
0
100
AcDbCircle
 10
25.0
 20
62.5
 30
0.0
 40
8.0
  0
CIRCLE
  5
B9
330
4A9
100
AcDbEntity
  8
0
100
AcDbCircle
 10
25.0
 20
112.4999999999998
 30
0.0
 40
8.0
  0
ENDBLK
  5
4AB
330
4A9
100
AcDbEntity
  8
0
100
AcDbBlockEnd
  0
BLOCK
  5
4AD
330
4AC
100
AcDbEntity
  8
0
100
AcDbBlockBegin
  2
block 4
 70
     0
 10
0.0
 20
0.0
 30
0.0
  3
block 4
  1

  0
LWPOLYLINE
  5
3A4
330
4AC
100
AcDbEntity
  8
0
100
AcDbPolyline
 90
       68
 70
     1
 43
0.0
 10
240.9000000000001
 20
240.9
 10
209.4000000000001
 20
240.9
 10
209.4000000000001
 20
246.9
 10
201.9000000000001
 20
246.9
 10
201.9000000000001
 20
240.9
 10
191.9000000000001
 20
240.9
 10
191.9000000000001
 20
246.9
 10
184.4000000000001
 20
246.9
 10
184.4000000000001
 20
240.9
 10
59.40000000000009
 20
240.9
 10
59.40000000000009
 20
246.9
 10
51.90000000000009
 20
246.9
 10
51.90000000000009
 20
240.9
 10
41.90000000000009
 20
240.9
 10
41.90000000000009
 20
246.9
 10
34.40000000000009
 20
246.9
 10
34.40000000000009
 20
240.9
 10
0.0
 20
240.9
 10
0.0
 20
209.4
 10
-6.0
 20
209.4
 10
-6.0
 20
201.9
 10
0.0
 20
201.9
 10
0.0
 20
191.9000000000001
 10
-6.0
 20
191.9000000000001
 10
-6.0
 20
184.4000000000001
 10
0.0
 20
184.4000000000001
 10
0.0
 20
59.40000000000009
 10
-6.0
 20
59.40000000000009
 10
-6.0
 20
51.89999999999986
 10
0.0
 20
51.89999999999986
 10
0.0
 20
41.89999999999986
 10
-6.0
 20
41.89999999999986
 10
-6.0
 20
34.39999999999998
 10
0.0
 20
34.39999999999998
 10
0.0
 20
0.0
 10
34.40000000000009
 20
0.0
 10
34.40000000000009
 20
-6.0
 10
41.90000000000009
 20
-6.0
 10
41.90000000000009
 20
0.0
 10
51.90000000000009
 20
0.0
 10
51.90000000000009
 20
-6.0
 10
59.40000000000009
 20
-6.0
 10
59.40000000000009
 20
0.0
 10
184.4000000000001
 20
0.0
 10
184.4000000000001
 20
-6.0
 10
191.9000000000001
 20
-6.0
 10
191.9000000000001
 20
0.0
 10
201.9000000000001
 20
0.0
 10
201.9000000000001
 20
-6.0
 10
209.4000000000001
 20
-6.0
 10
209.4000000000001
 20
0.0
 10
240.9000000000001
 20
0.0
 10
240.9000000000001
 20
34.40000000000009
 10
246.9000000000001
 20
34.40000000000009
 10
246.9000000000001
 20
41.90000000000009
 10
240.9000000000001
 20
41.90000000000009
 10
240.9000000000001
 20
51.90000000000009
 10
246.9000000000001
 20
51.90000000000009
 10
246.9000000000001
 20
59.40000000000009
 10
240.9000000000001
 20
59.40000000000009
 10
240.9000000000001
 20
184.4000000000001
 10
246.9000000000001
 20
184.4000000000001
 10
246.9000000000001
 20
191.9000000000001
 10
240.9000000000001
 20
191.9000000000001
 10
240.9000000000001
 20
201.9
 10
246.9000000000001
 20
201.9
 10
246.9000000000001
 20
209.4
 10
240.9000000000001
 20
209.4
  0
CIRCLE
  5
3A8
330
4AC
100
AcDbEntity
  8
0
100
AcDbCircle
 10
71.89999999999986
 20
171.9
 30
0.0
 40
4.5
  0
CIRCLE
  5
3A7
330
4AC
100
AcDbEntity
  8
0
100
AcDbCircle
 10
171.8999999999999
 20
171.9
 30
0.0
 40
4.5
  0
CIRCLE
  5
3A6
330
4AC
100
AcDbEntity
  8
0
100
AcDbCircle
 10
171.8999999999999
 20
71.90000000000003
 30
0.0
 40
4.5
  0
CIRCLE
  5
3A5
330
4AC
100
AcDbEntity
  8
0
100
AcDbCircle
 10
71.89999999999986
 20
71.90000000000003
 30
0.0
 40
4.5
  0
ENDBLK
  5
4AE
330
4AC
100
AcDbEntity
  8
0
100
AcDbBlockEnd
  0
BLOCK
  5
4B0
330
4AF
100
AcDbEntity
  8
0
100
AcDbBlockBegin
  2
block 5
 70
     0
 10
0.0
 20
0.0
 30
0.0
  3
block 5
  1

  0
LWPOLYLINE
  5
3AF
330
4AF
100
AcDbEntity
  8
0
100
AcDbPolyline
 90
       68
 70
     1
 43
0.0
 10
240.9000000000001
 20
240.8999999999999
 10
209.4000000000001
 20
240.8999999999999
 10
209.4000000000001
 20
246.8999999999999
 10
201.9000000000001
 20
246.8999999999999
 10
201.9000000000001
 20
240.8999999999999
 10
191.9000000000001
 20
240.8999999999999
 10
191.9000000000001
 20
246.8999999999999
 10
184.4000000000001
 20
246.8999999999999
 10
184.4000000000001
 20
240.8999999999999
 10
59.40000000000009
 20
240.8999999999999
 10
59.40000000000009
 20
246.8999999999999
 10
51.90000000000009
 20
246.8999999999999
 10
51.90000000000009
 20
240.8999999999999
 10
41.90000000000009
 20
240.8999999999999
 10
41.90000000000009
 20
246.8999999999999
 10
34.40000000000009
 20
246.8999999999999
 10
34.40000000000009
 20
240.8999999999999
 10
0.0
 20
240.8999999999999
 10
0.0
 20
209.3999999999999
 10
-6.0
 20
209.3999999999999
 10
-6.0
 20
201.8999999999999
 10
0.0
 20
201.8999999999999
 10
0.0
 20
191.8999999999999
 10
-6.0
 20
191.8999999999999
 10
-6.0
 20
184.3999999999999
 10
0.0
 20
184.3999999999999
 10
0.0
 20
59.39999999999986
 10
-6.0
 20
59.39999999999986
 10
-6.0
 20
51.89999999999975
 10
0.0
 20
51.89999999999975
 10
0.0
 20
41.89999999999975
 10
-6.0
 20
41.89999999999975
 10
-6.0
 20
34.39999999999986
 10
0.0
 20
34.39999999999986
 10
0.0
 20
0.0
 10
34.40000000000009
 20
0.0
 10
34.40000000000009
 20
-6.0
 10
41.90000000000009
 20
-6.0
 10
41.90000000000009
 20
0.0
 10
51.90000000000009
 20
0.0
 10
51.90000000000009
 20
-6.0
 10
59.40000000000009
 20
-6.0
 10
59.40000000000009
 20
0.0
 10
184.4000000000001
 20
0.0
 10
184.4000000000001
 20
-6.0
 10
191.9000000000001
 20
-6.0
 10
191.9000000000001
 20
0.0
 10
201.9000000000001
 20
0.0
 10
201.9000000000001
 20
-6.0
 10
209.4000000000001
 20
-6.0
 10
209.4000000000001
 20
0.0
 10
240.9000000000001
 20
0.0
 10
240.9000000000001
 20
34.39999999999986
 10
246.9000000000001
 20
34.39999999999986
 10
246.9000000000001
 20
41.89999999999986
 10
240.9000000000001
 20
41.89999999999986
 10
240.9000000000001
 20
51.89999999999986
 10
246.9000000000001
 20
51.89999999999986
 10
246.9000000000001
 20
59.39999999999986
 10
240.9000000000001
 20
59.39999999999986
 10
240.9000000000001
 20
184.3999999999999
 10
246.9000000000001
 20
184.3999999999999
 10
246.9000000000001
 20
191.8999999999999
 10
240.9000000000001
 20
191.8999999999999
 10
240.9000000000001
 20
201.8999999999999
 10
246.9000000000001
 20
201.8999999999999
 10
246.9000000000001
 20
209.3999999999999
 10
240.9000000000001
 20
209.3999999999999
  0
CIRCLE
  5
3AE
330
4AF
100
AcDbEntity
  8
0
100
AcDbCircle
 10
71.89999999999986
 20
171.8999999999998
 30
0.0
 40
4.5
  0
CIRCLE
  5
3AD
330
4AF
100
AcDbEntity
  8
0
100
AcDbCircle
 10
171.8999999999999
 20
171.8999999999998
 30
0.0
 40
4.5
  0
CIRCLE
  5
3AC
330
4AF
100
AcDbEntity
  8
0
100
AcDbCircle
 10
171.8999999999999
 20
71.8999999999998
 30
0.0
 40
4.5
  0
CIRCLE
  5
3AB
330
4AF
100
AcDbEntity
  8
0
100
AcDbCircle
 10
71.89999999999986
 20
71.8999999999998
 30
0.0
 40
4.5
  0
ENDBLK
  5
4B1
330
4AF
100
AcDbEntity
  8
0
100
AcDbBlockEnd
  0
BLOCK
  5
4B3
330
4B2
100
AcDbEntity
  8
0
100
AcDbBlockBegin
  2
block 6
 70
     0
 10
0.0
 20
0.0
 30
0.0
  3
block 6
  1

  0
LWPOLYLINE
  5
3B6
330
4B2
100
AcDbEntity
  8
0
100
AcDbPolyline
 90
       68
 70
     1
 43
0.0
 10
240.9000000000001
 20
240.8999999999999
 10
209.4000000000001
 20
240.8999999999999
 10
209.4000000000001
 20
246.8999999999999
 10
201.9000000000001
 20
246.8999999999999
 10
201.9000000000001
 20
240.8999999999999
 10
191.9000000000001
 20
240.8999999999999
 10
191.9000000000001
 20
246.8999999999999
 10
184.4000000000001
 20
246.8999999999999
 10
184.4000000000001
 20
240.8999999999999
 10
59.40000000000009
 20
240.8999999999999
 10
59.40000000000009
 20
246.8999999999999
 10
51.90000000000009
 20
246.8999999999999
 10
51.90000000000009
 20
240.8999999999999
 10
41.90000000000009
 20
240.8999999999999
 10
41.90000000000009
 20
246.8999999999999
 10
34.40000000000009
 20
246.8999999999999
 10
34.40000000000009
 20
240.8999999999999
 10
0.0
 20
240.8999999999999
 10
0.0
 20
209.3999999999999
 10
-6.0
 20
209.3999999999999
 10
-6.0
 20
201.8999999999999
 10
0.0
 20
201.8999999999999
 10
0.0
 20
191.8999999999999
 10
-6.0
 20
191.8999999999999
 10
-6.0
 20
184.3999999999999
 10
0.0
 20
184.3999999999999
 10
0.0
 20
59.39999999999986
 10
-6.0
 20
59.39999999999986
 10
-6.0
 20
51.89999999999964
 10
0.0
 20
51.89999999999964
 10
0.0
 20
41.89999999999964
 10
-6.0
 20
41.89999999999964
 10
-6.0
 20
34.39999999999986
 10
0.0
 20
34.39999999999986
 10
0.0
 20
0.0
 10
34.40000000000009
 20
0.0
 10
34.40000000000009
 20
-6.0
 10
41.90000000000009
 20
-6.0
 10
41.90000000000009
 20
0.0
 10
51.90000000000009
 20
0.0
 10
51.90000000000009
 20
-6.0
 10
59.40000000000009
 20
-6.0
 10
59.40000000000009
 20
0.0
 10
184.3999999999996
 20
0.0
 10
184.3999999999996
 20
-6.0
 10
191.8999999999996
 20
-6.0
 10
191.8999999999996
 20
0.0
 10
201.8999999999996
 20
0.0
 10
201.8999999999996
 20
-6.0
 10
209.3999999999996
 20
-6.0
 10
209.3999999999996
 20
0.0
 10
240.8999999999996
 20
0.0
 10
240.9000000000001
 20
34.39999999999986
 10
246.9000000000001
 20
34.39999999999986
 10
246.9000000000001
 20
41.89999999999986
 10
240.9000000000001
 20
41.89999999999986
 10
240.9000000000001
 20
51.89999999999986
 10
246.9000000000001
 20
51.89999999999986
 10
246.9000000000001
 20
59.39999999999986
 10
240.9000000000001
 20
59.39999999999986
 10
240.9000000000001
 20
184.3999999999999
 10
246.9000000000001
 20
184.3999999999999
 10
246.9000000000001
 20
191.8999999999999
 10
240.9000000000001
 20
191.8999999999999
 10
240.9000000000001
 20
201.8999999999999
 10
246.9000000000001
 20
201.8999999999999
 10
246.9000000000001
 20
209.3999999999999
 10
240.9000000000001
 20
209.3999999999999
  0
CIRCLE
  5
3B5
330
4B2
100
AcDbEntity
  8
0
100
AcDbCircle
 10
71.89999999999986
 20
171.8999999999997
 30
0.0
 40
4.5
  0
CIRCLE
  5
3B4
330
4B2
100
AcDbEntity
  8
0
100
AcDbCircle
 10
171.8999999999999
 20
171.8999999999997
 30
0.0
 40
4.5
  0
CIRCLE
  5
3B3
330
4B2
100
AcDbEntity
  8
0
100
AcDbCircle
 10
171.8999999999999
 20
71.89999999999975
 30
0.0
 40
4.5
  0
CIRCLE
  5
3B2
330
4B2
100
AcDbEntity
  8
0
100
AcDbCircle
 10
71.89999999999986
 20
71.89999999999975
 30
0.0
 40
4.5
  0
ENDBLK
  5
4B4
330
4B2
100
AcDbEntity
  8
0
100
AcDbBlockEnd
  0
BLOCK
  5
4B6
330
4B5
100
AcDbEntity
  8
0
100
AcDbBlockBegin
  2
block 7
 70
     0
 10
0.0
 20
0.0
 30
0.0
  3
block 7
  1

  0
LWPOLYLINE
  5
3BB
330
4B5
100
AcDbEntity
  8
0
100
AcDbPolyline
 90
       68
 70
     1
 43
0.0
 10
240.9000000000001
 20
240.8999999999999
 10
209.4000000000001
 20
240.8999999999999
 10
209.4000000000001
 20
246.8999999999999
 10
201.9000000000001
 20
246.8999999999999
 10
201.9000000000001
 20
240.8999999999999
 10
191.9000000000001
 20
240.8999999999999
 10
191.9000000000001
 20
246.8999999999999
 10
184.4000000000001
 20
246.8999999999999
 10
184.4000000000001
 20
240.8999999999999
 10
59.40000000000009
 20
240.8999999999999
 10
59.40000000000009
 20
246.8999999999999
 10
51.90000000000009
 20
246.8999999999999
 10
51.90000000000009
 20
240.8999999999999
 10
41.90000000000009
 20
240.8999999999999
 10
41.90000000000009
 20
246.8999999999999
 10
34.40000000000009
 20
246.8999999999999
 10
34.40000000000009
 20
240.8999999999999
 10
0.0
 20
240.8999999999999
 10
0.0
 20
209.3999999999999
 10
-6.0
 20
209.3999999999999
 10
-6.0
 20
201.8999999999999
 10
0.0
 20
201.8999999999999
 10
0.0
 20
191.8999999999999
 10
-6.0
 20
191.8999999999999
 10
-6.0
 20
184.3999999999999
 10
0.0
 20
184.3999999999999
 10
0.0
 20
59.39999999999986
 10
-6.0
 20
59.39999999999986
 10
-6.0
 20
51.89999999999964
 10
0.0
 20
51.89999999999964
 10
0.0
 20
41.89999999999964
 10
-6.0
 20
41.89999999999964
 10
-6.0
 20
34.39999999999986
 10
0.0
 20
34.39999999999986
 10
0.0
 20
0.0
 10
34.40000000000009
 20
0.0
 10
34.40000000000009
 20
-6.0
 10
41.90000000000009
 20
-6.0
 10
41.90000000000009
 20
0.0
 10
51.90000000000009
 20
0.0
 10
51.90000000000009
 20
-6.0
 10
59.40000000000009
 20
-6.0
 10
59.40000000000009
 20
0.0
 10
184.4000000000001
 20
0.0
 10
184.4000000000001
 20
-6.0
 10
191.9000000000001
 20
-6.0
 10
191.9000000000001
 20
0.0
 10
201.9000000000001
 20
0.0
 10
201.9000000000001
 20
-6.0
 10
209.4000000000001
 20
-6.0
 10
209.4000000000001
 20
0.0
 10
240.8999999999996
 20
0.0
 10
240.9000000000001
 20
34.39999999999986
 10
246.9000000000001
 20
34.39999999999986
 10
246.9000000000001
 20
41.89999999999986
 10
240.9000000000001
 20
41.89999999999986
 10
240.9000000000001
 20
51.89999999999986
 10
246.9000000000001
 20
51.89999999999986
 10
246.9000000000001
 20
59.39999999999986
 10
240.9000000000001
 20
59.39999999999986
 10
240.9000000000001
 20
184.3999999999999
 10
246.9000000000001
 20
184.3999999999999
 10
246.9000000000001
 20
191.8999999999999
 10
240.9000000000001
 20
191.8999999999999
 10
240.9000000000001
 20
201.8999999999999
 10
246.9000000000001
 20
201.8999999999999
 10
246.9000000000001
 20
209.3999999999999
 10
240.9000000000001
 20
209.3999999999999
  0
CIRCLE
  5
3BA
330
4B5
100
AcDbEntity
  8
0
100
AcDbCircle
 10
71.89999999999986
 20
171.8999999999997
 30
0.0
 40
4.5
  0
CIRCLE
  5
3B9
330
4B5
100
AcDbEntity
  8
0
100
AcDbCircle
 10
171.8999999999999
 20
171.8999999999997
 30
0.0
 40
4.5
  0
CIRCLE
  5
3BD
330
4B5
100
AcDbEntity
  8
0
100
AcDbCircle
 10
171.8999999999999
 20
71.89999999999975
 30
0.0
 40
4.5
  0
CIRCLE
  5
3BC
330
4B5
100
AcDbEntity
  8
0
100
AcDbCircle
 10
71.89999999999986
 20
71.89999999999975
 30
0.0
 40
4.5
  0
ENDBLK
  5
4B7
330
4B5
100
AcDbEntity
  8
0
100
AcDbBlockEnd
  0
ENDSEC
  0
SECTION
  2
ENTITIES
  0
INSERT
  5
C0
330
3E0
100
AcDbEntity
  8
0
100
AcDbBlockReference
  2
block 3
 10
-0.0214081500718635
 20
1104.722582392945
 30
0.0
  0
INSERT
  5
2B5
330
3E0
100
AcDbEntity
  8
0
100
AcDbBlockReference
  2
block 1
 10
0.0
 20
-0.0000000000001137
 30
0.0
  0
INSERT
  5
3A2
330
3E0
100
AcDbEntity
  8
0
100
AcDbBlockReference
  2
block 2
 10
-0.0000000000000009
 20
922.0000000000001
 30
0.0
  0
INSERT
  5
3A9
330
3E0
100
AcDbEntity
  8
0
100
AcDbBlockReference
  2
block 4
 10
1268.42194526817
 20
6.474781552550239
 30
0.0
  0
INSERT
  5
3B0
330
3E0
100
AcDbEntity
  8
0
100
AcDbBlockReference
  2
block 5
 10
1266.52194526817
 20
275.4747815525504
 30
0.0
  0
INSERT
  5
3B7
330
3E0
100
AcDbEntity
  8
0
100
AcDbBlockReference
  2
block 6
 10
1264.337059096557
 20
535.2679012588923
 30
0.0
  0
INSERT
  5
3BE
330
3E0
100
AcDbEntity
  8
0
100
AcDbBlockReference
  2
block 7
 10
1262.437059096557
 20
804.2679012588923
 30
0.0
  0
INSERT
  5
3BF
330
3E0
100
AcDbEntity
  8
0
100
AcDbBlockReference
  2
block 2
 10
0.0
 20
760.0
 30
0.0
  0
INSERT
  5
3C1
330
3E0
100
AcDbEntity
  8
0
100
AcDbBlockReference
  2
block 3
 10
760.6836249617052
 20
1104.776543333368
 30
0.0
  0
VIEWPORT
  5
4A1
330
3DC
100
AcDbEntity
 67
     1
  8
0
100
AcDbViewport
 10
128.5
 20
97.5
 30
0.0
 40
314.226
 41
222.18
 68
     1
 69
     1
 12
128.5
 22
97.5
 13
0.0
 23
0.0
 14
10.0
 24
10.0
 15
10.0
 25
10.0
 16
0.0
 26
0.0
 36
1.0
 17
0.0
 27
0.0
 37
0.0
 42
50.0
 43
0.0
 44
0.0
 45
222.18
 50
0.0
 51
0.0
 72
   100
 90
   557152
  1

281
     0
 71
     1
 74
     0
110
0.0
120
0.0
130
0.0
111
1.0
121
0.0
131
0.0
112
0.0
122
1.0
132
0.0
 79
     0
146
0.0
170
     0
 61
     5
348
3F0
292
     1
282
     1
141
0.0
142
0.0
 63
   256
361
4A2
  0
ENDSEC
  0
SECTION
  2
OBJECTS
  0
DICTIONARY
  5
3CE
330
0
100
AcDbDictionary
281
     1
  3
ACAD_DETAILVIEWSTYLE
350
4BF
  3
ACAD_GROUP
350
3CF
  3
ACAD_LAYOUT
350
3DB
  3
ACAD_MATERIAL
350
404
  3
ACAD_MLEADERSTYLE
350
42C
  3
ACAD_MLINESTYLE
350
3D8
  3
ACAD_PLOTSETTINGS
350
3DA
  3
ACAD_PLOTSTYLENAME
350
3D0
  3
ACAD_SCALELIST
350
408
  3
ACAD_SECTIONVIEWSTYLE
350
4C0
  3
ACAD_TABLESTYLE
350
42A
  3
ACAD_VISUALSTYLE
350
3EB
  3
ACDB_RECOMPOSE_DATA
350
4BC
  3
AcDbVariableDictionary
350
4B8
  3
QCAD_OBJECTS
350
430
  0
SUN
  5
42E
330
3EA
100
AcDbSun
 90
        1
290
     0
 63
     7
421
 16777215
 40
1.0
291
     1
 91
  2455826
 92
 54000000
292
     0
 70
     2
 71
   256
280
     1
  0
SUN
  5
4A2
330
4A1
100
AcDbSun
 90
        1
290
     0
 63
     7
421
 16777215
 40
1.0
291
     1
 91
  2455826
 92
 54000000
292
     0
 70
     2
 71
   256
280
     1
  0
DICTIONARY
  5
4BF
102
{ACAD_REACTORS
330
3CE
102
}
330
3CE
100
AcDbDictionary
281
     1
  0
DICTIONARY
  5
3CF
102
{ACAD_REACTORS
330
3CE
102
}
330
3CE
100
AcDbDictionary
281
     1
  0
DICTIONARY
  5
3DB
102
{ACAD_REACTORS
330
3CE
102
}
330
3CE
100
AcDbDictionary
281
     1
  3
Layout1
350
3DF
  3
Model
350
3E3
  0
DICTIONARY
  5
404
102
{ACAD_REACTORS
330
3CE
102
}
330
3CE
100
AcDbDictionary
281
     1
  3
ByBlock
350
406
  3
ByLayer
350
405
  3
Global
350
407
  0
DICTIONARY
  5
42C
102
{ACAD_REACTORS
330
3CE
102
}
330
3CE
100
AcDbDictionary
281
     1
  3
Standard
350
42D
  0
DICTIONARY
  5
3D8
102
{ACAD_REACTORS
330
3CE
102
}
330
3CE
100
AcDbDictionary
281
     1
  3
Standard
350
3D9
  0
DICTIONARY
  5
3DA
102
{ACAD_REACTORS
330
3CE
102
}
330
3CE
100
AcDbDictionary
281
     1
  0
ACDBDICTIONARYWDFLT
  5
3D0
102
{ACAD_REACTORS
330
3CE
102
}
330
3CE
100
AcDbDictionary
281
     1
  3
Normal
350
3D1
100
AcDbDictionaryWithDefault
340
3D1
  0
DICTIONARY
  5
408
102
{ACAD_REACTORS
330
3CE
102
}
330
3CE
100
AcDbDictionary
281
     1
  3
A0
350
409
  3
A1
350
40A
  3
A2
350
40B
  3
A3
350
40C
  3
A4
350
40D
  3
A5
350
40E
  3
A6
350
40F
  3
A7
350
410
  3
A8
350
411
  3
A9
350
412
  3
B0
350
413
  3
B1
350
414
  3
B2
350
415
  3
B3
350
416
  3
B4
350
417
  3
B5
350
418
  3
B6
350
419
  3
B7
350
41A
  3
B8
350
41B
  3
B9
350
41C
  3
C0
350
41D
  3
C1
350
41E
  3
C2
350
41F
  3
C3
350
420
  3
C4
350
421
  3
C5
350
422
  3
C6
350
423
  3
C7
350
424
  3
C8
350
425
  3
C9
350
426
  3
D0
350
427
  3
D1
350
428
  3
D2
350
429
  0
DICTIONARY
  5
4C0
102
{ACAD_REACTORS
330
3CE
102
}
330
3CE
100
AcDbDictionary
281
     1
  0
DICTIONARY
  5
42A
102
{ACAD_REACTORS
330
3CE
102
}
330
3CE
100
AcDbDictionary
281
     1
  3
Standard
350
42B
  0
DICTIONARY
  5
3EB
102
{ACAD_REACTORS
330
3CE
102
}
330
3CE
100
AcDbDictionary
281
     1
  3
2dWireframe
350
3F0
  3
Basic
350
3F3
  3
Brighten
350
3F7
  3
ColorChange
350
3FB
  3
Conceptual
350
3F5
  3
Dim
350
3F6
  3
EdgeColorOff
350
3FE
  3
Facepattern
350
3FA
  3
Flat
350
3EC
  3
FlatWithEdges
350
3ED
  3
Gouraud
350
3EE
  3
GouraudWithEdges
350
3EF
  3
Hidden
350
3F2
  3
JitterOff
350
3FC
  3
Linepattern
350
3F9
  3
OverhangOff
350
3FD
  3
Realistic
350
3F4
  3
Shaded
350
403
  3
Shaded with edges
350
402
  3
Shades of Gray
350
3FF
  3
Sketchy
350
400
  3
Thicken
350
3F8
  3
Wireframe
350
3F1
  3
X-Ray
350
401
  0
XRECORD
  5
4BC
102
{ACAD_REACTORS
330
3CE
102
}
330
3CE
100
AcDbXrecord
280
     1
 90
        1
330
42B
  0
DICTIONARY
  5
4B8
102
{ACAD_REACTORS
330
3CE
102
}
330
3CE
100
AcDbDictionary
281
     1
  3
CANNOSCALE
350
4B9
  3
CMLEADERSTYLE
350
4BE
  3
CTABLESTYLE
350
4BD
  0
DICTIONARY
  5
430
102
{ACAD_REACTORS
330
3CE
102
}
330
3CE
100
AcDbDictionary
281
     1
  3
ColorSettings/BackgroundColor
350
432
  3
ColorSettings/ColorMode
350
433
  3
Grid/DisplayGrid00
350
434
  3
Grid/DisplayGrid01
350
435
  3
Grid/DisplayGrid02
350
436
  3
Grid/DisplayGrid03
350
437
  3
Grid/GridSpacingX00
350
438
  3
Grid/GridSpacingX01
350
439
  3
Grid/GridSpacingX02
350
43A
  3
Grid/GridSpacingX03
350
43B
  3
Grid/GridSpacingY00
350
43C
  3
Grid/GridSpacingY01
350
43D
  3
Grid/GridSpacingY02
350
43E
  3
Grid/GridSpacingY03
350
43F
  3
Grid/IsometricGrid00
350
440
  3
Grid/IsometricGrid01
350
441
  3
Grid/IsometricGrid02
350
442
  3
Grid/IsometricGrid03
350
443
  3
Grid/IsometricProjection00
350
444
  3
Grid/IsometricProjection01
350
445
  3
Grid/IsometricProjection02
350
446
  3
Grid/IsometricProjection03
350
447
  3
Grid/MetaGridSpacingX00
350
448
  3
Grid/MetaGridSpacingX01
350
449
  3
Grid/MetaGridSpacingX02
350
44A
  3
Grid/MetaGridSpacingX03
350
44B
  3
Grid/MetaGridSpacingY00
350
44C
  3
Grid/MetaGridSpacingY01
350
44D
  3
Grid/MetaGridSpacingY02
350
44E
  3
Grid/MetaGridSpacingY03
350
44F
  3
MultiPageSettings/Columns
350
450
  3
MultiPageSettings/GlueMarginsBottom
350
451
  3
MultiPageSettings/GlueMarginsLeft
350
452
  3
MultiPageSettings/GlueMarginsRight
350
453
  3
MultiPageSettings/GlueMarginsTop
350
454
  3
MultiPageSettings/PrintCropMarks
350
455
  3
MultiPageSettings/Rows
350
456
  3
PageSettings/OffsetX
350
457
  3
PageSettings/OffsetY
350
458
  3
PageSettings/PageOrientation
350
459
  3
PageSettings/PaperHeight
350
45A
  3
PageSettings/PaperWidth
350
45B
  3
PageSettings/Scale
350
45C
  3
PageSettings/ShowPaperBorders
350
45D
  3
PageTagSettings/EnablePageTags
350
45E
  3
PageTagSettings/TagAlignment
350
45F
  3
PageTagSettings/TagFont
350
460
  3
PageTagSettings/TagPosition
350
461
  3
QCADVersion
350
431
  3
UnitSettings/PaperUnit
350
462
  3
ViewportCenter
350
463
  3
ViewportHeight
350
464
  3
ViewportWidth
350
465
  0
LAYOUT
  5
3DF
102
{ACAD_REACTORS
330
3DB
102
}
330
3DB
100
AcDbPlotSettings
  1

  2
none_device
  4
ISO_A4_(210.00_x_297.00_MM)
  6

 40
7.5
 41
20.0
 42
7.5
 43
20.0
 44
210.0
 45
297.0
 46
0.0
 47
0.0
 48
0.0
 49
0.0
140
0.0
141
0.0
142
1.0
143
1.0
 70
   672
 72
     1
 73
     1
 74
     5
  7

 75
    16
 76
     0
 77
     2
 78
   300
147
1.0
148
0.0
149
0.0
100
AcDbLayout
  1
Layout1
 70
     1
 71
     0
 10
-20.0
 20
-7.5
 11
277.0
 21
202.5
 12
0.0
 22
0.0
 32
0.0
 14
0.0
 24
0.0
 34
0.0
 15
0.0
 25
0.0
 35
0.0
146
0.0
 13
0.0
 23
0.0
 33
0.0
 16
1.0
 26
0.0
 36
0.0
 17
0.0
 27
1.0
 37
0.0
 76
     0
330
3DC
331
4A1
  0
LAYOUT
  5
3E3
102
{ACAD_REACTORS
330
3DB
102
}
330
3DB
100
AcDbPlotSettings
  1

  2
none_device
  4
Letter_(8.50_x_11.00_Inches)
  6

 40
6.35
 41
6.35
 42
6.35000508
 43
6.35000508
 44
215.9
 45
279.4
 46
0.0
 47
0.0
 48
0.0
 49
0.0
140
0.0
141
0.0
142
1.0
143
1.0
 70
  1712
 72
     0
 73
     0
 74
     0
  7

 75
     0
 76
     0
 77
     2
 78
   300
147
1.0
148
0.0
149
0.0
100
AcDbLayout
  1
Model
 70
     1
 71
     0
 10
0.0
 20
0.0
 11
12.0
 21
9.0
 12
0.0
 22
0.0
 32
0.0
 14
-0.0214081500719203
 24
-0.0000000000001137
 34
0.0
 15
1515.32194526817
 25
1248.276543333368
 35
0.0
146
0.0
 13
0.0
 23
0.0
 33
0.0
 16
1.0
 26
0.0
 36
0.0
 17
0.0
 27
1.0
 37
0.0
 76
     0
330
3E0
331
3EA
  0
MATERIAL
  5
406
102
{ACAD_REACTORS
330
404
102
}
330
404
100
AcDbMaterial
  1
ByBlock
 72
     1
 94
      127
  0
MATERIAL
  5
405
102
{ACAD_REACTORS
330
404
102
}
330
404
100
AcDbMaterial
  1
ByLayer
 72
     1
 94
      127
  0
MATERIAL
  5
407
102
{ACAD_REACTORS
330
404
102
}
330
404
100
AcDbMaterial
  1
Global
 72
     1
 94
      127
  0
MLEADERSTYLE
  5
42D
102
{ACAD_REACTORS
330
42C
102
}
330
42C
100
AcDbMLeaderStyle
179
     2
170
     2
171
     1
172
     0
 90
        2
 40
0.0
 41
0.0
173
     1
 91
-1056964608
340
3D5
 92
       -2
290
     1
 42
0.09
291
     1
 43
0.36
  3
Standard
341
0
 44
0.18
300

342
3D3
174
     1
178
     6
175
     1
176
     0
 93
-1056964608
 45
0.18
292
     0
297
     0
 46
0.18
343
0
 94
-1056964608
 47
1.0
 49
1.0
140
1.0
293
     1
141
0.0
294
     1
177
     0
142
1.0
295
     0
296
     0
143
0.125
271
     0
272
     9
273
     9
298
     0
  0
MLINESTYLE
  5
3D9
102
{ACAD_REACTORS
330
3D8
102
}
330
3D8
100
AcDbMlineStyle
  2
Standard
 70
     0
  3

 62
   256
 51
90.0
 52
90.0
 71
     2
 49
0.5
 62
   256
  6
BYLAYER
 49
-0.5
 62
   256
  6
BYLAYER
  0
ACDBPLACEHOLDER
  5
3D1
102
{ACAD_REACTORS
330
3D0
102
}
330
3D0
  0
SCALE
  5
409
102
{ACAD_REACTORS
330
408
102
}
330
408
100
AcDbScale
 70
     0
300
1:1
140
1.0
141
1.0
290
     1
  0
SCALE
  5
40A
102
{ACAD_REACTORS
330
408
102
}
330
408
100
AcDbScale
 70
     0
300
1:2
140
1.0
141
2.0
290
     0
  0
SCALE
  5
40B
102
{ACAD_REACTORS
330
408
102
}
330
408
100
AcDbScale
 70
     0
300
1:4
140
1.0
141
4.0
290
     0
  0
SCALE
  5
40C
102
{ACAD_REACTORS
330
408
102
}
330
408
100
AcDbScale
 70
     0
300
1:5
140
1.0
141
5.0
290
     0
  0
SCALE
  5
40D
102
{ACAD_REACTORS
330
408
102
}
330
408
100
AcDbScale
 70
     0
300
1:8
140
1.0
141
8.0
290
     0
  0
SCALE
  5
40E
102
{ACAD_REACTORS
330
408
102
}
330
408
100
AcDbScale
 70
     0
300
1:10
140
1.0
141
10.0
290
     0
  0
SCALE
  5
40F
102
{ACAD_REACTORS
330
408
102
}
330
408
100
AcDbScale
 70
     0
300
1:16
140
1.0
141
16.0
290
     0
  0
SCALE
  5
410
102
{ACAD_REACTORS
330
408
102
}
330
408
100
AcDbScale
 70
     0
300
1:20
140
1.0
141
20.0
290
     0
  0
SCALE
  5
411
102
{ACAD_REACTORS
330
408
102
}
330
408
100
AcDbScale
 70
     0
300
1:30
140
1.0
141
30.0
290
     0
  0
SCALE
  5
412
102
{ACAD_REACTORS
330
408
102
}
330
408
100
AcDbScale
 70
     0
300
1:40
140
1.0
141
40.0
290
     0
  0
SCALE
  5
413
102
{ACAD_REACTORS
330
408
102
}
330
408
100
AcDbScale
 70
     0
300
1:50
140
1.0
141
50.0
290
     0
  0
SCALE
  5
414
102
{ACAD_REACTORS
330
408
102
}
330
408
100
AcDbScale
 70
     0
300
1:100
140
1.0
141
100.0
290
     0
  0
SCALE
  5
415
102
{ACAD_REACTORS
330
408
102
}
330
408
100
AcDbScale
 70
     0
300
2:1
140
2.0
141
1.0
290
     0
  0
SCALE
  5
416
102
{ACAD_REACTORS
330
408
102
}
330
408
100
AcDbScale
 70
     0
300
4:1
140
4.0
141
1.0
290
     0
  0
SCALE
  5
417
102
{ACAD_REACTORS
330
408
102
}
330
408
100
AcDbScale
 70
     0
300
8:1
140
8.0
141
1.0
290
     0
  0
SCALE
  5
418
102
{ACAD_REACTORS
330
408
102
}
330
408
100
AcDbScale
 70
     0
300
10:1
140
10.0
141
1.0
290
     0
  0
SCALE
  5
419
102
{ACAD_REACTORS
330
408
102
}
330
408
100
AcDbScale
 70
     0
300
100:1
140
100.0
141
1.0
290
     0
  0
SCALE
  5
41A
102
{ACAD_REACTORS
330
408
102
}
330
408
100
AcDbScale
 70
     0
300
1/128" = 1'-0"
140
0.0078125
141
12.0
290
     0
  0
SCALE
  5
41B
102
{ACAD_REACTORS
330
408
102
}
330
408
100
AcDbScale
 70
     0
300
1/64" = 1'-0"
140
0.015625
141
12.0
290
     0
  0
SCALE
  5
41C
102
{ACAD_REACTORS
330
408
102
}
330
408
100
AcDbScale
 70
     0
300
1/32" = 1'-0"
140
0.03125
141
12.0
290
     0
  0
SCALE
  5
41D
102
{ACAD_REACTORS
330
408
102
}
330
408
100
AcDbScale
 70
     0
300
1/16" = 1'-0"
140
0.0625
141
12.0
290
     0
  0
SCALE
  5
41E
102
{ACAD_REACTORS
330
408
102
}
330
408
100
AcDbScale
 70
     0
300
3/32" = 1'-0"
140
0.09375
141
12.0
290
     0
  0
SCALE
  5
41F
102
{ACAD_REACTORS
330
408
102
}
330
408
100
AcDbScale
 70
     0
300
1/8" = 1'-0"
140
0.125
141
12.0
290
     0
  0
SCALE
  5
420
102
{ACAD_REACTORS
330
408
102
}
330
408
100
AcDbScale
 70
     0
300
3/16" = 1'-0"
140
0.1875
141
12.0
290
     0
  0
SCALE
  5
421
102
{ACAD_REACTORS
330
408
102
}
330
408
100
AcDbScale
 70
     0
300
1/4" = 1'-0"
140
0.25
141
12.0
290
     0
  0
SCALE
  5
422
102
{ACAD_REACTORS
330
408
102
}
330
408
100
AcDbScale
 70
     0
300
3/8" = 1'-0"
140
0.375
141
12.0
290
     0
  0
SCALE
  5
423
102
{ACAD_REACTORS
330
408
102
}
330
408
100
AcDbScale
 70
     0
300
1/2" = 1'-0"
140
0.5
141
12.0
290
     0
  0
SCALE
  5
424
102
{ACAD_REACTORS
330
408
102
}
330
408
100
AcDbScale
 70
     0
300
3/4" = 1'-0"
140
0.75
141
12.0
290
     0
  0
SCALE
  5
425
102
{ACAD_REACTORS
330
408
102
}
330
408
100
AcDbScale
 70
     0
300
1" = 1'-0"
140
1.0
141
12.0
290
     0
  0
SCALE
  5
426
102
{ACAD_REACTORS
330
408
102
}
330
408
100
AcDbScale
 70
     0
300
1-1/2" = 1'-0"
140
1.5
141
12.0
290
     0
  0
SCALE
  5
427
102
{ACAD_REACTORS
330
408
102
}
330
408
100
AcDbScale
 70
     0
300
3" = 1'-0"
140
3.0
141
12.0
290
     0
  0
SCALE
  5
428
102
{ACAD_REACTORS
330
408
102
}
330
408
100
AcDbScale
 70
     0
300
6" = 1'-0"
140
6.0
141
12.0
290
     0
  0
SCALE
  5
429
102
{ACAD_REACTORS
330
408
102
}
330
408
100
AcDbScale
 70
     0
300
1'-0" = 1'-0"
140
12.0
141
12.0
290
     0
  0
TABLESTYLE
  5
42B
102
{ACAD_REACTORS
330
42A
102
}
102
{ACAD_XDICTIONARY
360
4BA
102
}
330
42A
100
AcDbTableStyle
  3
Standard
 70
     0
 71
     0
 40
0.06
 41
0.06
280
     0
281
     0
  7
Standard
140
0.18
170
     2
 62
     0
 63
   257
283
     0
 90
        4
 91
        0
  1

274
    -2
284
     1
 64
     0
275
    -2
285
     1
 65
     0
276
    -2
286
     1
 66
     0
277
    -2
287
     1
 67
     0
278
    -2
288
     1
 68
     0
279
    -2
289
     1
 69
     0
  7
Standard
140
0.25
170
     5
 62
     0
 63
   257
283
     0
 90
        4
 91
        0
  1

274
    -2
284
     1
 64
     0
275
    -2
285
     1
 65
     0
276
    -2
286
     1
 66
     0
277
    -2
287
     1
 67
     0
278
    -2
288
     1
 68
     0
279
    -2
289
     1
 69
     0
  7
Standard
140
0.18
170
     5
 62
     0
 63
   257
283
     0
 90
        4
 91
        0
  1

274
    -2
284
     1
 64
     0
275
    -2
285
     1
 65
     0
276
    -2
286
     1
 66
     0
277
    -2
287
     1
 67
     0
278
    -2
288
     1
 68
     0
279
    -2
289
     1
 69
     0
  0
VISUALSTYLE
  5
3F0
102
{ACAD_REACTORS
330
3EB
102
}
330
3EB
100
AcDbVisualStyle
  2
2dWireframe
 70
     4
177
     3
291
     0
 70
    58
 90
        0
176
     1
 90
        2
176
     1
 90
        0
176
     1
 90
        0
176
     1
 40
0.6
176
     1
 40
30.0
176
     1
 62
     7
420
 16777215
176
     1
 90
        1
176
     1
 90
        4
176
     1
 62
     7
176
     1
 62
   257
176
     1
 90
        1
176
     1
 90
        1
176
     1
 40
1.0
176
     1
 90
        0
176
     1
 62
   257
176
     1
 40
1.0
176
     1
 90
        1
176
     1
 90
        6
176
     1
 90
        2
176
     1
 62
     7
176
     1
 90
        5
176
     1
 90
        0
176
     1
 90
        0
176
     1
290
     0
176
     1
 90
        1
176
     1
 40
0.0
176
     1
 90
        0
176
     1
290
     1
176
     1
290
     1
176
     1
290
     0
176
     1
290
     0
176
     1
290
     0
176
     1
290
     0
176
     1
290
     0
176
     1
290
     0
176
     1
290
     0
176
     1
 90
       50
176
     1
 40
0.0
176
     1
 40
1.0
176
     1
 90
        0
176
     1
 62
    18
420
        0
176
     1
 90
       50
176
     1
 90
        3
176
     1
 62
     5
420
      255
176
     1
290
     0
176
     1
 90
       50
176
     1
 90
       50
176
     1
 90
       50
176
     1
290
     0
176
     1
 90
       50
176
     1
 62
   256
176
     0
 40
1.0
176
     0
 90
        2
176
     1
  1
strokes_ogs.tif
176
     1
290
     0
176
     1
 40
1.0
176
     1
 40
1.0
176
     1
  0
VISUALSTYLE
  5
3F3
102
{ACAD_REACTORS
330
3EB
102
}
330
3EB
100
AcDbVisualStyle
  2
Basic
 70
     7
177
     3
291
     1
 70
    58
 90
        1
176
     1
 90
        0
176
     1
 90
        1
176
     1
 90
        0
176
     1
 40
0.6
176
     1
 40
30.0
176
     1
 62
     7
420
 16777215
176
     1
 90
        0
176
     1
 90
        4
176
     1
 62
     7
176
     1
 62
   257
176
     1
 90
        1
176
     1
 90
        1
176
     1
 40
1.0
176
     1
 90
        8
176
     1
 62
     7
176
     1
 40
1.0
176
     1
 90
        1
176
     1
 90
        6
176
     1
 90
        2
176
     1
 62
     7
176
     1
 90
        5
176
     1
 90
        0
176
     1
 90
        0
176
     1
290
     0
176
     1
 90
        1
176
     1
 40
0.0
176
     1
 90
        0
176
     1
290
     0
176
     1
290
     1
176
     1
290
     1
176
     1
290
     0
176
     1
290
     0
176
     1
290
     0
176
     1
290
     0
176
     1
290
     0
176
     1
290
     0
176
     1
 90
       50
176
     1
 40
0.0
176
     1
 40
1.0
176
     1
 90
        0
176
     1
 62
    18
420
        0
176
     1
 90
       50
176
     1
 90
        3
176
     1
 62
     5
420
      255
176
     1
290
     0
176
     1
 90
       50
176
     1
 90
       50
176
     1
 90
       50
176
     1
290
     0
176
     1
 90
       50
176
     1
 62
   256
176
     0
 40
1.0
176
     0
 90
        2
176
     1
  1
strokes_ogs.tif
176
     1
290
     0
176
     1
 40
1.0
176
     1
 40
1.0
176
     1
  0
VISUALSTYLE
  5
3F7
102
{ACAD_REACTORS
330
3EB
102
}
330
3EB
100
AcDbVisualStyle
  2
Brighten
 70
    12
177
     3
291
     1
 70
    58
 90
        2
176
     1
 90
        2
176
     1
 90
        0
176
     1
 90
        0
176
     1
 40
0.6
176
     1
 40
30.0
176
     1
 62
     7
420
 16777215
176
     1
 90
        1
176
     1
 90
        4
176
     1
 62
     7
176
     1
 62
   257
176
     1
 90
        1
176
     1
 90
        1
176
     1
 40
1.0
176
     1
 90
        8
176
     1
 62
     7
176
     1
 40
1.0
176
     1
 90
        1
176
     1
 90
        6
176
     1
 90
        2
176
     1
 62
     7
176
     1
 90
        5
176
     1
 90
        0
176
     1
 90
        0
176
     1
290
     0
176
     1
 90
        1
176
     1
 40
50.0
176
     1
 90
        0
176
     1
290
     0
176
     1
290
     1
176
     1
290
     1
176
     1
290
     0
176
     1
290
     0
176
     1
290
     0
176
     1
290
     0
176
     1
290
     0
176
     1
290
     0
176
     1
 90
       50
176
     1
 40
0.0
176
     1
 40
1.0
176
     1
 90
        0
176
     1
 62
    18
420
        0
176
     1
 90
       50
176
     1
 90
        3
176
     1
 62
     5
420
      255
176
     1
290
     0
176
     1
 90
       50
176
     1
 90
       50
176
     1
 90
       50
176
     1
290
     0
176
     1
 90
       50
176
     1
 62
   256
176
     0
 40
1.0
176
     0
 90
        2
176
     1
  1
strokes_ogs.tif
176
     1
290
     0
176
     1
 40
1.0
176
     1
 40
1.0
176
     1
  0
VISUALSTYLE
  5
3FB
102
{ACAD_REACTORS
330
3EB
102
}
330
3EB
100
AcDbVisualStyle
  2
ColorChange
 70
    16
177
     3
291
     1
 70
    58
 90
        2
176
     1
 90
        2
176
     1
 90
        3
176
     1
 90
        0
176
     1
 40
0.6
176
     1
 40
30.0
176
     1
 62
     8
420
  8421504
176
     1
 90
        1
176
     1
 90
        4
176
     1
 62
     7
176
     1
 62
   257
176
     1
 90
        1
176
     1
 90
        1
176
     1
 40
1.0
176
     1
 90
        8
176
     1
 62
     8
420
  8421504
176
     1
 40
1.0
176
     1
 90
        1
176
     1
 90
        6
176
     1
 90
        2
176
     1
 62
     7
176
     1
 90
        5
176
     1
 90
        0
176
     1
 90
        0
176
     1
290
     0
176
     1
 90
        1
176
     1
 40
0.0
176
     1
 90
        0
176
     1
290
     0
176
     1
290
     1
176
     1
290
     1
176
     1
290
     0
176
     1
290
     0
176
     1
290
     0
176
     1
290
     0
176
     1
290
     0
176
     1
290
     0
176
     1
 90
       50
176
     1
 40
0.0
176
     1
 40
1.0
176
     1
 90
        0
176
     1
 62
    18
420
        0
176
     1
 90
       50
176
     1
 90
        3
176
     1
 62
     5
420
      255
176
     1
290
     0
176
     1
 90
       50
176
     1
 90
       50
176
     1
 90
       50
176
     1
290
     0
176
     1
 90
       50
176
     1
 62
   256
176
     0
 40
1.0
176
     0
 90
        2
176
     1
  1
strokes_ogs.tif
176
     1
290
     0
176
     1
 40
1.0
176
     1
 40
1.0
176
     1
  0
VISUALSTYLE
  5
3F5
102
{ACAD_REACTORS
330
3EB
102
}
330
3EB
100
AcDbVisualStyle
  2
Conceptual
 70
     9
177
     3
291
     0
 70
    58
 90
        3
176
     1
 90
        2
176
     1
 90
        0
176
     1
 90
        0
176
     1
 40
0.6
176
     1
 40
30.0
176
     1
 62
     7
420
 16777215
176
     1
 90
        2
176
     1
 90
        2
176
     1
 62
     7
176
     1
 62
   257
176
     1
 90
        1
176
     1
 90
        1
176
     1
 40
179.0
176
     1
 90
        8
176
     1
 62
     7
176
     1
 40
1.0
176
     1
 90
        1
176
     1
 90
        6
176
     1
 90
        2
176
     1
 62
     7
176
     1
 90
        3
176
     1
 90
        0
176
     1
 90
        0
176
     1
290
     0
176
     1
 90
        1
176
     1
 40
0.0
176
     1
 90
        0
176
     1
290
     0
176
     1
290
     1
176
     1
290
     1
176
     1
290
     0
176
     1
290
     0
176
     1
290
     0
176
     1
290
     0
176
     1
290
     0
176
     1
290
     0
176
     1
 90
       50
176
     1
 40
0.0
176
     1
 40
1.0
176
     1
 90
        0
176
     1
 62
    18
420
        0
176
     1
 90
       50
176
     1
 90
        3
176
     1
 62
     5
420
      255
176
     1
290
     0
176
     1
 90
       50
176
     1
 90
       50
176
     1
 90
       50
176
     1
290
     0
176
     1
 90
       50
176
     1
 62
   256
176
     0
 40
1.0
176
     0
 90
        2
176
     1
  1
strokes_ogs.tif
176
     1
290
     0
176
     1
 40
1.0
176
     1
 40
1.0
176
     1
  0
VISUALSTYLE
  5
3F6
102
{ACAD_REACTORS
330
3EB
102
}
330
3EB
100
AcDbVisualStyle
  2
Dim
 70
    11
177
     3
291
     1
 70
    58
 90
        2
176
     1
 90
        2
176
     1
 90
        0
176
     1
 90
        0
176
     1
 40
0.6
176
     1
 40
30.0
176
     1
 62
     7
420
 16777215
176
     1
 90
        1
176
     1
 90
        4
176
     1
 62
     7
176
     1
 62
   257
176
     1
 90
        1
176
     1
 90
        1
176
     1
 40
1.0
176
     1
 90
        8
176
     1
 62
     7
176
     1
 40
1.0
176
     1
 90
        1
176
     1
 90
        6
176
     1
 90
        2
176
     1
 62
     7
176
     1
 90
        5
176
     1
 90
        0
176
     1
 90
        0
176
     1
290
     0
176
     1
 90
        1
176
     1
 40
-50.0
176
     1
 90
        0
176
     1
290
     0
176
     1
290
     1
176
     1
290
     1
176
     1
290
     0
176
     1
290
     0
176
     1
290
     0
176
     1
290
     0
176
     1
290
     0
176
     1
290
     0
176
     1
 90
       50
176
     1
 40
0.0
176
     1
 40
1.0
176
     1
 90
        0
176
     1
 62
    18
420
        0
176
     1
 90
       50
176
     1
 90
        3
176
     1
 62
     5
420
      255
176
     1
290
     0
176
     1
 90
       50
176
     1
 90
       50
176
     1
 90
       50
176
     1
290
     0
176
     1
 90
       50
176
     1
 62
   256
176
     0
 40
1.0
176
     0
 90
        2
176
     1
  1
strokes_ogs.tif
176
     1
290
     0
176
     1
 40
1.0
176
     1
 40
1.0
176
     1
  0
VISUALSTYLE
  5
3FE
102
{ACAD_REACTORS
330
3EB
102
}
330
3EB
100
AcDbVisualStyle
  2
EdgeColorOff
 70
    22
177
     3
291
     1
 70
    58
 90
        2
176
     0
 90
        2
176
     0
 90
        0
176
     0
 90
        0
176
     0
 40
0.6
176
     0
 40
30.0
176
     0
 62
     7
420
 16777215
176
     0
 90
        1
176
     0
 90
        4
176
     0
 62
     7
176
     0
 62
   257
176
     0
 90
        1
176
     0
 90
        1
176
     0
 40
1.0
176
     0
 90
        8
176
     2
 62
     7
176
     0
 40
1.0
176
     0
 90
        1
176
     0
 90
        6
176
     0
 90
        2
176
     0
 62
     7
176
     0
 90
        5
176
     0
 90
        0
176
     0
 90
        0
176
     0
290
     0
176
     0
 90
        1
176
     0
 40
0.0
176
     0
 90
        0
176
     0
290
     0
176
     0
290
     1
176
     0
290
     1
176
     0
290
     0
176
     0
290
     0
176
     0
290
     0
176
     0
290
     0
176
     0
290
     0
176
     0
290
     0
176
     0
 90
       50
176
     0
 40
0.0
176
     0
 40
1.0
176
     0
 90
        0
176
     0
 62
    18
420
        0
176
     0
 90
       50
176
     0
 90
        3
176
     0
 62
     5
420
      255
176
     0
290
     0
176
     0
 90
       50
176
     0
 90
       50
176
     0
 90
       50
176
     0
290
     0
176
     0
 90
       50
176
     0
 62
   256
176
     0
 40
1.0
176
     0
 90
        2
176
     0
  1
strokes_ogs.tif
176
     0
290
     0
176
     0
 40
1.0
176
     0
 40
1.0
176
     0
  0
VISUALSTYLE
  5
3FA
102
{ACAD_REACTORS
330
3EB
102
}
330
3EB
100
AcDbVisualStyle
  2
Facepattern
 70
    15
177
     3
291
     1
 70
    58
 90
        2
176
     1
 90
        2
176
     1
 90
        0
176
     1
 90
        0
176
     1
 40
0.6
176
     1
 40
30.0
176
     1
 62
     7
420
 16777215
176
     1
 90
        1
176
     1
 90
        4
176
     1
 62
     7
176
     1
 62
   257
176
     1
 90
        1
176
     1
 90
        1
176
     1
 40
1.0
176
     1
 90
        8
176
     1
 62
     7
176
     1
 40
1.0
176
     1
 90
        1
176
     1
 90
        6
176
     1
 90
        2
176
     1
 62
     7
176
     1
 90
        5
176
     1
 90
        0
176
     1
 90
        0
176
     1
290
     0
176
     1
 90
        1
176
     1
 40
0.0
176
     1
 90
        0
176
     1
290
     0
176
     1
290
     1
176
     1
290
     1
176
     1
290
     0
176
     1
290
     0
176
     1
290
     0
176
     1
290
     0
176
     1
290
     0
176
     1
290
     0
176
     1
 90
       50
176
     1
 40
0.0
176
     1
 40
1.0
176
     1
 90
        0
176
     1
 62
    18
420
        0
176
     1
 90
       50
176
     1
 90
        3
176
     1
 62
     5
420
      255
176
     1
290
     0
176
     1
 90
       50
176
     1
 90
       50
176
     1
 90
       50
176
     1
290
     0
176
     1
 90
       50
176
     1
 62
   256
176
     0
 40
1.0
176
     0
 90
        2
176
     1
  1
strokes_ogs.tif
176
     1
290
     0
176
     1
 40
1.0
176
     1
 40
1.0
176
     1
  0
VISUALSTYLE
  5
3EC
102
{ACAD_REACTORS
330
3EB
102
}
330
3EB
100
AcDbVisualStyle
  2
Flat
 70
     0
177
     3
291
     1
 70
    58
 90
        2
176
     1
 90
        1
176
     1
 90
        1
176
     1
 90
        2
176
     1
 40
0.6
176
     1
 40
30.0
176
     1
 62
     7
420
 16777215
176
     1
 90
        0
176
     1
 90
        0
176
     1
 62
     7
176
     1
 62
   257
176
     1
 90
        1
176
     1
 90
        1
176
     1
 40
1.0
176
     1
 90
        8
176
     1
 62
     7
176
     1
 40
1.0
176
     1
 90
        1
176
     1
 90
        6
176
     1
 90
        2
176
     1
 62
     7
176
     1
 90
        5
176
     1
 90
        0
176
     1
 90
        0
176
     1
290
     0
176
     1
 90
       13
176
     1
 40
0.0
176
     1
 90
        0
176
     1
290
     0
176
     1
290
     1
176
     1
290
     1
176
     1
290
     0
176
     1
290
     0
176
     1
290
     0
176
     1
290
     0
176
     1
290
     0
176
     1
290
     0
176
     1
 90
       50
176
     1
 40
0.0
176
     1
 40
1.0
176
     1
 90
        0
176
     1
 62
    18
420
        0
176
     1
 90
       50
176
     1
 90
        3
176
     1
 62
     5
420
      255
176
     1
290
     0
176
     1
 90
       50
176
     1
 90
       50
176
     1
 90
       50
176
     1
290
     0
176
     1
 90
       50
176
     1
 62
   256
176
     0
 40
1.0
176
     0
 90
        2
176
     1
  1
strokes_ogs.tif
176
     1
290
     0
176
     1
 40
1.0
176
     1
 40
1.0
176
     1
  0
VISUALSTYLE
  5
3ED
102
{ACAD_REACTORS
330
3EB
102
}
330
3EB
100
AcDbVisualStyle
  2
FlatWithEdges
 70
     1
177
     3
291
     1
 70
    58
 90
        2
176
     1
 90
        1
176
     1
 90
        1
176
     1
 90
        2
176
     1
 40
0.6
176
     1
 40
30.0
176
     1
 62
     7
420
 16777215
176
     1
 90
        1
176
     1
 90
        0
176
     1
 62
     7
176
     1
 62
   257
176
     1
 90
        1
176
     1
 90
        1
176
     1
 40
1.0
176
     1
 90
        0
176
     1
 62
   257
176
     1
 40
1.0
176
     1
 90
        1
176
     1
 90
        6
176
     1
 90
        2
176
     1
 62
     7
176
     1
 90
        5
176
     1
 90
        0
176
     1
 90
        0
176
     1
290
     0
176
     1
 90
       13
176
     1
 40
0.0
176
     1
 90
        0
176
     1
290
     0
176
     1
290
     1
176
     1
290
     1
176
     1
290
     0
176
     1
290
     0
176
     1
290
     0
176
     1
290
     0
176
     1
290
     0
176
     1
290
     0
176
     1
 90
       50
176
     1
 40
0.0
176
     1
 40
1.0
176
     1
 90
        0
176
     1
 62
    18
420
        0
176
     1
 90
       50
176
     1
 90
        3
176
     1
 62
     5
420
      255
176
     1
290
     0
176
     1
 90
       50
176
     1
 90
       50
176
     1
 90
       50
176
     1
290
     0
176
     1
 90
       50
176
     1
 62
   256
176
     0
 40
1.0
176
     0
 90
        2
176
     1
  1
strokes_ogs.tif
176
     1
290
     0
176
     1
 40
1.0
176
     1
 40
1.0
176
     1
  0
VISUALSTYLE
  5
3EE
102
{ACAD_REACTORS
330
3EB
102
}
330
3EB
100
AcDbVisualStyle
  2
Gouraud
 70
     2
177
     3
291
     1
 70
    58
 90
        2
176
     1
 90
        2
176
     1
 90
        1
176
     1
 90
        2
176
     1
 40
0.6
176
     1
 40
30.0
176
     1
 62
     7
420
 16777215
176
     1
 90
        0
176
     1
 90
        0
176
     1
 62
     7
176
     1
 62
   257
176
     1
 90
        1
176
     1
 90
        1
176
     1
 40
1.0
176
     1
 90
        0
176
     1
 62
     7
176
     1
 40
1.0
176
     1
 90
        1
176
     1
 90
        6
176
     1
 90
        2
176
     1
 62
     7
176
     1
 90
        5
176
     1
 90
        0
176
     1
 90
        0
176
     1
290
     0
176
     1
 90
       13
176
     1
 40
0.0
176
     1
 90
        0
176
     1
290
     0
176
     1
290
     1
176
     1
290
     1
176
     1
290
     0
176
     1
290
     0
176
     1
290
     0
176
     1
290
     0
176
     1
290
     0
176
     1
290
     0
176
     1
 90
       50
176
     1
 40
0.0
176
     1
 40
1.0
176
     1
 90
        0
176
     1
 62
    18
420
        0
176
     1
 90
       50
176
     1
 90
        3
176
     1
 62
     5
420
      255
176
     1
290
     0
176
     1
 90
       50
176
     1
 90
       50
176
     1
 90
       50
176
     1
290
     0
176
     1
 90
       50
176
     1
 62
   256
176
     0
 40
1.0
176
     0
 90
        2
176
     1
  1
strokes_ogs.tif
176
     1
290
     0
176
     1
 40
1.0
176
     1
 40
1.0
176
     1
  0
VISUALSTYLE
  5
3EF
102
{ACAD_REACTORS
330
3EB
102
}
330
3EB
100
AcDbVisualStyle
  2
GouraudWithEdges
 70
     3
177
     3
291
     1
 70
    58
 90
        2
176
     1
 90
        2
176
     1
 90
        1
176
     1
 90
        2
176
     1
 40
0.6
176
     1
 40
30.0
176
     1
 62
     7
420
 16777215
176
     1
 90
        1
176
     1
 90
        0
176
     1
 62
     7
176
     1
 62
   257
176
     1
 90
        1
176
     1
 90
        1
176
     1
 40
1.0
176
     1
 90
        0
176
     1
 62
   257
176
     1
 40
1.0
176
     1
 90
        1
176
     1
 90
        6
176
     1
 90
        2
176
     1
 62
     7
176
     1
 90
        5
176
     1
 90
        0
176
     1
 90
        0
176
     1
290
     0
176
     1
 90
       13
176
     1
 40
0.0
176
     1
 90
        0
176
     1
290
     0
176
     1
290
     1
176
     1
290
     1
176
     1
290
     0
176
     1
290
     0
176
     1
290
     0
176
     1
290
     0
176
     1
290
     0
176
     1
290
     0
176
     1
 90
       50
176
     1
 40
0.0
176
     1
 40
1.0
176
     1
 90
        0
176
     1
 62
    18
420
        0
176
     1
 90
       50
176
     1
 90
        3
176
     1
 62
     5
420
      255
176
     1
290
     0
176
     1
 90
       50
176
     1
 90
       50
176
     1
 90
       50
176
     1
290
     0
176
     1
 90
       50
176
     1
 62
   256
176
     0
 40
1.0
176
     0
 90
        2
176
     1
  1
strokes_ogs.tif
176
     1
290
     0
176
     1
 40
1.0
176
     1
 40
1.0
176
     1
  0
VISUALSTYLE
  5
3F2
102
{ACAD_REACTORS
330
3EB
102
}
330
3EB
100
AcDbVisualStyle
  2
Hidden
 70
     6
177
     3
291
     0
 70
    58
 90
        1
176
     1
 90
        2
176
     1
 90
        2
176
     1
 90
        0
176
     1
 40
0.6
176
     1
 40
30.0
176
     1
 62
     7
420
 16777215
176
     1
 90
        2
176
     1
 90
        2
176
     1
 62
     7
176
     1
 62
   257
176
     1
 90
        2
176
     1
 90
        1
176
     1
 40
40.0
176
     1
 90
        0
176
     1
 62
   257
176
     1
 40
1.0
176
     1
 90
        1
176
     1
 90
        6
176
     1
 90
        2
176
     1
 62
     7
176
     1
 90
        3
176
     1
 90
        0
176
     1
 90
        0
176
     1
290
     0
176
     1
 90
        1
176
     1
 40
0.0
176
     1
 90
        0
176
     1
290
     0
176
     1
290
     1
176
     1
290
     1
176
     1
290
     0
176
     1
290
     0
176
     1
290
     0
176
     1
290
     0
176
     1
290
     0
176
     1
290
     0
176
     1
 90
       50
176
     1
 40
0.0
176
     1
 40
1.0
176
     1
 90
        0
176
     1
 62
    18
420
        0
176
     1
 90
       50
176
     1
 90
        3
176
     1
 62
     5
420
      255
176
     1
290
     0
176
     1
 90
       50
176
     1
 90
       50
176
     1
 90
       50
176
     1
290
     0
176
     1
 90
       50
176
     1
 62
   256
176
     0
 40
1.0
176
     0
 90
        2
176
     1
  1
strokes_ogs.tif
176
     1
290
     0
176
     1
 40
1.0
176
     1
 40
1.0
176
     1
  0
VISUALSTYLE
  5
3FC
102
{ACAD_REACTORS
330
3EB
102
}
330
3EB
100
AcDbVisualStyle
  2
JitterOff
 70
    20
177
     3
291
     1
 70
    58
 90
        2
176
     0
 90
        2
176
     0
 90
        0
176
     0
 90
        0
176
     0
 40
0.6
176
     0
 40
30.0
176
     0
 62
     7
420
 16777215
176
     0
 90
        1
176
     0
 90
        4
176
     0
 62
     7
176
     0
 62
   257
176
     0
 90
        1
176
     0
 90
        1
176
     0
 40
1.0
176
     0
 90
       10
176
     2
 62
     7
176
     0
 40
1.0
176
     0
 90
        1
176
     0
 90
        6
176
     0
 90
        2
176
     0
 62
     7
176
     0
 90
        5
176
     0
 90
        0
176
     0
 90
        0
176
     0
290
     0
176
     0
 90
        1
176
     0
 40
0.0
176
     0
 90
        0
176
     0
290
     0
176
     0
290
     1
176
     0
290
     1
176
     0
290
     0
176
     0
290
     0
176
     0
290
     0
176
     0
290
     0
176
     0
290
     0
176
     0
290
     0
176
     0
 90
       50
176
     0
 40
0.0
176
     0
 40
1.0
176
     0
 90
        0
176
     0
 62
    18
420
        0
176
     0
 90
       50
176
     0
 90
        3
176
     0
 62
     5
420
      255
176
     0
290
     0
176
     0
 90
       50
176
     0
 90
       50
176
     0
 90
       50
176
     0
290
     0
176
     0
 90
       50
176
     0
 62
   256
176
     0
 40
1.0
176
     0
 90
        2
176
     0
  1
strokes_ogs.tif
176
     0
290
     0
176
     0
 40
1.0
176
     0
 40
1.0
176
     0
  0
VISUALSTYLE
  5
3F9
102
{ACAD_REACTORS
330
3EB
102
}
330
3EB
100
AcDbVisualStyle
  2
Linepattern
 70
    14
177
     3
291
     1
 70
    58
 90
        2
176
     1
 90
        2
176
     1
 90
        0
176
     1
 90
        0
176
     1
 40
0.6
176
     1
 40
30.0
176
     1
 62
     7
420
 16777215
176
     1
 90
        1
176
     1
 90
        4
176
     1
 62
     7
176
     1
 62
   257
176
     1
 90
        7
176
     1
 90
        7
176
     1
 40
1.0
176
     1
 90
        8
176
     1
 62
     7
176
     1
 40
1.0
176
     1
 90
        1
176
     1
 90
        6
176
     1
 90
        2
176
     1
 62
     7
176
     1
 90
        5
176
     1
 90
        0
176
     1
 90
        0
176
     1
290
     0
176
     1
 90
        1
176
     1
 40
0.0
176
     1
 90
        0
176
     1
290
     0
176
     1
290
     1
176
     1
290
     1
176
     1
290
     0
176
     1
290
     0
176
     1
290
     0
176
     1
290
     0
176
     1
290
     0
176
     1
290
     0
176
     1
 90
       50
176
     1
 40
0.0
176
     1
 40
1.0
176
     1
 90
        0
176
     1
 62
    18
420
        0
176
     1
 90
       50
176
     1
 90
        3
176
     1
 62
     5
420
      255
176
     1
290
     0
176
     1
 90
       50
176
     1
 90
       50
176
     1
 90
       50
176
     1
290
     0
176
     1
 90
       50
176
     1
 62
   256
176
     0
 40
1.0
176
     0
 90
        2
176
     1
  1
strokes_ogs.tif
176
     1
290
     0
176
     1
 40
1.0
176
     1
 40
1.0
176
     1
  0
VISUALSTYLE
  5
3FD
102
{ACAD_REACTORS
330
3EB
102
}
330
3EB
100
AcDbVisualStyle
  2
OverhangOff
 70
    21
177
     3
291
     1
 70
    58
 90
        2
176
     0
 90
        2
176
     0
 90
        0
176
     0
 90
        0
176
     0
 40
0.6
176
     0
 40
30.0
176
     0
 62
     7
420
 16777215
176
     0
 90
        1
176
     0
 90
        4
176
     0
 62
     7
176
     0
 62
   257
176
     0
 90
        1
176
     0
 90
        1
176
     0
 40
1.0
176
     0
 90
        9
176
     2
 62
     7
176
     0
 40
1.0
176
     0
 90
        1
176
     0
 90
        6
176
     0
 90
        2
176
     0
 62
     7
176
     0
 90
        5
176
     0
 90
        0
176
     0
 90
        0
176
     0
290
     0
176
     0
 90
        1
176
     0
 40
0.0
176
     0
 90
        0
176
     0
290
     0
176
     0
290
     1
176
     0
290
     1
176
     0
290
     0
176
     0
290
     0
176
     0
290
     0
176
     0
290
     0
176
     0
290
     0
176
     0
290
     0
176
     0
 90
       50
176
     0
 40
0.0
176
     0
 40
1.0
176
     0
 90
        0
176
     0
 62
    18
420
        0
176
     0
 90
       50
176
     0
 90
        3
176
     0
 62
     5
420
      255
176
     0
290
     0
176
     0
 90
       50
176
     0
 90
       50
176
     0
 90
       50
176
     0
290
     0
176
     0
 90
       50
176
     0
 62
   256
176
     0
 40
1.0
176
     0
 90
        2
176
     0
  1
strokes_ogs.tif
176
     0
290
     0
176
     0
 40
1.0
176
     0
 40
1.0
176
     0
  0
VISUALSTYLE
  5
3F4
102
{ACAD_REACTORS
330
3EB
102
}
330
3EB
100
AcDbVisualStyle
  2
Realistic
 70
     8
177
     3
291
     0
 70
    58
 90
        2
176
     1
 90
        3
176
     1
 90
        0
176
     1
 90
        2
176
     1
 40
0.6
176
     1
 40
30.0
176
     1
 62
     7
420
 16777215
176
     1
 90
        0
176
     1
 90
        0
176
     1
 62
     7
176
     1
 62
   257
176
     1
 90
        1
176
     1
 90
        1
176
     1
 40
1.0
176
     1
 90
        8
176
     1
 62
   257
176
     1
 40
1.0
176
     1
 90
        1
176
     1
 90
        6
176
     1
 90
        2
176
     1
 62
     7
176
     1
 90
        3
176
     1
 90
        0
176
     1
 90
        0
176
     1
290
     0
176
     1
 90
       13
176
     1
 40
0.0
176
     1
 90
        0
176
     1
290
     0
176
     1
290
     1
176
     1
290
     1
176
     1
290
     0
176
     1
290
     0
176
     1
290
     0
176
     1
290
     0
176
     1
290
     0
176
     1
290
     0
176
     1
 90
       50
176
     1
 40
0.0
176
     1
 40
1.0
176
     1
 90
        0
176
     1
 62
    18
420
        0
176
     1
 90
       50
176
     1
 90
        3
176
     1
 62
     5
420
      255
176
     1
290
     0
176
     1
 90
       50
176
     1
 90
       50
176
     1
 90
       50
176
     1
290
     0
176
     1
 90
       50
176
     1
 62
   256
176
     0
 40
1.0
176
     0
 90
        2
176
     1
  1
strokes_ogs.tif
176
     1
290
     0
176
     1
 40
1.0
176
     1
 40
1.0
176
     1
  0
VISUALSTYLE
  5
403
102
{ACAD_REACTORS
330
3EB
102
}
330
3EB
100
AcDbVisualStyle
  2
Shaded
 70
    27
177
     3
291
     0
 70
    58
 90
        2
176
     1
 90
        2
176
     1
 90
        1
176
     1
 90
        2
176
     1
 40
0.6
176
     1
 40
30.0
176
     1
 62
     7
420
 16777215
176
     1
 90
        0
176
     1
 90
        4
176
     1
 62
     7
176
     1
 62
   257
176
     1
 90
        1
176
     1
 90
        1
176
     1
 40
1.0
176
     1
 90
        8
176
     1
 62
   257
176
     1
 40
1.0
176
     1
 90
        1
176
     1
 90
        6
176
     1
 90
        2
176
     1
 62
     8
420
  7895160
176
     1
 90
        3
176
     1
 90
        0
176
     1
 90
        0
176
     1
290
     0
176
     1
 90
        5
176
     1
 40
0.0
176
     1
 90
        0
176
     1
290
     0
176
     1
290
     1
176
     1
290
     1
176
     1
290
     0
176
     1
290
     0
176
     1
290
     0
176
     1
290
     0
176
     1
290
     0
176
     1
290
     0
176
     1
 90
       50
176
     1
 40
0.0
176
     1
 40
1.0
176
     1
 90
        0
176
     1
 62
    18
420
        0
176
     1
 90
       50
176
     1
 90
        3
176
     1
 62
     5
420
      255
176
     1
290
     0
176
     1
 90
       50
176
     1
 90
       50
176
     1
 90
       50
176
     1
290
     0
176
     1
 90
       50
176
     1
 62
   256
176
     0
 40
1.0
176
     0
 90
        2
176
     1
  1
strokes_ogs.tif
176
     1
290
     0
176
     1
 40
1.0
176
     1
 40
1.0
176
     1
  0
VISUALSTYLE
  5
402
102
{ACAD_REACTORS
330
3EB
102
}
330
3EB
100
AcDbVisualStyle
  2
Shaded with edges
 70
    26
177
     3
291
     0
 70
    58
 90
        2
176
     1
 90
        2
176
     1
 90
        1
176
     1
 90
        2
176
     1
 40
0.6
176
     1
 40
30.0
176
     1
 62
     7
420
 16777215
176
     1
 90
        1
176
     1
 90
       10
176
     1
 62
     7
176
     1
 62
   257
176
     1
 90
        2
176
     1
 90
        1
176
     1
 40
1.0
176
     1
 90
        8
176
     1
 62
   257
176
     1
 40
1.0
176
     1
 90
        1
176
     1
 90
        6
176
     1
 90
        2
176
     1
 62
     7
176
     1
 90
        3
176
     1
 90
        0
176
     1
 90
        0
176
     1
290
     0
176
     1
 90
        5
176
     1
 40
0.0
176
     1
 90
        0
176
     1
290
     0
176
     1
290
     1
176
     1
290
     1
176
     1
290
     0
176
     1
290
     0
176
     1
290
     0
176
     1
290
     0
176
     1
290
     0
176
     1
290
     0
176
     1
 90
       50
176
     1
 40
0.0
176
     1
 40
1.0
176
     1
 90
        0
176
     1
 62
    18
420
        0
176
     1
 90
       50
176
     1
 90
        3
176
     1
 62
     5
420
      255
176
     1
290
     0
176
     1
 90
       50
176
     1
 90
       50
176
     1
 90
       50
176
     1
290
     0
176
     1
 90
       50
176
     1
 62
   256
176
     0
 40
1.0
176
     0
 90
        2
176
     1
  1
strokes_ogs.tif
176
     1
290
     0
176
     1
 40
1.0
176
     1
 40
1.0
176
     1
  0
VISUALSTYLE
  5
3FF
102
{ACAD_REACTORS
330
3EB
102
}
330
3EB
100
AcDbVisualStyle
  2
Shades of Gray
 70
    23
177
     3
291
     0
 70
    58
 90
        2
176
     1
 90
        2
176
     1
 90
        3
176
     1
 90
        0
176
     1
 40
0.6
176
     1
 40
30.0
176
     1
 62
     7
420
 16777215
176
     1
 90
        2
176
     1
 90
        2
176
     1
 62
     7
176
     1
 62
     7
176
     1
 90
        1
176
     1
 90
        1
176
     1
 40
40.0
176
     1
 90
        8
176
     1
 62
     7
176
     1
 40
1.0
176
     1
 90
        1
176
     1
 90
        6
176
     1
 90
        2
176
     1
 62
     7
176
     1
 90
        3
176
     1
 90
        0
176
     1
 90
        0
176
     1
290
     0
176
     1
 90
        1
176
     1
 40
0.0
176
     1
 90
        0
176
     1
290
     0
176
     1
290
     1
176
     1
290
     1
176
     1
290
     0
176
     1
290
     0
176
     1
290
     0
176
     1
290
     0
176
     1
290
     0
176
     1
290
     0
176
     1
 90
       50
176
     1
 40
0.0
176
     1
 40
1.0
176
     1
 90
        0
176
     1
 62
    18
420
        0
176
     1
 90
       50
176
     1
 90
        3
176
     1
 62
     5
420
      255
176
     1
290
     0
176
     1
 90
       50
176
     1
 90
       50
176
     1
 90
       50
176
     1
290
     0
176
     1
 90
       50
176
     1
 62
   256
176
     0
 40
1.0
176
     0
 90
        2
176
     1
  1
strokes_ogs.tif
176
     1
290
     0
176
     1
 40
1.0
176
     1
 40
1.0
176
     1
  0
VISUALSTYLE
  5
400
102
{ACAD_REACTORS
330
3EB
102
}
330
3EB
100
AcDbVisualStyle
  2
Sketchy
 70
    24
177
     3
291
     0
 70
    58
 90
        1
176
     1
 90
        2
176
     1
 90
        2
176
     1
 90
        0
176
     1
 40
0.6
176
     1
 40
30.0
176
     1
 62
     7
420
 16777215
176
     1
 90
        2
176
     1
 90
        2
176
     1
 62
     7
176
     1
 62
     7
176
     1
 90
        1
176
     1
 90
        1
176
     1
 40
40.0
176
     1
 90
       11
176
     1
 62
     7
176
     1
 40
1.0
176
     1
 90
        1
176
     1
 90
        6
176
     1
 90
        2
176
     1
 62
     7
176
     1
 90
        6
176
     1
 90
        0
176
     1
 90
        0
176
     1
290
     0
176
     1
 90
        1
176
     1
 40
0.0
176
     1
 90
        0
176
     1
290
     0
176
     1
290
     1
176
     1
290
     1
176
     1
290
     0
176
     1
290
     0
176
     1
290
     0
176
     1
290
     0
176
     1
290
     0
176
     1
290
     0
176
     1
 90
       50
176
     1
 40
0.0
176
     1
 40
1.0
176
     1
 90
        0
176
     1
 62
    18
420
        0
176
     1
 90
       50
176
     1
 90
        3
176
     1
 62
     5
420
      255
176
     1
290
     0
176
     1
 90
       50
176
     1
 90
       50
176
     1
 90
       50
176
     1
290
     0
176
     1
 90
       50
176
     1
 62
   256
176
     0
 40
1.0
176
     0
 90
        2
176
     1
  1
strokes_ogs.tif
176
     1
290
     0
176
     1
 40
1.0
176
     1
 40
1.0
176
     1
  0
VISUALSTYLE
  5
3F8
102
{ACAD_REACTORS
330
3EB
102
}
330
3EB
100
AcDbVisualStyle
  2
Thicken
 70
    13
177
     3
291
     1
 70
    58
 90
        2
176
     1
 90
        2
176
     1
 90
        0
176
     1
 90
        0
176
     1
 40
0.6
176
     1
 40
30.0
176
     1
 62
     7
420
 16777215
176
     1
 90
        1
176
     1
 90
        4
176
     1
 62
     7
176
     1
 62
   257
176
     1
 90
        1
176
     1
 90
        1
176
     1
 40
1.0
176
     1
 90
       12
176
     1
 62
     7
176
     1
 40
1.0
176
     1
 90
        1
176
     1
 90
        6
176
     1
 90
        2
176
     1
 62
     7
176
     1
 90
        5
176
     1
 90
        0
176
     1
 90
        0
176
     1
290
     0
176
     1
 90
        1
176
     1
 40
0.0
176
     1
 90
        0
176
     1
290
     0
176
     1
290
     1
176
     1
290
     1
176
     1
290
     0
176
     1
290
     0
176
     1
290
     0
176
     1
290
     0
176
     1
290
     0
176
     1
290
     0
176
     1
 90
       50
176
     1
 40
0.0
176
     1
 40
1.0
176
     1
 90
        0
176
     1
 62
    18
420
        0
176
     1
 90
       50
176
     1
 90
        3
176
     1
 62
     5
420
      255
176
     1
290
     0
176
     1
 90
       50
176
     1
 90
       50
176
     1
 90
       50
176
     1
290
     0
176
     1
 90
       50
176
     1
 62
   256
176
     0
 40
1.0
176
     0
 90
        2
176
     1
  1
strokes_ogs.tif
176
     1
290
     0
176
     1
 40
1.0
176
     1
 40
1.0
176
     1
  0
VISUALSTYLE
  5
3F1
102
{ACAD_REACTORS
330
3EB
102
}
330
3EB
100
AcDbVisualStyle
  2
Wireframe
 70
     5
177
     3
291
     0
 70
    58
 90
        0
176
     1
 90
        2
176
     1
 90
        0
176
     1
 90
        0
176
     1
 40
0.6
176
     1
 40
30.0
176
     1
 62
     7
420
 16777215
176
     1
 90
        1
176
     1
 90
        4
176
     1
 62
     7
176
     1
 62
   257
176
     1
 90
        1
176
     1
 90
        1
176
     1
 40
1.0
176
     1
 90
        0
176
     1
 62
   257
176
     1
 40
1.0
176
     1
 90
        1
176
     1
 90
        6
176
     1
 90
        2
176
     1
 62
     7
176
     1
 90
        3
176
     1
 90
        0
176
     1
 90
        0
176
     1
290
     0
176
     1
 90
        1
176
     1
 40
0.0
176
     1
 90
        0
176
     1
290
     0
176
     1
290
     1
176
     1
290
     1
176
     1
290
     0
176
     1
290
     0
176
     1
290
     0
176
     1
290
     0
176
     1
290
     0
176
     1
290
     0
176
     1
 90
       50
176
     1
 40
0.0
176
     1
 40
1.0
176
     1
 90
        0
176
     1
 62
    18
420
        0
176
     1
 90
       50
176
     1
 90
        3
176
     1
 62
     5
420
      255
176
     1
290
     0
176
     1
 90
       50
176
     1
 90
       50
176
     1
 90
       50
176
     1
290
     0
176
     1
 90
       50
176
     1
 62
   256
176
     0
 40
1.0
176
     0
 90
        2
176
     1
  1
strokes_ogs.tif
176
     1
290
     0
176
     1
 40
1.0
176
     1
 40
1.0
176
     1
  0
VISUALSTYLE
  5
401
102
{ACAD_REACTORS
330
3EB
102
}
330
3EB
100
AcDbVisualStyle
  2
X-Ray
 70
    25
177
     3
291
     0
 70
    58
 90
        2
176
     1
 90
        2
176
     1
 90
        1
176
     1
 90
        1
176
     1
 40
0.5
176
     1
 40
30.0
176
     1
 62
     7
420
 16777215
176
     1
 90
        1
176
     1
 90
        0
176
     1
 62
     7
176
     1
 62
   257
176
     1
 90
        1
176
     1
 90
        1
176
     1
 40
1.0
176
     1
 90
        8
176
     1
 62
     7
176
     1
 40
1.0
176
     1
 90
        1
176
     1
 90
        6
176
     1
 90
        2
176
     1
 62
     7
176
     1
 90
        3
176
     1
 90
        0
176
     1
 90
        0
176
     1
290
     0
176
     1
 90
       13
176
     1
 40
0.0
176
     1
 90
        0
176
     1
290
     0
176
     1
290
     1
176
     1
290
     1
176
     1
290
     0
176
     1
290
     0
176
     1
290
     0
176
     1
290
     0
176
     1
290
     0
176
     1
290
     0
176
     1
 90
       50
176
     1
 40
0.0
176
     1
 40
1.0
176
     1
 90
        0
176
     1
 62
    18
420
        0
176
     1
 90
       50
176
     1
 90
        3
176
     1
 62
     5
420
      255
176
     1
290
     0
176
     1
 90
       50
176
     1
 90
       50
176
     1
 90
       50
176
     1
290
     0
176
     1
 90
       50
176
     1
 62
   256
176
     0
 40
1.0
176
     0
 90
        2
176
     1
  1
strokes_ogs.tif
176
     1
290
     0
176
     1
 40
1.0
176
     1
 40
1.0
176
     1
  0
DICTIONARYVAR
  5
4B9
102
{ACAD_REACTORS
330
4B8
102
}
330
4B8
100
DictionaryVariables
280
     0
  1
1:1
  0
DICTIONARYVAR
  5
4BE
102
{ACAD_REACTORS
330
4B8
102
}
330
4B8
100
DictionaryVariables
280
     0
  1
Standard
  0
DICTIONARYVAR
  5
4BD
102
{ACAD_REACTORS
330
4B8
102
}
330
4B8
100
DictionaryVariables
280
     0
  1
Standard
  0
XRECORD
  5
432
102
{ACAD_REACTORS
330
430
102
}
330
430
100
AcDbXrecord
280
     1
1000
#ffffff
  0
XRECORD
  5
433
102
{ACAD_REACTORS
330
430
102
}
330
430
100
AcDbXrecord
280
     1
1000
FullColor
  0
XRECORD
  5
434
102
{ACAD_REACTORS
330
430
102
}
330
430
100
AcDbXrecord
280
     1
290
     1
  0
XRECORD
  5
435
102
{ACAD_REACTORS
330
430
102
}
330
430
100
AcDbXrecord
280
     1
290
     1
  0
XRECORD
  5
436
102
{ACAD_REACTORS
330
430
102
}
330
430
100
AcDbXrecord
280
     1
290
     1
  0
XRECORD
  5
437
102
{ACAD_REACTORS
330
430
102
}
330
430
100
AcDbXrecord
280
     1
290
     1
  0
XRECORD
  5
438
102
{ACAD_REACTORS
330
430
102
}
330
430
100
AcDbXrecord
280
     1
1000
auto
  0
XRECORD
  5
439
102
{ACAD_REACTORS
330
430
102
}
330
430
100
AcDbXrecord
280
     1
1000
auto
  0
XRECORD
  5
43A
102
{ACAD_REACTORS
330
430
102
}
330
430
100
AcDbXrecord
280
     1
1000
auto
  0
XRECORD
  5
43B
102
{ACAD_REACTORS
330
430
102
}
330
430
100
AcDbXrecord
280
     1
1000
auto
  0
XRECORD
  5
43C
102
{ACAD_REACTORS
330
430
102
}
330
430
100
AcDbXrecord
280
     1
1000
auto
  0
XRECORD
  5
43D
102
{ACAD_REACTORS
330
430
102
}
330
430
100
AcDbXrecord
280
     1
1000
auto
  0
XRECORD
  5
43E
102
{ACAD_REACTORS
330
430
102
}
330
430
100
AcDbXrecord
280
     1
1000
auto
  0
XRECORD
  5
43F
102
{ACAD_REACTORS
330
430
102
}
330
430
100
AcDbXrecord
280
     1
1000
auto
  0
XRECORD
  5
440
102
{ACAD_REACTORS
330
430
102
}
330
430
100
AcDbXrecord
280
     1
290
     0
  0
XRECORD
  5
441
102
{ACAD_REACTORS
330
430
102
}
330
430
100
AcDbXrecord
280
     1
290
     0
  0
XRECORD
  5
442
102
{ACAD_REACTORS
330
430
102
}
330
430
100
AcDbXrecord
280
     1
290
     0
  0
XRECORD
  5
443
102
{ACAD_REACTORS
330
430
102
}
330
430
100
AcDbXrecord
280
     1
290
     0
  0
XRECORD
  5
444
102
{ACAD_REACTORS
330
430
102
}
330
430
100
AcDbXrecord
280
     1
 90
    65537
  0
XRECORD
  5
445
102
{ACAD_REACTORS
330
430
102
}
330
430
100
AcDbXrecord
280
     1
 90
    65537
  0
XRECORD
  5
446
102
{ACAD_REACTORS
330
430
102
}
330
430
100
AcDbXrecord
280
     1
 90
    65537
  0
XRECORD
  5
447
102
{ACAD_REACTORS
330
430
102
}
330
430
100
AcDbXrecord
280
     1
 90
    65537
  0
XRECORD
  5
448
102
{ACAD_REACTORS
330
430
102
}
330
430
100
AcDbXrecord
280
     1
1000
auto
  0
XRECORD
  5
449
102
{ACAD_REACTORS
330
430
102
}
330
430
100
AcDbXrecord
280
     1
1000
auto
  0
XRECORD
  5
44A
102
{ACAD_REACTORS
330
430
102
}
330
430
100
AcDbXrecord
280
     1
1000
auto
  0
XRECORD
  5
44B
102
{ACAD_REACTORS
330
430
102
}
330
430
100
AcDbXrecord
280
     1
1000
auto
  0
XRECORD
  5
44C
102
{ACAD_REACTORS
330
430
102
}
330
430
100
AcDbXrecord
280
     1
1000
auto
  0
XRECORD
  5
44D
102
{ACAD_REACTORS
330
430
102
}
330
430
100
AcDbXrecord
280
     1
1000
auto
  0
XRECORD
  5
44E
102
{ACAD_REACTORS
330
430
102
}
330
430
100
AcDbXrecord
280
     1
1000
auto
  0
XRECORD
  5
44F
102
{ACAD_REACTORS
330
430
102
}
330
430
100
AcDbXrecord
280
     1
1000
auto
  0
XRECORD
  5
450
102
{ACAD_REACTORS
330
430
102
}
330
430
100
AcDbXrecord
280
     1
 90
        1
  0
XRECORD
  5
451
102
{ACAD_REACTORS
330
430
102
}
330
430
100
AcDbXrecord
280
     1
 40
10.0
  0
XRECORD
  5
452
102
{ACAD_REACTORS
330
430
102
}
330
430
100
AcDbXrecord
280
     1
 40
10.0
  0
XRECORD
  5
453
102
{ACAD_REACTORS
330
430
102
}
330
430
100
AcDbXrecord
280
     1
 40
10.0
  0
XRECORD
  5
454
102
{ACAD_REACTORS
330
430
102
}
330
430
100
AcDbXrecord
280
     1
 40
10.0
  0
XRECORD
  5
455
102
{ACAD_REACTORS
330
430
102
}
330
430
100
AcDbXrecord
280
     1
290
     0
  0
XRECORD
  5
456
102
{ACAD_REACTORS
330
430
102
}
330
430
100
AcDbXrecord
280
     1
 90
        1
  0
XRECORD
  5
457
102
{ACAD_REACTORS
330
430
102
}
330
430
100
AcDbXrecord
280
     1
 40
0.0
  0
XRECORD
  5
458
102
{ACAD_REACTORS
330
430
102
}
330
430
100
AcDbXrecord
280
     1
 40
0.0
  0
XRECORD
  5
459
102
{ACAD_REACTORS
330
430
102
}
330
430
100
AcDbXrecord
280
     1
1000
Portrait
  0
XRECORD
  5
45A
102
{ACAD_REACTORS
330
430
102
}
330
430
100
AcDbXrecord
280
     1
 40
297.0
  0
XRECORD
  5
45B
102
{ACAD_REACTORS
330
430
102
}
330
430
100
AcDbXrecord
280
     1
 40
210.0
  0
XRECORD
  5
45C
102
{ACAD_REACTORS
330
430
102
}
330
430
100
AcDbXrecord
280
     1
1000
1:1
  0
XRECORD
  5
45D
102
{ACAD_REACTORS
330
430
102
}
330
430
100
AcDbXrecord
280
     1
290
     1
  0
XRECORD
  5
45E
102
{ACAD_REACTORS
330
430
102
}
330
430
100
AcDbXrecord
280
     1
290
     0
  0
XRECORD
  5
45F
102
{ACAD_REACTORS
330
430
102
}
330
430
100
AcDbXrecord
280
     1
1000
Inside
  0
XRECORD
  5
460
102
{ACAD_REACTORS
330
430
102
}
330
430
100
AcDbXrecord
280
     1
1000
Arial,10,-1,5,50,0,0,0,0,0
  0
XRECORD
  5
461
102
{ACAD_REACTORS
330
430
102
}
330
430
100
AcDbXrecord
280
     1
1000
TopLeft
  0
XRECORD
  5
431
102
{ACAD_REACTORS
330
430
102
}
330
430
100
AcDbXrecord
280
     1
1000
3.24.3
  0
XRECORD
  5
462
102
{ACAD_REACTORS
330
430
102
}
330
430
100
AcDbXrecord
280
     1
 90
        4
  0
XRECORD
  5
463
102
{ACAD_REACTORS
330
430
102
}
330
430
100
AcDbXrecord
280
     1
  0
XRECORD
  5
464
102
{ACAD_REACTORS
330
430
102
}
330
430
100
AcDbXrecord
280
     1
 40
1761.577218751905
  0
XRECORD
  5
465
102
{ACAD_REACTORS
330
430
102
}
330
430
100
AcDbXrecord
280
     1
 40
3199.237215919707
  0
DICTIONARY
  5
4BA
330
42B
100
AcDbDictionary
280
     1
281
     1
  3
ACAD_ROUNDTRIP_2008_TABLESTYLE_CELLSTYLEMAP
360
4BB
  0
CELLSTYLEMAP
  5
4BB
102
{ACAD_REACTORS
330
4BA
102
}
330
4BA
100
AcDbCellStyleMap
 90
        3
300
CELLSTYLE
  1
TABLEFORMAT_BEGIN
 90
        5
170
     1
 91
        0
 92
    32768
 62
   257
 93
        1
300
CONTENTFORMAT
  1
CONTENTFORMAT_BEGIN
 90
        0
 91
        0
 92
        4
 93
        0
300

 40
0.0
140
1.0
 94
        5
 62
     0
340
3D3
144
0.25
309
CONTENTFORMAT_END
171
     1
301
MARGIN
  1
CELLMARGIN_BEGIN
 40
0.06
 40
0.06
 40
0.06
 40
0.06
 40
0.06
 40
0.06
309
CELLMARGIN_END
 94
        6
 95
        1
302
GRIDFORMAT
  1
GRIDFORMAT_BEGIN
 90
        0
 91
        1
 62
     0
 92
       -2
340
3D5
 93
        0
 40
0.045
309
GRIDFORMAT_END
 95
        2
302
GRIDFORMAT
  1
GRIDFORMAT_BEGIN
 90
        0
 91
        1
 62
     0
 92
       -2
340
3D5
 93
        0
 40
0.045
309
GRIDFORMAT_END
 95
        4
302
GRIDFORMAT
  1
GRIDFORMAT_BEGIN
 90
        0
 91
        1
 62
     0
 92
       -2
340
3D5
 93
        0
 40
0.045
309
GRIDFORMAT_END
 95
        8
302
GRIDFORMAT
  1
GRIDFORMAT_BEGIN
 90
        0
 91
        1
 62
     0
 92
       -2
340
3D5
 93
        0
 40
0.045
309
GRIDFORMAT_END
 95
       16
302
GRIDFORMAT
  1
GRIDFORMAT_BEGIN
 90
        0
 91
        1
 62
     0
 92
       -2
340
3D5
 93
        0
 40
0.045
309
GRIDFORMAT_END
 95
       32
302
GRIDFORMAT
  1
GRIDFORMAT_BEGIN
 90
        0
 91
        1
 62
     0
 92
       -2
340
3D5
 93
        0
 40
0.045
309
GRIDFORMAT_END
309
TABLEFORMAT_END
  1
CELLSTYLE_BEGIN
 90
        1
 91
        1
300
_TITLE
309
CELLSTYLE_END
300
CELLSTYLE
  1
TABLEFORMAT_BEGIN
 90
        5
170
     1
 91
        0
 92
        0
 62
   257
 93
        1
300
CONTENTFORMAT
  1
CONTENTFORMAT_BEGIN
 90
        0
 91
        0
 92
        4
 93
        0
300

 40
0.0
140
1.0
 94
        5
 62
     0
340
3D3
144
0.18
309
CONTENTFORMAT_END
171
     1
301
MARGIN
  1
CELLMARGIN_BEGIN
 40
0.06
 40
0.06
 40
0.06
 40
0.06
 40
0.06
 40
0.06
309
CELLMARGIN_END
 94
        6
 95
        1
302
GRIDFORMAT
  1
GRIDFORMAT_BEGIN
 90
        0
 91
        1
 62
     0
 92
       -2
340
3D5
 93
        0
 40
0.045
309
GRIDFORMAT_END
 95
        2
302
GRIDFORMAT
  1
GRIDFORMAT_BEGIN
 90
        0
 91
        1
 62
     0
 92
       -2
340
3D5
 93
        0
 40
0.045
309
GRIDFORMAT_END
 95
        4
302
GRIDFORMAT
  1
GRIDFORMAT_BEGIN
 90
        0
 91
        1
 62
     0
 92
       -2
340
3D5
 93
        0
 40
0.045
309
GRIDFORMAT_END
 95
        8
302
GRIDFORMAT
  1
GRIDFORMAT_BEGIN
 90
        0
 91
        1
 62
     0
 92
       -2
340
3D5
 93
        0
 40
0.045
309
GRIDFORMAT_END
 95
       16
302
GRIDFORMAT
  1
GRIDFORMAT_BEGIN
 90
        0
 91
        1
 62
     0
 92
       -2
340
3D5
 93
        0
 40
0.045
309
GRIDFORMAT_END
 95
       32
302
GRIDFORMAT
  1
GRIDFORMAT_BEGIN
 90
        0
 91
        1
 62
     0
 92
       -2
340
3D5
 93
        0
 40
0.045
309
GRIDFORMAT_END
309
TABLEFORMAT_END
  1
CELLSTYLE_BEGIN
 90
        2
 91
        1
300
_HEADER
309
CELLSTYLE_END
300
CELLSTYLE
  1
TABLEFORMAT_BEGIN
 90
        5
170
     1
 91
        0
 92
        0
 62
   257
 93
        1
300
CONTENTFORMAT
  1
CONTENTFORMAT_BEGIN
 90
        0
 91
        0
 92
        4
 93
        0
300

 40
0.0
140
1.0
 94
        2
 62
     0
340
3D3
144
0.18
309
CONTENTFORMAT_END
171
     1
301
MARGIN
  1
CELLMARGIN_BEGIN
 40
0.06
 40
0.06
 40
0.06
 40
0.06
 40
0.06
 40
0.06
309
CELLMARGIN_END
 94
        6
 95
        1
302
GRIDFORMAT
  1
GRIDFORMAT_BEGIN
 90
        0
 91
        1
 62
     0
 92
       -2
340
3D5
 93
        0
 40
0.045
309
GRIDFORMAT_END
 95
        2
302
GRIDFORMAT
  1
GRIDFORMAT_BEGIN
 90
        0
 91
        1
 62
     0
 92
       -2
340
3D5
 93
        0
 40
0.045
309
GRIDFORMAT_END
 95
        4
302
GRIDFORMAT
  1
GRIDFORMAT_BEGIN
 90
        0
 91
        1
 62
     0
 92
       -2
340
3D5
 93
        0
 40
0.045
309
GRIDFORMAT_END
 95
        8
302
GRIDFORMAT
  1
GRIDFORMAT_BEGIN
 90
        0
 91
        1
 62
     0
 92
       -2
340
3D5
 93
        0
 40
0.045
309
GRIDFORMAT_END
 95
       16
302
GRIDFORMAT
  1
GRIDFORMAT_BEGIN
 90
        0
 91
        1
 62
     0
 92
       -2
340
3D5
 93
        0
 40
0.045
309
GRIDFORMAT_END
 95
       32
302
GRIDFORMAT
  1
GRIDFORMAT_BEGIN
 90
        0
 91
        1
 62
     0
 92
       -2
340
3D5
 93
        0
 40
0.045
309
GRIDFORMAT_END
309
TABLEFORMAT_END
  1
CELLSTYLE_BEGIN
 90
        3
 91
        2
300
_DATA
309
CELLSTYLE_END
  0
ENDSEC
  0
EOF
