  0
SECTION
  2
HEADER
  9
$ACADVER
  1
AC1015
  9
$ACADMAINTVER
 70
     6
  9
$DWGCODEPAGE
  3
ANSI_1252
  9
$INSBASE
 10
0.0
 20
0.0
 30
0.0
  9
$EXTMIN
 10
-15.0
 20
-85.0
 30
0.0
  9
$EXTMAX
 10
137.0
 20
80.0
 30
0.0
  9
$LIMMIN
 10
0.0
 20
0.0
  9
$LIMMAX
 10
420.0
 20
297.0
  9
$ORTHOMODE
 70
     0
  9
$REGENMODE
 70
     1
  9
$FILLMODE
 70
     1
  9
$QTEXTMODE
 70
     0
  9
$MIRRTEXT
 70
     1
  9
$LTSCALE
 40
1.0
  9
$ATTMODE
 70
     1
  9
$TEXTSIZE
 40
3.175
  9
$TRACEWID
 40
1.0
  9
$TEXTSTYLE
  7
Standard
  9
$CLAYER
  8
0
  9
$CELTYPE
  6
ByLayer
  9
$CECOLOR
 62
   256
  9
$CELTSCALE
 40
1.0
  9
$DISPSILH
 70
     0
  9
$DIMSCALE
 40
1.0
  9
$DIMASZ
 40
3.302
  9
$DIMEXO
 40
1.27
  9
$DIMDLI
 40
3.75
  9
$DIMRND
 40
0.0
  9
$DIMDLE
 40
0.0
  9
$DIMEXE
 40
3.175
  9
$DIMTP
 40
0.0
  9
$DIMTM
 40
0.0
  9
$DIMTXT
 40
3.175
  9
$DIMCEN
 40
2.5
  9
$DIMTSZ
 40
0.0
  9
$DIMTOL
 70
     0
  9
$DIMLIM
 70
     0
  9
$DIMTIH
 70
     1
  9
$DIMTOH
 70
     1
  9
$DIMSE1
 70
     0
  9
$DIMSE2
 70
     0
  9
$DIMTAD
 70
     0
  9
$DIMZIN
 70
     1
  9
$DIMBLK
  1

  9
$DIMASO
 70
     1
  9
$DIMSHO
 70
     1
  9
$DIMPOST
  1

  9
$DIMAPOST
  1

  9
$DIMALT
 70
     0
  9
$DIMALTD
 70
     3
  9
$DIMALTF
 40
0.0393700787
  9
$DIMLFAC
 40
1.0
  9
$DIMTOFL
 70
     1
  9
$DIMTVP
 40
0.0
  9
$DIMTIX
 70
     0
  9
$DIMSOXD
 70
     0
  9
$DIMSAH
 70
     0
  9
$DIMBLK1
  1

  9
$DIMBLK2
  1

  9
$DIMSTYLE
  2
ISO-25
  9
$DIMCLRD
 70
     0
  9
$DIMCLRE
 70
     0
  9
$DIMCLRT
 70
     0
  9
$DIMTFAC
 40
1.0
  9
$DIMGAP
 40
1.524
  9
$DIMJUST
 70
     0
  9
$DIMSD1
 70
     0
  9
$DIMSD2
 70
     0
  9
$DIMTOLJ
 70
     0
  9
$DIMTZIN
 70
     1
  9
$DIMALTZ
 70
     0
  9
$DIMALTTZ
 70
     0
  9
$DIMUPT
 70
     0
  9
$DIMDEC
 70
     2
  9
$DIMTDEC
 70
     2
  9
$DIMALTU
 70
     2
  9
$DIMALTTD
 70
     3
  9
$DIMTXSTY
  7
Standard
  9
$DIMAUNIT
 70
     0
  9
$DIMADEC
 70
     2
  9
$DIMALTRND
 40
0.0
  9
$DIMAZIN
 70
     0
  9
$DIMDSEP
 70
    44
  9
$DIMATFIT
 70
     3
  9
$DIMFRAC
 70
     0
  9
$DIMLDRBLK
  1

  9
$DIMLUNIT
 70
     2
  9
$DIMLWD
 70
    -2
  9
$DIMLWE
 70
    -2
  9
$DIMTMOVE
 70
     0
  9
$LUNITS
 70
     2
  9
$LUPREC
 70
     2
  9
$SKETCHINC
 40
1.0
  9
$FILLETRAD
 40
10.0
  9
$AUNITS
 70
     0
  9
$AUPREC
 70
     2
  9
$MENU
  1
.
  9
$ELEVATION
 40
0.0
  9
$PELEVATION
 40
0.0
  9
$THICKNESS
 40
0.0
  9
$LIMCHECK
 70
     0
  9
$CHAMFERA
 40
0.0
  9
$CHAMFERB
 40
0.0
  9
$CHAMFERC
 40
0.0
  9
$CHAMFERD
 40
0.0
  9
$SKPOLY
 70
     0
  9
$TDCREATE
 40
2458824.400414375
  9
$TDUCREATE
 40
2458824.608747708
  9
$TDUPDATE
 40
2458824.400477199
  9
$TDUUPDATE
 40
2458824.608810532
  9
$TDINDWG
 40
0.0000000116
  9
$TDUSRTIMER
 40
0.0000000116
  9
$USRTIMER
 70
     1
  9
$ANGBASE
 50
0.0
  9
$ANGDIR
 70
     0
  9
$PDMODE
 70
     0
  9
$PDSIZE
 40
-1.0
  9
$PLINEWID
 40
0.0
  9
$SPLFRAME
 70
     0
  9
$SPLINETYPE
 70
     6
  9
$SPLINESEGS
 70
     8
  9
$HANDSEED
  5
C8
  9
$SURFTAB1
 70
     6
  9
$SURFTAB2
 70
     6
  9
$SURFTYPE
 70
     6
  9
$SURFU
 70
     6
  9
$SURFV
 70
     6
  9
$UCSBASE
  2

  9
$UCSNAME
  2

  9
$UCSORG
 10
0.0
 20
0.0
 30
0.0
  9
$UCSXDIR
 10
1.0
 20
0.0
 30
0.0
  9
$UCSYDIR
 10
0.0
 20
1.0
 30
0.0
  9
$UCSORTHOREF
  2

  9
$UCSORTHOVIEW
 70
     0
  9
$UCSORGTOP
 10
0.0
 20
0.0
 30
0.0
  9
$UCSORGBOTTOM
 10
0.0
 20
0.0
 30
0.0
  9
$UCSORGLEFT
 10
0.0
 20
0.0
 30
0.0
  9
$UCSORGRIGHT
 10
0.0
 20
0.0
 30
0.0
  9
$UCSORGFRONT
 10
0.0
 20
0.0
 30
0.0
  9
$UCSORGBACK
 10
0.0
 20
0.0
 30
0.0
  9
$PUCSBASE
  2

  9
$PUCSNAME
  2

  9
$PUCSORG
 10
0.0
 20
0.0
 30
0.0
  9
$PUCSXDIR
 10
1.0
 20
0.0
 30
0.0
  9
$PUCSYDIR
 10
0.0
 20
1.0
 30
0.0
  9
$PUCSORTHOREF
  2

  9
$PUCSORTHOVIEW
 70
     0
  9
$PUCSORGTOP
 10
0.0
 20
0.0
 30
0.0
  9
$PUCSORGBOTTOM
 10
0.0
 20
0.0
 30
0.0
  9
$PUCSORGLEFT
 10
0.0
 20
0.0
 30
0.0
  9
$PUCSORGRIGHT
 10
0.0
 20
0.0
 30
0.0
  9
$PUCSORGFRONT
 10
0.0
 20
0.0
 30
0.0
  9
$PUCSORGBACK
 10
0.0
 20
0.0
 30
0.0
  9
$USERI1
 70
     0
  9
$USERI2
 70
     0
  9
$USERI3
 70
     0
  9
$USERI4
 70
     0
  9
$USERI5
 70
     0
  9
$USERR1
 40
0.0
  9
$USERR2
 40
0.0
  9
$USERR3
 40
0.0
  9
$USERR4
 40
0.0
  9
$USERR5
 40
0.0
  9
$WORLDVIEW
 70
     1
  9
$SHADEDGE
 70
     3
  9
$SHADEDIF
 70
    70
  9
$TILEMODE
 70
     1
  9
$MAXACTVP
 70
    64
  9
$PINSBASE
 10
0.0
 20
0.0
 30
0.0
  9
$PLIMCHECK
 70
     0
  9
$PEXTMIN
 10
1.0000000000E+20
 20
1.0000000000E+20
 30
1.0000000000E+20
  9
$PEXTMAX
 10
-1.0000000000E+20
 20
-1.0000000000E+20
 30
-1.0000000000E+20
  9
$PLIMMIN
 10
0.0
 20
0.0
  9
$PLIMMAX
 10
420.0
 20
297.0
  9
$UNITMODE
 70
     0
  9
$VISRETAIN
 70
     1
  9
$PLINEGEN
 70
     0
  9
$PSLTSCALE
 70
     1
  9
$TREEDEPTH
 70
  3020
  9
$CMLSTYLE
  2
Standard
  9
$CMLJUST
 70
     0
  9
$CMLSCALE
 40
20.0
  9
$PROXYGRAPHICS
 70
     1
  9
$MEASUREMENT
 70
     1
  9
$CELWEIGHT
370
    -1
  9
$ENDCAPS
280
     0
  9
$JOINSTYLE
280
     0
  9
$LWDISPLAY
290
     1
  9
$INSUNITS
 70
     4
  9
$HYPERLINKBASE
  1

  9
$STYLESHEET
  1

  9
$XEDIT
290
     1
  9
$CEPSNTYPE
380
     0
  9
$PSTYLEMODE
290
     1
  9
$FINGERPRINTGUID
  2
{7e6dc52b-02da-4be6-b022-e2cf0e44f4f6}
  9
$VERSIONGUID
  2
{FAEB1C32-E019-11D5-929B-00C0DF256EC4}
  9
$EXTNAMES
290
     1
  9
$PSVPSCALE
 40
0.0
  9
$OLESTARTUP
290
     0
  0
ENDSEC
  0
SECTION
  2
CLASSES
  0
CLASS
  1
ACDBDICTIONARYWDFLT
  2
AcDbDictionaryWithDefault
  3
ObjectDBX Classes
 90
        0
280
     0
281
     0
  0
CLASS
  1
VISUALSTYLE
  2
AcDbVisualStyle
  3
ObjectDBX Classes
 90
     4095
280
     0
281
     0
  0
CLASS
  1
MATERIAL
  2
AcDbMaterial
  3
ObjectDBX Classes
 90
     1153
280
     0
281
     0
  0
CLASS
  1
SCALE
  2
AcDbScale
  3
ObjectDBX Classes
 90
     1153
280
     0
281
     0
  0
CLASS
  1
TABLESTYLE
  2
AcDbTableStyle
  3
ObjectDBX Classes
 90
     4095
280
     0
281
     0
  0
CLASS
  1
MLEADERSTYLE
  2
AcDbMLeaderStyle
  3
ACDB_MLEADERSTYLE_CLASS
 90
     4095
280
     0
281
     0
  0
CLASS
  1
SUN
  2
AcDbSun
  3
SCENEOE
 90
     1153
280
     0
281
     0
  0
CLASS
  1
ACDBPLACEHOLDER
  2
AcDbPlaceHolder
  3
ObjectDBX Classes
 90
        0
280
     0
281
     0
  0
CLASS
  1
LAYOUT
  2
AcDbLayout
  3
ObjectDBX Classes
 90
        0
280
     0
281
     0
  0
ENDSEC
  0
SECTION
  2
TABLES
  0
TABLE
  2
VPORT
  5
8
330
0
100
AcDbSymbolTable
 70
     1
  0
VPORT
  5
29
330
8
100
AcDbSymbolTableRecord
100
AcDbViewportTableRecord
  2
*Active
 70
     0
 10
0.0
 20
0.0
 11
1.0
 21
1.0
 12
61.0
 22
-2.5
 13
0.0
 23
0.0
 14
10.0
 24
10.0
 15
10.0
 25
10.0
 16
0.0
 26
0.0
 36
1.0
 17
0.0
 27
0.0
 37
0.0
 40
168.3
 41
0.9212121212
 42
50.0
 43
0.0
 44
0.0
 50
0.0
 51
0.0
 71
     0
 72
   100
 73
     1
 74
     3
 75
     0
 76
     0
 77
     0
 78
     0
281
     0
 65
     1
110
0.0
120
0.0
130
0.0
111
1.0
121
0.0
131
0.0
112
0.0
122
1.0
132
0.0
 79
     0
146
0.0
  0
ENDTAB
  0
TABLE
  2
LTYPE
  5
5
330
0
100
AcDbSymbolTable
 70
     6
  0
LTYPE
  5
14
330
5
100
AcDbSymbolTableRecord
100
AcDbLinetypeTableRecord
  2
ByBlock
 70
     0
  3

 72
    65
 73
     0
 40
0.0
  0
LTYPE
  5
15
330
5
100
AcDbSymbolTableRecord
100
AcDbLinetypeTableRecord
  2
ByLayer
 70
     0
  3

 72
    65
 73
     0
 40
0.0
  0
LTYPE
  5
16
330
5
100
AcDbSymbolTableRecord
100
AcDbLinetypeTableRecord
  2
Continuous
 70
     0
  3
Solid line
 72
    65
 73
     0
 40
0.0
  0
LTYPE
  5
6E
330
5
100
AcDbSymbolTableRecord
100
AcDbLinetypeTableRecord
  2
HIDDEN
 70
     0
  3
Hidden __ __ __ __ __ __ __ __ __ __ __ __ __ __
 72
    65
 73
     2
 40
1.905
 49
1.27
 74
     0
 49
-0.635
 74
     0
  0
LTYPE
  5
6F
330
5
100
AcDbSymbolTableRecord
100
AcDbLinetypeTableRecord
  2
PHANTOM
 70
     0
  3
Phantom ______  __  __  ______  __  __  ______
 72
    65
 73
     6
 40
12.7
 49
6.35
 74
     0
 49
-1.27
 74
     0
 49
1.27
 74
     0
 49
-1.27
 74
     0
 49
1.27
 74
     0
 49
-1.27
 74
     0
  0
LTYPE
  5
70
330
5
100
AcDbSymbolTableRecord
100
AcDbLinetypeTableRecord
  2
CENTER
 70
     0
  3
Center ____ _ ____ _ ____ _ ____ _ ____ _ ____
 72
    65
 73
     4
 40
10.16
 49
6.35
 74
     0
 49
-1.27
 74
     0
 49
1.27
 74
     0
 49
-1.27
 74
     0
  0
LTYPE
  5
71
330
5
100
AcDbSymbolTableRecord
100
AcDbLinetypeTableRecord
  2
CENTERX2
 70
     0
  3
Center (2x) ________  __  ________  __  _____
 72
    65
 73
     4
 40
20.32
 49
12.7
 74
     0
 49
-2.54
 74
     0
 49
2.54
 74
     0
 49
-2.54
 74
     0
  0
LTYPE
  5
72
330
5
100
AcDbSymbolTableRecord
100
AcDbLinetypeTableRecord
  2
DOT2
 70
     0
  3
Dot (.5x) ........................................
 72
    65
 73
     2
 40
0.635
 49
0.0
 74
     0
 49
-0.635
 74
     0
  0
ENDTAB
  0
TABLE
  2
LAYER
  5
2
330
0
100
AcDbSymbolTable
 70
     1
  0
LAYER
  5
10
330
2
100
AcDbSymbolTableRecord
100
AcDbLayerTableRecord
  2
0
 70
     0
 62
     7
  6
Continuous
370
    -3
390
F
  0
ENDTAB
  0
TABLE
  2
STYLE
  5
3
330
0
100
AcDbSymbolTable
 70
     2
  0
STYLE
  5
11
330
3
100
AcDbSymbolTableRecord
100
AcDbTextStyleTableRecord
  2
Standard
 70
     0
 40
0.0
 41
1.0
 50
0.0
 71
     0
 42
3.175
  3
txt
  4

  0
STYLE
  5
C5
330
3
100
AcDbSymbolTableRecord
100
AcDbTextStyleTableRecord
  2
SLDTEXTSTYLE0
 70
     0
 40
0.0
 41
0.7
 50
0.0
 71
     0
 42
3.175
  3
TXT
  4

  0
ENDTAB
  0
TABLE
  2
VIEW
  5
6
330
0
100
AcDbSymbolTable
 70
     0
  0
ENDTAB
  0
TABLE
  2
UCS
  5
7
330
0
100
AcDbSymbolTable
 70
     0
  0
ENDTAB
  0
TABLE
  2
APPID
  5
9
330
0
100
AcDbSymbolTable
 70
     1
  0
APPID
  5
12
330
9
100
AcDbSymbolTableRecord
100
AcDbRegAppTableRecord
  2
ACAD
 70
     0
  0
ENDTAB
  0
TABLE
  2
DIMSTYLE
  5
A
330
0
100
AcDbSymbolTable
 70
     1
100
AcDbDimStyleTable
  0
DIMSTYLE
105
27
330
A
100
AcDbSymbolTableRecord
100
AcDbDimStyleTableRecord
  2
ISO-25
 70
     0
 41
2.5
 42
0.625
 43
3.75
 44
1.25
 73
     0
 74
     0
 77
     1
 78
     8
140
2.5
141
2.5
143
0.0393700787
147
0.625
171
     3
172
     1
178
     0
271
     2
272
     2
274
     3
278
    44
283
     0
284
     8
340
11
  0
ENDTAB
  0
TABLE
  2
BLOCK_RECORD
  5
1
330
0
100
AcDbSymbolTable
 70
     1
  0
BLOCK_RECORD
  5
1F
330
1
100
AcDbSymbolTableRecord
100
AcDbBlockTableRecord
  2
*Model_Space
340
22
  0
BLOCK_RECORD
  5
1B
330
1
100
AcDbSymbolTableRecord
100
AcDbBlockTableRecord
  2
*Paper_Space
340
1E
  0
BLOCK_RECORD
  5
23
330
1
100
AcDbSymbolTableRecord
100
AcDbBlockTableRecord
  2
*Paper_Space0
340
26
  0
ENDTAB
  0
ENDSEC
  0
SECTION
  2
BLOCKS
  0
BLOCK
  5
20
330
1F
100
AcDbEntity
  8
0
100
AcDbBlockBegin
  2
*Model_Space
 70
     0
 10
0.0
 20
0.0
 30
0.0
  3
*Model_Space
  1

  0
ENDBLK
  5
21
330
1F
100
AcDbEntity
  8
0
100
AcDbBlockEnd
  0
BLOCK
  5
1C
330
1B
100
AcDbEntity
 67
     1
  8
0
100
AcDbBlockBegin
  2
*Paper_Space
 70
     0
 10
0.0
 20
0.0
 30
0.0
  3
*Paper_Space
  1

  0
ENDBLK
  5
1D
330
1B
100
AcDbEntity
 67
     1
  8
0
100
AcDbBlockEnd
  0
BLOCK
  5
24
330
23
100
AcDbEntity
  8
0
100
AcDbBlockBegin
  2
*Paper_Space0
 70
     0
 10
0.0
 20
0.0
 30
0.0
  3
*Paper_Space0
  1

  0
ENDBLK
  5
25
330
23
100
AcDbEntity
  8
0
100
AcDbBlockEnd
  0
ENDSEC
  0
SECTION
  2
ENTITIES
  0
SPLINE
  5
73
330
1F
100
AcDbEntity
  8
0
  6
Continuous
 62
     7
370
    25
100
AcDbSpline
210
0.0
220
0.0
230
1.0
 70
     8
 71
     3
 72
    19
 73
    15
 74
     0
 42
0.000000001
 43
0.00000001
 40
0.0
 40
0.0
 40
0.0
 40
0.0
 40
0.0847327446980154
 40
0.168178653646313
 40
0.2514881976122791
 40
0.3358406713894901
 40
0.4198344941507948
 40
0.5023448759880103
 40
0.5836490197324394
 40
0.6659310052762727
 40
0.7487165252643906
 40
0.8310473361373624
 40
0.9144098067945604
 40
0.9999999999999999
 40
0.9999999999999999
 40
0.9999999999999999
 40
0.9999999999999999
 10
52.0712482322937
 20
67.98090982030476
 30
0.0
 10
52.07813461930307
 20
67.78911541819099
 30
0.0
 10
52.09180280979839
 20
67.40843939454334
 30
0.0
 10
52.20295382309146
 20
66.84782029752954
 30
0.0
 10
52.38889502258737
 20
66.30961235987785
 30
0.0
 10
52.63998336419821
 20
65.79697070541017
 30
0.0
 10
52.95458144425783
 20
65.32266094238722
 30
0.0
 10
53.32524030144207
 20
64.89978315229948
 30
0.0
 10
53.74798187442601
 20
64.53470110323894
 30
0.0
 10
54.21776687525906
 20
64.23178319369973
 30
0.0
 10
54.72499966630925
 20
63.991098526435
 30
0.0
 10
55.2618124710604
 20
63.8205314876493
 30
0.0
 10
55.82170115982772
 20
63.7096528059468
 30
0.0
 10
56.20433286475323
 20
63.69863220156882
 30
0.0
 10
56.39817130921677
 20
63.69304924338169
 30
0.0
  0
SPLINE
  5
74
330
1F
100
AcDbEntity
  8
0
  6
Continuous
 62
     7
370
    25
100
AcDbSpline
210
0.0
220
0.0
230
1.0
 70
     8
 71
     3
 72
    23
 73
    19
 74
     0
 42
0.000000001
 43
0.00000001
 40
0.0
 40
0.0
 40
0.0
 40
0.0
 40
0.0638458997347873
 40
0.1260436278408437
 40
0.1871653577195677
 40
0.2473992895212638
 40
0.3083800306041634
 40
0.3697796166640492
 40
0.4325839246869343
 40
0.4976407859952564
 40
0.5624011369620606
 40
0.6255571033330413
 40
0.687332004620173
 40
0.7483127457030735
 40
0.8097910391226141
 40
0.8717675719729273
 40
0.9348361909503147
 40
0.9999999999999999
 40
0.9999999999999999
 40
0.9999999999999999
 40
0.9999999999999999
 10
56.39817130921677
 20
72.34689539722784
 30
0.0
 10
56.25272440355215
 20
72.34276143290953
 30
0.0
 10
55.96558528068995
 20
72.33460022189664
 30
0.0
 10
55.54292991765558
 20
72.272526344567
 30
0.0
 10
55.13604354365988
 20
72.17417989855927
 30
0.0
 10
54.74415421166786
 20
72.03444822887411
 30
0.0
 10
54.3685834727404
 20
71.85402437639732
 30
0.0
 10
54.00897174815566
 20
71.63241711839163
 30
0.0
 10
53.66426129140714
 20
71.37256159062449
 30
0.0
 10
53.34119530557408
 20
71.07486442658144
 30
0.0
 10
53.04469968202128
 20
70.7496687356977
 30
0.0
 10
52.78550835375255
 20
70.40317576904773
 30
0.0
 10
52.56511504073413
 20
70.04100571357705
 30
0.0
 10
52.38151435957155
 20
69.66278195154862
 30
0.0
 10
52.24476926773342
 20
69.26467160625138
 30
0.0
 10
52.14545631422641
 20
68.85118318670709
 30
0.0
 10
52.08344099795683
 20
68.4214742589268
 30
0.0
 10
52.07535651829487
 20
68.129355609046
 30
0.0
 10
52.0712482322937
 20
67.98090982030476
 30
0.0
  0
SPLINE
  5
75
330
1F
100
AcDbEntity
  8
0
  6
Continuous
 62
     7
370
    25
100
AcDbSpline
210
0.0
220
0.0
230
1.0
 70
     8
 71
     3
 72
    19
 73
    15
 74
     0
 42
0.000000001
 43
0.00000001
 40
0.0
 40
0.0
 40
0.0
 40
0.0
 40
0.0856056949735268
 40
0.1689832639222346
 40
0.25090758232979
 40
0.3337080961143226
 40
0.4160049842563378
 40
0.4976595675743786
 40
0.5798932856419657
 40
0.6639023210428565
 40
0.7484662538082596
 40
0.8317908864798554
 40
0.9152519088316869
 40
1.0
 40
1.0
 40
1.0
 40
1.0
 10
56.39817130921677
 20
63.69304924338169
 30
0.0
 10
56.59199860464492
 20
63.69866473024094
 30
0.0
 10
56.97460830168431
 20
63.70974954531404
 30
0.0
 10
57.53371905954393
 20
63.81997305843144
 30
0.0
 10
58.06906465326662
 20
63.99184589002177
 30
0.0
 10
58.57577059976742
 20
64.23151250377822
 30
0.0
 10
59.04534175734112
 20
64.5358514242199
 30
0.0
 10
59.4711237058683
 20
64.89772161167778
 30
0.0
 10
59.83861775358563
 20
65.32378097461687
 30
0.0
 10
60.15290463176342
 20
65.79759895527624
 30
0.0
 10
60.40810495766335
 20
66.30881760710359
 30
0.0
 10
60.59317582248386
 20
66.84791963127802
 30
0.0
 10
60.70459404769165
 20
67.40841409663054
 30
0.0
 10
60.71822617080703
 20
67.7891069426474
 30
0.0
 10
60.72509438613985
 20
67.98090982030476
 30
0.0
  0
SPLINE
  5
76
330
1F
100
AcDbEntity
  8
0
  6
Continuous
 62
     7
370
    25
100
AcDbSpline
210
0.0
220
0.0
230
1.0
 70
     8
 71
     3
 72
    23
 73
    19
 74
     0
 42
0.000000001
 43
0.00000001
 40
0.0
 40
0.0
 40
0.0
 40
0.0
 40
0.0651847959860723
 40
0.1282737271139279
 40
0.1902702203927576
 40
0.2517683137756828
 40
0.312768694578124
 40
0.3747932794097866
 40
0.4379695860627119
 40
0.5030473998633718
 40
0.5681252136640317
 40
0.6309497487122631
 40
0.6923691093867029
 40
0.7529731677502622
 40
0.8136410669177476
 40
0.874355208691815
 40
0.9365729684654829
 40
1.0
 40
1.0
 40
1.0
 40
1.0
 10
60.72509438613985
 20
67.98090982030476
 30
0.0
 10
60.7209875146
 20
68.12935649621046
 30
0.0
 10
60.71290581838196
 20
68.42147689189547
 30
0.0
 10
60.65087025675321
 20
68.85117312158164
 30
0.0
 10
60.55163222962432
 20
69.26470853570832
 30
0.0
 10
60.41461101282124
 20
69.66264569263414
 30
0.0
 10
60.2318080963276
 20
70.0419849968706
 30
0.0
 10
60.00716469742319
 20
70.40211239854385
 30
0.0
 10
59.74903173139332
 20
70.75086902448253
 30
0.0
 10
59.44895835611582
 20
71.07381319928702
 30
0.0
 10
59.12622959376463
 20
71.37267764174356
 30
0.0
 10
58.78137943012633
 20
71.63251788202706
 30
0.0
 10
58.42230095048436
 20
71.85305043415048
 30
0.0
 10
58.04782131050835
 20
72.03599146517529
 30
0.0
 10
57.65588173487657
 20
72.17290863800066
 30
0.0
 10
57.24956546695865
 20
72.27309420158566
 30
0.0
 10
56.82871342436009
 20
72.33433790144066
 30
0.0
 10
56.54260323938784
 20
72.34268279341775
 30
0.0
 10
56.39817130921677
 20
72.34689539722784
 30
0.0
  0
SPLINE
  5
77
330
1F
100
AcDbEntity
  8
0
  6
Continuous
 62
     7
370
    25
100
AcDbSpline
210
0.0
220
0.0
230
1.0
 70
     8
 71
     3
 72
    19
 73
    15
 74
     0
 42
0.000000001
 43
0.00000001
 40
0.0
 40
0.0
 40
0.0
 40
0.0
 40
0.0815893489321848
 40
0.1628588951679364
 40
0.2454836892755803
 40
0.330807139158011
 40
0.4164933737762853
 40
0.4998932031606322
 40
0.583048155995021
 40
0.6671578520621569
 40
0.7513119292929126
 40
0.833784789357615
 40
0.916256488543978
 40
1.0
 40
1.0
 40
1.0
 40
1.0
 10
65.72509438613986
 20
68.0349963587663
 30
0.0
 10
65.73308678603887
 20
67.84818161369202
 30
0.0
 10
65.74904025832821
 20
67.47528437425987
 30
0.0
 10
65.86368609146238
 20
66.922510473824
 30
0.0
 10
66.05602840617765
 20
66.38399315070407
 30
0.0
 10
66.3184943892978
 20
65.86430317847685
 30
0.0
 10
66.64715135242083
 20
65.38179989120388
 30
0.0
 10
67.02810272050182
 20
64.94577079451145
 30
0.0
 10
67.46503249755695
 20
64.57081541619942
 30
0.0
 10
67.94900752787447
 20
64.25694010074733
 30
0.0
 10
68.4658988295902
 20
64.00338643976684
 30
0.0
 10
69.00947282161678
 20
63.8269622704513
 30
0.0
 10
69.56951127085888
 20
63.7130574963648
 30
0.0
 10
69.95030698736716
 20
63.69975259563457
 30
0.0
 10
70.14216169383216
 20
63.69304924338169
 30
0.0
  0
SPLINE
  5
78
330
1F
100
AcDbEntity
  8
0
  6
Continuous
 62
     7
370
    25
100
AcDbSpline
210
0.0
220
0.0
230
1.0
 70
     8
 71
     3
 72
    23
 73
    19
 74
     0
 42
0.000000001
 43
0.00000001
 40
0.0
 40
0.0
 40
0.0
 40
0.0
 40
0.0656337996756899
 40
0.1291880880571289
 40
0.1912186831121889
 40
0.2519128178811574
 40
0.3125074743865501
 40
0.3734944337751978
 40
0.43515159965405
 40
0.498741474406647
 40
0.5620952169966297
 40
0.6241865668116555
 40
0.6854757184651938
 40
0.7460968148060503
 40
0.8076116364477847
 40
0.869966580657189
 40
0.9339510189149057
 40
1.0
 40
1.0
 40
1.0
 40
1.0
 10
74.5712482322937
 20
67.9959338587663
 30
0.0
 10
74.56713541927259
 20
68.14738170379955
 30
0.0
 10
74.55904010171736
 20
68.4454789896019
 30
0.0
 10
74.49719480372883
 20
68.88316835062483
 30
0.0
 10
74.39881654767781
 20
69.30202717642626
 30
0.0
 10
74.26019010475004
 20
69.70249584382024
 30
0.0
 10
74.07808460011192
 20
70.08236019553128
 30
0.0
 10
73.85845131774163
 20
70.44434773928977
 30
0.0
 10
73.59742796174056
 20
70.7865757881027
 30
0.0
 10
73.29921640702638
 20
71.10433180658185
 30
0.0
 10
72.97279411040297
 20
71.39415950197852
 30
0.0
 10
72.62738893626546
 20
71.65286339074318
 30
0.0
 10
72.2589085921622
 20
71.86538670248547
 30
0.0
 10
71.87354986251471
 20
72.04127786604677
 30
0.0
 10
71.47064414339162
 20
72.18124565132223
 30
0.0
 10
71.04691291559783
 20
72.2746214817568
 30
0.0
 10
70.60686011448186
 20
72.33873714333708
 30
0.0
 10
70.30666273421195
 20
72.3441473466341
 30
0.0
 10
70.15418092460138
 20
72.34689539722784
 30
0.0
  0
SPLINE
  5
79
330
1F
100
AcDbEntity
  8
0
  6
Continuous
 62
     7
370
    25
100
AcDbSpline
210
0.0
220
0.0
230
1.0
 70
     8
 71
     3
 72
    19
 73
    15
 74
     0
 42
0.000000001
 43
0.00000001
 40
0.0
 40
0.0
 40
0.0
 40
0.0
 40
0.0848023883688276
 40
0.1686635395998406
 40
0.2525519243727815
 40
0.3382396894642432
 40
0.4231026613931542
 40
0.5055560510576224
 40
0.5861756559890515
 40
0.6671357203303607
 40
0.7484991803055348
 40
0.830452398758279
 40
0.9134557062010142
 40
1.0
 40
1.0
 40
1.0
 40
1.0
 10
70.14216169383216
 20
63.69304924338169
 30
0.0
 10
70.33693241995574
 20
63.70016337449228
 30
0.0
 10
70.72431207647624
 20
63.71431267567787
 30
0.0
 10
71.29619225310489
 20
63.82266095550604
 30
0.0
 10
71.85117066509575
 20
64.001670091292
 30
0.0
 10
72.38168735814581
 20
64.2498092058662
 30
0.0
 10
72.87589934877943
 20
64.55734073113939
 30
0.0
 10
73.31946168142134
 20
64.91737112127176
 30
0.0
 10
73.69453011730765
 20
65.3360990532232
 30
0.0
 10
74.01249844407145
 20
65.79628385198752
 30
0.0
 10
74.26182165849411
 20
66.30076383681983
 30
0.0
 10
74.44343334076726
 20
66.83791036858801
 30
0.0
 10
74.55080722266571
 20
67.40774214635245
 30
0.0
 10
74.56434034970526
 20
67.79715897617511
 30
0.0
 10
74.5712482322937
 20
67.9959338587663
 30
0.0
  0
SPLINE
  5
7A
330
1F
100
AcDbEntity
  8
0
  6
Continuous
 62
     7
370
    25
100
AcDbSpline
210
0.0
220
0.0
230
1.0
 70
     8
 71
     3
 72
    19
 73
    15
 74
     0
 42
0.000000001
 43
0.00000001
 40
0.0
 40
0.0
 40
0.0
 40
0.0
 40
0.0859205174117661
 40
0.1695934351247428
 40
0.2524755148685373
 40
0.3362444769570502
 40
0.4195045210415716
 40
0.5020359066440886
 40
0.5847746476768717
 40
0.6698464747058002
 40
0.7541848663887875
 40
0.8366582383293277
 40
0.9180097257088065
 40
0.9999999999999999
 40
0.9999999999999999
 40
0.9999999999999999
 40
0.9999999999999999
 10
70.15418092460138
 20
72.34689539722784
 30
0.0
 10
69.95740519086401
 20
72.33989409266835
 30
0.0
 10
69.569001190993
 20
72.32607463107325
 30
0.0
 10
68.99881261072548
 20
72.21818822313939
 30
0.0
 10
68.4531836932053
 20
72.03868281872332
 30
0.0
 10
67.93484337491147
 20
71.7931889565732
 30
0.0
 10
67.45197958938601
 20
71.4844943710715
 30
0.0
 10
67.02043528583177
 20
71.11111701410654
 30
0.0
 10
66.63668085144921
 20
70.68324409630091
 30
0.0
 10
66.31393114759447
 20
70.20280648034296
 30
0.0
 10
66.0508290179387
 20
69.68775751862027
 30
0.0
 10
65.86582745249555
 20
69.14936706961569
 30
0.0
 10
65.74381639217059
 20
68.59734573722986
 30
0.0
 10
65.73135130404998
 20
68.22293422675382
 30
0.0
 10
65.72509438613986
 20
68.0349963587663
 30
0.0
  0
SPLINE
  5
85
330
1F
100
AcDbEntity
  8
0
  6
Continuous
 62
     7
370
    25
100
AcDbSpline
210
0.0
220
0.0
230
1.0
 70
     8
 71
     3
 72
    23
 73
    19
 74
     0
 42
0.000000001
 43
0.00000001
 40
0.0
 40
0.0
 40
0.0
 40
0.0
 40
0.0687422616054889
 40
0.1346351922242767
 40
0.198324187067147
 40
0.2608250125604211
 40
0.3227135881590246
 40
0.3845545346076193
 40
0.4469128577247563
 40
0.510957632514829
 40
0.5749307010013367
 40
0.6366845377960937
 40
0.6974831152940629
 40
0.7571338075238547
 40
0.8169656636752647
 40
0.8768183516571972
 40
0.9376625803840031
 40
1.0
 40
1.0
 40
1.0
 40
1.0
 10
56.40418092460138
 20
62.34689539722783
 30
0.0
 10
56.19960355527733
 20
62.35212909530367
 30
0.0
 10
55.7989284421751
 20
62.36237955739242
 30
0.0
 10
55.21295994821828
 20
62.4415679119477
 30
0.0
 10
54.65586158135459
 20
62.57338783724546
 30
0.0
 10
54.12773901627139
 20
62.76139137751685
 30
0.0
 10
53.62568967217812
 20
62.99836799358588
 30
0.0
 10
53.15517611382363
 20
63.292418091778
 30
0.0
 10
52.71289076161278
 20
63.63767589994275
 30
0.0
 10
52.30543939983036
 20
64.03254420158495
 30
0.0
 10
51.93687394843288
 20
64.46115830013231
 30
0.0
 10
51.61170391264193
 20
64.91180132224743
 30
0.0
 10
51.33788822914176
 20
65.38070172269265
 30
0.0
 10
51.11349592678982
 20
65.86877037243875
 30
0.0
 10
50.93850244285511
 20
66.37387922296257
 30
0.0
 10
50.81622633141939
 20
66.89757127636182
 30
0.0
 10
50.73761084042263
 20
67.43765428437615
 30
0.0
 10
50.72930011804287
 20
67.80435256843406
 30
0.0
 10
50.72509438613985
 20
67.98992424338168
 30
0.0
  0
SPLINE
  5
86
330
1F
100
AcDbEntity
  8
0
  6
Continuous
 62
     7
370
    25
100
AcDbSpline
210
0.0
220
0.0
230
1.0
 70
     8
 71
     3
 72
    15
 73
    11
 74
     0
 42
0.000000001
 43
0.00000001
 40
0.0
 40
0.0
 40
0.0
 40
0.0
 40
0.1281572795931861
 40
0.2538343627967326
 40
0.3765056225222092
 40
0.4985336856679068
 40
0.6213677287324634
 40
0.7445647449043578
 40
0.8706337982552816
 40
1.0
 40
1.0
 40
1.0
 40
1.0
 10
60.56884438613985
 20
71.88715982030476
 30
0.0
 10
60.68876704641821
 20
71.74909988120719
 30
0.0
 10
60.92629153315259
 20
71.47565184314155
 30
0.0
 10
61.23085889939271
 20
71.03227064473128
 30
0.0
 10
61.49323701435317
 20
70.57309878505279
 30
0.0
 10
61.70350684715328
 20
70.09203881360446
 30
0.0
 10
61.8692998058042
 20
69.59329022294635
 30
0.0
 10
61.98700993261262
 20
69.07513874655154
 30
0.0
 10
62.05702536807154
 20
68.53872868727909
 30
0.0
 10
62.0664666549643
 20
68.17442652409186
 30
0.0
 10
62.07124823229369
 20
67.98992424338168
 30
0.0
  0
SPLINE
  5
87
330
1F
100
AcDbEntity
  8
0
  6
Continuous
 62
     7
370
    25
100
AcDbSpline
210
0.0
220
0.0
230
1.0
 70
     8
 71
     3
 72
    15
 73
    11
 74
     0
 42
0.000000001
 43
0.00000001
 40
0.0
 40
0.0
 40
0.0
 40
0.0
 40
0.1317514273024047
 40
0.2583323505141585
 40
0.3821339760925445
 40
0.5038043916000841
 40
0.6246929865409316
 40
0.7468705897275755
 40
0.8715135042348149
 40
1.0
 40
1.0
 40
1.0
 40
1.0
 10
56.40418092460138
 20
73.69304924338168
 30
0.0
 10
56.60985780821536
 20
73.68866970992953
 30
0.0
 10
57.01313991208561
 20
73.68008251513386
 30
0.0
 10
57.60374513728273
 20
73.58830409090831
 30
0.0
 10
58.16751000558124
 20
73.4479582435414
 30
0.0
 10
58.70659368628203
 20
73.25393726322228
 30
0.0
 10
59.21409209536526
 20
72.9938717608795
 30
0.0
 10
59.69739742725651
 20
72.68354622748477
 30
0.0
 10
60.1551846081919
 20
72.31590654078057
 30
0.0
 10
60.42956901929415
 20
72.03151481917455
 30
0.0
 10
60.56884438613986
 20
71.88715982030477
 30
0.0
  0
SPLINE
  5
88
330
1F
100
AcDbEntity
  8
0
  6
Continuous
 62
     7
370
    25
100
AcDbSpline
210
0.0
220
0.0
230
1.0
 70
     8
 71
     3
 72
    15
 73
    11
 74
     0
 42
0.000000001
 43
0.00000001
 40
0.0
 40
0.0
 40
0.0
 40
0.0
 40
0.1284975211375129
 40
0.2527129855154538
 40
0.3748191325670457
 40
0.4964364263727299
 40
0.6179105567458513
 40
0.7412876173092898
 40
0.8687004007446087
 40
1.0
 40
1.0
 40
1.0
 40
1.0
 10
52.2274982322937
 20
71.87814539722784
 30
0.0
 10
52.36656362240523
 20
72.02375227974292
 30
0.0
 10
52.64006018176179
 20
72.31011383494062
 30
0.0
 10
53.1001261577398
 20
72.67668179531331
 30
0.0
 10
53.58224253392751
 20
72.99346496900252
 30
0.0
 10
54.09534936023117
 20
73.24836303522835
 30
0.0
 10
54.63399018004161
 20
73.44909953977003
 30
0.0
 10
55.20064407658968
 20
73.58866603311948
 30
0.0
 10
55.79325342855898
 20
73.67975184012944
 30
0.0
 10
56.19850894754003
 20
73.68857260215275
 30
0.0
 10
56.40418092460138
 20
73.69304924338168
 30
0.0
  0
SPLINE
  5
89
330
1F
100
AcDbEntity
  8
0
  6
Continuous
 62
     7
370
    25
100
AcDbSpline
210
0.0
220
0.0
230
1.0
 70
     8
 71
     3
 72
    15
 73
    11
 74
     0
 42
0.000000001
 43
0.00000001
 40
0.0
 40
0.0
 40
0.0
 40
0.0
 40
0.1289191318119604
 40
0.2552377249249077
 40
0.3786785959785515
 40
0.501087887185134
 40
0.6227136794297774
 40
0.7462407949383835
 40
0.8715890472316705
 40
1.0
 40
1.0
 40
1.0
 40
1.0
 10
50.72509438613985
 20
67.98992424338168
 30
0.0
 10
50.72990857336974
 20
68.1734237257799
 30
0.0
 10
50.73943983671793
 20
68.53672116467774
 30
0.0
 10
50.8093848756078
 20
69.07212285318259
 30
0.0
 10
50.92663583196983
 20
69.5893973777451
 30
0.0
 10
51.09262753106085
 20
70.08622084624665
 30
0.0
 10
51.30483549202394
 20
70.56517271498811
 30
0.0
 10
51.56352672607044
 20
71.02547913350094
 30
0.0
 10
51.87120086552974
 20
71.46685542126707
 30
0.0
 10
52.10778065781117
 20
71.73995004995876
 30
0.0
 10
52.2274982322937
 20
71.87814539722784
 30
0.0
  0
SPLINE
  5
8B
330
1F
100
AcDbEntity
  8
0
  6
Continuous
 62
     7
370
    25
100
AcDbSpline
210
0.0
220
0.0
230
1.0
 70
     8
 71
     3
 72
    15
 73
    11
 74
     0
 42
0.000000001
 43
0.00000001
 40
0.0
 40
0.0
 40
0.0
 40
0.0
 40
0.0759990781976529
 40
0.1656113455724371
 40
0.2690450272477372
 40
0.3874479753729722
 40
0.5188266584719685
 40
0.6653935553138969
 40
0.8250827975617834
 40
1.0
 40
1.0
 40
1.0
 40
1.0
 10
80.5478107322937
 20
69.44425116645861
 30
0.0
 10
80.53092747270738
 20
69.37130423395698
 30
0.0
 10
80.49413677202982
 20
69.2123438895228
 30
0.0
 10
80.45421605795372
 20
68.950168215529
 30
0.0
 10
80.41848264388761
 20
68.64551233550117
 30
0.0
 10
80.38827457346646
 20
68.29883833419339
 30
0.0
 10
80.36974706038679
 20
67.9088758673783
 30
0.0
 10
80.34978317136228
 20
67.47828604271261
 30
0.0
 10
80.34235168286058
 20
67.00437166782184
 30
0.0
 10
80.34112188470017
 20
66.67481949308333
 30
0.0
 10
80.34047900152447
 20
66.50254443568939
 30
0.0
  0
SPLINE
  5
8C
330
1F
100
AcDbEntity
  8
0
  6
Continuous
 62
     7
370
    25
100
AcDbSpline
210
0.0
220
0.0
230
1.0
 70
     8
 71
     3
 72
    23
 73
    19
 74
     0
 42
0.000000001
 43
0.00000001
 40
0.0
 40
0.0
 40
0.0
 40
0.0
 40
0.0640199753991865
 40
0.1266938772026797
 40
0.1890843947192408
 40
0.250362631943527
 40
0.3125164793751657
 40
0.3742426024152406
 40
0.4378501622567361
 40
0.5026573259791429
 40
0.5677454391232081
 40
0.6305759140874045
 40
0.6927720900845489
 40
0.7542675456219438
 40
0.8151205536325733
 40
0.8760513585553995
 40
0.9379817981186485
 40
1.0
 40
1.0
 40
1.0
 40
1.0
 10
84.27377227075523
 20
72.34689539722784
 30
0.0
 10
84.1654818142785
 20
72.3448561415809
 30
0.0
 10
83.95117779885928
 20
72.34082050734473
 30
0.0
 10
83.63339780251314
 20
72.30030379931698
 30
0.0
 10
83.32513038742515
 20
72.23409500532317
 30
0.0
 10
83.02340676805157
 20
72.14450412514132
 30
0.0
 10
82.7346216349991
 20
72.02259468310133
 30
0.0
 10
82.45035738510504
 20
71.88146530026488
 30
0.0
 10
82.1786679181979
 20
71.70871563613638
 30
0.0
 10
81.91472870307832
 20
71.51489091853776
 30
0.0
 10
81.66908213159277
 20
71.3003062340336
 30
0.0
 10
81.44053735098223
 20
71.07381928398394
 30
0.0
 10
81.23680160745417
 20
70.83264086577113
 30
0.0
 10
81.05222193184734
 20
70.58064036829865
 30
0.0
 10
80.89288642189673
 20
70.31436125346848
 30
0.0
 10
80.75380178435138
 20
70.0363713174228
 30
0.0
 10
80.63579165697287
 20
69.74630497899986
 30
0.0
 10
80.57715154730607
 20
69.54498328617515
 30
0.0
 10
80.5478107322937
 20
69.44425116645861
 30
0.0
  0
SPLINE
  5
8D
330
1F
100
AcDbEntity
  8
0
  6
Continuous
 62
     7
370
    25
100
AcDbSpline
210
0.0
220
0.0
230
1.0
 70
     8
 71
     3
 72
    15
 73
    11
 74
     0
 42
0.000000001
 43
0.00000001
 40
0.0
 40
0.0
 40
0.0
 40
0.0
 40
0.1362573959516219
 40
0.2619540501111404
 40
0.3796376751609938
 40
0.4943790325909198
 40
0.6098662115170733
 40
0.7298874857748366
 40
0.8592125479192229
 40
1.0
 40
1.0
 40
1.0
 40
1.0
 10
87.10730592460139
 20
70.18944347415092
 30
0.0
 10
87.05834487418913
 20
70.3595617469711
 30
0.0
 10
86.96421753993607
 20
70.68661313564563
 30
0.0
 10
86.74544049483254
 20
71.13088060741453
 30
0.0
 10
86.47218759028928
 20
71.50967235332361
 30
0.0
 10
86.13855646925042
 20
71.81787644539229
 30
0.0
 10
85.7504491944981
 20
72.0596401854852
 30
0.0
 10
85.30533506259464
 20
72.22707353777925
 30
0.0
 10
84.80740334073907
 20
72.3309923462269
 30
0.0
 10
84.45661131883203
 20
72.34144650403162
 30
0.0
 10
84.27377227075523
 20
72.34689539722784
 30
0.0
  0
SPLINE
  5
8E
330
1F
100
AcDbEntity
  8
0
  6
Continuous
 62
     7
370
    25
100
AcDbSpline
210
0.0
220
0.0
230
1.0
 70
     8
 71
     3
 72
    15
 73
    11
 74
     0
 42
0.000000001
 43
0.00000001
 40
0.0
 40
0.0
 40
0.0
 40
0.0
 40
0.1788665699309817
 40
0.3421413072700158
 40
0.4898709911205395
 40
0.6233121032799162
 40
0.7400556234382863
 40
0.8414680041078533
 40
0.928901093403787
 40
0.9999999999999999
 40
0.9999999999999999
 40
0.9999999999999999
 40
0.9999999999999999
 10
87.26355592460139
 20
67.69545308953553
 30
0.0
 10
87.26274033961226
 20
67.84469310182541
 30
0.0
 10
87.2611802643311
 20
68.1301638464232
 30
0.0
 10
87.25602307335377
 20
68.53887573940456
 30
0.0
 10
87.2445107219167
 20
68.90957345899882
 30
0.0
 10
87.22590718260912
 20
69.2410689665659
 30
0.0
 10
87.20634157955244
 20
69.5338244093288
 30
0.0
 10
87.17941307736503
 20
69.78741464262093
 30
0.0
 10
87.14808350291202
 20
70.00218796534325
 30
0.0
 10
87.11993158255991
 20
70.13146494518958
 30
0.0
 10
87.10730592460139
 20
70.18944347415092
 30
0.0
  0
SPLINE
  5
92
330
1F
100
AcDbEntity
  8
0
  6
Continuous
 62
     7
370
    25
100
AcDbSpline
210
0.0
220
0.0
230
1.0
 70
     8
 71
     3
 72
    23
 73
    19
 74
     0
 42
0.000000001
 43
0.00000001
 40
0.0
 40
0.0
 40
0.0
 40
0.0
 40
0.0772285532334966
 40
0.1511549072635852
 40
0.2234536379509622
 40
0.2954972249195544
 40
0.3669198573541579
 40
0.4367940850066787
 40
0.5066964308522685
 40
0.5778638467408531
 40
0.6159118097672339
 40
0.6580480255185124
 40
0.7037759860580367
 40
0.7540801428690679
 40
0.8089794210802194
 40
0.8679131928433454
 40
0.931701816175728
 40
1.0
 40
1.0
 40
1.0
 40
1.0
 10
84.51115207844755
 20
73.6930492433817
 30
0.0
 10
84.71399661909437
 20
73.68556882795032
 30
0.0
 10
85.11101231402381
 20
73.67092785057241
 30
0.0
 10
85.68907572560852
 20
73.55515621758526
 30
0.0
 10
86.22890804668576
 20
73.35733862582308
 30
0.0
 10
86.72890451576583
 20
73.08662280416742
 30
0.0
 10
87.17815321768099
 20
72.74945354454125
 30
0.0
 10
87.57608077865109
 20
72.36017559037118
 30
0.0
 10
87.90111277347027
 20
71.9090016554761
 30
0.0
 10
88.12225184613578
 20
71.49218913846491
 30
0.0
 10
88.26613787976201
 20
71.12130876436518
 30
0.0
 10
88.3572171356112
 20
70.8031522832794
 30
0.0
 10
88.43444227126531
 20
70.44862979793666
 30
0.0
 10
88.50172685318886
 20
70.05792380213627
 30
0.0
 10
88.54657077429628
 20
69.6291587822181
 30
0.0
 10
88.58259056569742
 20
69.16426912029182
 30
0.0
 10
88.60820394089173
 20
68.66328147119381
 30
0.0
 10
88.60919653149352
 20
68.3164804024025
 30
0.0
 10
88.60970977075523
 20
68.13715982030477
 30
0.0
  0
SPLINE
  5
93
330
1F
100
AcDbEntity
  8
0
  6
Continuous
 62
     7
370
    25
100
AcDbSpline
210
0.0
220
0.0
230
1.0
 70
     8
 71
     3
 72
    15
 73
    11
 74
     0
 42
0.000000001
 43
0.00000001
 40
0.0
 40
0.0
 40
0.0
 40
0.0
 40
0.1407235132503485
 40
0.2739958912186153
 40
0.4006841600587753
 40
0.5225546790047675
 40
0.6415337705510091
 40
0.7599691428622691
 40
0.8784045151735284
 40
1.0
 40
1.0
 40
1.0
 40
1.0
 10
80.34047900152447
 20
71.430429051074
 30
0.0
 10
80.48498172286355
 20
71.6110461171931
 30
0.0
 10
80.76633592588419
 20
71.96271680006295
 30
0.0
 10
81.23989071137682
 20
72.42155047518979
 30
0.0
 10
81.72619444901859
 20
72.8192588518679
 30
0.0
 10
82.24204363399086
 20
73.13584652564386
 30
0.0
 10
82.7779744354578
 20
73.38594599674184
 30
0.0
 10
83.33624719729623
 20
73.5633216244662
 30
0.0
 10
83.9169656456668
 20
73.67239775300222
 30
0.0
 10
84.31135914583415
 20
73.6861052581304
 30
0.0
 10
84.51115207844754
 20
73.69304924338168
 30
0.0
  0
CIRCLE
  5
98
330
1F
100
AcDbEntity
  8
0
  6
Continuous
 62
     7
370
    25
100
AcDbCircle
 10
129.5
 20
72.5
 30
0.0
 40
2.499999999999986
  0
CIRCLE
  5
99
330
1F
100
AcDbEntity
  8
0
  6
Continuous
 62
     7
370
    25
100
AcDbCircle
 10
-7.5
 20
-77.5
 30
0.0
 40
2.5
  0
CIRCLE
  5
9E
330
1F
100
AcDbEntity
  8
0
  6
Continuous
 62
     7
370
    25
100
AcDbCircle
 10
-7.5
 20
72.5
 30
0.0
 40
2.499999999999986
  0
CIRCLE
  5
9F
330
1F
100
AcDbEntity
  8
0
  6
Continuous
 62
     7
370
    25
100
AcDbCircle
 10
129.5
 20
-77.5
 30
0.0
 40
2.5
  0
SPLINE
  5
A0
330
1F
100
AcDbEntity
  8
0
  6
Continuous
 62
     7
370
    25
100
AcDbSpline
210
0.0
220
0.0
230
1.0
 70
     8
 71
     3
 72
    15
 73
    11
 74
     0
 42
0.000000001
 43
0.00000001
 40
0.0
 40
0.0
 40
0.0
 40
0.0
 40
0.1298621417207387
 40
0.254653530897288
 40
0.3760145541937148
 40
0.4952552518176077
 40
0.6147977192994595
 40
0.738105554168332
 40
0.865196300072358
 40
1.0
 40
1.0
 40
1.0
 40
1.0
 10
70.13615207844754
 20
73.69304924338168
 30
0.0
 10
70.35986576014587
 20
73.68688745105945
 30
0.0
 10
70.79855773149055
 20
73.6748044671295
 30
0.0
 10
71.44024919977693
 20
73.5742499214767
 30
0.0
 10
72.04729696222073
 20
73.4043707765274
 30
0.0
 10
72.62438704234965
 20
73.17329578499805
 30
0.0
 10
73.16944712561319
 20
72.86622980321843
 30
0.0
 10
73.67731705839581
 20
72.47888711311715
 30
0.0
 10
74.15331198685783
 20
72.01371059753085
 30
0.0
 10
74.42922752254023
 20
71.65640869266275
 30
0.0
 10
74.5712482322937
 20
71.4724963587663
 30
0.0
  0
SPLINE
  5
A1
330
1F
100
AcDbEntity
  8
0
  6
Continuous
 62
     7
370
    25
100
AcDbSpline
210
0.0
220
0.0
230
1.0
 70
     8
 71
     3
 72
    23
 73
    19
 74
     0
 42
0.000000001
 43
0.00000001
 40
0.0
 40
0.0
 40
0.0
 40
0.0
 40
0.0637745323056327
 40
0.1260788099895056
 40
0.1869040927472075
 40
0.2475739349176204
 40
0.3080033561644481
 40
0.369131898460978
 40
0.4320332277442053
 40
0.4967907944370923
 40
0.5616108232295658
 40
0.6249138657484635
 40
0.6867263492419259
 40
0.748078833257772
 40
0.8095822911398968
 40
0.8716307425688282
 40
0.9348858208285539
 40
1.0
 40
1.0
 40
1.0
 40
1.0
 10
64.37894053998599
 20
68.05002039722784
 30
0.0
 10
64.38431041734978
 20
68.24057912681111
 30
0.0
 10
64.39492637521481
 20
68.61730345532256
 30
0.0
 10
64.47401160310163
 20
69.17135501811906
 30
0.0
 10
64.60700164021239
 20
69.70500470697583
 30
0.0
 10
64.79363527306622
 20
70.21653446364905
 30
0.0
 10
65.03295793719388
 20
70.70656325000017
 30
0.0
 10
65.32407831014038
 20
71.17543764292135
 30
0.0
 10
65.66701741599255
 20
71.62444934633004
 30
0.0
 10
66.06238487463418
 20
72.04304031841052
 30
0.0
 10
66.49067674675979
 20
72.42970009385074
 30
0.0
 10
66.9488570221114
 20
72.76573886003273
 30
0.0
 10
67.42552822777206
 20
73.05595392638712
 30
0.0
 10
67.92808398715374
 20
73.28589739627148
 30
0.0
 10
68.44908586492797
 20
73.47193641574769
 30
0.0
 10
68.99317206098755
 20
73.6006491361785
 30
0.0
 10
69.55807882673999
 20
73.67649479863567
 30
0.0
 10
69.94160950701692
 20
73.68747807356888
 30
0.0
 10
70.13615207844754
 20
73.69304924338168
 30
0.0
  0
SPLINE
  5
A2
330
1F
100
AcDbEntity
  8
0
  6
Continuous
 62
     7
370
    25
100
AcDbSpline
210
0.0
220
0.0
230
1.0
 70
     8
 71
     3
 72
    23
 73
    19
 74
     0
 42
0.000000001
 43
0.00000001
 40
0.0
 40
0.0
 40
0.0
 40
0.0
 40
0.0646199913407683
 40
0.1274334841444713
 40
0.1890041265579406
 40
0.249930070686047
 40
0.3106684537406723
 40
0.372328961136826
 40
0.4349391099970092
 40
0.4995755441940351
 40
0.5641912077719241
 40
0.62673521692948
 40
0.6881093335614026
 40
0.7492936065367527
 40
0.8103305278109462
 40
0.8719011702244168
 40
0.9350459146845316
 40
1.0
 40
1.0
 40
1.0
 40
1.0
 10
70.09408477075525
 20
62.34689539722783
 30
0.0
 10
69.90050782575864
 20
62.35215127838133
 30
0.0
 10
69.51876551909582
 20
62.36251610873404
 30
0.0
 10
68.95721233135761
 20
62.44292598138382
 30
0.0
 10
68.41681697656051
 20
62.57205721699275
 30
0.0
 10
67.89706880800998
 20
62.75163245767173
 30
0.0
 10
67.4013310418638
 20
62.98983597897823
 30
0.0
 10
66.92535919898249
 20
63.27501275629862
 30
0.0
 10
66.47161909032913
 20
63.61461631378708
 30
0.0
 10
66.04702678048406
 20
64.00285072101377
 30
0.0
 10
65.65603249315875
 20
64.42454352322922
 30
0.0
 10
65.31291275334937
 20
64.87431015269406
 30
0.0
 10
65.02682812540051
 20
65.35020574080552
 30
0.0
 10
64.78759920808358
 20
65.84620497175715
 30
0.0
 10
64.60332916048046
 20
66.36612605547438
 30
0.0
 10
64.47487072794651
 20
66.90817106093064
 30
0.0
 10
64.39455452780082
 20
67.47169909038709
 30
0.0
 10
64.38419398200816
 20
67.855439903654
 30
0.0
 10
64.37894053998599
 20
68.05002039722784
 30
0.0
  0
SPLINE
  5
A3
330
1F
100
AcDbEntity
  8
0
  6
Continuous
 62
     7
370
    25
100
AcDbSpline
210
0.0
220
0.0
230
1.0
 70
     8
 71
     3
 72
    15
 73
    11
 74
     0
 42
0.000000001
 43
0.00000001
 40
0.0
 40
0.0
 40
0.0
 40
0.0
 40
0.1342983790141679
 40
0.2620849753822999
 40
0.3862699121344991
 40
0.5071645966228002
 40
0.627300235725506
 40
0.7481449416029945
 40
0.8723701771613522
 40
1.0
 40
1.0
 40
1.0
 40
1.0
 10
74.5712482322937
 20
64.43523674338168
 30
0.0
 10
74.41945341532445
 20
64.26363848356242
 30
0.0
 10
74.12322392126369
 20
63.92876232176124
 30
0.0
 10
73.62847627281448
 20
63.49126729680084
 30
0.0
 10
73.10404122466097
 20
63.12964591877207
 30
0.0
 10
72.55246413410084
 20
62.83757485148465
 30
0.0
 10
71.97424309119536
 20
62.61818032432459
 30
0.0
 10
71.37065986001141
 20
62.46223964235688
 30
0.0
 10
70.74146822773054
 20
62.36198034876149
 30
0.0
 10
70.3118152786305
 20
62.35196882646564
 30
0.0
 10
70.09408477075525
 20
62.34689539722783
 30
0.0
  0
SPLINE
  5
A9
330
1F
100
AcDbEntity
  8
0
  6
Continuous
 62
     7
370
    25
100
AcDbSpline
210
0.0
220
0.0
230
1.0
 70
     8
 71
     3
 72
    23
 73
    19
 74
     0
 42
0.000000001
 43
0.00000001
 40
0.0
 40
0.0
 40
0.0
 40
0.0
 40
0.0624160261588179
 40
0.1233369785373288
 40
0.1832651398530918
 40
0.2431724430697087
 40
0.3028983539197441
 40
0.3637735975039097
 40
0.4256053049523814
 40
0.489659042510184
 40
0.5537845767921158
 40
0.6162215328110722
 40
0.6778544713083421
 40
0.7395168974879378
 40
0.8020965355763714
 40
0.8658658412779711
 40
0.9315077951965108
 40
1.0
 40
1.0
 40
1.0
 40
1.0
 10
62.07124823229369
 20
67.98992424338168
 30
0.0
 10
62.06704250093126
 20
67.8043525676201
 30
0.0
 10
62.05873177961965
 20
67.43765428195374
 30
0.0
 10
61.98011628080086
 20
66.89757128571746
 30
0.0
 10
61.8578401984697
 20
66.37387918849436
 30
0.0
 10
61.68284660627383
 20
65.86877050098333
 30
0.0
 10
61.45845470943006
 20
65.38070124064888
 30
0.0
 10
61.18463747714331
 20
64.9118031722678
 30
0.0
 10
60.85947340363596
 20
64.4611511725259
 30
0.0
 10
60.49088484609995
 20
64.03257186572982
 30
0.0
 10
60.08351966259399
 20
63.63757380232931
 30
0.0
 10
59.64159331265513
 20
63.29330978995791
 30
0.0
 10
59.1737903108655
 20
62.99836039980759
 30
0.0
 10
58.67389022540257
 20
62.76077576145861
 30
0.0
 10
58.1464581389808
 20
62.57344847440915
 30
0.0
 10
57.59035641853052
 20
62.44187697542176
 30
0.0
 10
57.00644897433094
 20
62.36232690209444
 30
0.0
 10
56.60776088276157
 20
62.35211158811909
 30
0.0
 10
56.40418092460138
 20
62.34689539722783
 30
0.0
  0
LINE
  5
AA
330
1F
100
AcDbEntity
  8
0
  6
Continuous
 62
     7
370
    25
100
AcDbLine
 10
47.3416809246
 20
62.5392030895
 30
0.0
 11
37.4558636169
 21
74.3180492434
 31
0.0
  0
LINE
  5
AB
330
1F
100
AcDbEntity
  8
0
  6
Continuous
 62
     7
370
    25
100
AcDbLine
 10
47.6481713092
 20
62.5392030895
 30
0.0
 11
47.3416809246
 21
62.5392030895
 31
0.0
  0
LINE
  5
AC
330
1F
100
AcDbEntity
  8
0
  6
Continuous
 62
     7
370
    25
100
AcDbLine
 10
47.6481713092
 20
77.5392030895
 30
0.0
 11
47.6481713092
 21
62.5392030895
 31
0.0
  0
LINE
  5
AD
330
1F
100
AcDbEntity
  8
0
  6
Continuous
 62
     7
370
    25
100
AcDbLine
 10
46.3020174631
 20
77.5392030895
 30
0.0
 11
47.6481713092
 21
77.5392030895
 31
0.0
  0
LINE
  5
AE
330
1F
100
AcDbEntity
  8
0
  6
Continuous
 62
     7
370
    25
100
AcDbLine
 10
46.3020174631
 20
65.7333136665
 30
0.0
 11
46.3020174631
 21
77.5392030895
 31
0.0
  0
LINE
  5
AF
330
1F
100
AcDbEntity
  8
0
  6
Continuous
 62
     7
370
    25
100
AcDbLine
 10
36.3921616938
 20
77.5392030895
 30
0.0
 11
46.3020174631
 21
65.7333136665
 31
0.0
  0
LINE
  5
B0
330
1F
100
AcDbEntity
  8
0
  6
Continuous
 62
     7
370
    25
100
AcDbLine
 10
36.1097097708
 20
77.5392030895
 30
0.0
 11
36.3921616938
 21
77.5392030895
 31
0.0
  0
LINE
  5
B1
330
1F
100
AcDbEntity
  8
0
  6
Continuous
 62
     7
370
    25
100
AcDbLine
 10
36.1097097708
 20
62.5392030895
 30
0.0
 11
36.1097097708
 21
77.5392030895
 31
0.0
  0
LINE
  5
B2
330
1F
100
AcDbEntity
  8
0
  6
Continuous
 62
     7
370
    25
100
AcDbLine
 10
37.4558636169
 20
62.5392030895
 30
0.0
 11
36.1097097708
 21
62.5392030895
 31
0.0
  0
LINE
  5
B3
330
1F
100
AcDbEntity
  8
0
  6
Continuous
 62
     7
370
    25
100
AcDbLine
 10
37.4558636169
 20
74.3180492434
 30
0.0
 11
37.4558636169
 21
62.5392030895
 31
0.0
  0
LINE
  5
B4
330
1F
100
AcDbEntity
  8
0
  6
Continuous
 62
     7
370
    25
100
AcDbLine
 10
80.3404790015
 20
66.5025444357
 30
0.0
 11
80.3404790015
 21
62.5392030895
 31
0.0
  0
LINE
  5
B5
330
1F
100
AcDbEntity
  8
0
  6
Continuous
 62
     7
370
    25
100
AcDbLine
 10
87.2635559246
 20
62.5392030895
 30
0.0
 11
87.2635559246
 21
67.6954530895
 31
0.0
  0
LINE
  5
B6
330
1F
100
AcDbEntity
  8
0
  6
Continuous
 62
     7
370
    25
100
AcDbLine
 10
88.6097097708
 20
62.5392030895
 30
0.0
 11
87.2635559246
 21
62.5392030895
 31
0.0
  0
LINE
  5
B7
330
1F
100
AcDbEntity
  8
0
  6
Continuous
 62
     7
370
    25
100
AcDbLine
 10
88.6097097708
 20
68.1371598203
 30
0.0
 11
88.6097097708
 21
62.5392030895
 31
0.0
  0
LINE
  5
B8
330
1F
100
AcDbEntity
  8
0
  6
Continuous
 62
     7
370
    25
100
AcDbLine
 10
80.3404790015
 20
77.9238184742
 30
0.0
 11
80.3404790015
 21
71.4304290511
 31
0.0
  0
LINE
  5
B9
330
1F
100
AcDbEntity
  8
0
  6
Continuous
 62
     7
370
    25
100
AcDbLine
 10
78.9943251554
 20
77.9238184742
 30
0.0
 11
80.3404790015
 21
77.9238184742
 31
0.0
  0
LINE
  5
BA
330
1F
100
AcDbEntity
  8
0
  6
Continuous
 62
     7
370
    25
100
AcDbLine
 10
78.9943251554
 20
62.5392030895
 30
0.0
 11
78.9943251554
 21
77.9238184742
 31
0.0
  0
LINE
  5
BB
330
1F
100
AcDbEntity
  8
0
  6
Continuous
 62
     7
370
    25
100
AcDbLine
 10
80.3404790015
 20
62.5392030895
 30
0.0
 11
78.9943251554
 21
62.5392030895
 31
0.0
  0
LINE
  5
BC
330
1F
100
AcDbEntity
  8
0
  6
Continuous
 62
     7
370
    25
100
AcDbLine
 10
137.0
 20
80.0
 30
0.0
 11
-15.0
 21
80.0
 31
0.0
  0
LINE
  5
BD
330
1F
100
AcDbEntity
  8
0
  6
Continuous
 62
     7
370
    25
100
AcDbLine
 10
137.0
 20
-85.0
 30
0.0
 11
137.0
 21
80.0
 31
0.0
  0
LINE
  5
BE
330
1F
100
AcDbEntity
  8
0
  6
Continuous
 62
     7
370
    25
100
AcDbLine
 10
-15.0
 20
-85.0
 30
0.0
 11
137.0
 21
-85.0
 31
0.0
  0
LINE
  5
BF
330
1F
100
AcDbEntity
  8
0
  6
Continuous
 62
     7
370
    25
100
AcDbLine
 10
-15.0
 20
80.0
 30
0.0
 11
-15.0
 21
-85.0
 31
0.0
  0
LINE
  5
C0
330
1F
100
AcDbEntity
  8
0
  6
Continuous
 62
     7
370
    25
100
AcDbLine
 10
74.5712482323
 20
62.5392030895
 30
0.0
 11
74.5712482323
 21
64.4352367434
 31
0.0
  0
LINE
  5
C1
330
1F
100
AcDbEntity
  8
0
  6
Continuous
 62
     7
370
    25
100
AcDbLine
 10
75.9174020784
 20
62.5392030895
 30
0.0
 11
74.5712482323
 21
62.5392030895
 31
0.0
  0
LINE
  5
C2
330
1F
100
AcDbEntity
  8
0
  6
Continuous
 62
     7
370
    25
100
AcDbLine
 10
75.9174020784
 20
73.5007415511
 30
0.0
 11
75.9174020784
 21
62.5392030895
 31
0.0
  0
LINE
  5
C3
330
1F
100
AcDbEntity
  8
0
  6
Continuous
 62
     7
370
    25
100
AcDbLine
 10
74.5712482323
 20
73.5007415511
 30
0.0
 11
75.9174020784
 21
73.5007415511
 31
0.0
  0
LINE
  5
C4
330
1F
100
AcDbEntity
  8
0
  6
Continuous
 62
     7
370
    25
100
AcDbLine
 10
74.5712482323
 20
71.4724963588
 30
0.0
 11
74.5712482323
 21
73.5007415511
 31
0.0
  0
MTEXT
  5
C6
330
1F
100
AcDbEntity
  8
0
  6
Continuous
 62
     7
100
AcDbMText
 10
-15.0
 20
-86.0195663917
 30
0.0
 40
4.83362
 41
0.0
 71
     1
 72
     1
  1
SOLIDWORKS Educational Product.
  7
SLDTEXTSTYLE0
 73
     1
 44
1.0
  0
MTEXT
  5
C7
330
1F
100
AcDbEntity
  8
0
  6
Continuous
 62
     7
100
AcDbMText
 10
-15.0
 20
-93.2699963917
 30
0.0
 40
4.83362
 41
0.0
 71
     1
 72
     1
  1
For Instructional Use Only.
  7
SLDTEXTSTYLE0
 73
     1
 44
1.0
  0
ENDSEC
  0
SECTION
  2
OBJECTS
  0
DICTIONARY
  5
C
330
0
100
AcDbDictionary
281
     1
  3
ACAD_GROUP
350
D
  3
ACAD_LAYOUT
350
1A
  3
ACAD_MLINESTYLE
350
17
  3
ACAD_PLOTSETTINGS
350
19
  3
ACAD_PLOTSTYLENAME
350
E
  3
ACAD_SCALELIST
350
47
  0
DICTIONARY
  5
D
102
{ACAD_REACTORS
330
C
102
}
330
C
100
AcDbDictionary
281
     1
  0
DICTIONARY
  5
1A
102
{ACAD_REACTORS
330
C
102
}
330
C
100
AcDbDictionary
281
     1
  3
Layout1
350
1E
  3
Layout2
350
26
  3
Model
350
22
  0
DICTIONARY
  5
17
102
{ACAD_REACTORS
330
C
102
}
330
C
100
AcDbDictionary
281
     1
  3
Standard
350
18
  0
DICTIONARY
  5
19
102
{ACAD_REACTORS
330
C
102
}
330
C
100
AcDbDictionary
281
     1
  0
ACDBDICTIONARYWDFLT
  5
E
102
{ACAD_REACTORS
330
C
102
}
330
C
100
AcDbDictionary
281
     1
  3
Normal
350
F
100
AcDbDictionaryWithDefault
340
F
  0
DICTIONARY
  5
47
102
{ACAD_REACTORS
330
C
102
}
330
C
100
AcDbDictionary
281
     1
  3
A0
350
48
  3
A1
350
49
  3
A2
350
4A
  3
A3
350
4B
  3
A4
350
4C
  3
A5
350
4D
  3
A6
350
4E
  3
A7
350
4F
  3
A8
350
50
  3
A9
350
51
  3
B0
350
52
  3
B1
350
53
  3
B2
350
54
  3
B3
350
55
  3
B4
350
56
  3
B5
350
57
  3
B6
350
58
  3
B7
350
59
  3
B8
350
5A
  3
B9
350
5B
  3
C0
350
5C
  3
C1
350
5D
  3
C2
350
5E
  3
C3
350
5F
  3
C4
350
60
  3
C5
350
61
  3
C6
350
62
  3
C7
350
63
  3
C8
350
64
  3
C9
350
65
  3
D0
350
66
  3
D1
350
67
  3
D2
350
68
  0
LAYOUT
  5
1E
102
{ACAD_REACTORS
330
1A
102
}
330
1A
100
AcDbPlotSettings
  1

  2
none_device
  4

  6

 40
0.0
 41
0.0
 42
0.0
 43
0.0
 44
0.0
 45
0.0
 46
0.0
 47
0.0
 48
0.0
 49
0.0
140
0.0
141
0.0
142
1.0
143
1.0
 70
   688
 72
     1
 73
     0
 74
     5
  7

 75
    16
147
1.0
148
0.0
149
0.0
100
AcDbLayout
  1
Layout1
 70
     1
 71
     1
 10
0.0
 20
0.0
 11
420.0
 21
297.0
 12
0.0
 22
0.0
 32
0.0
 14
1.0000000000E+20
 24
1.0000000000E+20
 34
1.0000000000E+20
 15
-1.0000000000E+20
 25
-1.0000000000E+20
 35
-1.0000000000E+20
146
0.0
 13
0.0
 23
0.0
 33
0.0
 16
1.0
 26
0.0
 36
0.0
 17
0.0
 27
1.0
 37
0.0
 76
     0
330
1B
  0
LAYOUT
  5
26
102
{ACAD_REACTORS
330
1A
102
}
330
1A
100
AcDbPlotSettings
  1

  2
none_device
  4

  6

 40
0.0
 41
0.0
 42
0.0
 43
0.0
 44
0.0
 45
0.0
 46
0.0
 47
0.0
 48
0.0
 49
0.0
140
0.0
141
0.0
142
1.0
143
1.0
 70
   688
 72
     1
 73
     0
 74
     5
  7

 75
    16
147
1.0
148
0.0
149
0.0
100
AcDbLayout
  1
Layout2
 70
     1
 71
     2
 10
0.0
 20
0.0
 11
0.0
 21
0.0
 12
0.0
 22
0.0
 32
0.0
 14
0.0
 24
0.0
 34
0.0
 15
0.0
 25
0.0
 35
0.0
146
0.0
 13
0.0
 23
0.0
 33
0.0
 16
1.0
 26
0.0
 36
0.0
 17
0.0
 27
1.0
 37
0.0
 76
     0
330
23
  0
LAYOUT
  5
22
102
{ACAD_REACTORS
330
1A
102
}
330
1A
100
AcDbPlotSettings
  1

  2
none_device
  4
ANSI_A_(11.00_x_8.50_Inches)
  6

 40
6.35
 41
19.05
 42
6.35000508
 43
19.05000254
 44
279.4
 45
215.9
 46
54.33059746
 47
92.13849873
 48
0.0
 49
0.0
140
0.0
141
0.0
142
0.051
143
1.0
 70
  1696
 72
     0
 73
     0
 74
     0
  7

 75
     0
147
0.0179189148
148
-1300.4909072572
149
0.0
100
AcDbLayout
  1
Model
 70
     1
 71
     0
 10
0.0
 20
0.0
 11
420.0
 21
297.0
 12
0.0
 22
0.0
 32
0.0
 14
-15.0
 24
-85.0
 34
0.0
 15
137.0
 25
80.0
 35
0.0
146
0.0
 13
0.0
 23
0.0
 33
0.0
 16
1.0
 26
0.0
 36
0.0
 17
0.0
 27
1.0
 37
0.0
 76
     0
330
1F
331
29
  0
MLINESTYLE
  5
18
102
{ACAD_REACTORS
330
17
102
}
330
17
100
AcDbMlineStyle
  2
Standard
 70
     0
  3

 62
   256
 51
90.0
 52
90.0
 71
     2
 49
0.5
 62
   256
  6
BYLAYER
 49
-0.5
 62
   256
  6
BYLAYER
  0
ACDBPLACEHOLDER
  5
F
102
{ACAD_REACTORS
330
E
102
}
330
E
  0
SCALE
  5
48
102
{ACAD_REACTORS
330
47
102
}
330
47
100
AcDbScale
 70
     0
300
1:1
140
1.0
141
1.0
290
     1
  0
SCALE
  5
49
102
{ACAD_REACTORS
330
47
102
}
330
47
100
AcDbScale
 70
     0
300
1:2
140
1.0
141
2.0
290
     0
  0
SCALE
  5
4A
102
{ACAD_REACTORS
330
47
102
}
330
47
100
AcDbScale
 70
     0
300
1:4
140
1.0
141
4.0
290
     0
  0
SCALE
  5
4B
102
{ACAD_REACTORS
330
47
102
}
330
47
100
AcDbScale
 70
     0
300
1:5
140
1.0
141
5.0
290
     0
  0
SCALE
  5
4C
102
{ACAD_REACTORS
330
47
102
}
330
47
100
AcDbScale
 70
     0
300
1:8
140
1.0
141
8.0
290
     0
  0
SCALE
  5
4D
102
{ACAD_REACTORS
330
47
102
}
330
47
100
AcDbScale
 70
     0
300
1:10
140
1.0
141
10.0
290
     0
  0
SCALE
  5
4E
102
{ACAD_REACTORS
330
47
102
}
330
47
100
AcDbScale
 70
     0
300
1:16
140
1.0
141
16.0
290
     0
  0
SCALE
  5
4F
102
{ACAD_REACTORS
330
47
102
}
330
47
100
AcDbScale
 70
     0
300
1:20
140
1.0
141
20.0
290
     0
  0
SCALE
  5
50
102
{ACAD_REACTORS
330
47
102
}
330
47
100
AcDbScale
 70
     0
300
1:30
140
1.0
141
30.0
290
     0
  0
SCALE
  5
51
102
{ACAD_REACTORS
330
47
102
}
330
47
100
AcDbScale
 70
     0
300
1:40
140
1.0
141
40.0
290
     0
  0
SCALE
  5
52
102
{ACAD_REACTORS
330
47
102
}
330
47
100
AcDbScale
 70
     0
300
1:50
140
1.0
141
50.0
290
     0
  0
SCALE
  5
53
102
{ACAD_REACTORS
330
47
102
}
330
47
100
AcDbScale
 70
     0
300
1:100
140
1.0
141
100.0
290
     0
  0
SCALE
  5
54
102
{ACAD_REACTORS
330
47
102
}
330
47
100
AcDbScale
 70
     0
300
2:1
140
2.0
141
1.0
290
     0
  0
SCALE
  5
55
102
{ACAD_REACTORS
330
47
102
}
330
47
100
AcDbScale
 70
     0
300
4:1
140
4.0
141
1.0
290
     0
  0
SCALE
  5
56
102
{ACAD_REACTORS
330
47
102
}
330
47
100
AcDbScale
 70
     0
300
8:1
140
8.0
141
1.0
290
     0
  0
SCALE
  5
57
102
{ACAD_REACTORS
330
47
102
}
330
47
100
AcDbScale
 70
     0
300
10:1
140
10.0
141
1.0
290
     0
  0
SCALE
  5
58
102
{ACAD_REACTORS
330
47
102
}
330
47
100
AcDbScale
 70
     0
300
100:1
140
100.0
141
1.0
290
     0
  0
SCALE
  5
59
102
{ACAD_REACTORS
330
47
102
}
330
47
100
AcDbScale
 70
     0
300
1/128" = 1'-0"
140
0.0078125
141
12.0
290
     0
  0
SCALE
  5
5A
102
{ACAD_REACTORS
330
47
102
}
330
47
100
AcDbScale
 70
     0
300
1/64" = 1'-0"
140
0.015625
141
12.0
290
     0
  0
SCALE
  5
5B
102
{ACAD_REACTORS
330
47
102
}
330
47
100
AcDbScale
 70
     0
300
1/32" = 1'-0"
140
0.03125
141
12.0
290
     0
  0
SCALE
  5
5C
102
{ACAD_REACTORS
330
47
102
}
330
47
100
AcDbScale
 70
     0
300
1/16" = 1'-0"
140
0.0625
141
12.0
290
     0
  0
SCALE
  5
5D
102
{ACAD_REACTORS
330
47
102
}
330
47
100
AcDbScale
 70
     0
300
3/32" = 1'-0"
140
0.09375
141
12.0
290
     0
  0
SCALE
  5
5E
102
{ACAD_REACTORS
330
47
102
}
330
47
100
AcDbScale
 70
     0
300
1/8" = 1'-0"
140
0.125
141
12.0
290
     0
  0
SCALE
  5
5F
102
{ACAD_REACTORS
330
47
102
}
330
47
100
AcDbScale
 70
     0
300
3/16" = 1'-0"
140
0.1875
141
12.0
290
     0
  0
SCALE
  5
60
102
{ACAD_REACTORS
330
47
102
}
330
47
100
AcDbScale
 70
     0
300
1/4" = 1'-0"
140
0.25
141
12.0
290
     0
  0
SCALE
  5
61
102
{ACAD_REACTORS
330
47
102
}
330
47
100
AcDbScale
 70
     0
300
3/8" = 1'-0"
140
0.375
141
12.0
290
     0
  0
SCALE
  5
62
102
{ACAD_REACTORS
330
47
102
}
330
47
100
AcDbScale
 70
     0
300
1/2" = 1'-0"
140
0.5
141
12.0
290
     0
  0
SCALE
  5
63
102
{ACAD_REACTORS
330
47
102
}
330
47
100
AcDbScale
 70
     0
300
3/4" = 1'-0"
140
0.75
141
12.0
290
     0
  0
SCALE
  5
64
102
{ACAD_REACTORS
330
47
102
}
330
47
100
AcDbScale
 70
     0
300
1" = 1'-0"
140
1.0
141
12.0
290
     0
  0
SCALE
  5
65
102
{ACAD_REACTORS
330
47
102
}
330
47
100
AcDbScale
 70
     0
300
1-1/2" = 1'-0"
140
1.5
141
12.0
290
     0
  0
SCALE
  5
66
102
{ACAD_REACTORS
330
47
102
}
330
47
100
AcDbScale
 70
     0
300
3" = 1'-0"
140
3.0
141
12.0
290
     0
  0
SCALE
  5
67
102
{ACAD_REACTORS
330
47
102
}
330
47
100
AcDbScale
 70
     0
300
6" = 1'-0"
140
6.0
141
12.0
290
     0
  0
SCALE
  5
68
102
{ACAD_REACTORS
330
47
102
}
330
47
100
AcDbScale
 70
     0
300
1'-0" = 1'-0"
140
12.0
141
12.0
290
     0
  0
ENDSEC
  0
EOF
