999
DXF created by Inkscape
  0
SECTION
  2
HEADER
  9
$ACADVER
  1
AC1014
  9
$HANDSEED
  5
FFFF
  9
$MEASUREMENT
 70
     1
  0
ENDSEC
  0
SECTION
  2
TABLES
  0
TABLE
  2
VPORT
  5
8
330
0
100
AcDbSymbolTable
 70
     4
  0
VPORT
  5
2E
330
8
100
AcDbSymbolTableRecord
100
AcDbViewportTableRecord
  2
*ACTIVE
 70
     0
 10
0.0
 20
0.0
 11
1.0
 21
1.0
 12
210.0
 22
148.5
 13
0.0
 23
0.0
 14
10.0
 24
10.0
 15
10.0
 25
10.0
 16
0.0
 26
0.0
 36
1.0
 17
0.0
 27
0.0
 37
0.0
 40
341.0
 41
1.24
 42
50.0
 43
0.0
 44
0.0
 50
0.0
 51
0.0
 71
     0
 72
   100
 73
     1
 74
     3
 75
     0
 76
     0
 77
     0
 78
     0
  0
ENDTAB
  0
TABLE
  2
LTYPE
  5
5
330
0
100
AcDbSymbolTable
 70
     1
  0
LTYPE
  5
14
330
5
100
AcDbSymbolTableRecord
100
AcDbLinetypeTableRecord
  2
BYBLOCK
 70
     0
  3

 72
    65
 73
     0
 40
0.0
  0
LTYPE
  5
15
330
5
100
AcDbSymbolTableRecord
100
AcDbLinetypeTableRecord
  2
BYLAYER
 70
     0
  3

 72
    65
 73
     0
 40
0.0
  0
LTYPE
  5
16
330
5
100
AcDbSymbolTableRecord
100
AcDbLinetypeTableRecord
  2
CONTINUOUS
 70
     0
  3
Solid line
 72
    65
 73
     0
 40
0.0
  0
ENDTAB
  0
TABLE
  2
LAYER
  5
2
100
AcDbSymbolTable
 70
4
  0
LAYER
  5
50
100
AcDbSymbolTableRecord
100
AcDbLayerTableRecord
  2
0
 70
0
  6
CONTINUOUS
  0
LAYER
  5
51
100
AcDbSymbolTableRecord
100
AcDbLayerTableRecord
  2
Base
 70
0
  6
CONTINUOUS
  0
LAYER
  5
52
100
AcDbSymbolTableRecord
100
AcDbLayerTableRecord
  2
Holes
 70
0
  6
CONTINUOUS
  0
LAYER
  5
53
100
AcDbSymbolTableRecord
100
AcDbLayerTableRecord
  2
Motors
 70
0
  6
CONTINUOUS
  0
ENDTAB
  0
TABLE
  2
STYLE
  5
3
330
0
100
AcDbSymbolTable
 70
     1
  0
STYLE
  5
11
330
3
100
AcDbSymbolTableRecord
100
AcDbTextStyleTableRecord
  2
STANDARD
 70
     0
 40
0.0
 41
1.0
 50
0.0
 71
     0
 42
2.5
  3
txt
  4

  0
ENDTAB
  0
TABLE
  2
VIEW
  5
6
330
0
100
AcDbSymbolTable
 70
     0
  0
ENDTAB
  0
TABLE
  2
UCS
  5
7
330
0
100
AcDbSymbolTable
 70
     0
  0
ENDTAB
  0
TABLE
  2
APPID
  5
9
330
0
100
AcDbSymbolTable
 70
     2
  0
APPID
  5
12
330
9
100
AcDbSymbolTableRecord
100
AcDbRegAppTableRecord
  2
ACAD
 70
     0
  0
ENDTAB
  0
TABLE
  2
DIMSTYLE
  5
A
330
0
100
AcDbSymbolTable
 70
     1
  0
DIMSTYLE
105
27
330
A
100
AcDbSymbolTableRecord
100
AcDbDimStyleTableRecord
  2
ISO-25
 70
     0
  3

  4

  5

  6

  7

 40
1.0
 41
2.5
 42
0.625
 43
3.75
 44
1.25
 45
0.0
 46
0.0
 47
0.0
 48
0.0
140
2.5
141
2.5
142
0.0
143
0.03937007874016
144
1.0
145
0.0
146
1.0
147
0.625
 71
     0
 72
     0
 73
     0
 74
     0
 75
     0
 76
     0
 77
     1
 78
     8
170
     0
171
     3
172
     1
173
     0
174
     0
175
     0
176
     0
177
     0
178
     0
270
     2
271
     2
272
     2
273
     2
274
     3
340
11
275
     0
280
     0
281
     0
282
     0
283
     0
284
     8
285
     0
286
     0
287
     3
288
     0
  0
ENDTAB
  0
TABLE
  2
BLOCK_RECORD
  5
1
330
0
100
AcDbSymbolTable
 70
     1
  0
BLOCK_RECORD
  5
1F
330
1
100
AcDbSymbolTableRecord
100
AcDbBlockTableRecord
  2
*MODEL_SPACE
  0
BLOCK_RECORD
  5
1B
330
1
100
AcDbSymbolTableRecord
100
AcDbBlockTableRecord
  2
*PAPER_SPACE
  0
ENDTAB
  0
ENDSEC
  0
SECTION
  2
BLOCKS
  0
BLOCK
  5
20
330
1F
100
AcDbEntity
  8
0
100
AcDbBlockBegin
  2
*MODEL_SPACE
 70
     0
 10
0.0
 20
0.0
 30
0.0
  3
*MODEL_SPACE
  1

  0
ENDBLK
  5
21
330
1F
100
AcDbEntity
  8
0
100
AcDbBlockEnd
  0
BLOCK
  5
1C
330
1B
100
AcDbEntity
 67
     1
  8
0
100
AcDbBlockBegin
  2
*PAPER_SPACE
  1

  0
ENDBLK
  5
1D
330
1B
100
AcDbEntity
 67
     1
  8
0
100
AcDbBlockEnd
  0
ENDSEC
  0
SECTION
  2
ENTITIES
  0
LWPOLYLINE
  5
100
100
AcDbEntity
  8
Base
 62
7
100
AcDbPolyline
 90
9
 70
0
 10
0.141111
 20
100.153549
 30
0.0
 10
110.141111
 20
100.153549
 30
0.0
 10
150.141110
 20
120.153549
 30
0.0
 10
230.141111
 20
80.153547
 30
0.0
 10
230.141111
 20
40.153548
 30
0.0
 10
150.141110
 20
0.153543
 30
0.0
 10
110.141111
 20
20.153548
 30
0.0
 10
0.141111
 20
20.153548
 30
0.0
 10
0.141111
 20
100.153549
 30
0.0
  0
LWPOLYLINE
  5
101
100
AcDbEntity
  8
Holes
 62
7
100
AcDbPolyline
 90
9
 70
0
 10
130.110738
 20
19.449823
 30
0.0
 10
130.769202
 20
19.177080
 30
0.0
 10
131.041944
 20
18.518616
 30
0.0
 10
130.769202
 20
17.860152
 30
0.0
 10
130.110738
 20
17.587407
 30
0.0
 10
129.452274
 20
17.860152
 30
0.0
 10
129.179529
 20
18.518616
 30
0.0
 10
129.452274
 20
19.177080
 30
0.0
 10
130.110738
 20
19.449823
 30
0.0
  0
LWPOLYLINE
  5
102
100
AcDbEntity
  8
Holes
 62
7
100
AcDbPolyline
 90
9
 70
0
 10
169.930736
 20
19.477822
 30
0.0
 10
170.589200
 20
19.205080
 30
0.0
 10
170.861945
 20
18.546616
 30
0.0
 10
170.589200
 20
17.888152
 30
0.0
 10
169.930736
 20
17.615407
 30
0.0
 10
169.272275
 20
17.888152
 30
0.0
 10
168.999529
 20
18.546616
 30
0.0
 10
169.272275
 20
19.205080
 30
0.0
 10
169.930736
 20
19.477822
 30
0.0
  0
LWPOLYLINE
  5
103
100
AcDbEntity
  8
Holes
 62
7
100
AcDbPolyline
 90
9
 70
0
 10
169.581737
 20
102.776828
 30
0.0
 10
170.240201
 20
102.504083
 30
0.0
 10
170.512943
 20
101.845619
 30
0.0
 10
170.240201
 20
101.187155
 30
0.0
 10
169.581737
 20
100.914410
 30
0.0
 10
168.923273
 20
101.187155
 30
0.0
 10
168.650528
 20
101.845619
 30
0.0
 10
168.923273
 20
102.504083
 30
0.0
 10
169.581737
 20
102.776828
 30
0.0
  0
LWPOLYLINE
  5
104
100
AcDbEntity
  8
Holes
 62
7
100
AcDbPolyline
 90
9
 70
0
 10
130.066737
 20
102.734825
 30
0.0
 10
130.725201
 20
102.462083
 30
0.0
 10
130.997943
 20
101.803619
 30
0.0
 10
130.725201
 20
101.145155
 30
0.0
 10
130.066737
 20
100.872410
 30
0.0
 10
129.408273
 20
101.145155
 30
0.0
 10
129.135528
 20
101.803619
 30
0.0
 10
129.408273
 20
102.462083
 30
0.0
 10
130.066737
 20
102.734825
 30
0.0
  0
LWPOLYLINE
  5
105
100
AcDbEntity
  8
Holes
 62
7
100
AcDbPolyline
 90
9
 70
0
 10
75.861771
 20
45.253756
 30
0.0
 10
76.520235
 20
44.981011
 30
0.0
 10
76.792980
 20
44.322547
 30
0.0
 10
76.520235
 20
43.664083
 30
0.0
 10
75.861771
 20
43.391338
 30
0.0
 10
75.203307
 20
43.664083
 30
0.0
 10
74.930564
 20
44.322547
 30
0.0
 10
75.203307
 20
44.981011
 30
0.0
 10
75.861771
 20
45.253756
 30
0.0
  0
LWPOLYLINE
  5
106
100
AcDbEntity
  8
Holes
 62
7
100
AcDbPolyline
 90
9
 70
0
 10
107.679769
 20
45.213754
 30
0.0
 10
108.338233
 20
44.941014
 30
0.0
 10
108.610979
 20
44.282548
 30
0.0
 10
108.338233
 20
43.624086
 30
0.0
 10
107.679769
 20
43.351341
 30
0.0
 10
107.021308
 20
43.624086
 30
0.0
 10
106.748563
 20
44.282548
 30
0.0
 10
107.021308
 20
44.941014
 30
0.0
 10
107.679769
 20
45.213754
 30
0.0
  0
LWPOLYLINE
  5
107
100
AcDbEntity
  8
Holes
 62
7
100
AcDbPolyline
 90
9
 70
0
 10
107.681770
 20
76.954760
 30
0.0
 10
108.340237
 20
76.682014
 30
0.0
 10
108.612980
 20
76.023548
 30
0.0
 10
108.340237
 20
75.365086
 30
0.0
 10
107.681770
 20
75.092341
 30
0.0
 10
107.023309
 20
75.365086
 30
0.0
 10
106.750564
 20
76.023548
 30
0.0
 10
107.023309
 20
76.682014
 30
0.0
 10
107.681770
 20
76.954760
 30
0.0
  0
LWPOLYLINE
  5
108
100
AcDbEntity
  8
Holes
 62
7
100
AcDbPolyline
 90
9
 70
0
 10
75.863772
 20
76.994756
 30
0.0
 10
76.522236
 20
76.722011
 30
0.0
 10
76.794978
 20
76.063547
 30
0.0
 10
76.522236
 20
75.405083
 30
0.0
 10
75.863772
 20
75.132338
 30
0.0
 10
75.205308
 20
75.405083
 30
0.0
 10
74.932563
 20
76.063547
 30
0.0
 10
75.205308
 20
76.722011
 30
0.0
 10
75.863772
 20
76.994756
 30
0.0
  0
LWPOLYLINE
  5
109
100
AcDbEntity
  8
Holes
 62
7
100
AcDbPolyline
 90
9
 70
0
 10
7.006002
 20
77.808207
 30
0.0
 10
7.664466
 20
77.535464
 30
0.0
 10
7.937208
 20
76.877000
 30
0.0
 10
7.664466
 20
76.218536
 30
0.0
 10
7.006002
 20
75.945791
 30
0.0
 10
6.347538
 20
76.218536
 30
0.0
 10
6.074792
 20
76.877000
 30
0.0
 10
6.347538
 20
77.535464
 30
0.0
 10
7.006002
 20
77.808207
 30
0.0
  0
LWPOLYLINE
  5
10a
100
AcDbEntity
  8
Holes
 62
7
100
AcDbPolyline
 90
9
 70
0
 10
17.037113
 20
83.897208
 30
0.0
 10
17.695577
 20
83.624465
 30
0.0
 10
17.968319
 20
82.966001
 30
0.0
 10
17.695577
 20
82.307537
 30
0.0
 10
17.037113
 20
82.034792
 30
0.0
 10
16.378649
 20
82.307537
 30
0.0
 10
16.105903
 20
82.966001
 30
0.0
 10
16.378649
 20
83.624465
 30
0.0
 10
17.037113
 20
83.897208
 30
0.0
  0
LWPOLYLINE
  5
10b
100
AcDbEntity
  8
Holes
 62
7
100
AcDbPolyline
 90
9
 70
0
 10
40.010001
 20
80.928317
 30
0.0
 10
40.668465
 20
80.655575
 30
0.0
 10
40.941207
 20
79.997111
 30
0.0
 10
40.668465
 20
79.338647
 30
0.0
 10
40.010001
 20
79.065902
 30
0.0
 10
39.351537
 20
79.338647
 30
0.0
 10
39.078792
 20
79.997111
 30
0.0
 10
39.351537
 20
80.655575
 30
0.0
 10
40.010001
 20
80.928317
 30
0.0
  0
LWPOLYLINE
  5
10c
100
AcDbEntity
  8
Holes
 62
7
100
AcDbPolyline
 90
9
 70
0
 10
6.994001
 20
37.931209
 30
0.0
 10
7.652465
 20
37.658466
 30
0.0
 10
7.925208
 20
37.000002
 30
0.0
 10
7.652465
 20
36.341538
 30
0.0
 10
6.994001
 20
36.068793
 30
0.0
 10
6.335538
 20
36.341538
 30
0.0
 10
6.062792
 20
37.000002
 30
0.0
 10
6.335538
 20
37.658466
 30
0.0
 10
6.994001
 20
37.931209
 30
0.0
  0
LWPOLYLINE
  5
10d
100
AcDbEntity
  8
Holes
 62
7
100
AcDbPolyline
 90
9
 70
0
 10
17.025113
 20
44.020209
 30
0.0
 10
17.683577
 20
43.747467
 30
0.0
 10
17.956320
 20
43.089003
 30
0.0
 10
17.683577
 20
42.430539
 30
0.0
 10
17.025113
 20
42.157794
 30
0.0
 10
16.366649
 20
42.430539
 30
0.0
 10
16.093904
 20
43.089003
 30
0.0
 10
16.366649
 20
43.747467
 30
0.0
 10
17.025113
 20
44.020209
 30
0.0
  0
LWPOLYLINE
  5
10e
100
AcDbEntity
  8
Holes
 62
7
100
AcDbPolyline
 90
9
 70
0
 10
39.998004
 20
41.051319
 30
0.0
 10
40.656468
 20
40.778577
 30
0.0
 10
40.929210
 20
40.120113
 30
0.0
 10
40.656468
 20
39.461649
 30
0.0
 10
39.998004
 20
39.188904
 30
0.0
 10
39.339540
 20
39.461649
 30
0.0
 10
39.066795
 20
40.120113
 30
0.0
 10
39.339540
 20
40.778577
 30
0.0
 10
39.998004
 20
41.051319
 30
0.0
  0
LWPOLYLINE
  5
10f
100
AcDbEntity
  8
Motors
 62
7
100
AcDbPolyline
 90
21
 70
0
 10
156.130506
 20
92.776459
 30
0.0
 10
153.037876
 20
91.354657
 30
0.0
 10
149.657246
 20
90.958118
 30
0.0
 10
146.319536
 20
91.625661
 30
0.0
 10
143.351467
 20
93.291941
 30
0.0
 10
141.043575
 20
95.793846
 30
0.0
 10
139.621774
 20
98.886480
 30
0.0
 10
139.225234
 20
102.267110
 30
0.0
 10
139.892775
 20
105.604817
 30
0.0
 10
141.559051
 20
108.572888
 30
0.0
 10
144.060963
 20
110.880780
 30
0.0
 10
147.153593
 20
112.302582
 30
0.0
 10
150.534226
 20
112.699121
 30
0.0
 10
153.871938
 20
112.031578
 30
0.0
 10
156.840005
 20
110.365304
 30
0.0
 10
159.147894
 20
107.863396
 30
0.0
 10
160.569698
 20
104.770760
 30
0.0
 10
160.966237
 20
101.390132
 30
0.0
 10
160.298692
 20
98.052420
 30
0.0
 10
158.632421
 20
95.084351
 30
0.0
 10
156.130506
 20
92.776459
 30
0.0
  0
LWPOLYLINE
  5
110
100
AcDbEntity
  8
Motors
 62
7
100
AcDbPolyline
 90
21
 70
0
 10
156.130509
 20
9.576450
 30
0.0
 10
153.037879
 20
8.154643
 30
0.0
 10
149.657246
 20
7.758121
 30
0.0
 10
146.319536
 20
8.425661
 30
0.0
 10
143.351467
 20
10.091929
 30
0.0
 10
141.043575
 20
12.593829
 30
0.0
 10
139.621774
 20
15.686474
 30
0.0
 10
139.225234
 20
19.067107
 30
0.0
 10
139.892775
 20
22.404814
 30
0.0
 10
141.559051
 20
25.372880
 30
0.0
 10
144.060966
 20
27.680772
 30
0.0
 10
147.153593
 20
29.102573
 30
0.0
 10
150.534229
 20
29.499115
 30
0.0
 10
153.871938
 20
28.831570
 30
0.0
 10
156.840005
 20
27.165299
 30
0.0
 10
159.147897
 20
24.663387
 30
0.0
 10
160.569698
 20
21.570757
 30
0.0
 10
160.966240
 20
18.190124
 30
0.0
 10
160.298697
 20
14.852423
 30
0.0
 10
158.632421
 20
11.884351
 30
0.0
 10
156.130509
 20
9.576450
 30
0.0
  0
ENDSEC
  0
SECTION
  2
OBJECTS
  0
DICTIONARY
  5
C
330
0
100
AcDbDictionary
  3
ACAD_GROUP
350
D
  3
ACAD_MLINESTYLE
350
17
  0
DICTIONARY
  5
D
330
C
100
AcDbDictionary
  0
DICTIONARY
  5
1A
330
C
100
AcDbDictionary
  0
DICTIONARY
  5
17
330
C
100
AcDbDictionary
  3
STANDARD
350
18
  0
DICTIONARY
  5
19
330
C
100
AcDbDictionary
  0
ENDSEC
  0
EOF
