0
SECTION
2
HEADER
9
$ACADVER
1
AC1014
9
$HANDSEED
5
FFFF
0
ENDSEC
0
SECTION
2
TABLES
0
TABLE
2
VPORT
5
8
100
AcDbSymbolTable
0
ENDTAB
0
TABLE
2
LTYPE
5
5
100
AcDbSymbolTable
0
LTYPE
5
14
100
AcDbSymbolTableRecord
100
AcDbLinetypeTableRecord
2
BYBLOCK
70
0
0
LTYPE
5
15
100
AcDbSymbolTableRecord
100
AcDbLinetypeTableRecord
2
BYLAYER
70
0
0
ENDTAB
0
TABLE
2
LAYER
5
2
100
AcDbSymbolTable
70
2
0
LAYER
5
50
100
AcDbSymbolTableRecord
100
AcDbLayerTableRecord
2
0
70
0
6
CONTINUOUS
0
ENDTAB
0
TABLE
2
STYLE
5
3
100
AcDbSymbolTable
70
1
0
STYLE
5
11
100
AcDbSymbolTableRecord
100
AcDbTextStyleTableRecord
2
STANDARD
70
0
0
ENDTAB
0
TABLE
2
VIEW
5
6
100
AcDbSymbolTable
70
0
0
ENDTAB
0
TABLE
2
UCS
5
7
100
AcDbSymbolTable
70
0
0
ENDTAB
0
TABLE
2
APPID
5
9
100
AcDbSymbolTable
70
2
0
APPID
5
12
100
AcDbSymbolTableRecord
100
AcDbRegAppTableRecord
2
ACAD
70
0
0
ENDTAB
0
TABLE
2
DIMSTYLE
5
A
100
AcDbSymbolTable
70
1
0
ENDTAB
0
TABLE
2
BLOCK_RECORD
5
1
100
AcDbSymbolTable
70
1
0
BLOCK_RECORD
5
1F
100
AcDbSymbolTableRecord
100
AcDbBlockTableRecord
2
*MODEL_SPACE
0
BLOCK_RECORD
5
1B
100
AcDbSymbolTableRecord
100
AcDbBlockTableRecord
2
*PAPER_SPACE
0
ENDTAB
0
ENDSEC
0
SECTION
2
BLOCKS
0
BLOCK
5
20
100
AcDbEntity
100
AcDbBlockBegin
2
*MODEL_SPACE
0
ENDBLK
5
21
100
AcDbEntity
100
AcDbBlockEnd
0
BLOCK
5
1C
100
AcDbEntity
100
AcDbBlockBegin
2
*PAPER_SPACE
0
ENDBLK
5
1D
100
AcDbEntity
100
AcDbBlockEnd
0
ENDSEC
0
SECTION
2
ENTITIES
0
LWPOLYLINE
5
100
100
AcDbEntity
8
0
100
AcDbPolyline
90
108
70
1
43
0.0
10
4.9999999999999156
20
-344.14784766453243
10
4.9999999999999147
20
-345.62300563352005
10
-6.000000000000095
20
-345.62300563352005
10
-6.000000000000095
20
-336.99631740873258
10
-9.0000000000000977
20
-336.99631740873258
10
-9.0000000000000977
20
-316.99631740873258
10
-6.000000000000095
20
-316.99631740873258
10
-6.000000000000103
20
-300.49631740873252
10
50.999999999999915
20
-300.49631740873252
10
50.999999999999929
20
-316.99631740873258
10
53.999999999999908
20
-316.99631740873258
10
53.999999999999908
20
-336.99631740873258
10
50.999999999999929
20
-336.99631740873258
10
50.999999999999929
20
-345.62100563352004
10
40.00101959990387
20
-345.6210056335201
10
40.001019599903877
20
-344.14100563352008
10
37.501019599903884
20
-344.14100563352008
10
37.501019599903884
20
-345.67100563352005
10
32.999999999999915
20
-345.67100563352005
10
32.999999999999915
20
-348.31300563352011
10
37.501147264179124
20
-348.31300563352011
10
37.501147264179124
20
-349.84300563352008
10
39.992147264179117
20
-349.84300563352008
10
39.992147264179117
20
-348.36300563352006
10
50.999999999999929
20
-348.36300563352006
10
50.999999999999929
20
-356.99631740873258
10
53.999999999999908
20
-356.99631740873258
10
53.999999999999908
20
-376.99631740873264
10
50.999999999999929
20
-376.99631740873264
10
50.999999999999929
20
-386.62100563352004
10
40.00101959990387
20
-386.62100563352004
10
40.00101959990387
20
-385.14100563352002
10
37.501019599903884
20
-385.14100563352002
10
37.501019599903884
20
-386.67100563352005
10
32.999999999999915
20
-386.67100563352005
10
32.999999999999915
20
-389.31300563352011
10
37.501147264179124
20
-389.31300563352011
10
37.501147264179124
20
-390.84300563352008
10
39.992147264179117
20
-390.84300563352008
10
39.99214726417911
20
-389.36300563352012
10
50.999999999999929
20
-389.36300563352012
10
50.999999999999929
20
-398.99631740873258
10
53.999999999999901
20
-398.99631740873258
10
53.999999999999901
20
-418.99631740873258
10
50.999999999999929
20
-418.99631740873258
10
50.999999999999929
20
-427.6210056335201
10
40.00101959990387
20
-427.6210056335201
10
40.00101959990387
20
-426.14100563352002
10
37.501019599903884
20
-426.14100563352002
10
37.501019599903884
20
-427.67100563352011
10
32.999999999999915
20
-427.67100563352011
10
32.999999999999915
20
-430.31300563352011
10
37.501147264179124
20
-430.31300563352011
10
37.501147264179124
20
-431.84300563352008
10
39.992147264179117
20
-431.84300563352008
10
39.992147264179117
20
-430.36300563352006
10
50.999999999999929
20
-430.36300563352006
10
50.999999999999929
20
-438.99631740873258
10
53.999999999999901
20
-438.99631740873258
10
53.999999999999901
20
-458.99631740873252
10
50.999999999999929
20
-458.99631740873252
10
50.999999999999929
20
-479.99631740873264
10
-6.0000000000000897
20
-479.99631740873264
10
-6.000000000000095
20
-458.99631740873258
10
-9.0000000000000977
20
-458.99631740873258
10
-9.0000000000000977
20
-438.99631740873258
10
-6.000000000000095
20
-438.99631740873258
10
-6.0000000000000941
20
-430.36500563352013
10
4.9999999999999156
20
-430.36500563352007
10
4.9999999999999165
20
-431.84400008723907
10
7.4999999999999192
20
-431.84400008723912
10
7.4999999999999192
20
-430.31500563352012
10
11.999999999999908
20
-430.31500563352012
10
11.999999999999908
20
-427.67300563352012
10
7.4999999999999192
20
-427.67300563352012
10
7.4999999999999183
20
-426.14784766453249
10
4.9999999999999147
20
-426.14784766453238
10
4.9999999999999147
20
-427.62300563352005
10
-6.000000000000095
20
-427.62300563352017
10
-6.000000000000095
20
-418.99631740873258
10
-9.0000000000000977
20
-418.99631740873258
10
-9.0000000000000977
20
-398.99631740873258
10
-6.000000000000095
20
-398.99631740873258
10
-6.0000000000000941
20
-389.36500563352013
10
4.9999999999999156
20
-389.36500563352013
10
4.9999999999999165
20
-390.84400008723901
10
7.4999999999999192
20
-390.84400008723901
10
7.4999999999999183
20
-389.31500563352012
10
11.999999999999908
20
-389.31500563352012
10
11.999999999999908
20
-386.67300563352006
10
7.4999999999999192
20
-386.67300563352006
10
7.4999999999999183
20
-385.14784766453249
10
4.9999999999999156
20
-385.14784766453249
10
4.9999999999999147
20
-386.62300563352005
10
-6.000000000000095
20
-386.62300563352005
10
-6.000000000000095
20
-376.99631740873258
10
-9.0000000000000977
20
-376.99631740873258
10
-9.0000000000000977
20
-356.99631740873258
10
-6.000000000000095
20
-356.99631740873258
10
-6.0000000000000941
20
-348.36500563352001
10
4.9999999999999156
20
-348.36500563352001
10
4.9999999999999156
20
-349.84400008723912
10
7.4999999999999192
20
-349.84400008723912
10
7.4999999999999192
20
-348.31500563352006
10
11.999999999999908
20
-348.31500563352006
10
11.999999999999908
20
-345.67300563352006
10
7.4999999999999192
20
-345.67300563352006
10
7.4999999999999183
20
-344.14784766453243
0
CIRCLE
5
101
100
AcDbEntity
8
0
100
AcDbCircle
10
0.99999999999989198
20
-314.00000000000006
30
8.8817841970012523e-015
40
1.7499999999999938
0
CIRCLE
5
102
100
AcDbEntity
8
0
100
AcDbCircle
10
0.99999999999989198
20
-319.00000000000006
30
8.8817841970012523e-015
40
1.7499999999999938
0
CIRCLE
5
103
100
AcDbEntity
8
0
100
AcDbCircle
10
5.9999999999998916
20
-316.50000000000006
30
8.8817841970012523e-015
40
1.7499999999999938
0
CIRCLE
5
104
100
AcDbEntity
8
0
100
AcDbCircle
10
5.9999999999998916
20
-326.50000000000006
30
4.4408920985006262e-015
40
1.7499999999999938
0
CIRCLE
5
105
100
AcDbEntity
8
0
100
AcDbCircle
10
0.99999999999989198
20
-339.00000000000006
30
8.8817841970012523e-015
40
1.7499999999999938
0
CIRCLE
5
106
100
AcDbEntity
8
0
100
AcDbCircle
10
5.9999999999998916
20
-336.50000000000006
30
8.8817841970012523e-015
40
1.7499999999999938
0
CIRCLE
5
107
100
AcDbEntity
8
0
100
AcDbCircle
10
5.9999999999998916
20
-321.50000000000006
30
4.4408920985006262e-015
40
1.7499999999999938
0
CIRCLE
5
108
100
AcDbEntity
8
0
100
AcDbCircle
10
0.99999999999989198
20
-324.00000000000006
30
4.4408920985006262e-015
40
1.7499999999999938
0
CIRCLE
5
109
100
AcDbEntity
8
0
100
AcDbCircle
10
5.9999999999998916
20
-331.50000000000006
30
8.8817841970012523e-015
40
1.7499999999999938
0
CIRCLE
5
110
100
AcDbEntity
8
0
100
AcDbCircle
10
0.99999999999989198
20
-334.00000000000006
30
8.8817841970012523e-015
40
1.7499999999999938
0
CIRCLE
5
111
100
AcDbEntity
8
0
100
AcDbCircle
10
0.99999999999989198
20
-329.00000000000006
30
4.4408920985006262e-015
40
1.7499999999999938
0
CIRCLE
5
112
100
AcDbEntity
8
0
100
AcDbCircle
10
0.99999999999989198
20
-380.00000000000006
30
8.8817841970012523e-015
40
1.7499999999999938
0
CIRCLE
5
113
100
AcDbEntity
8
0
100
AcDbCircle
10
0.99999999999989198
20
-360.00000000000006
30
8.8817841970012523e-015
40
1.7499999999999938
0
CIRCLE
5
114
100
AcDbEntity
8
0
100
AcDbCircle
10
0.99999999999989198
20
-355.00000000000006
30
8.8817841970012523e-015
40
1.7499999999999938
0
CIRCLE
5
115
100
AcDbEntity
8
0
100
AcDbCircle
10
0.99999999999989198
20
-365.00000000000006
30
4.4408920985006262e-015
40
1.7499999999999938
0
CIRCLE
5
116
100
AcDbEntity
8
0
100
AcDbCircle
10
5.9999999999998916
20
-372.50000000000006
30
8.8817841970012523e-015
40
1.7499999999999938
0
CIRCLE
5
117
100
AcDbEntity
8
0
100
AcDbCircle
10
5.9999999999998916
20
-362.50000000000006
30
4.4408920985006262e-015
40
1.7499999999999938
0
CIRCLE
5
118
100
AcDbEntity
8
0
100
AcDbCircle
10
0.99999999999989198
20
-375.00000000000006
30
8.8817841970012523e-015
40
1.7499999999999938
0
CIRCLE
5
119
100
AcDbEntity
8
0
100
AcDbCircle
10
0.99999999999989198
20
-370.00000000000006
30
4.4408920985006262e-015
40
1.7499999999999938
0
CIRCLE
5
120
100
AcDbEntity
8
0
100
AcDbCircle
10
5.9999999999998916
20
-357.50000000000006
30
8.8817841970012523e-015
40
1.7499999999999938
0
CIRCLE
5
121
100
AcDbEntity
8
0
100
AcDbCircle
10
5.9999999999998916
20
-367.50000000000006
30
4.4408920985006262e-015
40
1.7499999999999938
0
CIRCLE
5
122
100
AcDbEntity
8
0
100
AcDbCircle
10
5.9999999999998916
20
-377.50000000000006
30
8.8817841970012523e-015
40
1.7499999999999938
0
CIRCLE
5
123
100
AcDbEntity
8
0
100
AcDbCircle
10
0.99999999999989198
20
-406.00000000000011
30
4.4408920985006262e-015
40
1.7499999999999938
0
CIRCLE
5
124
100
AcDbEntity
8
0
100
AcDbCircle
10
0.99999999999989198
20
-401.00000000000011
30
4.4408920985006262e-015
40
1.7499999999999938
0
CIRCLE
5
125
100
AcDbEntity
8
0
100
AcDbCircle
10
0.99999999999989198
20
-416.00000000000011
30
8.8817841970012523e-015
40
1.7499999999999938
0
CIRCLE
5
126
100
AcDbEntity
8
0
100
AcDbCircle
10
0.99999999999989198
20
-411.00000000000011
30
8.8817841970012523e-015
40
1.7499999999999938
0
CIRCLE
5
127
100
AcDbEntity
8
0
100
AcDbCircle
10
5.9999999999998916
20
-413.50000000000011
30
8.8817841970012523e-015
40
1.7499999999999938
0
CIRCLE
5
128
100
AcDbEntity
8
0
100
AcDbCircle
10
5.9999999999998916
20
-403.50000000000011
30
4.4408920985006262e-015
40
1.7499999999999938
0
CIRCLE
5
129
100
AcDbEntity
8
0
100
AcDbCircle
10
5.9999999999998916
20
-398.50000000000011
30
8.8817841970012523e-015
40
1.7499999999999938
0
CIRCLE
5
130
100
AcDbEntity
8
0
100
AcDbCircle
10
5.9999999999998916
20
-408.50000000000011
30
4.4408920985006262e-015
40
1.7499999999999938
0
CIRCLE
5
131
100
AcDbEntity
8
0
100
AcDbCircle
10
0.99999999999989198
20
-396.00000000000011
30
8.8817841970012523e-015
40
1.7499999999999938
0
CIRCLE
5
132
100
AcDbEntity
8
0
100
AcDbCircle
10
0.99999999999989198
20
-421.00000000000011
30
4.4408920985006262e-015
40
1.7499999999999938
0
CIRCLE
5
133
100
AcDbEntity
8
0
100
AcDbCircle
10
5.9999999999998916
20
-418.50000000000011
30
8.8817841970012523e-015
40
1.7499999999999938
0
CIRCLE
5
134
100
AcDbEntity
8
0
100
AcDbCircle
10
0.99999999999989198
20
-447.00000000000011
30
4.4408920985006262e-015
40
1.7499999999999938
0
CIRCLE
5
135
100
AcDbEntity
8
0
100
AcDbCircle
10
0.99999999999989198
20
-442.00000000000011
30
4.4408920985006262e-015
40
1.7499999999999938
0
CIRCLE
5
136
100
AcDbEntity
8
0
100
AcDbCircle
10
0.99999999999989198
20
-462.00000000000011
30
4.4408920985006262e-015
40
1.7499999999999938
0
CIRCLE
5
137
100
AcDbEntity
8
0
100
AcDbCircle
10
0.99999999999989198
20
-457.00000000000011
30
8.8817841970012523e-015
40
1.7499999999999938
0
CIRCLE
5
138
100
AcDbEntity
8
0
100
AcDbCircle
10
5.9999999999998916
20
-439.50000000000011
30
8.8817841970012523e-015
40
1.7499999999999938
0
CIRCLE
5
139
100
AcDbEntity
8
0
100
AcDbCircle
10
0.99999999999989198
20
-437.00000000000011
30
8.8817841970012523e-015
40
1.7499999999999938
0
CIRCLE
5
140
100
AcDbEntity
8
0
100
AcDbCircle
10
5.9999999999998916
20
-444.50000000000011
30
4.4408920985006262e-015
40
1.7499999999999938
0
CIRCLE
5
141
100
AcDbEntity
8
0
100
AcDbCircle
10
5.9999999999998916
20
-459.50000000000011
30
8.8817841970012523e-015
40
1.7499999999999938
0
CIRCLE
5
142
100
AcDbEntity
8
0
100
AcDbCircle
10
0.99999999999989198
20
-452.00000000000011
30
8.8817841970012523e-015
40
1.7499999999999938
0
CIRCLE
5
143
100
AcDbEntity
8
0
100
AcDbCircle
10
5.9999999999998916
20
-454.50000000000011
30
8.8817841970012523e-015
40
1.7499999999999938
0
CIRCLE
5
144
100
AcDbEntity
8
0
100
AcDbCircle
10
5.9999999999998916
20
-449.50000000000011
30
4.4408920985006262e-015
40
1.7499999999999938
0
ENDSEC
0
SECTION
2
OBJECTS
0
DICTIONARY
5
C
100
AcDbDictionary
3
ACAD_GROUP
350
D
3
ACAD_MLINESTYLE
350
17
0
DICTIONARY
5
D
100
AcDbDictionary
0
DICTIONARY
5
1A
330
C
100
AcDbDictionary
0
DICTIONARY
5
17
100
AcDbDictionary
0
ENDSEC
0
EOF
