  0
SECTION
  2
HEADER
  9
$ACADVER
  1
AC1015
  9
$ACADMAINTVER
 70
     6
  9
$DWGCODEPAGE
  3
ANSI_1252
  9
$INSBASE
 10
0.0
 20
0.0
 30
0.0
  9
$EXTMIN
 10
1.000000E+20
 20
1.000000E+20
 30
1.000000E+20
  9
$EXTMAX
 10
-1.000000E+20
 20
-1.000000E+20
 30
-1.000000E+20
  9
$LIMMIN
 10
0.0
 20
0.0
  9
$LIMMAX
 10
420.0
 20
297.0
  9
$ORTHOMODE
 70
     0
  9
$REGENMODE
 70
     1
  9
$FILLMODE
 70
     1
  9
$QTEXTMODE
 70
     0
  9
$MIRRTEXT
 70
     1
  9
$LTSCALE
 40
1.0
  9
$ATTMODE
 70
     1
  9
$TEXTSIZE
 40
2.5
  9
$TRACEWID
 40
1.0
  9
$TEXTSTYLE
  7
Standard
  9
$CLAYER
  8
0
  9
$CELTYPE
  6
ByLayer
  9
$CECOLOR
 62
   256
  9
$CELTSCALE
 40
1.0
  9
$DISPSILH
 70
     0
  9
$DIMSCALE
 40
1.0
  9
$DIMASZ
 40
2.5
  9
$DIMEXO
 40
0.625
  9
$DIMDLI
 40
3.75
  9
$DIMRND
 40
0.0
  9
$DIMDLE
 40
0.0
  9
$DIMEXE
 40
1.25
  9
$DIMTP
 40
0.0
  9
$DIMTM
 40
0.0
  9
$DIMTXT
 40
2.5
  9
$DIMCEN
 40
2.5
  9
$DIMTSZ
 40
0.0
  9
$DIMTOL
 70
     0
  9
$DIMLIM
 70
     0
  9
$DIMTIH
 70
     0
  9
$DIMTOH
 70
     0
  9
$DIMSE1
 70
     0
  9
$DIMSE2
 70
     0
  9
$DIMTAD
 70
     1
  9
$DIMZIN
 70
     8
  9
$DIMBLK
  1

  9
$DIMASO
 70
     1
  9
$DIMSHO
 70
     1
  9
$DIMPOST
  1

  9
$DIMAPOST
  1

  9
$DIMALT
 70
     0
  9
$DIMALTD
 70
     3
  9
$DIMALTF
 40
0.03937
  9
$DIMLFAC
 40
1.0
  9
$DIMTOFL
 70
     1
  9
$DIMTVP
 40
0.0
  9
$DIMTIX
 70
     0
  9
$DIMSOXD
 70
     0
  9
$DIMSAH
 70
     0
  9
$DIMBLK1
  1

  9
$DIMBLK2
  1

  9
$DIMSTYLE
  2
ISO-25
  9
$DIMCLRD
 70
     0
  9
$DIMCLRE
 70
     0
  9
$DIMCLRT
 70
     0
  9
$DIMTFAC
 40
1.0
  9
$DIMGAP
 40
0.625
  9
$DIMJUST
 70
     0
  9
$DIMSD1
 70
     0
  9
$DIMSD2
 70
     0
  9
$DIMTOLJ
 70
     0
  9
$DIMTZIN
 70
     8
  9
$DIMALTZ
 70
     0
  9
$DIMALTTZ
 70
     0
  9
$DIMUPT
 70
     0
  9
$DIMDEC
 70
     2
  9
$DIMTDEC
 70
     2
  9
$DIMALTU
 70
     2
  9
$DIMALTTD
 70
     3
  9
$DIMTXSTY
  7
Standard
  9
$DIMAUNIT
 70
     0
  9
$DIMADEC
 70
     0
  9
$DIMALTRND
 40
0.0
  9
$DIMAZIN
 70
     0
  9
$DIMDSEP
 70
    44
  9
$DIMATFIT
 70
     3
  9
$DIMFRAC
 70
     0
  9
$DIMLDRBLK
  1

  9
$DIMLUNIT
 70
     2
  9
$DIMLWD
 70
    -2
  9
$DIMLWE
 70
    -2
  9
$DIMTMOVE
 70
     0
  9
$LUNITS
 70
     2
  9
$LUPREC
 70
     4
  9
$SKETCHINC
 40
1.0
  9
$FILLETRAD
 40
10.0
  9
$AUNITS
 70
     0
  9
$AUPREC
 70
     0
  9
$MENU
  1
.
  9
$ELEVATION
 40
0.0
  9
$PELEVATION
 40
0.0
  9
$THICKNESS
 40
0.0
  9
$LIMCHECK
 70
     0
  9
$CHAMFERA
 40
10.0
  9
$CHAMFERB
 40
10.0
  9
$CHAMFERC
 40
20.0
  9
$CHAMFERD
 40
0.0
  9
$SKPOLY
 70
     0
  9
$TDCREATE
 40
2455270.046947511
  9
$TDUCREATE
 40
2455269.505280845
  9
$TDUPDATE
 40
2455270.046947523
  9
$TDUUPDATE
 40
2455269.505280857
  9
$TDINDWG
 40
0.0000000116
  9
$TDUSRTIMER
 40
0.0000000116
  9
$USRTIMER
 70
     1
  9
$ANGBASE
 50
0.0
  9
$ANGDIR
 70
     0
  9
$PDMODE
 70
     3
  9
$PDSIZE
 40
-0.7
  9
$PLINEWID
 40
0.0
  9
$SPLFRAME
 70
     0
  9
$SPLINETYPE
 70
     6
  9
$SPLINESEGS
 70
     8
  9
$HANDSEED
  5
46
  9
$SURFTAB1
 70
     6
  9
$SURFTAB2
 70
     6
  9
$SURFTYPE
 70
     6
  9
$SURFU
 70
     6
  9
$SURFV
 70
     6
  9
$UCSBASE
  2

  9
$UCSNAME
  2

  9
$UCSORG
 10
0.0
 20
0.0
 30
0.0
  9
$UCSXDIR
 10
1.0
 20
0.0
 30
0.0
  9
$UCSYDIR
 10
0.0
 20
1.0
 30
0.0
  9
$UCSORTHOREF
  2

  9
$UCSORTHOVIEW
 70
     0
  9
$UCSORGTOP
 10
0.0
 20
0.0
 30
0.0
  9
$UCSORGBOTTOM
 10
0.0
 20
0.0
 30
0.0
  9
$UCSORGLEFT
 10
0.0
 20
0.0
 30
0.0
  9
$UCSORGRIGHT
 10
0.0
 20
0.0
 30
0.0
  9
$UCSORGFRONT
 10
0.0
 20
0.0
 30
0.0
  9
$UCSORGBACK
 10
0.0
 20
0.0
 30
0.0
  9
$PUCSBASE
  2

  9
$PUCSNAME
  2

  9
$PUCSORG
 10
0.0
 20
0.0
 30
0.0
  9
$PUCSXDIR
 10
1.0
 20
0.0
 30
0.0
  9
$PUCSYDIR
 10
0.0
 20
1.0
 30
0.0
  9
$PUCSORTHOREF
  2

  9
$PUCSORTHOVIEW
 70
     0
  9
$PUCSORGTOP
 10
0.0
 20
0.0
 30
0.0
  9
$PUCSORGBOTTOM
 10
0.0
 20
0.0
 30
0.0
  9
$PUCSORGLEFT
 10
0.0
 20
0.0
 30
0.0
  9
$PUCSORGRIGHT
 10
0.0
 20
0.0
 30
0.0
  9
$PUCSORGFRONT
 10
0.0
 20
0.0
 30
0.0
  9
$PUCSORGBACK
 10
0.0
 20
0.0
 30
0.0
  9
$USERI1
 70
     0
  9
$USERI2
 70
     0
  9
$USERI3
 70
     0
  9
$USERI4
 70
     0
  9
$USERI5
 70
     0
  9
$USERR1
 40
0.0
  9
$USERR2
 40
0.0
  9
$USERR3
 40
0.0
  9
$USERR4
 40
0.0
  9
$USERR5
 40
0.0
  9
$WORLDVIEW
 70
     1
  9
$SHADEDGE
 70
     3
  9
$SHADEDIF
 70
    70
  9
$TILEMODE
 70
     1
  9
$MAXACTVP
 70
    64
  9
$PINSBASE
 10
0.0
 20
0.0
 30
0.0
  9
$PLIMCHECK
 70
     0
  9
$PEXTMIN
 10
1.000000E+20
 20
1.000000E+20
 30
1.000000E+20
  9
$PEXTMAX
 10
-1.000000E+20
 20
-1.000000E+20
 30
-1.000000E+20
  9
$PLIMMIN
 10
0.0
 20
0.0
  9
$PLIMMAX
 10
420.0
 20
297.0
  9
$UNITMODE
 70
     0
  9
$VISRETAIN
 70
     1
  9
$PLINEGEN
 70
     0
  9
$PSLTSCALE
 70
     1
  9
$TREEDEPTH
 70
  3020
  9
$CMLSTYLE
  2
Standard
  9
$CMLJUST
 70
     1
  9
$CMLSCALE
 40
1.0
  9
$PROXYGRAPHICS
 70
     1
  9
$MEASUREMENT
 70
     1
  9
$CELWEIGHT
370
    -1
  9
$ENDCAPS
280
     0
  9
$JOINSTYLE
280
     0
  9
$LWDISPLAY
290
     0
  9
$INSUNITS
 70
     4
  9
$HYPERLINKBASE
  1

  9
$STYLESHEET
  1

  9
$XEDIT
290
     1
  9
$CEPSNTYPE
380
     0
  9
$PSTYLEMODE
290
     1
  9
$FINGERPRINTGUID
  2
{FAEB1C30-E019-11D5-929B-00C0DF256EC4}
  9
$VERSIONGUID
  2
{FAEB1C32-E019-11D5-929B-00C0DF256EC4}
  9
$EXTNAMES
290
     1
  9
$PSVPSCALE
 40
0.0
  9
$OLESTARTUP
290
     0
  0
ENDSEC
  0
SECTION
  2
CLASSES
  0
CLASS
  1
ACDBDICTIONARYWDFLT
  2
AcDbDictionaryWithDefault
  3
ObjectDBX Classes
 90
        0
280
     0
281
     0
  0
CLASS
  1
ACDBPLACEHOLDER
  2
AcDbPlaceHolder
  3
ObjectDBX Classes
 90
        0
280
     0
281
     0
  0
CLASS
  1
LAYOUT
  2
AcDbLayout
  3
ObjectDBX Classes
 90
        0
280
     0
281
     0
  0
ENDSEC
  0
SECTION
  2
TABLES
  0
TABLE
  2
VPORT
  5
8
330
0
100
AcDbSymbolTable
 70
     2
  0
VPORT
  5
29
330
8
100
AcDbSymbolTableRecord
100
AcDbViewportTableRecord
  2
*Active
 70
     0
 10
0.0
 20
0.0
 11
1.0
 21
1.0
 12
50.0
 22
50.0
 13
0.0
 23
0.0
 14
10.0
 24
10.0
 15
10.0
 25
10.0
 16
0.0
 26
0.0
 36
1.0
 17
0.0
 27
0.0
 37
0.0
 40
103.921569
 41
1.0
 42
50.0
 43
0.0
 44
0.0
 50
0.0
 51
0.0
 71
     0
 72
   100
 73
     1
 74
     3
 75
     0
 76
     0
 77
     0
 78
     0
281
     0
 65
     1
110
0.0
120
0.0
130
0.0
111
1.0
121
0.0
131
0.0
112
0.0
122
1.0
132
0.0
 79
     0
146
0.0
  0
ENDTAB
  0
TABLE
  2
LTYPE
  5
5
330
0
100
AcDbSymbolTable
 70
     1
  0
LTYPE
  5
14
330
5
100
AcDbSymbolTableRecord
100
AcDbLinetypeTableRecord
  2
ByBlock
 70
     0
  3

 72
    65
 73
     0
 40
0.0
  0
LTYPE
  5
15
330
5
100
AcDbSymbolTableRecord
100
AcDbLinetypeTableRecord
  2
ByLayer
 70
     0
  3

 72
    65
 73
     0
 40
0.0
  0
LTYPE
  5
16
330
5
100
AcDbSymbolTableRecord
100
AcDbLinetypeTableRecord
  2
Continuous
 70
     0
  3

 72
    65
 73
     0
 40
0.0
  0
ENDTAB
  0
TABLE
  2
LAYER
  5
2
330
0
100
AcDbSymbolTable
 70
     1
  0
LAYER
  5
10
330
2
100
AcDbSymbolTableRecord
100
AcDbLayerTableRecord
  2
0
 70
     0
 62
     7
  6
Continuous
370
    -3
390
F
  0
ENDTAB
  0
TABLE
  2
STYLE
  5
3
330
0
100
AcDbSymbolTable
 70
     1
  0
STYLE
  5
11
330
3
100
AcDbSymbolTableRecord
100
AcDbTextStyleTableRecord
  2
Standard
 70
     0
 40
1.0
 41
1.0
 50
0.0
 71
     0
 42
2.5
  3
RomanS
  4

  0
ENDTAB
  0
TABLE
  2
VIEW
  5
6
330
0
100
AcDbSymbolTable
 70
     0
  0
ENDTAB
  0
TABLE
  2
UCS
  5
7
330
0
100
AcDbSymbolTable
 70
     0
  0
ENDTAB
  0
TABLE
  2
APPID
  5
9
330
0
100
AcDbSymbolTable
 70
     1
  0
APPID
  5
12
330
9
100
AcDbSymbolTableRecord
100
AcDbRegAppTableRecord
  2
ACAD
 70
     0
  0
ENDTAB
  0
TABLE
  2
DIMSTYLE
  5
A
330
0
100
AcDbSymbolTable
 70
     1
100
AcDbDimStyleTable
  0
DIMSTYLE
105
27
330
A
100
AcDbSymbolTableRecord
100
AcDbDimStyleTableRecord
  2
ISO-25
 70
     0
 41
2.5
 42
0.625
 44
1.25
 73
     0
 74
     0
 77
     1
 78
     8
 79
     2
140
2.5
141
2.5
146
0.0
147
0.625
271
     2
272
     0
273
     0
274
     0
278
    44
283
     0
289
     0
340
11
  0
ENDTAB
  0
TABLE
  2
BLOCK_RECORD
  5
1
330
0
100
AcDbSymbolTable
 70
     1
  0
BLOCK_RECORD
  5
1F
330
1
100
AcDbSymbolTableRecord
100
AcDbBlockTableRecord
  2
*Model_Space
340
22
  0
BLOCK_RECORD
  5
1B
330
1
100
AcDbSymbolTableRecord
100
AcDbBlockTableRecord
  2
*Paper_Space
340
1E
  0
BLOCK_RECORD
  5
23
330
1
100
AcDbSymbolTableRecord
100
AcDbBlockTableRecord
  2
*Paper_Space0
340
26
  0
ENDTAB
  0
ENDSEC
  0
SECTION
  2
BLOCKS
  0
BLOCK
  5
20
330
1F
100
AcDbEntity
  8
0
100
AcDbBlockBegin
  2
*Model_Space
 70
     0
 71
     0
 10
0.0
 20
0.0
 30
0.0
  3
*Model_Space
  1

  0
ENDBLK
  5
21
330
1F
100
AcDbEntity
  8
0
100
AcDbBlockEnd
  0
BLOCK
  5
1C
330
1B
100
AcDbEntity
 67
     1
  8
0
100
AcDbBlockBegin
  2
*Paper_Space
 70
     0
 71
     0
 10
0.0
 20
0.0
 30
0.0
  3
*Paper_Space
  1

  0
ENDBLK
  5
1D
330
1B
100
AcDbEntity
 67
     1
  8
0
100
AcDbBlockEnd
  0
BLOCK
  5
24
330
23
100
AcDbEntity
  8
0
100
AcDbBlockBegin
  2
*Paper_Space0
 70
     0
 71
     0
 10
0.0
 20
0.0
 30
0.0
  3
*Paper_Space0
  1

  0
ENDBLK
  5
25
330
23
100
AcDbEntity
  8
0
100
AcDbBlockEnd
  0
ENDSEC
  0
SECTION
  2
ENTITIES
  0
LWPOLYLINE
  5
2A
330
1F
100
AcDbEntity
  8
0
100
AcDbPolyline
 90
        2
 70
   128
 43
0.0
 10
469.456045
 20
381.747751
 10
469.392849
 20
381.686895
  0
LWPOLYLINE
  5
2B
330
1F
100
AcDbEntity
  8
0
100
AcDbPolyline
 90
      165
 70
   128
 43
0.0
 10
414.820751
 20
285.163278
 42
0.342162
 10
414.997098
 20
285.485774
 10
413.011473
 20
297.872433
 10
418.935836
 20
298.822129
 10
420.931778
 20
286.371111
 42
0.255424
 10
421.107991
 20
286.143644
 10
421.528924
 20
285.959924
 10
421.653255
 20
285.934515
 10
421.819311
 20
285.930499
 10
422.031143
 20
285.947467
 10
422.292795
 20
285.985009
 10
422.608317
 20
286.042715
 10
422.830521
 20
286.092143
 10
423.043601
 20
286.15129
 10
423.247627
 20
286.220332
 10
423.442669
 20
286.299441
 10
423.628797
 20
286.388791
 10
423.806081
 20
286.488555
 10
423.974591
 20
286.598905
 10
424.134395
 20
286.720017
 10
424.285567
 20
286.852062
 10
424.428174
 20
286.995215
 10
424.562287
 20
287.149649
 10
424.687975
 20
287.315536
 10
424.80531
 20
287.493051
 10
424.91436
 20
287.682368
 10
425.015196
 20
287.883658
 10
425.107888
 20
288.097096
 10
425.192506
 20
288.322855
 10
425.269119
 20
288.561109
 10
425.337798
 20
288.81203
 10
425.398613
 20
289.075794
 10
425.451633
 20
289.35257
 10
425.49693
 20
289.642536
 10
425.534572
 20
289.945862
 10
425.56463
 20
290.262723
 10
425.587173
 20
290.593294
 10
425.602273
 20
290.937744
 10
425.610419
 20
291.668983
 10
425.589629
 20
292.45783
 10
425.540461
 20
293.305669
 10
425.488579
 20
293.937342
 10
425.423108
 20
294.580587
 10
425.344243
 20
295.234478
 10
425.252184
 20
295.898088
 10
425.147128
 20
296.570494
 10
425.029273
 20
297.25077
 10
424.898818
 20
297.937992
 10
424.755961
 20
298.631232
 10
424.600899
 20
299.329568
 10
424.43383
 20
300.032073
 10
424.254953
 20
300.737822
 10
424.064466
 20
301.44589
 10
423.862567
 20
302.155351
 10
423.649454
 20
302.865282
 10
423.425325
 20
303.574756
 10
423.190378
 20
304.282849
 10
421.607244
 20
308.532812
 10
421.264232
 20
309.169469
 10
420.836411
 20
309.90747
 10
420.352577
 20
310.702196
 10
419.841531
 20
311.509027
 10
419.332067
 20
312.283348
 10
418.852986
 20
312.980537
 10
418.433084
 20
313.555977
 10
418.254325
 20
313.784098
 10
418.10116
 20
313.965049
 10
417.922662
 20
314.155175
 10
417.735942
 20
314.336294
 10
417.542131
 20
314.507828
 10
417.342364
 20
314.669198
 10
417.137772
 20
314.819825
 10
416.92949
 20
314.959133
 10
416.71865
 20
315.086541
 10
416.506386
 20
315.201472
 10
416.293831
 20
315.303348
 10
416.082119
 20
315.391589
 10
415.872381
 20
315.465619
 10
415.665752
 20
315.524858
 10
415.463364
 20
315.568728
 10
415.266352
 20
315.596652
 10
415.075847
 20
315.60805
 10
414.892983
 20
315.602344
 10
414.655602
 20
315.579619
 10
414.56013
 20
315.564891
 10
414.479228
 20
315.545534
 10
414.412212
 20
315.519762
 10
414.358399
 20
315.485787
 10
414.317107
 20
315.44182
 10
414.309466
 20
315.427358
 42
0.162664
 10
414.278503
 20
315.239731
 10
415.994045
 20
304.537893
 10
414.019258
 20
304.221327
 10
412.316342
 20
314.844398
 42
0.367128
 10
412.021456
 20
315.09691
 10
411.731036
 20
315.098199
 10
411.585386
 20
315.073782
 10
411.429376
 20
315.018139
 10
411.264821
 20
314.933835
 10
411.093535
 20
314.823437
 10
410.917333
 20
314.689512
 10
410.738031
 20
314.534625
 10
410.557444
 20
314.361345
 10
410.377385
 20
314.172234
 10
410.199671
 20
313.969861
 10
410.026117
 20
313.756792
 10
409.858536
 20
313.535593
 10
409.698745
 20
313.308829
 10
409.548557
 20
313.079069
 10
409.409789
 20
312.848877
 10
409.284254
 20
312.62082
 10
409.151253
 20
312.355121
 10
409.022608
 20
312.074945
 10
408.898367
 20
311.78064
 10
408.778577
 20
311.472553
 10
408.663284
 20
311.151031
 10
408.552533
 20
310.816424
 10
408.446373
 20
310.469077
 10
408.344848
 20
310.10934
 10
408.155893
 20
309.35408
 10
407.98604
 20
308.553427
 10
407.835659
 20
307.710161
 10
407.705122
 20
306.827062
 10
407.594801
 20
305.906912
 10
407.505066
 20
304.95249
 10
407.436291
 20
303.96658
 10
407.388846
 20
302.95196
 10
407.363102
 20
301.911411
 10
407.35943
 20
300.847716
 10
407.378203
 20
299.763654
 10
407.419792
 20
298.662005
 10
407.622358
 20
294.431041
 10
408.260779
 20
291.980142
 10
408.431165
 20
291.350466
 10
408.609053
 20
290.739947
 10
408.793643
 20
290.150305
 10
408.984134
 20
289.583259
 10
409.179722
 20
289.040527
 10
409.379606
 20
288.523831
 10
409.582984
 20
288.034887
 10
409.789056
 20
287.575415
 10
409.997018
 20
287.147135
 10
410.206069
 20
286.751767
 10
410.415408
 20
286.391028
 10
410.624232
 20
286.066638
 10
410.831739
 20
285.780316
 10
411.037129
 20
285.533783
 10
411.239598
 20
285.328755
 10
411.339487
 20
285.242343
 10
411.438346
 20
285.166953
 10
411.682858
 20
285.003444
 10
411.910167
 20
284.875873
 10
412.130639
 20
284.782114
 10
412.241549
 20
284.747253
 10
412.354639
 20
284.720048
 10
412.471202
 20
284.700237
 10
412.592533
 20
284.687552
 10
412.854688
 20
284.682504
 10
413.151468
 20
284.702781
 10
413.49324
 20
284.746262
 10
413.735084
 20
284.787527
 10
413.958197
 20
284.836293
 10
414.157876
 20
284.890756
 10
414.329415
 20
284.949117
 10
414.820751
 20
285.163278
  0
LWPOLYLINE
  5
2C
330
1F
100
AcDbEntity
  8
0
100
AcDbPolyline
 90
      168
 70
   128
 43
0.0
 10
447.179269
 20
219.413827
 10
446.935773
 20
219.49443
 10
446.572719
 20
219.594196
 10
446.107769
 20
219.709184
 10
445.558588
 20
219.835454
 10
444.27818
 20
220.106078
 10
442.872802
 20
220.374547
 10
439.428533
 20
220.997288
 10
437.376627
 20
221.186969
 10
436.88692
 20
221.225847
 10
436.381228
 20
221.25361
 10
435.860587
 20
221.270445
 10
435.326038
 20
221.276542
 10
434.778617
 20
221.272087
 10
434.219364
 20
221.257267
 10
433.649316
 20
221.232271
 10
433.069509
 20
221.197287
 10
432.480985
 20
221.152502
 10
431.88478
 20
221.098105
 10
431.281933
 20
221.034283
 10
430.673481
 20
220.961223
 10
430.060462
 20
220.879114
 10
429.443915
 20
220.788143
 10
428.824879
 20
220.688499
 10
428.20439
 20
220.580368
 10
427.583486
 20
220.463939
 10
426.963208
 20
220.3394
 10
426.344591
 20
220.206937
 10
425.728675
 20
220.066739
 10
425.116497
 20
219.918996
 10
424.509096
 20
219.763891
 10
423.907509
 20
219.601616
 10
423.312775
 20
219.432357
 10
422.725932
 20
219.256302
 10
422.148018
 20
219.073639
 10
421.580072
 20
218.884555
 10
421.023129
 20
218.689238
 10
420.47823
 20
218.487877
 10
419.946414
 20
218.280659
 10
419.428716
 20
218.067771
 10
418.926176
 20
217.849402
 10
418.536128
 20
217.658621
 10
418.151024
 20
217.438639
 10
417.774064
 20
217.193172
 10
417.408449
 20
216.925937
 10
417.057377
 20
216.640646
 10
416.72405
 20
216.341017
 10
416.411668
 20
216.030765
 10
416.123431
 20
215.713604
 10
415.862538
 20
215.393251
 10
415.632192
 20
215.073419
 10
415.435591
 20
214.757826
 10
415.275936
 20
214.450185
 10
415.210963
 20
214.300508
 10
415.156427
 20
214.154213
 10
415.112727
 20
214.011763
 10
415.080264
 20
213.873624
 10
415.059437
 20
213.740259
 10
415.050647
 20
213.612134
 10
415.061078
 20
213.261951
 42
0.402833
 10
415.358176
 20
212.970897
 10
430.56424
 20
212.830519
 10
430.545777
 20
210.830605
 10
415.371544
 20
210.970688
 42
0.517458
 10
415.093236
 20
210.646213
 10
415.099376
 20
210.649964
 10
415.109716
 20
210.566381
 10
415.131836
 20
210.466638
 10
415.146807
 20
210.392952
 10
415.324293
 20
209.874845
 10
415.415008
 20
209.648594
 10
415.537049
 20
209.397205
 10
415.685071
 20
209.129061
 10
415.853728
 20
208.852548
 10
416.037673
 20
208.57605
 10
416.231559
 20
208.307954
 10
416.430041
 20
208.056644
 10
416.627772
 20
207.830504
 10
416.938317
 20
207.509036
 10
417.088135
 20
207.368418
 10
417.241183
 20
207.237676
 10
417.402613
 20
207.114158
 10
417.577575
 20
206.995209
 10
417.771219
 20
206.878179
 10
417.988697
 20
206.760412
 10
418.235158
 20
206.63926
 10
418.515755
 20
206.512067
 10
419.199954
 20
206.228954
 10
420.0825
 20
205.889852
 10
421.204599
 20
205.473542
 10
424.833188
 20
204.138443
 10
427.013787
 20
203.627462
 10
427.493595
 20
203.520662
 10
428.021963
 20
203.412997
 10
429.155024
 20
203.206788
 10
429.725042
 20
203.114106
 10
430.274268
 20
203.032282
 10
430.785362
 20
202.964244
 10
431.240988
 20
202.912924
 10
433.832071
 20
202.651737
 10
434.319784
 20
202.612739
 10
434.86829
 20
202.591592
 10
435.47062
 20
202.587595
 10
436.119798
 20
202.600045
 10
436.808853
 20
202.628244
 10
437.530809
 20
202.671488
 10
438.278697
 20
202.729078
 10
439.045541
 20
202.800312
 10
439.824369
 20
202.884489
 10
440.608209
 20
202.980908
 10
441.390086
 20
203.088868
 10
442.16303
 20
203.207667
 10
442.920066
 20
203.336605
 10
443.654221
 20
203.474981
 10
444.358523
 20
203.622093
 10
445.025998
 20
203.777241
 10
445.54733
 20
203.910648
 10
446.025758
 20
204.044705
 10
446.463313
 20
204.180815
 10
446.86202
 20
204.320386
 10
447.223908
 20
204.464819
 10
447.551004
 20
204.615523
 10
447.845337
 20
204.7739
 10
448.108932
 20
204.941357
 10
448.343818
 20
205.119296
 10
448.552024
 20
205.309124
 10
448.735576
 20
205.512247
 10
448.896501
 20
205.730067
 10
449.036829
 20
205.963992
 10
449.158585
 20
206.215425
 10
449.263799
 20
206.485771
 10
449.354497
 20
206.776436
 10
449.484512
 20
207.265698
 10
449.582879
 20
207.692724
 10
449.615335
 20
207.867359
 10
449.634047
 20
208.007787
 10
449.63707
 20
208.107794
 10
449.632092
 20
208.140697
 10
449.622461
 20
208.161163
 10
449.566947
 20
208.210123
 10
449.498235
 20
208.252684
 10
448.826053
 20
208.62545
 42
0.12492
 10
448.683329
 20
208.663079
 10
435.031352
 20
208.78911
 10
435.08674
 20
214.788854
 10
448.656451
 20
214.663583
 42
0.231468
 10
448.894334
 20
214.777232
 10
449.396411
 20
215.410731
 10
449.455621
 20
215.524559
 10
449.505797
 20
215.676148
 10
449.536958
 20
215.81278
 10
449.560132
 20
215.950198
 10
449.575449
 20
216.088194
 10
449.583036
 20
216.226561
 10
449.575537
 20
216.50359
 10
449.538665
 20
216.77963
 10
449.473448
 20
217.053031
 10
449.380912
 20
217.32214
 10
449.262088
 20
217.585307
 10
449.118
 20
217.840878
 10
448.949681
 20
218.087202
 10
448.758155
 20
218.322629
 10
448.544453
 20
218.545505
 10
448.309602
 20
218.75418
 10
448.05463
 20
218.947001
 10
447.780565
 20
219.122318
 10
447.488435
 20
219.278477
 10
447.179269
 20
219.413827
  0
LWPOLYLINE
  5
2D
330
1F
100
AcDbEntity
  8
0
100
AcDbPolyline
 90
      168
 70
   128
 43
0.0
 10
417.176633
 20
183.148296
 10
417.416109
 20
183.056436
 10
417.774121
 20
182.939862
 10
418.233208
 20
182.803336
 10
418.77591
 20
182.651615
 10
420.042318
 20
182.321627
 10
421.433661
 20
181.98797
 10
424.845173
 20
181.205426
 10
426.886014
 20
180.920348
 10
427.373377
 20
180.858694
 10
427.877227
 20
180.8074
 10
428.396518
 20
180.766325
 10
428.930202
 20
180.735329
 10
429.477236
 20
180.714273
 10
430.036573
 20
180.70302
 10
430.607166
 20
180.701428
 10
431.187973
 20
180.70936
 10
431.777945
 20
180.726674
 10
432.376036
 20
180.753234
 10
432.981203
 20
180.788898
 10
433.592398
 20
180.833529
 10
434.208577
 20
180.886987
 10
434.828692
 20
180.949132
 10
435.4517
 20
181.019826
 10
436.076553
 20
181.098929
 10
436.702207
 20
181.186302
 10
437.327614
 20
181.281805
 10
437.95173
 20
181.385301
 10
438.57351
 20
181.496649
 10
439.191907
 20
181.615709
 10
439.805876
 20
181.742344
 10
440.414369
 20
181.876414
 10
441.016344
 20
182.017778
 10
441.610753
 20
182.1663
 10
442.19655
 20
182.321838
 10
442.77269
 20
182.484254
 10
443.338127
 20
182.653409
 10
443.891816
 20
182.829163
 10
444.43271
 20
183.011377
 10
444.959765
 20
183.199913
 10
445.471934
 20
183.39463
 10
445.870447
 20
183.567031
 10
446.265382
 20
183.76883
 10
446.65337
 20
183.996467
 10
447.031039
 20
184.246377
 10
447.395022
 20
184.515
 10
447.741948
 20
184.798773
 10
448.068446
 20
185.094134
 10
448.371148
 20
185.397521
 10
448.646683
 20
185.70537
 10
448.891681
 20
186.014122
 10
449.102773
 20
186.320212
 10
449.276588
 20
186.62008
 10
449.348465
 20
186.766568
 10
449.409758
 20
186.910163
 10
449.460048
 20
187.050422
 10
449.498912
 20
187.186898
 10
449.52593
 20
187.319148
 10
449.54068
 20
187.446725
 10
449.546576
 20
187.797013
 42
0.402833
 10
449.263362
 20
188.101594
 10
434.080353
 20
188.950313
 10
434.191977
 20
190.947195
 10
449.343204
 20
190.100253
 42
0.517458
 10
449.636328
 20
190.411408
 10
449.630019
 20
190.407948
 10
449.623586
 20
190.491922
 10
449.606137
 20
190.592587
 10
449.594615
 20
190.66689
 10
449.441462
 20
191.192704
 10
449.361388
 20
191.422936
 10
449.251192
 20
191.679739
 10
449.115824
 20
191.954488
 10
448.960234
 20
192.238559
 10
448.789372
 20
192.523327
 10
448.608187
 20
192.800166
 10
448.42163
 20
193.060451
 10
448.23465
 20
193.295558
 10
447.939421
 20
193.631147
 10
447.796317
 20
193.778591
 10
447.649528
 20
193.916322
 10
447.494028
 20
194.047228
 10
447.324798
 20
194.1742
 10
447.136817
 20
194.300126
 10
446.925063
 20
194.427897
 10
446.684514
 20
194.560401
 10
446.410148
 20
194.70053
 10
445.739883
 20
195.015214
 10
444.874095
 20
195.395068
 10
443.772612
 20
195.863208
 10
440.210169
 20
197.365923
 10
438.055747
 20
197.977949
 10
437.581436
 20
198.106989
 10
437.058659
 20
198.239156
 10
435.936435
 20
198.497933
 10
435.371355
 20
198.617073
 10
434.826538
 20
198.724399
 10
434.319169
 20
198.816176
 10
433.866429
 20
198.888669
 10
431.29033
 20
199.270298
 10
430.804964
 20
199.331978
 10
430.258038
 20
199.378658
 10
429.656548
 20
199.410716
 10
429.007496
 20
199.428525
 10
428.317875
 20
199.432462
 10
427.594688
 20
199.422903
 10
426.844929
 20
199.400222
 10
426.075599
 20
199.364795
 10
425.293695
 20
199.316997
 10
424.506214
 20
199.257204
 10
423.720155
 20
199.185792
 10
422.942515
 20
199.103135
 10
422.180294
 20
199.009609
 10
421.440489
 20
198.90559
 10
420.730098
 20
198.791454
 10
420.056119
 20
198.667574
 10
419.529138
 20
198.558601
 10
419.044983
 20
198.446982
 10
418.601562
 20
198.331406
 10
418.196784
 20
198.210564
 10
417.82856
 20
198.083149
 10
417.494797
 20
197.947849
 10
417.193405
 20
197.803358
 10
416.922294
 20
197.648365
 10
416.679372
 20
197.481563
 10
416.462548
 20
197.301642
 10
416.269731
 20
197.107292
 10
416.098832
 20
196.897206
 10
415.947757
 20
196.670073
 10
415.814418
 20
196.424587
 10
415.696723
 20
196.159436
 10
415.59258
 20
195.873313
 10
415.43991
 20
195.39064
 10
415.321753
 20
194.968661
 10
415.281196
 20
194.795728
 10
415.255961
 20
194.656324
 10
415.248282
 20
194.556567
 10
415.251722
 20
194.523468
 10
415.260388
 20
194.502575
 10
415.313561
 20
194.451081
 10
415.380216
 20
194.405365
 10
416.034299
 20
194.001685
 42
0.12492
 10
416.175115
 20
193.957447
 10
429.806393
 20
193.195469
 10
429.47152
 20
187.204821
 10
415.922383
 20
187.962208
 42
0.231468
 10
415.679464
 20
187.859766
 10
415.148415
 20
187.250348
 10
415.083965
 20
187.139403
 10
415.026781
 20
186.990316
 10
414.989288
 20
186.855284
 10
414.959736
 20
186.719096
 10
414.938007
 20
186.581963
 10
414.92398
 20
186.444099
 10
414.918564
 20
186.167022
 10
414.942534
 20
185.889564
 10
414.994942
 20
185.613421
 10
415.074839
 20
185.340293
 10
415.181273
 20
185.071876
 10
415.313296
 20
184.809869
 10
415.469956
 20
184.555969
 10
415.650304
 20
184.311874
 10
415.853389
 20
184.079283
 10
416.078263
 20
183.859892
 10
416.323974
 20
183.655401
 10
416.589573
 20
183.467505
 10
416.87411
 20
183.297904
 10
417.176633
 20
183.148296
  0
LWPOLYLINE
  5
2E
330
1F
100
AcDbEntity
  8
0
100
AcDbPolyline
 90
      168
 70
   128
 43
0.0
 10
436.314551
 20
225.169397
 10
436.570792
 20
225.18069
 10
436.945588
 20
225.216605
 10
437.421029
 20
225.274543
 10
437.979204
 20
225.351903
 10
439.272124
 20
225.554482
 10
440.681073
 20
225.803535
 10
444.121564
 20
226.446817
 10
446.106718
 20
226.999503
 10
446.57822
 20
227.137379
 10
447.060708
 20
227.29133
 10
447.553279
 20
227.460812
 10
448.055028
 20
227.645278
 10
448.565053
 20
227.844185
 10
449.08245
 20
228.056988
 10
449.606314
 20
228.283141
 10
450.135746
 20
228.5221
 10
450.669839
 20
228.77332
 10
451.207689
 20
229.036257
 10
451.748396
 20
229.310364
 10
452.291053
 20
229.595099
 10
452.83476
 20
229.889916
 10
453.378612
 20
230.19427
 10
453.921704
 20
230.507616
 10
454.463135
 20
230.82941
 10
455.002002
 20
231.159106
 10
455.537399
 20
231.49616
 10
456.068424
 20
231.840028
 10
456.594174
 20
232.190164
 10
457.113745
 20
232.546023
 10
457.626235
 20
232.907061
 10
458.130738
 20
233.272733
 10
458.626353
 20
233.642494
 10
459.112176
 20
234.015799
 10
459.587302
 20
234.392104
 10
460.050829
 20
234.770863
 10
460.501855
 20
235.151533
 10
460.939474
 20
235.533567
 10
461.362783
 20
235.916421
 10
461.77088
 20
236.299551
 10
462.162862
 20
236.682412
 10
462.459524
 20
236.999471
 10
462.741178
 20
237.342061
 10
463.006154
 20
237.705573
 10
463.252784
 20
238.085392
 10
463.479398
 20
238.476912
 10
463.684328
 20
238.87552
 10
463.865904
 20
239.276605
 10
464.022457
 20
239.675558
 10
464.152318
 20
240.067766
 10
464.253816
 20
240.44862
 10
464.325285
 20
240.813508
 10
464.365054
 20
241.15782
 10
464.372529
 20
241.32082
 10
464.371454
 20
241.476946
 10
464.36162
 20
241.625623
 10
464.342816
 20
241.766274
 10
464.314837
 20
241.898324
 10
464.277472
 20
242.021194
 10
464.143147
 20
242.344758
 42
0.402833
 10
463.761943
 20
242.511081
 10
449.500681
 20
237.232775
 10
448.806474
 20
239.108429
 10
463.037883
 20
244.375685
 42
0.517458
 10
463.182554
 20
244.777941
 10
463.178149
 20
244.772251
 10
463.138752
 20
244.846688
 10
463.082596
 20
244.932037
 10
463.04239
 20
244.995576
 10
462.692201
 20
245.416651
 10
462.526932
 20
245.595829
 10
462.323444
 20
245.787358
 10
462.089713
 20
245.985302
 10
461.833722
 20
246.183727
 10
461.563447
 20
246.376699
 10
461.28687
 20
246.558283
 10
461.011969
 20
246.722544
 10
460.746725
 20
246.863548
 10
460.342134
 20
247.053512
 10
460.152093
 20
247.131633
 10
459.962546
 20
247.199376
 10
459.767735
 20
247.257386
 10
459.561903
 20
247.306312
 10
459.339293
 20
247.346798
 10
459.094148
 20
247.379494
 10
458.82071
 20
247.405043
 10
458.51322
 20
247.424094
 10
457.773063
 20
247.445286
 10
456.827617
 20
247.448241
 10
455.630822
 20
247.438135
 10
451.764649
 20
247.395039
 10
449.54492
 20
247.096853
 10
449.058506
 20
247.025976
 10
448.526401
 20
246.938634
 10
447.394104
 20
246.728271
 10
446.828403
 20
246.612108
 10
446.285998
 20
246.493194
 10
445.784134
 20
246.374961
 10
445.340058
 20
246.260837
 10
442.82556
 20
245.58317
 10
442.355879
 20
245.446115
 10
441.835731
 20
245.270749
 10
441.271382
 20
245.060208
 10
440.669101
 20
244.81763
 10
440.035154
 20
244.546147
 10
439.37581
 20
244.248899
 10
438.697335
 20
243.929018
 10
438.005997
 20
243.589642
 10
437.308063
 20
243.233907
 10
436.609801
 20
242.864947
 10
435.917478
 20
242.4859
 10
435.23736
 20
242.0999
 10
434.575717
 20
241.710084
 10
433.938815
 20
241.319587
 10
433.332921
 20
240.931547
 10
432.764304
 20
240.549096
 10
432.324536
 20
240.238954
 10
431.925095
 20
239.943468
 10
431.564585
 20
239.660604
 10
431.241612
 20
239.388325
 10
430.954779
 20
239.124599
 10
430.702693
 20
238.867391
 10
430.483957
 20
238.614667
 10
430.297177
 20
238.364392
 10
430.140959
 20
238.114533
 10
430.013904
 20
237.863055
 10
429.914619
 20
237.607922
 10
429.84171
 20
237.347102
 10
429.79378
 20
237.078559
 10
429.769435
 20
236.80026
 10
429.767279
 20
236.510169
 10
429.785917
 20
236.206254
 10
429.83846
 20
235.702745
 10
429.898441
 20
235.26866
 10
429.930234
 20
235.093904
 10
429.962702
 20
234.956006
 10
429.995454
 20
234.861465
 10
430.011812
 20
234.832486
 10
430.028093
 20
234.816785
 10
430.097393
 20
234.790776
 10
430.176752
 20
234.775444
 10
430.937571
 20
234.66619
 42
0.12492
 10
431.084345
 20
234.681795
 10
443.88808
 20
239.420648
 10
445.970701
 20
233.793687
 10
433.244121
 20
229.083391
 42
0.231468
 10
433.06223
 20
228.89255
 10
432.818363
 20
228.121881
 10
432.803519
 20
227.994436
 10
432.810553
 20
227.834913
 10
432.830037
 20
227.696134
 10
432.857265
 20
227.559462
 10
432.892042
 20
227.425044
 10
432.934174
 20
227.293029
 10
433.039734
 20
227.036791
 10
433.172395
 20
226.791925
 10
433.330607
 20
226.559611
 10
433.512824
 20
226.341025
 10
433.717496
 20
226.137346
 10
433.943076
 20
225.949752
 10
434.188013
 20
225.77942
 10
434.450762
 20
225.627529
 10
434.729771
 20
225.495256
 10
435.023495
 20
225.38378
 10
435.330383
 20
225.294278
 10
435.648887
 20
225.227928
 10
435.97746
 20
225.185908
 10
436.314551
 20
225.169397
  0
LWPOLYLINE
  5
2F
330
1F
100
AcDbEntity
  8
0
100
AcDbPolyline
 90
      165
 70
   128
 43
0.0
 10
501.188962
 20
368.850067
 42
0.342162
 10
501.494524
 20
368.645777
 10
514.008576
 20
369.523573
 10
514.428413
 20
363.53828
 10
501.849341
 20
362.655923
 42
0.255424
 10
501.607123
 20
362.500606
 10
501.386749
 20
362.097652
 10
501.350399
 20
361.976068
 10
501.331653
 20
361.811024
 10
501.329743
 20
361.598523
 10
501.343901
 20
361.334571
 10
501.373359
 20
361.015171
 10
501.402858
 20
360.789455
 10
501.44285
 20
360.571965
 10
501.493501
 20
360.362613
 10
501.554977
 20
360.161317
 10
501.627444
 20
359.96799
 10
501.71107
 20
359.782547
 10
501.806021
 20
359.604903
 10
501.912463
 20
359.434975
 10
502.030562
 20
359.272675
 10
502.160485
 20
359.117918
 10
502.302399
 20
358.970621
 10
502.456469
 20
358.830698
 10
502.622863
 20
358.698063
 10
502.801747
 20
358.572631
 10
502.993288
 20
358.454318
 10
503.197651
 20
358.343039
 10
503.415004
 20
358.238707
 10
503.645513
 20
358.141238
 10
503.889344
 20
358.050548
 10
504.146664
 20
357.966549
 10
504.417639
 20
357.88916
 10
504.702437
 20
357.818292
 10
505.001222
 20
357.753862
 10
505.314162
 20
357.695785
 10
505.641424
 20
357.643974
 10
505.983173
 20
357.598346
 10
506.7108
 20
357.525295
 10
507.498376
 20
357.475951
 10
508.347232
 20
357.449633
 10
508.981017
 20
357.445214
 10
509.627534
 20
357.453305
 10
510.285845
 20
357.473789
 10
510.955009
 20
357.506554
 10
511.634087
 20
357.551483
 10
512.322142
 20
357.60846
 10
513.018233
 20
357.677372
 10
513.721421
 20
357.758102
 10
514.430768
 20
357.850537
 10
515.145333
 20
357.95456
 10
515.864179
 20
358.070057
 10
516.586365
 20
358.196912
 10
517.310954
 20
358.335011
 10
518.037005
 20
358.484237
 10
518.763579
 20
358.644477
 10
519.489738
 20
358.815614
 10
523.863499
 20
360.015079
 10
524.528102
 20
360.300199
 10
525.301179
 20
360.660792
 10
526.135731
 20
361.07214
 10
526.984758
 20
361.509517
 10
527.801262
 20
361.948205
 10
528.538241
 20
362.36348
 10
529.148696
 20
362.730622
 10
529.39179
 20
362.888417
 10
529.585628
 20
363.024908
 10
529.790854
 20
363.185816
 10
529.987839
 20
363.355714
 10
530.175907
 20
363.533527
 10
530.354379
 20
363.718174
 10
530.52258
 20
363.908582
 10
530.679833
 20
364.10367
 10
530.825462
 20
364.302362
 10
530.958788
 20
364.503581
 10
531.079137
 20
364.70625
 10
531.185831
 20
364.909289
 10
531.278194
 20
365.111624
 10
531.355549
 20
365.312177
 10
531.417218
 20
365.509869
 10
531.462527
 20
365.703623
 10
531.490798
 20
365.892363
 10
531.501353
 20
366.075011
 10
531.499798
 20
366.313473
 10
531.493606
 20
366.409875
 10
531.481511
 20
366.492177
 10
531.461792
 20
366.561217
 10
531.43273
 20
366.617834
 10
531.392604
 20
366.662867
 10
531.378877
 20
366.671762
 42
0.162664
 10
531.194741
 20
366.719265
 10
520.382838
 20
365.960866
 10
520.242892
 20
367.955964
 10
530.975217
 20
368.708781
 42
0.367128
 10
531.252919
 20
368.980078
 10
531.279993
 20
369.269235
 10
531.268607
 20
369.416478
 10
531.227038
 20
369.576814
 10
531.15768
 20
369.748205
 10
531.06293
 20
369.928618
 10
530.945181
 20
370.116017
 10
530.806829
 20
370.308365
 10
530.65027
 20
370.503627
 10
530.477896
 20
370.699768
 10
530.292105
 20
370.894751
 10
530.095289
 20
371.086541
 10
529.889846
 20
371.273103
 10
529.678169
 20
371.452401
 10
529.462653
 20
371.622399
 10
529.245694
 20
371.781061
 10
529.029686
 20
371.926352
 10
528.776848
 20
372.082423
 10
528.509203
 20
372.23544
 10
528.227094
 20
372.385325
 10
527.930862
 20
372.532001
 10
527.620849
 20
372.675392
 10
527.297398
 20
372.815419
 10
526.960851
 20
372.952006
 10
526.611551
 20
373.085076
 10
525.876056
 20
373.340354
 10
525.093649
 20
373.580638
 10
524.267069
 20
373.80531
 10
523.399052
 20
374.013754
 10
522.492334
 20
374.205352
 10
521.549652
 20
374.379488
 10
520.573744
 20
374.535544
 10
519.567346
 20
374.672905
 10
518.533195
 20
374.790952
 10
517.474028
 20
374.889069
 10
516.392582
 20
374.966639
 10
515.291592
 20
375.023045
 10
511.059355
 20
375.197006
 10
508.561445
 20
374.778757
 10
507.919126
 20
374.664962
 10
507.295222
 20
374.541993
 10
506.691517
 20
374.410495
 10
506.109795
 20
374.271113
 10
505.551839
 20
374.124494
 10
505.019433
 20
373.971284
 10
504.51436
 20
373.812129
 10
504.038404
 20
373.647675
 10
503.593348
 20
373.478567
 10
503.180977
 20
373.305452
 10
502.803074
 20
373.128975
 10
502.461421
 20
372.949784
 10
502.157803
 20
372.768523
 10
501.894004
 20
372.585838
 10
501.671807
 20
372.402376
 10
501.576865
 20
372.310555
 10
501.492994
 20
372.218782
 10
501.308418
 20
371.989757
 10
501.161164
 20
371.774674
 10
501.048197
 20
371.5634
 10
501.003624
 20
371.456023
 10
500.966484
 20
371.345796
 10
500.9364
 20
371.231453
 10
500.91299
 20
371.111728
 10
500.884682
 20
370.851057
 10
500.878524
 20
370.553649
 10
500.891482
 20
370.209366
 10
500.911108
 20
369.964812
 10
500.939867
 20
369.73825
 10
500.976383
 20
369.534524
 10
501.01928
 20
369.35848
 10
501.188962
 20
368.850067
  0
LWPOLYLINE
  5
30
330
1F
100
AcDbEntity
  8
0
100
AcDbPolyline
 90
     1512
 70
   128
 43
0.0
 10
503.105268
 20
178.132877
 10
504.846875
 20
178.403293
 10
504.955544
 20
178.425504
 10
505.075688
 20
178.459258
 10
505.346916
 20
178.559442
 10
505.653582
 20
178.699948
 10
505.988709
 20
178.876879
 10
506.34532
 20
179.086338
 10
506.716437
 20
179.324428
 10
507.095084
 20
179.587251
 10
507.474283
 20
179.870911
 10
509.17565
 20
181.191667
 10
509.530716
 20
181.191667
 10
509.572689
 20
181.186371
 10
509.624871
 20
181.170832
 10
509.756843
 20
181.111121
 10
509.920588
 20
181.016719
 10
510.11006
 20
180.891814
 10
510.319217
 20
180.740591
 10
510.542013
 20
180.567239
 10
510.772406
 20
180.375943
 10
511.004349
 20
180.170891
 10
511.546395
 20
179.690038
 10
511.788309
 20
179.48931
 10
512.015714
 20
179.313047
 10
512.232283
 20
179.159752
 10
512.441689
 20
179.027924
 10
512.647604
 20
178.916066
 10
512.853701
 20
178.822678
 10
513.063654
 20
178.746261
 10
513.281135
 20
178.685317
 10
513.509817
 20
178.638345
 10
513.753373
 20
178.603847
 10
514.015476
 20
178.580325
 10
514.299799
 20
178.566278
 10
514.949793
 20
178.560616
 10
515.318104
 20
178.569977
 10
515.674074
 20
178.591896
 10
516.019598
 20
178.627086
 10
516.356573
 20
178.676258
 10
516.686895
 20
178.740125
 10
517.012458
 20
178.819397
 10
517.335158
 20
178.914788
 10
517.656891
 20
179.027008
 10
517.979554
 20
179.15677
 10
518.30504
 20
179.304785
 10
518.635246
 20
179.471766
 10
518.972068
 20
179.658423
 10
519.317402
 20
179.86547
 10
519.673142
 20
180.093618
 10
520.041184
 20
180.343578
 10
520.423425
 20
180.616063
 10
520.98219
 20
181.039102
 10
521.229875
 20
181.240199
 10
521.45629
 20
181.434743
 10
521.66133
 20
181.623033
 10
521.844891
 20
181.805364
 10
522.006869
 20
181.982034
 10
522.14716
 20
182.15334
 10
522.265661
 20
182.319579
 10
522.362266
 20
182.481049
 10
522.436873
 20
182.638045
 10
522.489376
 20
182.790865
 10
522.519672
 20
182.939806
 10
522.527656
 20
183.085165
 10
522.513226
 20
183.22724
 10
522.476275
 20
183.366327
 10
522.416702
 20
183.502722
 10
522.3344
 20
183.636725
 10
522.229267
 20
183.76863
 10
522.101198
 20
183.898736
 10
521.95009
 20
184.027339
 10
521.775837
 20
184.154736
 10
521.578336
 20
184.281225
 10
521.357484
 20
184.407102
 10
521.113175
 20
184.532664
 10
520.845306
 20
184.658209
 10
520.553773
 20
184.784034
 10
520.238471
 20
184.910435
 10
519.536147
 20
185.166155
 10
518.7375
 20
185.427745
 10
518.136073
 20
185.622135
 10
517.668936
 20
185.790149
 10
517.482029
 20
185.867138
 10
517.324258
 20
185.940979
 10
517.194144
 20
186.012822
 10
517.090207
 20
186.083815
 10
517.01097
 20
186.155108
 10
516.954953
 20
186.227848
 10
516.920677
 20
186.303184
 10
516.906664
 20
186.382267
 10
516.911434
 20
186.466243
 10
516.933508
 20
186.556262
 10
516.971408
 20
186.653474
 10
517.023654
 20
186.759026
 10
517.060875
 20
186.81877
 10
517.106604
 20
186.874897
 10
517.16076
 20
186.927406
 10
517.223267
 20
186.976294
 10
517.373017
 20
187.063203
 10
517.555224
 20
187.135609
 10
517.769261
 20
187.193499
 10
518.014499
 20
187.23686
 10
518.290311
 20
187.265678
 10
518.596068
 20
187.279939
 10
518.931143
 20
187.27963
 10
519.294907
 20
187.264736
 10
519.686732
 20
187.235244
 10
520.10599
 20
187.191141
 10
520.552053
 20
187.132413
 10
521.024293
 20
187.059046
 10
521.522082
 20
186.971026
 10
522.044792
 20
186.86834
 10
523.122793
 20
186.651837
 10
524.100796
 20
186.46773
 10
524.986236
 20
186.316621
 10
525.786546
 20
186.199108
 10
526.50916
 20
186.115791
 10
526.843654
 20
186.087144
 10
527.161512
 20
186.067271
 10
527.463662
 20
186.056248
 10
527.751035
 20
186.054148
 10
528.024559
 20
186.061048
 10
528.285164
 20
186.077022
 10
528.533778
 20
186.102144
 10
528.771331
 20
186.136491
 10
528.998753
 20
186.180137
 10
529.216972
 20
186.233157
 10
529.426918
 20
186.295627
 10
529.62952
 20
186.36762
 10
529.825707
 20
186.449212
 10
530.016409
 20
186.540479
 10
530.202554
 20
186.641494
 10
530.385072
 20
186.752334
 10
530.564893
 20
186.873072
 10
530.742944
 20
187.003785
 10
530.920156
 20
187.144547
 10
531.097458
 20
187.295432
 10
531.456048
 20
187.627876
 10
531.58649
 20
187.760496
 10
531.716073
 20
187.903849
 10
531.972584
 20
188.222543
 10
532.225416
 20
188.583537
 10
532.474404
 20
188.986411
 10
532.719383
 20
189.430744
 10
532.960188
 20
189.916114
 10
533.196655
 20
190.442103
 10
533.428619
 20
191.008288
 10
533.655915
 20
191.614249
 10
533.878378
 20
192.259566
 10
534.095843
 20
192.943818
 10
534.308146
 20
193.666583
 10
534.515121
 20
194.427443
 10
534.716604
 20
195.225975
 10
534.912431
 20
196.061759
 10
535.102435
 20
196.934375
 10
535.360304
 20
198.221338
 10
535.584381
 20
199.4691
 10
535.774696
 20
200.684345
 10
535.857201
 20
201.281862
 10
535.931278
 20
201.873757
 10
535.996928
 20
202.460866
 10
536.054157
 20
203.044023
 10
536.102968
 20
203.624064
 10
536.143364
 20
204.201825
 10
536.175349
 20
204.778142
 10
536.198927
 20
205.35385
 10
536.214102
 20
205.929785
 10
536.220877
 20
206.506782
 10
536.219257
 20
207.085677
 10
536.209244
 20
207.667306
 10
536.190843
 20
208.252503
 10
536.164057
 20
208.842105
 10
536.128891
 20
209.436948
 10
536.085347
 20
210.037866
 10
536.033429
 20
210.645696
 10
535.973142
 20
211.261273
 10
535.827473
 20
212.51901
 10
535.64837
 20
213.817763
 10
535.435862
 20
215.164216
 10
535.189979
 20
216.565053
 10
534.597671
 20
219.791565
 10
534.464677
 20
219.924559
 10
534.420208
 20
219.939465
 10
534.025727
 20
219.937517
 42
0.067083
 10
533.946361
 20
219.926421
 10
526.196584
 20
217.757656
 10
525.657594
 20
219.683659
 10
533.920273
 20
221.99596
 42
0.374586
 10
534.134932
 20
222.338152
 10
534.132724
 20
222.295571
 10
534.108649
 20
222.284463
 10
534.114324
 20
222.489078
 10
534.025718
 20
222.977443
 10
533.881257
 20
223.686902
 10
533.695296
 20
224.543687
 10
533.179433
 20
226.857884
 42
0.421369
 10
532.814232
 20
227.083748
 10
522.293791
 20
224.467971
 10
521.811209
 20
226.408877
 10
532.350583
 20
229.029361
 42
0.332969
 10
532.577938
 20
229.308078
 10
532.578987
 20
229.333385
 10
532.570469
 20
229.471508
 10
532.550529
 20
229.645931
 10
532.480784
 20
230.082841
 10
532.378554
 20
230.602446
 10
532.252639
 20
231.163076
 10
532.111839
 20
231.723061
 10
531.964956
 20
232.240733
 10
531.820789
 20
232.674421
 10
531.74885
 20
232.85136
 10
531.710253
 20
232.921699
 10
531.665765
 20
232.980282
 10
531.612284
 20
233.027358
 10
531.546706
 20
233.063174
 10
531.21744
 20
233.164288
 42
0.117092
 10
531.079121
 20
233.173267
 10
518.015962
 20
230.953778
 10
517.680954
 20
232.92552
 10
530.892445
 20
235.170212
 42
0.338954
 10
531.143263
 20
235.462858
 10
531.131678
 20
235.439536
 10
531.126897
 20
235.423615
 10
531.160047
 20
235.638447
 10
531.156862
 20
235.851493
 10
531.136982
 20
236.118637
 10
531.101252
 20
236.43109
 10
531.050513
 20
236.780065
 10
530.98561
 20
237.156773
 10
530.907385
 20
237.552427
 10
530.481064
 20
239.579084
 42
0.387572
 10
530.152909
 20
239.815329
 10
513.458924
 20
237.878147
 10
513.22839
 20
239.864817
 10
529.304668
 20
241.730319
 42
0.185272
 10
529.495135
 20
241.829942
 10
529.834702
 20
242.21516
 10
529.878899
 20
242.278791
 10
529.916322
 20
242.34807
 10
529.947466
 20
242.423396
 10
529.972825
 20
242.50517
 10
530.008164
 20
242.689662
 10
530.026295
 20
242.904751
 10
530.031172
 20
243.153639
 10
530.016983
 20
243.765625
 10
529.982874
 20
244.67987
 10
529.96226
 20
245.052321
 10
529.936769
 20
245.372934
 10
529.904523
 20
245.645164
 10
529.863646
 20
245.87247
 10
529.81226
 20
246.058306
 10
529.748487
 20
246.20613
 10
529.71137
 20
246.266868
 10
529.670451
 20
246.319399
 10
529.652704
 20
246.337068
 42
0.22133
 10
529.41465
 20
246.423305
 10
512.23126
 20
244.905845
 10
512.055326
 20
246.898091
 10
529.353651
 20
248.425702
 42
0.24052
 10
529.656072
 20
248.689962
 10
529.64063
 20
248.675123
 10
529.756961
 20
248.858819
 10
529.811971
 20
249.014257
 10
529.8607
 20
249.23923
 10
529.902352
 20
249.527077
 10
529.936133
 20
249.871136
 10
529.961246
 20
250.264744
 10
529.976898
 20
250.701238
 10
529.982292
 20
251.173958
 10
529.982292
 20
253.478007
 42
0.438566
 10
529.657594
 20
253.776989
 10
512.325216
 20
252.345187
 10
512.16056
 20
254.338397
 10
529.804386
 20
255.795928
 42
0.339554
 10
530.061675
 20
256.035286
 10
530.069727
 20
256.062514
 10
530.081729
 20
256.079263
 10
530.118861
 20
256.284463
 10
530.139193
 20
256.521595
 10
530.149406
 20
256.818661
 10
530.149347
 20
257.165893
 10
530.138861
 20
257.553522
 10
530.117795
 20
257.971779
 10
530.085995
 20
258.410893
 10
530.024051
 20
259.124859
 10
529.962632
 20
259.659745
 10
529.926996
 20
259.867463
 10
529.885345
 20
260.039329
 10
529.835628
 20
260.178313
 10
529.775797
 20
260.287389
 10
529.703803
 20
260.369528
 10
529.618822
 20
260.426876
 42
0.171776
 10
529.424993
 20
260.477071
 10
512.437872
 20
258.99835
 10
512.264428
 20
260.990816
 10
529.008318
 20
262.448363
 42
0.337289
 10
529.288293
 20
262.772974
 10
529.298793
 20
262.808982
 10
529.334968
 20
263.004733
 10
529.345937
 20
263.187592
 10
529.333236
 20
263.404779
 10
529.297914
 20
263.659259
 10
529.241022
 20
263.954
 10
529.163608
 20
264.291969
 10
528.951415
 20
265.109456
 10
528.616819
 20
266.329546
 10
528.277364
 20
267.53355
 10
527.930843
 20
268.728008
 10
527.575047
 20
269.919463
 10
527.20777
 20
271.114454
 10
526.826805
 20
272.319524
 10
526.429943
 20
273.541212
 10
526.014977
 20
274.786061
 10
525.579699
 20
276.060611
 10
525.121903
 20
277.371403
 10
524.639381
 20
278.724978
 10
524.129925
 20
280.127878
 10
523.591328
 20
281.586643
 10
523.021382
 20
283.107815
 10
521.778614
 20
286.363542
 10
519.484092
 20
292.58125
 10
519.350327
 20
293.00371
 10
519.223859
 20
293.443915
 10
519.107576
 20
293.888936
 10
519.004366
 20
294.325841
 10
518.917116
 20
294.741702
 10
518.848714
 20
295.123588
 10
518.802048
 20
295.458569
 10
518.780007
 20
295.733715
 10
518.769583
 20
296.108056
 10
518.775211
 20
296.396173
 10
518.786932
 20
296.512477
 10
518.806131
 20
296.612721
 10
518.833963
 20
296.698736
 10
518.871583
 20
296.772354
 10
518.920148
 20
296.835407
 10
518.98081
 20
296.889726
 10
519.054726
 20
296.937143
 10
519.143051
 20
296.97949
 10
519.367548
 20
297.056301
 10
519.663542
 20
297.134814
 10
519.846819
 20
297.189635
 10
520.032388
 20
297.261582
 10
520.218299
 20
297.348875
 10
520.402607
 20
297.449733
 10
520.583363
 20
297.562376
 10
520.758618
 20
297.685022
 10
520.926427
 20
297.815891
 10
521.08484
 20
297.953203
 10
521.231911
 20
298.095177
 10
521.365692
 20
298.240031
 10
521.484234
 20
298.385987
 10
521.585591
 20
298.531262
 10
521.667815
 20
298.674077
 10
521.728957
 20
298.81265
 10
521.767071
 20
298.945201
 10
521.780208
 20
299.06995
 10
521.772495
 20
299.113724
 10
521.749862
 20
299.167451
 10
521.662888
 20
299.301749
 10
521.525386
 20
299.466804
 10
521.343453
 20
299.656578
 10
521.123188
 20
299.865034
 10
520.870689
 20
300.086133
 10
520.592054
 20
300.313837
 10
520.293382
 20
300.542107
 10
519.80293
 20
300.906966
 10
519.43634
 20
301.195561
 10
519.294641
 20
301.319607
 10
519.178086
 20
301.434602
 10
519.084733
 20
301.543887
 10
519.012641
 20
301.6508
 10
518.95987
 20
301.75868
 10
518.924478
 20
301.870864
 10
518.904526
 20
301.990693
 10
518.89807
 20
302.121505
 10
518.903172
 20
302.266638
 10
518.91789
 20
302.429431
 10
518.968411
 20
302.821354
 10
519.042663
 20
303.323891
 10
519.117271
 20
303.714914
 10
519.157593
 20
303.872895
 10
519.201464
 20
304.008142
 10
519.250038
 20
304.12237
 10
519.304469
 20
304.217294
 10
519.36591
 20
304.294627
 10
519.435514
 20
304.356087
 10
519.514436
 20
304.403386
 10
519.603828
 20
304.43824
 10
519.704844
 20
304.462363
 10
519.818637
 20
304.477471
 10
520.089171
 20
304.4875
 10
520.271988
 20
304.495363
 10
520.457798
 20
304.518265
 10
520.644855
 20
304.55518
 10
520.831408
 20
304.605079
 10
521.01571
 20
304.666936
 10
521.196013
 20
304.739722
 10
521.370569
 20
304.822409
 10
521.537628
 20
304.91397
 10
521.695443
 20
305.013377
 10
521.842266
 20
305.119603
 10
521.976347
 20
305.23162
 10
522.09594
 20
305.3484
 10
522.199295
 20
305.468915
 10
522.284664
 20
305.592138
 10
522.3503
 20
305.717041
 10
522.394453
 20
305.842597
 10
522.421552
 20
305.972811
 10
522.435607
 20
306.105499
 10
522.436828
 20
306.240223
 10
522.425423
 20
306.376544
 10
522.4016
 20
306.514024
 10
522.365568
 20
306.652223
 10
522.317536
 20
306.790702
 10
522.257712
 20
306.929024
 10
522.186306
 20
307.066748
 10
522.103524
 20
307.203437
 10
522.009577
 20
307.338652
 10
521.904672
 20
307.471953
 10
521.789019
 20
307.602902
 10
521.662825
 20
307.73106
 10
521.5263
 20
307.855989
 10
521.379651
 20
307.97725
 10
521.202048
 20
308.125802
 10
521.130196
 20
308.196283
 10
521.069133
 20
308.267211
 10
521.018475
 20
308.340823
 10
520.977839
 20
308.419351
 10
520.946842
 20
308.505031
 10
520.9251
 20
308.600098
 10
520.912231
 20
308.706785
 10
520.90785
 20
308.827326
 10
520.923022
 20
309.118911
 10
520.967549
 20
309.492728
 10
521.038366
 20
309.966652
 10
521.101581
 20
310.342485
 10
521.168803
 20
310.68629
 10
521.240478
 20
310.998715
 10
521.317052
 20
311.280408
 10
521.398971
 20
311.532018
 10
521.486681
 20
311.754195
 10
521.580629
 20
311.947587
 10
521.681261
 20
312.112843
 10
521.789022
 20
312.250611
 10
521.90436
 20
312.361541
 10
522.02772
 20
312.44628
 10
522.159549
 20
312.505479
 10
522.300292
 20
312.539786
 10
522.450395
 20
312.549849
 10
522.610306
 20
312.536317
 10
522.78047
 20
312.499839
 10
523.005507
 20
312.444125
 10
523.224205
 20
312.400868
 10
523.436238
 20
312.369716
 10
523.641281
 20
312.350316
 10
523.839006
 20
312.342313
 10
524.029088
 20
312.345355
 10
524.211201
 20
312.359087
 10
524.385018
 20
312.383157
 10
524.550213
 20
312.417211
 10
524.70646
 20
312.460895
 10
524.853433
 20
312.513856
 10
524.990805
 20
312.575741
 10
525.118251
 20
312.646196
 10
525.235444
 20
312.724867
 10
525.342057
 20
312.811401
 10
525.437766
 20
312.905445
 10
525.522242
 20
313.006646
 10
525.595161
 20
313.114649
 10
525.656196
 20
313.229101
 10
525.705021
 20
313.349649
 10
525.74131
 20
313.475939
 10
525.764736
 20
313.607618
 10
525.774973
 20
313.744332
 10
525.771696
 20
313.885728
 10
525.754577
 20
314.031453
 10
525.723291
 20
314.181153
 10
525.677511
 20
314.334474
 10
525.616912
 20
314.491063
 10
525.541166
 20
314.650567
 10
525.449948
 20
314.812631
 10
525.342932
 20
314.976904
 10
525.219792
 20
315.14303
 10
525.101054
 20
315.302882
 10
524.998366
 20
315.460971
 10
524.91174
 20
315.618537
 10
524.841191
 20
315.77682
 10
524.786733
 20
315.93706
 10
524.748378
 20
316.100495
 10
524.726142
 20
316.268367
 10
524.720037
 20
316.441914
 10
524.730078
 20
316.622377
 10
524.756278
 20
316.810994
 10
524.798651
 20
317.009006
 10
524.857212
 20
317.217652
 10
524.931972
 20
317.438172
 10
525.022947
 20
317.671806
 10
525.130151
 20
317.919793
 10
525.253596
 20
318.183373
 10
525.384317
 20
318.439239
 10
525.517721
 20
318.671735
 10
525.654373
 20
318.881162
 10
525.79484
 20
319.067824
 10
525.939688
 20
319.232023
 10
526.089483
 20
319.374061
 10
526.244792
 20
319.494242
 10
526.40618
 20
319.592866
 10
526.574214
 20
319.670237
 10
526.74946
 20
319.726657
 10
526.932484
 20
319.762429
 10
527.123851
 20
319.777855
 10
527.32413
 20
319.773238
 10
527.533884
 20
319.74888
 10
527.753682
 20
319.705084
 10
527.984088
 20
319.642151
 10
528.235914
 20
319.570889
 10
528.455443
 20
319.523322
 10
528.649326
 20
319.50001
 10
528.824212
 20
319.501512
 10
528.986751
 20
319.528387
 10
529.143592
 20
319.581195
 10
529.301385
 20
319.660494
 10
529.466781
 20
319.766845
 10
529.627039
 20
319.889378
 10
529.752132
 20
320.012158
 10
529.802262
 20
320.0762
 10
529.844526
 20
320.143376
 10
529.879233
 20
320.21471
 10
529.906692
 20
320.291227
 10
529.92721
 20
320.373949
 10
529.941096
 20
320.463902
 10
529.950208
 20
320.669595
 10
529.936496
 20
320.916499
 10
529.902429
 20
321.212806
 10
529.865068
 20
321.432527
 10
529.812309
 20
321.657292
 10
529.746587
 20
321.880768
 10
529.670336
 20
322.096619
 10
529.585991
 20
322.298513
 10
529.495988
 20
322.480114
 10
529.402762
 20
322.63509
 10
529.308747
 20
322.757106
 10
529.218249
 20
322.871681
 10
529.142842
 20
322.998101
 10
529.082429
 20
323.135513
 10
529.036916
 20
323.283068
 10
529.006209
 20
323.439915
 10
528.990212
 20
323.605202
 10
528.98883
 20
323.778079
 10
529.001969
 20
323.957695
 10
529.029533
 20
324.1432
 10
529.071429
 20
324.333742
 10
529.127561
 20
324.528471
 10
529.197834
 20
324.726537
 10
529.282153
 20
324.927087
 10
529.380424
 20
325.129273
 10
529.492552
 20
325.332242
 10
529.618441
 20
325.535144
 10
529.761721
 20
325.740028
 10
529.830805
 20
325.824454
 10
529.900937
 20
325.897715
 10
529.974182
 20
325.960447
 10
530.052603
 20
326.013283
 10
530.138265
 20
326.05686
 10
530.233232
 20
326.091813
 10
530.339568
 20
326.118775
 10
530.459338
 20
326.138382
 10
530.747435
 20
326.15807
 10
531.114037
 20
326.155956
 10
531.575657
 20
326.137119
 10
531.929559
 20
326.125784
 10
532.254281
 20
326.128141
 10
532.54858
 20
326.14401
 10
532.811211
 20
326.17321
 10
533.040929
 20
326.215559
 10
533.236491
 20
326.270878
 10
533.396651
 20
326.338985
 10
533.463067
 20
326.377777
 10
533.520167
 20
326.419699
 10
533.613974
 20
326.513359
 10
533.695602
 20
326.626919
 10
533.765025
 20
326.75795
 10
533.82222
 20
326.904023
 10
533.867161
 20
327.062708
 10
533.899824
 20
327.231575
 10
533.920185
 20
327.408197
 10
533.928218
 20
327.590142
 10
533.9239
 20
327.774984
 10
533.907205
 20
327.960291
 10
533.878109
 20
328.143635
 10
533.836587
 20
328.322586
 10
533.782615
 20
328.494716
 10
533.716169
 20
328.657595
 10
533.637222
 20
328.808793
 10
533.545752
 20
328.945882
 10
533.467719
 20
329.058196
 10
533.39492
 20
329.180651
 10
533.32895
 20
329.309304
 10
533.271402
 20
329.44021
 10
533.223869
 20
329.569426
 10
533.187944
 20
329.693007
 10
533.16522
 20
329.80701
 10
533.157292
 20
329.907489
 10
533.157292
 20
330.355506
 10
537.904621
 20
335.987159
 10
538.989532
 20
337.813334
 10
539.227449
 20
338.225159
 10
539.446967
 20
338.629238
 10
539.648505
 20
339.02706
 10
539.832486
 20
339.420114
 10
539.999329
 20
339.809891
 10
540.149456
 20
340.197882
 10
540.283288
 20
340.585575
 10
540.401245
 20
340.97446
 10
540.503748
 20
341.366029
 10
540.591219
 20
341.761771
 10
540.664078
 20
342.163175
 10
540.722747
 20
342.571733
 10
540.767645
 20
342.988933
 10
540.799194
 20
343.416266
 10
540.817814
 20
343.855223
 10
540.823928
 20
344.307292
 10
540.81833
 20
344.751243
 10
540.801069
 20
345.180676
 10
540.771441
 20
345.598118
 10
540.728744
 20
346.0061
 10
540.672275
 20
346.40715
 10
540.601333
 20
346.803798
 10
540.515213
 20
347.198573
 10
540.413215
 20
347.594004
 10
540.294634
 20
347.99262
 10
540.158769
 20
348.396952
 10
540.004916
 20
348.809527
 10
539.832374
 20
349.232875
 10
539.640439
 20
349.669526
 10
539.42841
 20
350.122008
 10
539.195582
 20
350.592851
 10
538.941255
 20
351.084585
 10
538.698691
 20
351.530004
 10
538.44871
 20
351.960315
 10
538.19105
 20
352.375671
 10
537.925452
 20
352.776226
 10
537.651654
 20
353.162135
 10
537.369396
 20
353.53355
 10
537.078418
 20
353.890627
 10
536.778458
 20
354.233519
 10
536.469257
 20
354.562379
 10
536.150554
 20
354.877363
 10
535.822087
 20
355.178623
 10
535.483598
 20
355.466315
 10
535.134824
 20
355.740591
 10
534.775506
 20
356.001606
 10
534.405382
 20
356.249513
 10
534.024193
 20
356.484467
 10
533.631678
 20
356.706622
 10
533.227575
 20
356.916131
 10
532.811626
 20
357.113149
 10
532.383568
 20
357.297829
 10
531.943142
 20
357.470325
 10
531.490086
 20
357.630792
 10
531.024141
 20
357.779383
 10
530.545045
 20
357.916252
 10
530.052539
 20
358.041554
 10
529.54636
 20
358.155442
 10
529.02625
 20
358.258069
 10
528.491948
 20
358.349591
 10
527.943192
 20
358.43016
 10
527.379722
 20
358.499932
 10
526.801278
 20
358.559059
 10
526.207599
 20
358.607697
 10
525.45101
 20
358.659154
 10
524.854662
 20
358.688845
 10
524.389901
 20
358.693152
 10
524.19791
 20
358.684656
 10
524.028071
 20
358.668456
 10
523.876801
 20
358.644101
 10
523.740518
 20
358.611138
 10
523.615641
 20
358.569114
 10
523.498588
 20
358.517578
 10
523.385777
 20
358.456077
 10
523.273627
 20
358.384159
 10
523.036979
 20
358.207261
 10
522.878568
 20
358.06985
 10
522.736463
 20
357.922646
 10
522.612148
 20
357.768164
 10
522.507107
 20
357.608918
 10
522.422826
 20
357.447423
 10
522.360787
 20
357.286193
 10
522.322475
 20
357.127743
 10
522.309375
 20
356.974587
 10
522.319088
 20
356.824729
 10
522.350489
 20
356.684724
 10
522.406975
 20
356.553077
 10
522.49194
 20
356.428291
 10
522.60878
 20
356.30887
 10
522.760889
 20
356.193318
 10
522.951662
 20
356.08014
 10
523.184496
 20
355.967838
 10
523.462784
 20
355.854918
 10
523.789922
 20
355.739883
 10
524.169306
 20
355.621236
 10
524.60433
 20
355.497483
 10
525.65488
 20
355.228671
 10
526.968733
 20
354.921479
 10
529.85
 20
354.267059
 10
531.172917
 20
353.687031
 10
531.652038
 20
353.465268
 10
532.105653
 20
353.230974
 10
532.534501
 20
352.983338
 10
532.939321
 20
352.72155
 10
533.320852
 20
352.444798
 10
533.679835
 20
352.152272
 10
534.017008
 20
351.843159
 10
534.333111
 20
351.516649
 10
534.628882
 20
351.171931
 10
534.905063
 20
350.808194
 10
535.162391
 20
350.424626
 10
535.401607
 20
350.020417
 10
535.62345
 20
349.594755
 10
535.828658
 20
349.146829
 10
536.017972
 20
348.675828
 10
536.192131
 20
348.180942
 10
536.277233
 20
347.906354
 10
536.351138
 20
347.63361
 10
536.413748
 20
347.362436
 10
536.464964
 20
347.092559
 10
536.504688
 20
346.823706
 10
536.532823
 20
346.555605
 10
536.54927
 20
346.287981
 10
536.55393
 20
346.020564
 10
536.546706
 20
345.753078
 10
536.5275
 20
345.485252
 10
536.496214
 20
345.216812
 10
536.452748
 20
344.947486
 10
536.397006
 20
344.676999
 10
536.328888
 20
344.405081
 10
536.248298
 20
344.131457
 10
536.155136
 20
343.855854
 10
536.049305
 20
343.578
 10
535.930706
 20
343.297621
 10
535.799242
 20
343.014445
 10
535.654813
 20
342.728198
 10
535.497323
 20
342.438608
 10
535.326672
 20
342.145402
 10
535.142763
 20
341.848306
 10
534.945497
 20
341.547048
 10
534.734777
 20
341.241354
 10
534.510504
 20
340.930952
 10
534.272581
 20
340.615569
 10
534.020908
 20
340.294932
 10
533.475922
 20
339.636802
 10
532.874762
 20
338.95438
 10
529.78297
 20
335.373559
 10
529.452869
 20
334.957674
 10
529.186726
 20
334.646914
 10
529.068583
 20
334.52687
 10
528.955563
 20
334.428203
 10
528.844045
 20
334.349279
 10
528.730405
 20
334.288464
 10
528.611021
 20
334.244123
 10
528.482273
 20
334.21462
 10
528.340536
 20
334.198323
 10
528.18219
 20
334.193596
 10
527.801181
 20
334.212314
 10
527.310267
 20
334.257698
 10
526.901345
 20
334.292337
 10
526.555423
 20
334.308439
 10
526.26307
 20
334.304491
 10
526.014854
 20
334.278979
 10
525.801344
 20
334.230388
 10
525.704656
 20
334.196966
 10
525.613107
 20
334.157207
 10
525.440714
 20
334.05792
 10
525.27473
 20
333.931014
 10
525.049052
 20
333.724119
 10
524.957115
 20
333.623868
 10
524.878486
 20
333.52212
 10
524.812694
 20
333.416152
 10
524.759269
 20
333.303243
 10
524.717741
 20
333.18067
 10
524.687639
 20
333.045712
 10
524.668494
 20
332.895648
 10
524.659835
 20
332.727755
 10
524.661191
 20
332.539312
 10
524.672093
 20
332.327597
 10
524.720651
 20
331.823463
 10
524.801748
 20
331.193579
 10
524.860309
 20
330.732636
 10
524.891823
 20
330.35729
 10
524.89574
 20
330.19413
 10
524.890858
 20
330.043266
 10
524.876498
 20
329.901664
 10
524.851981
 20
329.76629
 10
524.816629
 20
329.634109
 10
524.769761
 20
329.502087
 10
524.710701
 20
329.36719
 10
524.638767
 20
329.226383
 10
524.453567
 20
328.914902
 10
524.208728
 20
328.54337
 10
523.7728
 20
327.914332
 10
523.580173
 20
327.652793
 10
523.401383
 20
327.424513
 10
523.234138
 20
327.227945
 10
523.076147
 20
327.061545
 10
522.925119
 20
326.923766
 10
522.778762
 20
326.813063
 10
522.634785
 20
326.727889
 10
522.490898
 20
326.6667
 10
522.344808
 20
326.627948
 10
522.194225
 20
326.610089
 10
522.036857
 20
326.611576
 10
521.870413
 20
326.630863
 10
521.692601
 20
326.666405
 10
521.501131
 20
326.716657
 10
521.062353
 20
326.831844
 10
520.671039
 20
326.910866
 10
520.491402
 20
326.93674
 10
520.321496
 20
326.953483
 10
520.16061
 20
326.961067
 10
520.008032
 20
326.95946
 10
519.863049
 20
326.948633
 10
519.724951
 20
326.928557
 10
519.593026
 20
326.899201
 10
519.466561
 20
326.860536
 10
519.344846
 20
326.812533
 10
519.227168
 20
326.755161
 10
519.112816
 20
326.68839
 10
519.001079
 20
326.612192
 10
518.842175
 20
326.489952
 10
518.779601
 20
326.432852
 10
518.728226
 20
326.375024
 10
518.688006
 20
326.313911
 10
518.658901
 20
326.246959
 10
518.64087
 20
326.17161
 10
518.633871
 20
326.085311
 10
518.637864
 20
325.985504
 10
518.652806
 20
325.869634
 10
518.715373
 20
325.579481
 10
518.970089
 20
324.693962
 10
519.122858
 20
324.178268
 10
519.226927
 20
323.772166
 10
519.259193
 20
323.598951
 10
519.277475
 20
323.439622
 10
519.281172
 20
323.289674
 10
519.269681
 20
323.144604
 10
519.242398
 20
322.999906
 10
519.198722
 20
322.851078
 10
519.138049
 20
322.693614
 10
519.059777
 20
322.52301
 10
518.848025
 20
322.124368
 10
518.558643
 20
321.619118
 10
518.313385
 20
321.205481
 10
518.101136
 20
320.873571
 10
517.915275
 20
320.616875
 10
517.83017
 20
320.514697
 10
517.749178
 20
320.428879
 10
517.671472
 20
320.358609
 10
517.596224
 20
320.303071
 10
517.522607
 20
320.261452
 10
517.449791
 20
320.232937
 10
517.376951
 20
320.216713
 10
517.303257
 20
320.211965
 10
517.227883
 20
320.217878
 10
517.15
 20
320.23364
 10
516.518142
 20
320.383503
 10
516.227867
 20
320.442279
 10
515.95422
 20
320.490283
 10
515.696845
 20
320.527514
 10
515.455386
 20
320.553972
 10
515.229488
 20
320.569655
 10
515.018793
 20
320.574564
 10
514.822947
 20
320.568696
 10
514.641593
 20
320.552052
 10
514.474375
 20
320.52463
 10
514.320937
 20
320.48643
 10
514.180923
 20
320.437451
 10
514.053978
 20
320.377691
 10
513.939745
 20
320.30715
 10
513.837868
 20
320.225828
 10
513.71858
 20
320.112524
 10
513.615859
 20
320.001938
 10
513.529825
 20
319.891815
 10
513.460599
 20
319.779901
 10
513.408301
 20
319.663941
 10
513.373051
 20
319.541681
 10
513.35497
 20
319.410866
 10
513.354179
 20
319.269242
 10
513.370797
 20
319.114554
 10
513.404945
 20
318.944549
 10
513.456743
 20
318.75697
 10
513.526313
 20
318.549565
 10
513.719246
 20
318.066255
 10
513.984708
 20
317.476583
 10
514.203219
 20
317.002481
 10
514.359185
 20
316.634602
 10
514.413678
 20
316.481777
 10
514.452495
 20
316.345042
 10
514.475619
 20
316.220911
 10
514.483039
 20
316.105895
 10
514.474741
 20
315.996506
 10
514.45071
 20
315.889256
 10
514.410933
 20
315.780657
 10
514.355397
 20
315.66722
 10
514.196991
 20
315.41188
 10
513.975382
 20
315.095333
 10
513.413627
 20
314.313858
 10
512.958762
 20
313.712823
 10
512.762513
 20
313.472859
 10
512.582306
 20
313.269471
 10
512.414582
 20
313.099814
 10
512.25578
 20
312.961044
 10
512.102341
 20
312.850317
 10
511.950704
 20
312.764786
 10
511.797309
 20
312.701609
 10
511.638597
 20
312.65794
 10
511.471007
 20
312.630934
 10
511.29098
 20
312.617748
 10
510.879373
 20
312.621453
 10
510.665174
 20
312.625414
 10
510.460508
 20
312.620011
 10
510.265499
 20
312.605507
 10
510.08027
 20
312.582161
 10
509.904944
 20
312.550236
 10
509.739643
 20
312.509994
 10
509.584491
 20
312.461695
 10
509.439612
 20
312.405602
 10
509.305127
 20
312.341975
 10
509.18116
 20
312.271077
 10
509.067835
 20
312.193168
 10
508.965273
 20
312.108511
 10
508.873599
 20
312.017367
 10
508.792935
 20
311.919997
 10
508.723404
 20
311.816662
 10
508.665129
 20
311.707625
 10
508.618234
 20
311.593147
 10
508.582841
 20
311.473489
 10
508.559073
 20
311.348913
 10
508.547054
 20
311.21968
 10
508.546907
 20
311.086051
 10
508.558754
 20
310.94829
 10
508.582718
 20
310.806656
 10
508.618923
 20
310.661411
 10
508.667492
 20
310.512817
 10
508.728548
 20
310.361135
 10
508.802213
 20
310.206627
 10
508.888611
 20
310.049555
 10
508.987865
 20
309.890179
 10
509.100098
 20
309.728761
 10
509.225432
 20
309.565563
 10
509.363992
 20
309.400847
 10
509.631202
 20
309.091891
 10
509.737091
 20
308.960318
 10
509.824963
 20
308.83887
 10
509.895164
 20
308.723688
 10
509.94804
 20
308.610913
 10
509.983935
 20
308.496688
 10
510.003196
 20
308.377153
 10
510.006169
 20
308.24845
 10
509.993198
 20
308.10672
 10
509.96463
 20
307.948105
 10
509.920811
 20
307.768745
 10
509.788797
 20
307.33236
 10
509.599924
 20
306.766694
 10
509.406806
 20
306.20248
 10
509.245079
 20
305.776254
 10
509.168892
 20
305.607961
 10
509.092039
 20
305.465855
 10
509.011681
 20
305.347166
 10
508.924981
 20
305.249122
 10
508.829101
 20
305.168956
 10
508.721203
 20
305.103895
 10
508.598448
 20
305.051171
 10
508.457998
 20
305.008012
 10
508.297016
 20
304.97165
 10
508.112663
 20
304.939313
 10
507.662494
 20
304.875637
 10
507.102405
 20
304.789046
 10
506.863869
 20
304.741669
 10
506.651245
 20
304.6903
 10
506.463215
 20
304.633987
 10
506.298458
 20
304.571776
 10
506.155655
 20
304.502714
 10
506.033487
 20
304.425849
 10
505.930633
 20
304.340228
 10
505.845775
 20
304.244898
 10
505.777592
 20
304.138906
 10
505.724765
 20
304.0213
 10
505.685974
 20
303.891125
 10
505.6599
 20
303.747431
 10
505.645224
 20
303.589263
 10
505.640625
 20
303.415669
 10
505.645798
 20
303.275041
 10
505.661336
 20
303.137944
 10
505.68727
 20
303.004336
 10
505.72363
 20
302.874176
 10
505.770446
 20
302.747422
 10
505.827749
 20
302.624033
 10
505.895568
 20
302.503966
 10
505.973934
 20
302.387181
 10
506.062877
 20
302.273636
 10
506.162428
 20
302.163289
 10
506.272615
 20
302.056099
 10
506.393471
 20
301.952024
 10
506.525024
 20
301.851022
 10
506.667305
 20
301.753052
 10
506.820345
 20
301.658073
 10
506.984173
 20
301.566042
 10
507.104592
 20
301.490053
 10
507.207692
 20
301.399517
 10
507.293417
 20
301.293363
 10
507.361713
 20
301.17052
 10
507.412524
 20
301.02992
 10
507.445797
 20
300.87049
 10
507.461477
 20
300.691163
 10
507.459508
 20
300.490866
 10
507.439835
 20
300.268531
 10
507.402405
 20
300.023087
 10
507.347162
 20
299.753464
 10
507.274051
 20
299.458592
 10
507.183018
 20
299.1374
 10
507.074008
 20
298.788819
 10
506.801836
 20
298.005208
 10
506.609153
 20
297.449228
 10
506.452105
 20
296.919512
 10
506.385437
 20
296.654213
 10
506.32587
 20
296.383134
 10
506.272801
 20
296.102158
 10
506.225626
 20
295.80717
 10
506.146552
 20
295.158695
 10
506.083825
 20
294.404785
 10
506.032623
 20
293.512514
 10
505.988126
 20
292.448958
 10
505.965088
 20
291.562299
 10
505.961942
 20
290.68707
 10
505.978929
 20
289.82174
 10
506.01629
 20
288.964775
 10
506.074267
 20
288.114643
 10
506.153101
 20
287.269813
 10
506.253033
 20
286.428751
 10
506.374305
 20
285.589926
 10
506.517158
 20
284.751804
 10
506.681834
 20
283.912854
 10
506.868573
 20
283.071542
 10
507.077618
 20
282.226338
 10
507.309209
 20
281.375707
 10
507.563588
 20
280.518118
 10
507.840996
 20
279.652039
 10
508.141675
 20
278.775937
 10
509.717737
 20
274.357881
 10
509.990759
 20
273.589006
 10
510.087538
 20
273.277702
 10
510.152232
 20
273.010215
 10
510.171234
 20
272.891745
 10
510.18064
 20
272.782839
 10
510.179925
 20
272.683035
 10
510.168564
 20
272.59187
 10
510.146033
 20
272.50888
 10
510.111805
 20
272.433602
 10
510.065358
 20
272.365574
 10
510.006164
 20
272.304332
 10
509.933701
 20
272.249413
 10
509.847442
 20
272.200354
 10
509.746863
 20
272.156691
 10
509.63144
 20
272.117963
 10
509.353958
 20
272.053454
 10
509.010798
 20
272.003124
 10
508.597761
 20
271.963266
 10
508.110648
 20
271.930176
 10
506.897396
 20
271.869482
 10
503.65625
 20
271.718227
 10
502.436521
 20
271.338864
 10
502.1808
 20
271.252452
 10
501.921541
 20
271.152107
 10
501.6659
 20
271.041436
 10
501.42103
 20
270.924046
 10
501.194084
 20
270.803544
 10
500.992218
 20
270.683537
 10
500.822585
 20
270.567633
 10
500.692338
 20
270.459438
 10
500.392073
 20
270.186457
 10
499.962214
 20
269.812855
 10
499.460153
 20
269.387814
 10
498.94328
 20
268.960519
 10
498.734227
 20
268.78117
 10
498.523642
 20
268.583147
 10
498.311829
 20
268.367063
 10
498.099092
 20
268.13353
 10
497.885735
 20
267.883159
 10
497.672062
 20
267.616563
 10
497.458376
 20
267.334353
 10
497.244983
 20
267.037142
 10
497.032185
 20
266.725542
 10
496.820286
 20
266.400164
 10
496.609591
 20
266.06162
 10
496.400403
 20
265.710523
 10
495.987764
 20
264.973116
 10
495.584802
 20
264.192839
 10
495.193947
 20
263.374587
 10
494.81763
 20
262.523257
 10
494.458283
 20
261.643744
 10
494.118337
 20
260.740944
 10
493.800223
 20
259.819753
 10
493.506373
 20
258.885066
 10
493.239218
 20
257.941781
 10
493.001188
 20
256.994792
 10
492.840925
 20
256.252291
 10
492.701105
 20
255.478304
 10
492.581761
 20
254.67744
 10
492.482926
 20
253.854309
 10
492.404632
 20
253.013519
 10
492.346913
 20
252.159682
 10
492.3098
 20
251.297407
 10
492.293327
 20
250.431303
 10
492.297526
 20
249.56598
 10
492.32243
 20
248.706047
 10
492.368071
 20
247.856116
 10
492.434482
 20
247.020795
 10
492.521697
 20
246.204693
 10
492.629747
 20
245.412421
 10
492.758665
 20
244.648589
 10
492.908484
 20
243.917806
 10
493.085084
 20
243.171352
 10
493.280345
 20
242.419516
 10
493.494229
 20
241.662368
 10
493.726695
 20
240.89998
 10
493.977703
 20
240.132422
 10
494.247214
 20
239.359766
 10
494.535187
 20
238.582082
 10
494.841584
 20
237.799441
 10
495.166363
 20
237.011915
 10
495.509486
 20
236.219573
 10
495.870912
 20
235.422488
 10
496.250601
 20
234.62073
 10
496.648515
 20
233.81437
 10
497.064612
 20
233.003479
 10
497.498853
 20
232.188128
 10
497.951199
 20
231.368387
 10
498.421609
 20
230.544329
 10
498.910043
 20
229.716023
 10
499.416463
 20
228.883541
 10
499.940827
 20
228.046954
 10
500.483097
 20
227.206332
 10
501.043231
 20
226.361747
 10
501.621192
 20
225.513269
 10
502.216937
 20
224.66097
 10
502.830429
 20
223.80492
 10
503.461627
 20
222.94519
 10
504.110491
 20
222.081852
 10
504.776981
 20
221.214976
 10
505.461058
 20
220.344633
 10
506.162681
 20
219.470894
 10
506.881811
 20
218.593831
 10
507.618408
 20
217.713513
 10
508.334598
 20
216.879744
 10
509.055631
 20
216.07502
 10
509.84167
 20
215.239264
 10
510.752878
 20
214.312397
 10
511.849417
 20
213.234343
 10
513.191448
 20
211.945024
 10
514.839135
 20
210.384362
 10
516.852639
 20
208.49228
 10
517.533897
 20
207.850195
 10
518.043596
 20
207.34828
 10
518.240998
 20
207.136976
 10
518.403775
 20
206.945221
 10
518.53468
 20
206.76785
 10
518.636469
 20
206.599701
 10
518.711896
 20
206.435608
 10
518.763717
 20
206.270406
 10
518.794685
 20
206.098932
 10
518.807555
 20
205.916021
 10
518.805083
 20
205.716509
 10
518.790022
 20
205.49523
 10
518.733154
 20
204.966719
 10
518.674464
 20
204.44009
 10
518.644177
 20
204.032472
 10
518.643156
 20
203.863909
 10
518.6534
 20
203.713841
 10
518.676298
 20
203.578513
 10
518.713238
 20
203.454173
 10
518.765609
 20
203.337068
 10
518.834798
 20
203.223445
 10
518.922194
 20
203.10955
 10
519.029186
 20
202.99163
 10
519.307507
 20
202.728706
 10
519.680867
 20
202.404648
 10
520.220446
 20
201.929949
 10
520.852623
 20
201.35625
 10
521.49868
 20
200.755855
 10
522.079899
 20
200.201069
 10
522.595957
 20
199.714949
 10
523.064597
 20
199.301514
 10
523.434197
 20
199.004516
 10
523.565725
 20
198.913352
 10
523.653135
 20
198.867705
 10
523.68629
 20
198.847506
 10
523.719547
 20
198.809479
 10
523.752727
 20
198.754432
 10
523.785653
 20
198.683173
 10
523.850028
 20
198.495253
 10
523.911247
 20
198.252186
 10
523.967884
 20
197.960439
 10
524.018516
 20
197.626478
 10
524.061716
 20
197.25677
 10
524.09606
 20
196.857782
 10
524.122815
 20
196.42578
 10
524.136083
 20
196.050305
 10
524.134176
 20
195.731175
 10
524.115405
 20
195.468207
 10
524.078081
 20
195.261218
 10
524.051935
 20
195.178658
 10
524.020517
 20
195.110025
 10
523.983618
 20
195.055296
 10
523.941025
 20
195.014447
 10
523.892528
 20
194.987456
 10
523.837915
 20
194.9743
 10
523.776977
 20
194.974956
 10
523.709501
 20
194.989401
 10
523.635277
 20
195.017613
 10
523.554093
 20
195.059569
 10
523.370003
 20
195.18462
 10
523.155543
 20
195.364372
 10
522.909025
 20
195.598642
 10
522.62876
 20
195.887248
 10
522.313061
 20
196.230007
 10
521.960238
 20
196.626736
 10
521.56809
 20
197.060264
 10
521.185957
 20
197.453265
 10
520.807991
 20
197.808132
 10
520.42834
 20
198.127254
 10
520.236056
 20
198.274158
 10
520.041157
 20
198.413023
 10
519.842912
 20
198.544147
 10
519.64059
 20
198.667829
 10
519.433461
 20
198.784369
 10
519.220792
 20
198.894065
 10
519.001852
 20
198.997215
 10
518.775911
 20
199.094119
 10
518.542237
 20
199.185076
 10
518.300099
 20
199.270385
 10
518.048766
 20
199.350343
 10
517.787506
 20
199.425251
 10
517.232283
 20
199.56111
 10
516.628579
 20
199.680352
 10
515.970545
 20
199.785368
 10
515.252332
 20
199.878549
 10
514.468091
 20
199.962286
 10
513.611971
 20
200.03897
 10
512.829653
 20
200.097284
 10
512.068774
 20
200.140941
 10
511.328605
 20
200.169881
 10
510.608417
 20
200.184043
 10
509.907481
 20
200.183366
 10
509.225069
 20
200.167791
 10
508.560451
 20
200.137256
 10
507.912898
 20
200.091701
 10
507.281683
 20
200.031066
 10
506.666075
 20
199.95529
 10
506.065346
 20
199.864312
 10
505.478767
 20
199.758072
 10
504.905609
 20
199.63651
 10
504.345144
 20
199.499564
 10
503.796642
 20
199.347175
 10
503.259375
 20
199.179282
 10
502.429022
 20
198.894547
 10
502.07858
 20
198.764215
 10
501.768269
 20
198.639601
 10
501.495821
 20
198.518974
 10
501.258967
 20
198.400606
 10
501.055437
 20
198.282767
 10
500.882964
 20
198.163728
 10
500.739278
 20
198.04176
 10
500.622112
 20
197.915132
 10
500.529195
 20
197.782115
 10
500.45826
 20
197.640981
 10
500.407037
 20
197.489999
 10
500.373259
 20
197.327439
 10
500.354655
 20
197.151574
 10
500.348958
 20
196.960672
 10
500.355516
 20
196.718785
 10
500.376878
 20
196.501483
 10
500.41558
 20
196.307528
 10
500.474154
 20
196.135681
 10
500.511687
 20
196.05766
 10
500.555137
 20
195.984702
 10
500.604824
 20
195.916651
 10
500.661063
 20
195.853353
 10
500.724171
 20
195.794652
 10
500.794465
 20
195.740394
 10
500.872261
 20
195.690424
 10
500.957878
 20
195.644586
 10
501.153836
 20
195.564691
 10
501.384875
 20
195.499468
 10
501.653528
 20
195.44768
 10
501.96233
 20
195.408086
 10
502.313815
 20
195.379447
 10
502.710518
 20
195.360525
 10
503.154973
 20
195.350081
 10
503.649714
 20
195.346875
 10
504.395167
 20
195.342779
 10
504.992743
 20
195.326165
 10
505.245726
 20
195.311135
 10
505.473319
 20
195.29054
 10
505.679382
 20
195.26357
 10
505.867774
 20
195.229413
 10
506.042354
 20
195.187257
 10
506.206983
 20
195.136291
 10
506.36552
 20
195.075704
 10
506.521824
 20
195.004683
 10
506.679756
 20
194.922418
 10
506.843175
 20
194.828098
 10
507.201912
 20
194.600042
 10
507.388461
 20
194.470301
 10
507.566604
 20
194.3331
 10
507.736272
 20
194.188747
 10
507.897394
 20
194.03755
 10
508.049898
 20
193.879816
 10
508.193715
 20
193.715854
 10
508.328773
 20
193.545972
 10
508.455003
 20
193.370477
 10
508.572333
 20
193.189677
 10
508.680693
 20
193.00388
 10
508.780012
 20
192.813395
 10
508.87022
 20
192.618528
 10
508.951246
 20
192.419589
 10
509.02302
 20
192.216884
 10
509.08547
 20
192.010722
 10
509.138527
 20
191.80141
 10
509.182119
 20
191.589257
 10
509.216177
 20
191.374571
 10
509.240629
 20
191.157658
 10
509.255404
 20
190.938828
 10
509.260433
 20
190.718388
 10
509.255645
 20
190.496646
 10
509.240969
 20
190.27391
 10
509.216334
 20
190.050488
 10
509.18167
 20
189.826687
 10
509.136906
 20
189.602816
 10
509.081971
 20
189.379182
 10
509.016796
 20
189.156094
 10
508.941309
 20
188.933859
 10
508.85544
 20
188.712785
 10
508.759118
 20
188.49318
 10
508.652273
 20
188.275352
 10
508.545835
 20
188.097324
 10
508.413726
 20
187.92325
 10
508.258041
 20
187.754168
 10
508.080873
 20
187.591118
 10
507.884318
 20
187.43514
 10
507.670468
 20
187.287272
 10
507.441418
 20
187.148555
 10
507.199263
 20
187.020026
 10
506.946096
 20
186.902727
 10
506.684011
 20
186.797695
 10
506.415103
 20
186.70597
 10
506.141466
 20
186.628593
 10
505.865194
 20
186.566601
 10
505.588381
 20
186.521034
 10
505.31312
 20
186.492932
 10
505.041507
 20
186.483333
 10
504.840072
 20
186.487667
 10
504.641915
 20
186.50068
 10
504.447015
 20
186.522393
 10
504.255352
 20
186.552824
 10
504.066903
 20
186.591995
 10
503.881648
 20
186.639924
 10
503.699566
 20
186.69663
 10
503.520634
 20
186.762135
 10
503.344832
 20
186.836456
 10
503.172139
 20
186.919615
 10
503.002533
 20
187.01163
 10
502.835992
 20
187.112521
 10
502.672496
 20
187.222307
 10
502.512024
 20
187.341009
 10
502.354554
 20
187.468646
 10
502.200064
 20
187.605238
 10
502.048534
 20
187.750804
 10
501.899941
 20
187.905363
 10
501.754266
 20
188.068937
 10
501.611487
 20
188.241543
 10
501.471581
 20
188.423202
 10
501.334529
 20
188.613933
 10
501.068898
 20
189.022692
 10
500.814424
 20
189.467975
 10
500.570936
 20
189.94994
 10
500.338265
 20
190.468745
 10
500.116239
 20
191.024545
 10
500.02394
 20
191.256184
 10
499.977719
 20
191.347961
 10
499.926423
 20
191.424103
 10
499.866285
 20
191.484902
 10
499.793534
 20
191.530652
 10
499.704402
 20
191.561648
 10
499.595119
 20
191.578182
 10
499.461916
 20
191.58055
 10
499.301024
 20
191.569044
 10
499.108673
 20
191.543959
 10
498.881095
 20
191.505588
 10
498.305179
 20
191.390164
 10
497.543123
 20
191.225123
 10
495.235981
 20
190.720948
 10
494.749761
 20
190.280925
 10
494.63106
 20
190.168601
 10
494.530128
 20
190.061183
 10
494.447305
 20
189.956922
 10
494.382928
 20
189.854063
 10
494.337335
 20
189.750857
 10
494.310864
 20
189.645551
 10
494.303853
 20
189.536392
 10
494.316641
 20
189.42163
 10
494.349565
 20
189.299512
 10
494.402964
 20
189.168287
 10
494.477175
 20
189.026203
 10
494.572537
 20
188.871507
 10
494.689388
 20
188.702449
 10
494.828065
 20
188.517275
 10
495.172253
 20
188.091577
 10
495.430327
 20
187.773524
 10
495.632306
 20
187.499725
 10
495.782931
 20
187.257647
 10
495.840468
 20
187.144587
 10
495.886946
 20
187.034757
 10
495.922956
 20
186.926591
 10
495.949092
 20
186.818521
 10
495.965947
 20
186.708982
 10
495.974113
 20
186.596407
 10
495.966751
 20
186.35588
 10
495.931747
 20
186.084408
 10
495.904219
 20
185.876616
 10
495.891239
 20
185.682188
 10
495.892803
 20
185.50113
 10
495.908907
 20
185.333448
 10
495.939546
 20
185.179148
 10
495.984716
 20
185.038234
 10
496.044413
 20
184.910714
 10
496.118632
 20
184.796593
 10
496.207369
 20
184.695876
 10
496.31062
 20
184.608569
 10
496.428379
 20
184.534678
 10
496.560644
 20
184.47421
 10
496.707409
 20
184.427168
 10
496.86867
 20
184.39356
 10
497.044423
 20
184.373391
 10
497.234663
 20
184.366667
 10
497.45254
 20
184.362326
 10
497.623241
 20
184.347651
 10
497.749997
 20
184.32016
 10
497.797904
 20
184.300833
 10
497.836036
 20
184.277372
 10
497.864797
 20
184.249467
 10
497.884591
 20
184.216808
 10
497.895822
 20
184.179084
 10
497.898892
 20
184.135986
 10
497.882169
 20
184.032425
 10
497.837654
 20
183.903646
 10
497.754319
 20
183.647632
 10
497.66541
 20
183.292844
 10
497.581565
 20
182.886175
 10
497.513424
 20
182.474519
 10
497.487216
 20
182.232057
 10
497.481237
 20
182.013383
 10
497.495785
 20
181.818345
 10
497.531154
 20
181.646792
 10
497.587642
 20
181.498573
 10
497.623898
 20
181.433166
 10
497.665544
 20
181.373535
 10
497.712619
 20
181.319663
 10
497.765158
 20
181.271529
 10
497.823199
 20
181.229115
 10
497.88678
 20
181.192403
 10
498.030705
 20
181.136005
 10
498.19723
 20
181.102185
 10
498.386652
 20
181.09079
 10
498.599267
 20
181.101671
 10
498.835371
 20
181.134675
 10
499.09526
 20
181.189652
 10
499.379231
 20
181.266449
 10
499.687581
 20
181.364917
 10
499.949166
 20
181.450636
 10
500.18333
 20
181.519088
 10
500.391539
 20
181.569126
 10
500.575258
 20
181.599603
 10
500.735953
 20
181.609371
 10
500.87509
 20
181.597283
 10
500.994134
 20
181.562192
 10
501.04658
 20
181.535661
 10
501.094552
 20
181.502949
 10
501.17781
 20
181.418408
 10
501.245372
 20
181.307421
 10
501.298706
 20
181.16884
 10
501.339276
 20
181.001519
 10
501.368549
 20
180.804309
 10
501.38799
 20
180.576064
 10
501.40324
 20
180.021875
 10
501.411387
 20
179.773739
 10
501.433676
 20
179.541786
 10
501.469885
 20
179.326263
 10
501.519789
 20
179.127421
 10
501.583163
 20
178.945507
 10
501.659785
 20
178.780771
 10
501.749429
 20
178.63346
 10
501.851871
 20
178.503825
 10
501.966888
 20
178.392113
 10
502.094256
 20
178.298573
 10
502.233749
 20
178.223453
 10
502.385145
 20
178.167004
 10
502.548219
 20
178.129473
 10
502.722747
 20
178.111109
 10
502.908505
 20
178.112161
 10
503.105268
 20
178.132877
  0
LWPOLYLINE
  5
31
330
1F
100
AcDbEntity
  8
0
100
AcDbPolyline
 90
      406
 70
   128
 43
0.0
 10
472.694984
 20
180.275161
 10
473.292648
 20
180.332245
 10
473.94812
 20
180.417123
 10
474.649072
 20
180.526619
 10
475.383176
 20
180.65756
 10
476.138105
 20
180.806771
 10
476.901532
 20
180.971079
 10
477.661129
 20
181.147308
 10
478.404569
 20
181.332285
 10
479.119524
 20
181.522836
 10
479.793668
 20
181.715786
 10
480.414672
 20
181.907961
 10
480.97021
 20
182.096187
 10
481.447953
 20
182.277289
 10
481.835575
 20
182.448094
 10
481.991739
 20
182.528643
 10
482.120749
 20
182.605427
 10
482.221065
 20
182.67805
 10
482.291146
 20
182.746114
 10
482.376456
 20
182.860151
 10
482.448099
 20
182.98303
 10
482.505693
 20
183.11875
 10
482.548856
 20
183.27131
 10
482.577208
 20
183.444709
 10
482.590367
 20
183.642947
 10
482.587951
 20
183.870022
 10
482.56958
 20
184.129934
 10
482.534872
 20
184.426682
 10
482.483445
 20
184.764266
 10
482.414919
 20
185.146683
 10
482.328912
 20
185.577933
 10
482.10293
 20
186.602931
 10
481.802447
 20
187.871252
 10
480.98302
 20
191.259391
 10
480.607023
 20
191.635388
 10
480.488156
 20
191.741979
 10
480.428841
 20
191.783824
 10
480.367721
 20
191.81803
 10
480.303382
 20
191.844595
 10
480.234412
 20
191.863514
 10
480.159397
 20
191.874785
 10
480.076924
 20
191.878404
 10
479.88395
 20
191.862671
 10
479.644185
 20
191.81629
 10
479.346322
 20
191.739233
 10
478.979055
 20
191.631473
 10
478.705169
 20
191.555098
 10
478.406372
 20
191.483734
 10
478.092299
 20
191.418951
 10
477.772586
 20
191.362319
 10
477.456865
 20
191.315407
 10
477.154773
 20
191.279787
 10
476.875944
 20
191.257027
 10
476.630013
 20
191.248697
 10
476.310026
 20
191.255676
 10
476.03693
 20
191.282314
 10
475.914218
 20
191.304828
 10
475.79873
 20
191.334445
 10
475.688967
 20
191.371893
 10
475.58343
 20
191.417901
 10
475.480617
 20
191.473199
 10
475.379031
 20
191.538516
 10
475.277172
 20
191.614581
 10
475.17354
 20
191.702123
 10
474.954959
 20
191.914554
 10
474.711292
 20
192.181642
 10
474.531759
 20
192.395157
 10
474.35133
 20
192.627129
 10
474.171289
 20
192.875128
 10
473.992923
 20
193.136724
 10
473.817518
 20
193.409488
 10
473.646359
 20
193.690989
 10
473.480733
 20
193.978798
 10
473.321926
 20
194.270485
 10
473.171222
 20
194.563621
 10
473.029909
 20
194.855775
 10
472.899272
 20
195.144518
 10
472.780598
 20
195.42742
 10
472.675171
 20
195.702051
 10
472.584279
 20
195.965982
 10
472.509206
 20
196.216782
 10
472.45124
 20
196.452022
 10
472.406035
 20
196.70299
 10
472.394248
 20
196.816487
 10
472.390507
 20
196.924079
 10
472.395438
 20
197.02733
 10
472.409668
 20
197.127804
 10
472.433825
 20
197.227065
 10
472.468534
 20
197.326677
 10
472.514423
 20
197.428205
 10
472.572119
 20
197.533212
 10
472.725436
 20
197.759924
 10
472.9335
 20
198.019324
 10
473.201326
 20
198.323927
 10
473.414752
 20
198.565932
 10
473.607868
 20
198.797976
 10
473.781579
 20
199.02253
 10
473.936784
 20
199.242063
 10
474.074388
 20
199.459045
 10
474.195293
 20
199.675948
 10
474.3004
 20
199.895242
 10
474.390612
 20
200.119396
 10
474.466832
 20
200.350881
 10
474.529961
 20
200.592168
 10
474.580903
 20
200.845726
 10
474.620559
 20
201.114027
 10
474.649832
 20
201.399539
 10
474.669624
 20
201.704735
 10
474.680838
 20
202.032084
 10
474.684375
 20
202.384056
 10
474.673005
 20
202.870339
 10
474.637792
 20
203.3282
 10
474.57708
 20
203.760015
 10
474.536645
 20
203.966899
 10
474.489214
 20
204.168163
 10
474.434581
 20
204.364103
 10
474.372539
 20
204.555018
 10
474.302881
 20
204.741204
 10
474.2254
 20
204.922959
 10
474.139889
 20
205.100579
 10
474.046141
 20
205.274362
 10
473.943949
 20
205.444605
 10
473.833107
 20
205.611605
 10
473.713407
 20
205.775659
 10
473.584643
 20
205.937063
 10
473.446608
 20
206.096117
 10
473.299094
 20
206.253115
 10
473.141895
 20
206.408356
 10
472.974804
 20
206.562136
 10
472.610119
 20
206.866504
 10
472.203382
 20
207.168596
 10
471.752939
 20
207.470788
 10
471.257134
 20
207.775458
 10
470.714313
 20
208.084982
 10
470.26243
 20
208.338279
 10
470.080037
 20
208.448396
 10
469.924222
 20
208.552844
 10
469.793143
 20
208.655636
 10
469.684957
 20
208.760787
 10
469.597824
 20
208.872309
 10
469.529902
 20
208.994217
 10
469.479349
 20
209.130523
 10
469.444324
 20
209.285243
 10
469.422985
 20
209.46239
 10
469.41349
 20
209.665976
 10
469.422669
 20
210.168525
 10
469.457127
 20
210.825
 10
469.484702
 20
211.205844
 10
469.523544
 20
211.575665
 10
469.573516
 20
211.934096
 10
469.634478
 20
212.280773
 10
469.706295
 20
212.61533
 10
469.788829
 20
212.9374
 10
469.881942
 20
213.246618
 10
469.985496
 20
213.542618
 10
470.099355
 20
213.825034
 10
470.22338
 20
214.093501
 10
470.357435
 20
214.347652
 10
470.501381
 20
214.587123
 10
470.655081
 20
214.811547
 10
470.818398
 20
215.020558
 10
470.991195
 20
215.213791
 10
471.173333
 20
215.39088
 10
471.239615
 20
215.444097
 10
471.320027
 20
215.496883
 10
471.520923
 20
215.600492
 10
471.771383
 20
215.70036
 10
472.066771
 20
215.795142
 10
472.402448
 20
215.883491
 10
472.773777
 20
215.964062
 10
473.176119
 20
216.035509
 10
473.604837
 20
216.096486
 10
474.36201
 20
216.20262
 10
475.00615
 20
216.313616
 10
475.264527
 20
216.366825
 10
475.46908
 20
216.416314
 10
475.611285
 20
216.460438
 10
475.682622
 20
216.497553
 10
475.696698
 20
216.520371
 10
475.705957
 20
216.555282
 10
475.710588
 20
216.658487
 10
475.69764
 20
216.80138
 10
475.668236
 20
216.978175
 10
475.6235
 20
217.183083
 10
475.564557
 20
217.410317
 10
475.492531
 20
217.65409
 10
475.408546
 20
217.908613
 10
475.309527
 20
218.220356
 10
475.194411
 20
218.62812
 10
474.932474
 20
219.662568
 10
474.655897
 20
220.87367
 10
474.397846
 20
222.123135
 10
473.82152
 20
225.086895
 10
473.355162
 20
225.587472
 10
473.198628
 20
225.743664
 10
473.122054
 20
225.805731
 10
473.041981
 20
225.857328
 10
472.954942
 20
225.898619
 10
472.857466
 20
225.929765
 10
472.746084
 20
225.950929
 10
472.617327
 20
225.962273
 10
472.467725
 20
225.96396
 10
472.29381
 20
225.956152
 10
471.85916
 20
225.912701
 10
471.285623
 20
225.833219
 10
470.545443
 20
225.719006
 10
469.411865
 20
225.525389
 10
468.057677
 20
225.271025
 10
466.652793
 20
224.988947
 10
465.367127
 20
224.712194
 10
462.53217
 20
224.074425
 10
461.505618
 20
223.550717
 10
461.260699
 20
223.41656
 10
461.017935
 20
223.265592
 10
460.77854
 20
223.099192
 10
460.543723
 20
222.918738
 10
460.314697
 20
222.725608
 10
460.092673
 20
222.521181
 10
459.878863
 20
222.306835
 10
459.674478
 20
222.083948
 10
459.48073
 20
221.853899
 10
459.298831
 20
221.618066
 10
459.129991
 20
221.377828
 10
458.975424
 20
221.134562
 10
458.836339
 20
220.889648
 10
458.713949
 20
220.644463
 10
458.609466
 20
220.400386
 10
458.524101
 20
220.158795
 10
458.20996
 20
219.159375
 10
457.961078
 20
210.552497
 10
456.545284
 20
209.612746
 10
456.186405
 20
209.362884
 10
455.820064
 20
209.085862
 10
455.450095
 20
208.785873
 10
455.080331
 20
208.467105
 10
454.714604
 20
208.133752
 10
454.356749
 20
207.790003
 10
454.010598
 20
207.44005
 10
453.679984
 20
207.088083
 10
453.368742
 20
206.738294
 10
453.080703
 20
206.394873
 10
452.819702
 20
206.062011
 10
452.589571
 20
205.743899
 10
452.394143
 20
205.444729
 10
452.237253
 20
205.168691
 10
452.122733
 20
204.919976
 10
452.082559
 20
204.807174
 10
452.054415
 20
204.702774
 10
452.011633
 20
204.47
 10
451.99138
 20
204.259592
 10
451.994907
 20
204.070905
 10
452.023468
 20
203.903294
 10
452.047527
 20
203.827191
 10
452.078313
 20
203.756114
 10
452.115984
 20
203.689984
 10
452.160696
 20
203.62872
 10
452.212604
 20
203.572241
 10
452.271867
 20
203.520467
 10
452.338639
 20
203.473316
 10
452.413078
 20
203.430709
 10
452.585583
 20
203.358802
 10
452.790632
 20
203.304099
 10
453.029478
 20
203.265957
 10
453.303373
 20
203.243729
 10
453.613569
 20
203.236771
 10
453.961317
 20
203.244437
 10
454.34787
 20
203.266083
 10
454.774479
 20
203.301062
 10
455.327271
 20
203.349013
 10
455.765355
 20
203.377957
 10
456.101369
 20
203.386344
 10
456.347951
 20
203.372622
 10
456.441655
 20
203.356986
 10
456.517739
 20
203.335241
 10
456.577784
 20
203.307194
 10
456.623369
 20
203.27265
 10
456.656075
 20
203.231415
 10
456.67748
 20
203.183297
 10
456.689164
 20
203.1281
 10
456.692708
 20
203.065631
 10
456.705242
 20
202.968055
 10
456.741164
 20
202.848858
 10
456.797956
 20
202.712661
 10
456.873098
 20
202.564089
 10
456.964072
 20
202.407764
 10
457.06836
 20
202.248308
 10
457.183442
 20
202.090346
 10
457.3068
 20
201.9385
 10
457.470357
 20
201.743545
 10
457.586332
 20
201.620282
 10
457.725726
 20
201.494732
 10
457.889003
 20
201.378074
 10
457.979743
 20
201.326573
 10
458.166776
 20
201.239533
 42
0.161136
 10
458.353978
 20
201.217713
 10
467.543998
 20
203.114007
 10
467.948169
 20
201.155271
 10
458.855274
 20
199.279018
 42
0.163267
 10
458.690349
 20
199.183012
 10
458.376154
 20
198.824744
 10
458.276963
 20
198.674825
 10
458.179269
 20
198.493237
 10
458.085802
 20
198.28653
 10
457.999289
 20
198.061253
 10
457.92246
 20
197.823956
 10
457.858044
 20
197.58119
 10
457.808769
 20
197.339504
 10
457.74064
 20
196.95758
 10
457.707332
 20
196.801785
 10
457.671341
 20
196.666629
 10
457.630275
 20
196.550011
 10
457.581742
 20
196.449826
 10
457.523352
 20
196.363972
 10
457.452712
 20
196.290345
 10
457.367432
 20
196.226843
 10
457.26512
 20
196.171362
 10
457.143384
 20
196.121798
 10
456.999834
 20
196.07605
 10
456.637723
 20
195.987584
 10
456.159657
 20
195.889138
 10
455.550405
 20
195.759717
 10
455.067704
 20
195.637986
 10
454.869445
 20
195.577313
 10
454.697586
 20
195.515335
 10
454.550381
 20
195.450976
 10
454.426083
 20
195.383158
 10
454.322948
 20
195.310807
 10
454.239228
 20
195.232845
 10
454.173179
 20
195.148198
 10
454.123054
 20
195.055789
 10
454.087107
 20
194.954542
 10
454.063592
 20
194.84338
 10
454.050763
 20
194.721229
 10
454.046875
 20
194.587011
 10
454.058828
 20
194.456389
 10
454.093896
 20
194.317582
 10
454.150897
 20
194.171819
 10
454.228645
 20
194.020326
 10
454.325956
 20
193.86433
 10
454.441646
 20
193.705057
 10
454.574531
 20
193.543736
 10
454.723427
 20
193.381592
 10
454.887149
 20
193.219853
 10
455.064513
 20
193.059745
 10
455.254334
 20
192.902496
 10
455.455429
 20
192.749332
 10
455.666614
 20
192.601481
 10
455.886703
 20
192.460168
 10
456.114514
 20
192.326622
 10
456.348861
 20
192.202069
 10
456.562063
 20
192.103017
 10
456.812712
 20
192.001137
 10
457.09562
 20
191.897691
 10
457.405597
 20
191.793943
 10
458.086004
 20
191.590594
 10
458.812426
 20
191.401194
 10
459.543351
 20
191.235846
 10
460.237271
 20
191.104655
 10
460.557382
 20
191.055026
 10
460.852676
 20
191.017725
 10
461.117963
 20
190.994016
 10
461.348055
 20
190.985161
 10
461.529198
 20
190.978869
 10
461.697624
 20
190.960483
 10
461.855068
 20
190.928042
 10
462.003262
 20
190.879586
 10
462.14394
 20
190.813155
 10
462.278835
 20
190.726788
 10
462.409681
 20
190.618526
 10
462.538211
 20
190.486408
 10
462.666159
 20
190.328474
 10
462.795257
 20
190.142763
 10
462.927239
 20
189.927315
 10
463.063838
 20
189.680171
 10
463.206788
 20
189.399369
 10
463.357823
 20
189.082949
 10
463.691077
 20
188.335417
 10
464.922342
 20
185.519923
 10
465.034392
 20
185.284354
 10
465.168465
 20
185.029296
 10
465.321984
 20
184.7583
 10
465.492371
 20
184.474915
 10
465.873435
 20
183.885181
 10
466.291031
 20
183.288495
 10
466.724533
 20
182.713257
 10
467.153316
 20
182.187869
 10
467.359491
 20
181.952744
 10
467.556753
 20
181.740732
 10
467.742521
 20
181.555382
 10
467.914218
 20
181.400246
 10
468.111915
 20
181.245398
 10
468.327043
 20
181.100891
 10
468.558753
 20
180.966925
 10
468.8062
 20
180.843698
 10
469.068538
 20
180.73141
 10
469.34492
 20
180.63026
 10
469.634499
 20
180.540447
 10
469.936431
 20
180.462171
 10
470.249868
 20
180.395629
 10
470.573964
 20
180.341022
 10
470.907872
 20
180.298549
 10
471.250747
 20
180.268409
 10
471.601742
 20
180.250801
 10
471.96001
 20
180.245924
 10
472.324706
 20
180.253978
 10
472.694984
 20
180.275161
  0
LWPOLYLINE
  5
32
330
1F
100
AcDbEntity
  8
0
100
AcDbPolyline
 90
     1512
 70
   128
 43
0.0
 10
466.614885
 20
376.729712
 10
468.347393
 20
376.406085
 10
468.455331
 20
376.380556
 10
468.574385
 20
376.343139
 10
468.842417
 20
376.234695
 10
469.144636
 20
376.084863
 10
469.474188
 20
375.897751
 10
469.824216
 20
375.677469
 10
470.187868
 20
375.428125
 10
470.558288
 20
375.153829
 10
470.928622
 20
374.858689
 10
472.588741
 20
373.486447
 10
472.943641
 20
373.475572
 10
472.985756
 20
373.47958
 10
473.03839
 20
373.493514
 10
473.172129
 20
373.549155
 10
473.338688
 20
373.638498
 10
473.531896
 20
373.757542
 10
473.745587
 20
373.902288
 10
473.973587
 20
374.068736
 10
474.209731
 20
374.252886
 10
474.447845
 20
374.450738
 10
475.004363
 20
374.914765
 10
475.252311
 20
375.10799
 10
475.485007
 20
375.277206
 10
475.70617
 20
375.423797
 10
475.919515
 20
375.54915
 10
476.128759
 20
375.654649
 10
476.337619
 20
375.741681
 10
476.549814
 20
375.811632
 10
476.76906
 20
375.865887
 10
476.999073
 20
375.905833
 10
477.243571
 20
375.932856
 10
477.506272
 20
375.94834
 10
477.790891
 20
375.953673
 10
478.440754
 20
375.939426
 10
478.808606
 20
375.918789
 10
479.163737
 20
375.885979
 10
479.508021
 20
375.840223
 10
479.843332
 20
375.780754
 10
480.171544
 20
375.706801
 10
480.494526
 20
375.617595
 10
480.814153
 20
375.512366
 10
481.132298
 20
375.390345
 10
481.450836
 20
375.250762
 10
481.771636
 20
375.092848
 10
482.096573
 20
374.915833
 10
482.427521
 20
374.718948
 10
482.766352
 20
374.501422
 10
483.114938
 20
374.262486
 10
483.475152
 20
374.001372
 10
483.848869
 20
373.717308
 10
484.394416
 20
373.277355
 10
484.635826
 20
373.068767
 10
484.856176
 20
372.86738
 10
485.055354
 20
372.672899
 10
485.233245
 20
372.485032
 10
485.389736
 20
372.303484
 10
485.524715
 20
372.127962
 10
485.638069
 20
371.958171
 10
485.729683
 20
371.793819
 10
485.799447
 20
371.634611
 10
485.847245
 20
371.480255
 10
485.872966
 20
371.330456
 10
485.876494
 20
371.184921
 10
485.85772
 20
371.043354
 10
485.816527
 20
370.905464
 10
485.752804
 20
370.770958
 10
485.666437
 20
370.639538
 10
485.557314
 20
370.510915
 10
485.42532
 20
370.384792
 10
485.270344
 20
370.260877
 10
485.092271
 20
370.138876
 10
484.890989
 20
370.018495
 10
484.666386
 20
369.899441
 10
484.418346
 20
369.78142
 10
484.146758
 20
369.664138
 10
483.851508
 20
369.5473
 10
483.532483
 20
369.430615
 10
482.822657
 20
369.196524
 10
482.016373
 20
368.959516
 10
481.409275
 20
368.783637
 10
480.937211
 20
368.630008
 10
480.748034
 20
368.558779
 10
480.588075
 20
368.489805
 10
480.455822
 20
368.42198
 10
480.34976
 20
368.354204
 10
480.268377
 20
368.285371
 10
480.210158
 20
368.21438
 10
480.173591
 20
368.14013
 10
480.157163
 20
368.061513
 10
480.159358
 20
367.97743
 10
480.178665
 20
367.886777
 10
480.21357
 20
367.78845
 10
480.262559
 20
367.681348
 10
480.297933
 20
367.620492
 10
480.341922
 20
367.562991
 10
480.394444
 20
367.508848
 10
480.455424
 20
367.458068
 10
480.602443
 20
367.366614
 10
480.782347
 20
367.288661
 10
480.99451
 20
367.224244
 10
481.238305
 20
367.173392
 10
481.513105
 20
367.136141
 10
481.818282
 20
367.112522
 10
482.153209
 20
367.102569
 10
482.517259
 20
367.106316
 10
482.909803
 20
367.123794
 10
483.330215
 20
367.155036
 10
483.777868
 20
367.200076
 10
484.252133
 20
367.258945
 10
484.752384
 20
367.331679
 10
485.277994
 20
367.418308
 10
486.36212
 20
367.601695
 10
487.345303
 20
367.755764
 10
488.234955
 20
367.879684
 10
489.038489
 20
367.972632
 10
489.763315
 20
368.033779
 10
490.09853
 20
368.052169
 10
490.416847
 20
368.062298
 10
490.719193
 20
368.064062
 10
491.006496
 20
368.05736
 10
491.27968
 20
368.042086
 10
491.539674
 20
368.018139
 10
491.787402
 20
367.985414
 10
492.023791
 20
367.943808
 10
492.24977
 20
367.893218
 10
492.466263
 20
367.83354
 10
492.674197
 20
367.764669
 10
492.874499
 20
367.686505
 10
493.068095
 20
367.598943
 10
493.255913
 20
367.501878
 10
493.438877
 20
367.39521
 10
493.617914
 20
367.278832
 10
493.793953
 20
367.152644
 10
493.967918
 20
367.016539
 10
494.140736
 20
366.870416
 10
494.313334
 20
366.714171
 10
494.661574
 20
366.370901
 10
494.787893
 20
366.234349
 10
494.913025
 20
366.087094
 10
495.159655
 20
365.760694
 10
495.401313
 20
365.392126
 10
495.637846
 20
364.981816
 10
495.869102
 20
364.530188
 10
496.094929
 20
364.037671
 10
496.315176
 20
363.504687
 10
496.529692
 20
362.931663
 10
496.738323
 20
362.319025
 10
496.940918
 20
361.667198
 10
497.137326
 20
360.976607
 10
497.327394
 20
360.247679
 10
497.51097
 20
359.480837
 10
497.687902
 20
358.676509
 10
497.858041
 20
357.83512
 10
498.021231
 20
356.957094
 10
498.239565
 20
355.662837
 10
498.425323
 20
354.408798
 10
498.578331
 20
353.188295
 10
498.642498
 20
352.588531
 10
498.698413
 20
351.994645
 10
498.746051
 20
351.405801
 10
498.785394
 20
350.821165
 10
498.816418
 20
350.239901
 10
498.8391
 20
349.661174
 10
498.85342
 20
349.084148
 10
498.859356
 20
348.507988
 10
498.856885
 20
347.931858
 10
498.845986
 20
347.354924
 10
498.826638
 20
346.77635
 10
498.798816
 20
346.195301
 10
498.762502
 20
345.610942
 10
498.717671
 20
345.022437
 10
498.664304
 20
344.42895
 10
498.602377
 20
343.829647
 10
498.531868
 20
343.223692
 10
498.452757
 20
342.610251
 10
498.268637
 20
341.357565
 10
498.049843
 20
340.064906
 10
497.796198
 20
338.725593
 10
497.507529
 20
337.332943
 10
496.816684
 20
334.126085
 10
496.679679
 20
333.997226
 10
496.634775
 20
333.983689
 10
496.240539
 20
333.997718
 42
-0.067083
 10
496.161549
 20
334.011239
 10
488.481828
 20
336.41633
 10
487.884105
 20
334.507737
 10
496.072092
 20
331.94347
 42
-0.374586
 10
496.27617
 20
331.594864
 10
496.275268
 20
331.637493
 10
496.251545
 20
331.649333
 10
496.25095
 20
331.44464
 10
496.147429
 20
330.959218
 10
495.981308
 20
330.254516
 10
495.769195
 20
329.403828
 10
495.182699
 20
327.106515
 42
-0.421369
 10
494.810753
 20
326.891942
 10
484.375357
 20
329.828689
 10
483.833559
 20
327.903473
 10
494.287735
 20
324.961441
 42
-0.332969
 10
494.506448
 20
324.675892
 10
494.506721
 20
324.650565
 10
494.493977
 20
324.512767
 10
494.468704
 20
324.339037
 10
494.385611
 20
323.904468
 10
494.267516
 20
323.388237
 10
494.12449
 20
322.831727
 10
493.966606
 20
322.276316
 10
493.803938
 20
321.763386
 10
493.646556
 20
321.334316
 10
493.569232
 20
321.159663
 10
493.528499
 20
321.090539
 10
493.482238
 20
321.033346
 10
493.42734
 20
320.98793
 10
493.360696
 20
320.95414
 10
493.028488
 20
320.863157
 42
-0.117092
 10
492.889959
 20
320.858419
 10
479.900901
 20
323.476937
 10
479.505664
 20
321.516379
 10
492.642212
 20
318.868127
 42
-0.338954
 10
492.88395
 20
318.567938
 10
492.873085
 20
318.591603
 10
492.868794
 20
318.607663
 10
492.895349
 20
318.391916
 10
492.88564
 20
318.179068
 10
492.857588
 20
317.912658
 10
492.812306
 20
317.601446
 10
492.750903
 20
317.254188
 10
492.674494
 20
316.879645
 10
492.584188
 20
316.486572
 10
492.095999
 20
314.473922
 42
-0.387572
 10
491.760763
 20
314.247838
 10
475.133936
 20
316.695378
 10
474.842667
 20
314.716701
 10
490.854271
 20
312.359725
 42
-0.185272
 10
491.041598
 20
312.254315
 10
491.369208
 20
311.858878
 10
491.411436
 20
311.793923
 10
491.446719
 20
311.723531
 10
491.475542
 20
311.647286
 10
491.498385
 20
311.564774
 10
491.528057
 20
311.379286
 10
491.539592
 20
311.163743
 10
491.536844
 20
310.914822
 10
491.503919
 20
310.303558
 10
491.441827
 20
309.390786
 10
491.409816
 20
309.019141
 10
491.374518
 20
308.69946
 10
491.33395
 20
308.428345
 10
491.28613
 20
308.202397
 10
491.229077
 20
308.018222
 10
491.160807
 20
307.872421
 10
491.121847
 20
307.812848
 10
491.079339
 20
307.761595
 10
491.061058
 20
307.744477
 42
-0.22133
 10
490.820475
 20
307.665571
 10
473.69162
 20
309.708575
 10
473.454753
 20
307.722651
 10
490.69818
 20
305.665982
 42
-0.24052
 10
490.992365
 20
305.392584
 10
490.977386
 20
305.407889
 10
491.088036
 20
305.220716
 10
491.13826
 20
305.063667
 10
491.180076
 20
304.837307
 10
491.212893
 20
304.548319
 10
491.236121
 20
304.203387
 10
491.249168
 20
303.809195
 10
491.251444
 20
303.372426
 10
491.242358
 20
302.899762
 10
491.171795
 20
300.596794
 42
-0.438566
 10
490.838092
 20
300.307897
 10
473.557695
 20
302.269846
 10
473.332073
 20
300.282613
 10
490.922984
 20
298.285409
 42
-0.339554
 10
491.172822
 20
298.038284
 10
491.180036
 20
298.010822
 10
491.191519
 20
297.993713
 10
491.22235
 20
297.787472
 10
491.23541
 20
297.549829
 10
491.23652
 20
297.252589
 10
491.225827
 20
296.905522
 10
491.203475
 20
296.518396
 10
491.169609
 20
296.10098
 10
491.124376
 20
295.663046
 10
491.040595
 20
294.951312
 10
490.962823
 20
294.418558
 10
490.920843
 20
294.212029
 10
490.873948
 20
294.041519
 10
490.819997
 20
293.904123
 10
490.756854
 20
293.79693
 10
490.682378
 20
293.717035
 10
490.59568
 20
293.662317
 42
-0.171776
 10
490.400405
 20
293.618081
 10
473.466539
 20
295.616353
 10
473.232157
 20
293.630134
 10
489.923554
 20
291.660475
 42
-0.337289
 10
490.193455
 20
291.327441
 10
490.202848
 20
291.291129
 10
490.233011
 20
291.094362
 10
490.238375
 20
290.911253
 10
490.219028
 20
290.694557
 10
490.175929
 20
290.441278
 10
490.110037
 20
290.148417
 10
490.022309
 20
289.812978
 10
489.785179
 20
289.002373
 10
489.413374
 20
287.793102
 10
489.037204
 20
286.600059
 10
488.654265
 20
285.416774
 10
488.262146
 20
284.236774
 10
487.858444
 20
283.053592
 10
487.440751
 20
281.860755
 10
487.00666
 20
280.651794
 10
486.553764
 20
279.420238
 10
486.079656
 20
278.159616
 10
485.581931
 20
276.86346
 10
485.058181
 20
275.525297
 10
484.505999
 20
274.138658
 10
483.922979
 20
272.697072
 10
483.306713
 20
271.194069
 10
481.964819
 20
267.97793
 10
479.480951
 20
261.83341
 10
479.33431
 20
261.415245
 10
479.19442
 20
260.979119
 10
479.064562
 20
260.537868
 10
478.94802
 20
260.104329
 10
478.848075
 20
259.691335
 10
478.76801
 20
259.311723
 10
478.711106
 20
258.978329
 10
478.680649
 20
258.703987
 10
478.658765
 20
258.330141
 10
478.655567
 20
258.041986
 10
478.663721
 20
257.925378
 10
478.679841
 20
257.824593
 10
478.705025
 20
257.737766
 10
478.740373
 20
257.66303
 10
478.786984
 20
257.59852
 10
478.845954
 20
257.542368
 10
478.918383
 20
257.49271
 10
479.00537
 20
257.447678
 10
479.227409
 20
257.364027
 10
479.52086
 20
257.276486
 10
479.702372
 20
257.216078
 10
479.88565
 20
257.138481
 10
480.068801
 20
257.045536
 10
480.249934
 20
256.93908
 10
480.427155
 20
256.820954
 10
480.598572
 20
256.692998
 10
480.762294
 20
256.557052
 10
480.916427
 20
256.414952
 10
481.059081
 20
256.268541
 10
481.188363
 20
256.119658
 10
481.30238
 20
255.97014
 10
481.39924
 20
255.821829
 10
481.477051
 20
255.676563
 10
481.533921
 20
255.536182
 10
481.567958
 20
255.402526
 10
481.577268
 20
255.277433
 10
481.568218
 20
255.233916
 10
481.54395
 20
255.180907
 10
481.452904
 20
255.049336
 10
481.310411
 20
254.888569
 10
481.122752
 20
254.704456
 10
480.896206
 20
254.502844
 10
480.637054
 20
254.289582
 10
480.351576
 20
254.070518
 10
480.046053
 20
253.851502
 10
479.544657
 20
253.501835
 10
479.169401
 20
253.224602
 10
479.023969
 20
253.104954
 10
478.903947
 20
252.993582
 10
478.807291
 20
252.887208
 10
478.731958
 20
252.782553
 10
478.675908
 20
252.676339
 10
478.637097
 20
252.565292
 10
478.613485
 20
252.44613
 10
478.603025
 20
252.315577
 10
478.60368
 20
252.170356
 10
478.613406
 20
252.007189
 10
478.6519
 20
251.613902
 10
478.710727
 20
251.109327
 10
478.773324
 20
250.716203
 10
478.808789
 20
250.557061
 10
478.848497
 20
250.420534
 10
478.89355
 20
250.304872
 10
478.945049
 20
250.208325
 10
479.004092
 20
250.129147
 10
479.071781
 20
250.065584
 10
479.149218
 20
250.01589
 10
479.2375
 20
249.978315
 10
479.33773
 20
249.951109
 10
479.451007
 20
249.932523
 10
479.721107
 20
249.914214
 10
479.903598
 20
249.900756
 10
480.088619
 20
249.872174
 10
480.274458
 20
249.829547
 10
480.459395
 20
249.773958
 10
480.641716
 20
249.706486
 10
480.819705
 20
249.628212
 10
480.991647
 20
249.540218
 10
481.155824
 20
249.443584
 10
481.31052
 20
249.33939
 10
481.454021
 20
249.228717
 10
481.584609
 20
249.112647
 10
481.700569
 20
248.992259
 10
481.800185
 20
248.868635
 10
481.88174
 20
248.742855
 10
481.94352
 20
248.616001
 10
481.983807
 20
248.489151
 10
482.006905
 20
248.358168
 10
482.01689
 20
248.225112
 10
482.013984
 20
248.090414
 10
481.99841
 20
247.954506
 10
481.970387
 20
247.81782
 10
481.93014
 20
247.68079
 10
481.877889
 20
247.543847
 10
481.813857
 20
247.407422
 10
481.738267
 20
247.271949
 10
481.651337
 20
247.13786
 10
481.553293
 20
247.005585
 10
481.444355
 20
246.87556
 10
481.324746
 20
246.748214
 10
481.194686
 20
246.623981
 10
481.054399
 20
246.503292
 10
480.904105
 20
246.386579
 10
480.722036
 20
246.243536
 10
480.648059
 20
246.175288
 10
480.584853
 20
246.106264
 10
480.531964
 20
246.034238
 10
480.488942
 20
245.956991
 10
480.455336
 20
245.8723
 10
480.430692
 20
245.777944
 10
480.414562
 20
245.671701
 10
480.406491
 20
245.551351
 10
480.412726
 20
245.259438
 10
480.445784
 20
244.884433
 10
480.502053
 20
244.408562
 10
480.553729
 20
244.030969
 10
480.61039
 20
243.685267
 10
480.672463
 20
243.370793
 10
480.740374
 20
243.086887
 10
480.814549
 20
242.832887
 10
480.895413
 20
242.608128
 10
480.983394
 20
242.411949
 10
481.078918
 20
242.243689
 10
481.182409
 20
242.102685
 10
481.294296
 20
241.988275
 10
481.415003
 20
241.899797
 10
481.544957
 20
241.836589
 10
481.684583
 20
241.797988
 10
481.834308
 20
241.783332
 10
481.994558
 20
241.79196
 10
482.165759
 20
241.82321
 10
482.392397
 20
241.872006
 10
482.612317
 20
241.908545
 10
482.825205
 20
241.933188
 10
483.030746
 20
241.9463
 10
483.228623
 20
241.948244
 10
483.418523
 20
241.939382
 10
483.60013
 20
241.920079
 10
483.773128
 20
241.890697
 10
483.937203
 20
241.851599
 10
484.092039
 20
241.803151
 10
484.237321
 20
241.745713
 10
484.372733
 20
241.67965
 10
484.497961
 20
241.605325
 10
484.61269
 20
241.523102
 10
484.716603
 20
241.433343
 10
484.809387
 20
241.336412
 10
484.890724
 20
241.232672
 10
484.960301
 20
241.122486
 10
485.017802
 20
241.006219
 10
485.062912
 20
240.884232
 10
485.095317
 20
240.75689
 10
485.114699
 20
240.624555
 10
485.120744
 20
240.487592
 10
485.113138
 20
240.346362
 10
485.091564
 20
240.20123
 10
485.055708
 20
240.052558
 10
485.005254
 20
239.900711
 10
484.939888
 20
239.746052
 10
484.859292
 20
239.588942
 10
484.763154
 20
239.429748
 10
484.651157
 20
239.268829
 10
484.522987
 20
239.106553
 10
484.399409
 20
238.950412
 10
484.291928
 20
238.795542
 10
484.200517
 20
238.640703
 10
484.125153
 20
238.484655
 10
484.065813
 20
238.326158
 10
484.022471
 20
238.163974
 10
483.995104
 20
237.996862
 10
483.983687
 20
237.823583
 10
483.988197
 20
237.642897
 10
484.008608
 20
237.453566
 10
484.044897
 20
237.25435
 10
484.09704
 20
237.044008
 10
484.165012
 20
236.821302
 10
484.248789
 20
236.584991
 10
484.348348
 20
236.333837
 10
484.463662
 20
236.0666
 10
484.586486
 20
235.806851
 10
484.712707
 20
235.570379
 10
484.842881
 20
235.356865
 10
484.977565
 20
235.165988
 10
485.117317
 20
234.99743
 10
485.262691
 20
234.850871
 10
485.414247
 20
234.72599
 10
485.572539
 20
234.62247
 10
485.738124
 20
234.539989
 10
485.91156
 20
234.478228
 10
486.093403
 20
234.436868
 10
486.284208
 20
234.415588
 10
486.484534
 20
234.414069
 10
486.694936
 20
234.431992
 10
486.915972
 20
234.469036
 10
487.148197
 20
234.524883
 10
487.402088
 20
234.588399
 10
487.62297
 20
234.629221
 10
487.817476
 20
234.646584
 10
487.992234
 20
234.639727
 10
488.153874
 20
234.607886
 10
488.309024
 20
234.5503
 10
488.464315
 20
234.466206
 10
488.626376
 20
234.354839
 10
488.782806
 20
234.227455
 10
488.90408
 20
234.100902
 10
488.952225
 20
234.035355
 10
488.992412
 20
233.966916
 10
489.024918
 20
233.894552
 10
489.050021
 20
233.81723
 10
489.067996
 20
233.733919
 10
489.07912
 20
233.643583
 10
489.081929
 20
233.437707
 10
489.060661
 20
233.191339
 10
489.017536
 20
232.896214
 10
488.973463
 20
232.67774
 10
488.913845
 20
232.454697
 10
488.84131
 20
232.233338
 10
488.758484
 20
232.019924
 10
488.667996
 20
231.820708
 10
488.572473
 20
231.641948
 10
488.474545
 20
231.4899
 10
488.376837
 20
231.370821
 10
488.282872
 20
231.259071
 10
488.203629
 20
231.13502
 10
488.139036
 20
230.999522
 10
488.089025
 20
230.85343
 10
488.053529
 20
230.697597
 10
488.032478
 20
230.532878
 10
488.025802
 20
230.360124
 10
488.033434
 20
230.18019
 10
488.055303
 20
229.993928
 10
488.091344
 20
229.802192
 10
488.141486
 20
229.605835
 10
488.20566
 20
229.40571
 10
488.283798
 20
229.202672
 10
488.375831
 20
228.997571
 10
488.48169
 20
228.791263
 10
488.601306
 20
228.584601
 10
488.738244
 20
228.375425
 10
488.80471
 20
228.288923
 10
488.872565
 20
228.213548
 10
488.943855
 20
228.148603
 10
489.020621
 20
228.09339
 10
489.104908
 20
228.04721
 10
489.19876
 20
228.009365
 10
489.30422
 20
227.979159
 10
489.423334
 20
227.955893
 10
489.710693
 20
227.927391
 10
490.077187
 20
227.918276
 10
490.539168
 20
227.922967
 10
490.893251
 20
227.923458
 10
491.217748
 20
227.911157
 10
491.511423
 20
227.886283
 10
491.773037
 20
227.849053
 10
492.00135
 20
227.799689
 10
492.195126
 20
227.738406
 10
492.353125
 20
227.665426
 10
492.418322
 20
227.624619
 10
492.474111
 20
227.580967
 10
492.565006
 20
227.484478
 10
492.643118
 20
227.368472
 10
492.708495
 20
227.235376
 10
492.76119
 20
227.08762
 10
492.80125
 20
226.927633
 10
492.828726
 20
226.757845
 10
492.843668
 20
226.580682
 10
492.846125
 20
226.398577
 10
492.836148
 20
226.213954
 10
492.813786
 20
226.029245
 10
492.779089
 20
225.846878
 10
492.732105
 20
225.669282
 10
492.672887
 20
225.498886
 10
492.601484
 20
225.338118
 10
492.517944
 20
225.189409
 10
492.422318
 20
225.055186
 10
492.340882
 20
224.945314
 10
492.264367
 20
224.825146
 10
492.194488
 20
224.698574
 10
492.132957
 20
224.569492
 10
492.081489
 20
224.441792
 10
492.041796
 20
224.31937
 10
492.015592
 20
224.206116
 10
492.00459
 20
224.105927
 10
491.990869
 20
223.65812
 10
496.563497
 20
217.883718
 10
497.591971
 20
216.025173
 10
497.817164
 20
215.606255
 10
498.024204
 20
215.195643
 10
498.213464
 20
214.791835
 10
498.385321
 20
214.393331
 10
498.540149
 20
213.998627
 10
498.678323
 20
213.60622
 10
498.800218
 20
213.21461
 10
498.90621
 20
212.822295
 10
498.996673
 20
212.427771
 10
499.071983
 20
212.029535
 10
499.132514
 20
211.626088
 10
499.178644
 20
211.215925
 10
499.210743
 20
210.797546
 10
499.22919
 20
210.369447
 10
499.234358
 20
209.930126
 10
499.226624
 20
209.478082
 10
499.207432
 20
209.03451
 10
499.177028
 20
208.605807
 10
499.134629
 20
208.189468
 10
499.079457
 20
207.782985
 10
499.010732
 20
207.383853
 10
498.927676
 20
206.989564
 10
498.829506
 20
206.597611
 10
498.715446
 20
206.20549
 10
498.584712
 20
205.810692
 10
498.436528
 20
205.410711
 10
498.270112
 20
205.003041
 10
498.084685
 20
204.585176
 10
497.879467
 20
204.154608
 10
497.65368
 20
203.708832
 10
497.406542
 20
203.24534
 10
497.137274
 20
202.761626
 10
496.881183
 20
202.323845
 10
496.61814
 20
201.901391
 10
496.34788
 20
201.494121
 10
496.07014
 20
201.101888
 10
495.784651
 20
200.724546
 10
495.491151
 20
200.361949
 10
495.189374
 20
200.013951
 10
494.879053
 20
199.680407
 10
494.559925
 20
199.36117
 10
494.231725
 20
199.056095
 10
493.894186
 20
198.765036
 10
493.547045
 20
198.487845
 10
493.190035
 20
198.224379
 10
492.822891
 20
197.974491
 10
492.445349
 20
197.738036
 10
492.057143
 20
197.514866
 10
491.658008
 20
197.304836
 10
491.247678
 20
197.107802
 10
490.825891
 20
196.923615
 10
490.392377
 20
196.752131
 10
489.946875
 20
196.593204
 10
489.489117
 20
196.446688
 10
489.01884
 20
196.312437
 10
488.535777
 20
196.190304
 10
488.039665
 20
196.080145
 10
487.530235
 20
195.981812
 10
487.007226
 20
195.895162
 10
486.470372
 20
195.820046
 10
485.919406
 20
195.756321
 10
485.354063
 20
195.703839
 10
484.77408
 20
195.662455
 10
484.17919
 20
195.632022
 10
483.42138
 20
195.60376
 10
482.824402
 20
195.592346
 10
482.359727
 20
195.602275
 10
482.168087
 20
195.616647
 10
481.998823
 20
195.638041
 10
481.84837
 20
195.667017
 10
481.713161
 20
195.704139
 10
481.589629
 20
195.749967
 10
481.474209
 20
195.805064
 10
481.363335
 20
195.869991
 10
481.25344
 20
195.94531
 10
481.022321
 20
196.129373
 10
480.868192
 20
196.271571
 10
480.730662
 20
196.423058
 10
480.611137
 20
196.581274
 10
480.511022
 20
196.743663
 10
480.431726
 20
196.907663
 10
480.374654
 20
197.070717
 10
480.341213
 20
197.230267
 10
480.33281
 20
197.383752
 10
480.347108
 20
197.533242
 10
480.382782
 20
197.67222
 10
480.443273
 20
197.802075
 10
480.53202
 20
197.9242
 10
480.652462
 20
198.039987
 10
480.808039
 20
198.150826
 10
481.002189
 20
198.258109
 10
481.238353
 20
198.363227
 10
481.519968
 20
198.467572
 10
481.850476
 20
198.572534
 10
482.233316
 20
198.679506
 10
482.671926
 20
198.789878
 10
483.730215
 20
199.02639
 10
485.05286
 20
199.2932
 10
487.952818
 20
199.859072
 10
489.292878
 20
200.398312
 10
489.778566
 20
200.605298
 10
490.239144
 20
200.82559
 10
490.675375
 20
201.059976
 10
491.088022
 20
201.309243
 10
491.47785
 20
201.574181
 10
491.845623
 20
201.855575
 10
492.192105
 20
202.154217
 10
492.518059
 20
202.470893
 10
492.824249
 20
202.806391
 10
493.11144
 20
203.161499
 10
493.380394
 20
203.537006
 10
493.631878
 20
203.933699
 10
493.866653
 20
204.352368
 10
494.085483
 20
204.793799
 10
494.289133
 20
205.258781
 10
494.478366
 20
205.748101
 10
494.571838
 20
206.019954
 10
494.654061
 20
206.290307
 10
494.724947
 20
206.559436
 10
494.784404
 20
206.827618
 10
494.832343
 20
207.095128
 10
494.868676
 20
207.362242
 10
494.893311
 20
207.629237
 10
494.906159
 20
207.896385
 10
494.90713
 20
208.163967
 10
494.896136
 20
208.432256
 10
494.873085
 20
208.701528
 10
494.837888
 20
208.972059
 10
494.790456
 20
209.244126
 10
494.730698
 20
209.518003
 10
494.658526
 20
209.793966
 10
494.573848
 20
210.072293
 10
494.476576
 20
210.353258
 10
494.366619
 20
210.637138
 10
494.24389
 20
210.924207
 10
494.108295
 20
211.214743
 10
493.959748
 20
211.509021
 10
493.798156
 20
211.807315
 10
493.623433
 20
212.109904
 10
493.435485
 20
212.417063
 10
493.234226
 20
212.729067
 10
493.019565
 20
213.046192
 10
492.791412
 20
213.368713
 10
492.549677
 20
213.696907
 10
492.025103
 20
214.371419
 10
491.445124
 20
215.071932
 10
488.464448
 20
218.745762
 10
488.147239
 20
219.171562
 10
487.890738
 20
219.490327
 10
487.776327
 20
219.613933
 10
487.666382
 20
219.716015
 10
487.557333
 20
219.798317
 10
487.445609
 20
219.862584
 10
487.327639
 20
219.91056
 10
487.199855
 20
219.943993
 10
487.058683
 20
219.964623
 10
486.900556
 20
219.974197
 10
486.519153
 20
219.967156
 10
486.027079
 20
219.936828
 10
485.617288
 20
219.914729
 10
485.271035
 20
219.909229
 10
484.97894
 20
219.922129
 10
484.731622
 20
219.95523
 10
484.5197
 20
220.010338
 10
484.424081
 20
220.046705
 10
484.333793
 20
220.089249
 10
484.164522
 20
220.193769
 10
484.002502
 20
220.325699
 10
483.783266
 20
220.539409
 10
483.694443
 20
220.642428
 10
483.618967
 20
220.746537
 10
483.556451
 20
220.85447
 10
483.506509
 20
220.968962
 10
483.468754
 20
221.092749
 10
483.442799
 20
221.228566
 10
483.428259
 20
221.379146
 10
483.424746
 20
221.547225
 10
483.431873
 20
221.735538
 10
483.449254
 20
221.94682
 10
483.513228
 20
222.449231
 10
483.613578
 20
223.076336
 10
483.686228
 20
223.535269
 10
483.729223
 20
223.909474
 10
483.738135
 20
224.072437
 10
483.737876
 20
224.22338
 10
483.727859
 20
224.365355
 10
483.707499
 20
224.501417
 10
483.676212
 20
224.634618
 10
483.633409
 20
224.768014
 10
483.578508
 20
224.904656
 10
483.51092
 20
225.0476
 10
483.335347
 20
225.364607
 10
483.102001
 20
225.743463
 10
482.685542
 20
226.385557
 10
482.501016
 20
226.652872
 10
482.329301
 20
226.886521
 10
482.168154
 20
227.088119
 10
482.015333
 20
227.259279
 10
481.868596
 20
227.401619
 10
481.725698
 20
227.516752
 10
481.584397
 20
227.606296
 10
481.442451
 20
227.671863
 10
481.297617
 20
227.715071
 10
481.147651
 20
227.737533
 10
480.990312
 20
227.740866
 10
480.823355
 20
227.726686
 10
480.644538
 20
227.696606
 10
480.451619
 20
227.652242
 10
480.009519
 20
227.550547
 10
479.615968
 20
227.483546
 10
479.435623
 20
227.463186
 10
479.265284
 20
227.451654
 10
479.104241
 20
227.449001
 10
478.951784
 20
227.45528
 10
478.807201
 20
227.470542
 10
478.669782
 20
227.494838
 10
478.538818
 20
227.52822
 10
478.413597
 20
227.57074
 10
478.293409
 20
227.622449
 10
478.177543
 20
227.683398
 10
478.06529
 20
227.753639
 10
477.955939
 20
227.833224
 10
477.800853
 20
227.960273
 10
477.740057
 20
228.019263
 10
477.690477
 20
228.078637
 10
477.652148
 20
228.140953
 10
477.625107
 20
228.208765
 10
477.609392
 20
228.284631
 10
477.605039
 20
228.371104
 10
477.612087
 20
228.470742
 10
477.630571
 20
228.5861
 10
477.701994
 20
228.8742
 10
477.983711
 20
229.751503
 10
478.152202
 20
230.262276
 10
478.268659
 20
230.665001
 10
478.306215
 20
230.837146
 10
478.329368
 20
230.995841
 10
478.337655
 20
231.145605
 10
478.330612
 20
231.290959
 10
478.307774
 20
231.436425
 10
478.268676
 20
231.58652
 10
478.212854
 20
231.745769
 10
478.139844
 20
231.91869
 10
477.9404
 20
232.32363
 10
477.666627
 20
232.837506
 10
477.434152
 20
233.25846
 10
477.232168
 20
233.596714
 10
477.054256
 20
233.858982
 10
476.97232
 20
233.963719
 10
476.893994
 20
234.051977
 10
476.818477
 20
234.124594
 10
476.744965
 20
234.18241
 10
476.672657
 20
234.226264
 10
476.600748
 20
234.256996
 10
476.528439
 20
234.275443
 10
476.454925
 20
234.282446
 10
476.379406
 20
234.278844
 10
476.301076
 20
234.265474
 10
475.664925
 20
234.135033
 10
475.372986
 20
234.085174
 10
475.097997
 20
234.045574
 10
474.839603
 20
234.016242
 10
474.597447
 20
233.997192
 10
474.371175
 20
233.988434
 10
474.160428
 20
233.98998
 10
473.964854
 20
234.001844
 10
473.784094
 20
234.024034
 10
473.617795
 20
234.056564
 10
473.465599
 20
234.099445
 10
473.32715
 20
234.15269
 10
473.202095
 20
234.216309
 10
473.090076
 20
234.290316
 10
472.990737
 20
234.37472
 10
472.874975
 20
234.491624
 10
472.775689
 20
234.605304
 10
472.693068
 20
234.71801
 10
472.627302
 20
234.831992
 10
472.57858
 20
234.949499
 10
472.547091
 20
235.072781
 10
472.533025
 20
235.204088
 10
472.536571
 20
235.34567
 10
472.557919
 20
235.499777
 10
472.597258
 20
235.668656
 10
472.654776
 20
235.854561
 10
472.730665
 20
236.059738
 10
472.93831
 20
236.536912
 10
473.221706
 20
237.118178
 10
473.454635
 20
237.585365
 10
473.621794
 20
237.948295
 10
473.680942
 20
238.09938
 10
473.723928
 20
238.234862
 10
473.750843
 20
238.358226
 10
473.761782
 20
238.472961
 10
473.756838
 20
238.582553
 10
473.736103
 20
238.690489
 10
473.699671
 20
238.800255
 10
473.647635
 20
238.915339
 10
473.497123
 20
239.175411
 10
473.285312
 20
239.498596
 10
472.747754
 20
240.296909
 10
472.31151
 20
240.911593
 10
472.122702
 20
241.157455
 10
471.948808
 20
241.366266
 10
471.786359
 20
241.54098
 10
471.631881
 20
241.684549
 10
471.481906
 20
241.799923
 10
471.332959
 20
241.890058
 10
471.181571
 20
241.957903
 10
471.024271
 20
242.006412
 10
470.857586
 20
242.038538
 10
470.678048
 20
242.057231
 10
470.26652
 20
242.066134
 10
470.0523
 20
242.068735
 10
469.847896
 20
242.080403
 10
469.653423
 20
242.100873
 10
469.468996
 20
242.129881
 10
469.294729
 20
242.16716
 10
469.130738
 20
242.212446
 10
468.977138
 20
242.265474
 10
468.834045
 20
242.325977
 10
468.701572
 20
242.393693
 10
468.579834
 20
242.468355
 10
468.468949
 20
242.549698
 10
468.369027
 20
242.637456
 10
468.280188
 20
242.731365
 10
468.202544
 20
242.83116
 10
468.13621
 20
242.936576
 10
468.081302
 20
243.047346
 10
468.037935
 20
243.163207
 10
468.006223
 20
243.283893
 10
467.986281
 20
243.409138
 10
467.978226
 20
243.538678
 10
467.982171
 20
243.672249
 10
467.998232
 20
243.809583
 10
468.026522
 20
243.950417
 10
468.067159
 20
244.094485
 10
468.120256
 20
244.241521
 10
468.185928
 20
244.391262
 10
468.264291
 20
244.543442
 10
468.355459
 20
244.697794
 10
468.459547
 20
244.854056
 10
468.576671
 20
245.011961
 10
468.706944
 20
245.171244
 10
468.850484
 20
245.331639
 10
469.127031
 20
245.632266
 10
469.236899
 20
245.760535
 10
469.32845
 20
245.879235
 10
469.402145
 20
245.992213
 10
469.45845
 20
246.103315
 10
469.497827
 20
246.216388
 10
469.520739
 20
246.335277
 10
469.527653
 20
246.463828
 10
469.519028
 20
246.605889
 10
469.495332
 20
246.765304
 10
469.457026
 20
246.945922
 10
469.338439
 20
247.386146
 10
469.166978
 20
247.957331
 10
468.99123
 20
248.527194
 10
468.842633
 20
248.958173
 10
468.771636
 20
249.128721
 10
468.699171
 20
249.273114
 10
468.622485
 20
249.394208
 10
468.538829
 20
249.494861
 10
468.445449
 20
249.577926
 10
468.339594
 20
249.646261
 10
468.218511
 20
249.70272
 10
468.079449
 20
249.75016
 10
467.919656
 20
249.791435
 10
467.73638
 20
249.829403
 10
467.288372
 20
249.906836
 10
466.731198
 20
250.01054
 10
466.494225
 20
250.0652
 10
466.283274
 20
250.123056
 10
466.097057
 20
250.185102
 10
465.934282
 20
250.252329
 10
465.793661
 20
250.325732
 10
465.673905
 20
250.406303
 10
465.573721
 20
250.495034
 10
465.491822
 20
250.592918
 10
465.426917
 20
250.700948
 10
465.377717
 20
250.820117
 10
465.342931
 20
250.951419
 10
465.32127
 20
251.095844
 10
465.311445
 20
251.254387
 10
465.312164
 20
251.428041
 10
465.321642
 20
251.568444
 10
465.341371
 20
251.705001
 10
465.371385
 20
251.837752
 10
465.411714
 20
251.966737
 10
465.46239
 20
252.091998
 10
465.523445
 20
252.213574
 10
465.594909
 20
252.331508
 10
465.676815
 20
252.445838
 10
465.769194
 20
252.556606
 10
465.872078
 20
252.663852
 10
465.985496
 20
252.767618
 10
466.109483
 20
252.867942
 10
466.244067
 20
252.964868
 10
466.389282
 20
253.058435
 10
466.545159
 20
253.148682
 10
466.711729
 20
253.235653
 10
466.834418
 20
253.307918
 10
466.940243
 20
253.395254
 10
467.029178
 20
253.498733
 10
467.101205
 20
253.619427
 10
467.156298
 20
253.758405
 10
467.194438
 20
253.916741
 10
467.215602
 20
254.095503
 10
467.219769
 20
254.295767
 10
467.206914
 20
254.5186
 10
467.177019
 20
254.765075
 10
467.130059
 20
255.036264
 10
467.066013
 20
255.333236
 10
466.984859
 20
255.657066
 10
466.886576
 20
256.008822
 10
466.63853
 20
256.800401
 10
466.462965
 20
257.362021
 10
466.322214
 20
257.896298
 10
466.263702
 20
258.163514
 10
466.212465
 20
258.436291
 10
466.168026
 20
258.71876
 10
466.129907
 20
259.015054
 10
466.070731
 20
259.665647
 10
466.031122
 20
260.421124
 10
466.007271
 20
261.314545
 10
465.995367
 20
262.378965
 10
465.999494
 20
263.265913
 10
466.023154
 20
264.140828
 10
466.066635
 20
265.005232
 10
466.130224
 20
265.860651
 10
466.214209
 20
266.708608
 10
466.31888
 20
267.550628
 10
466.444523
 20
268.388235
 10
466.591428
 20
269.222952
 10
466.759882
 20
270.056306
 10
466.950175
 20
270.889819
 10
467.162592
 20
271.725018
 10
467.397424
 20
272.563423
 10
467.654958
 20
273.406562
 10
467.935482
 20
274.255958
 10
468.239284
 20
275.113135
 10
468.566653
 20
275.979618
 10
470.277282
 20
280.347333
 10
470.573724
 20
281.107486
 10
470.679991
 20
281.41568
 10
470.752847
 20
281.68106
 10
470.775468
 20
281.798893
 10
470.788205
 20
281.90746
 10
470.790547
 20
282.007239
 10
470.781984
 20
282.098709
 10
470.762005
 20
282.18235
 10
470.730098
 20
282.258641
 10
470.685756
 20
282.328059
 10
470.628466
 20
282.391086
 10
470.557719
 20
282.448198
 10
470.473003
 20
282.499876
 10
470.373808
 20
282.546599
 10
470.259625
 20
282.588843
 10
469.984249
 20
282.66182
 10
469.642791
 20
282.722636
 10
469.231169
 20
282.775125
 10
468.745298
 20
282.823118
 10
467.534474
 20
282.92094
 10
464.29948
 20
283.171387
 10
463.091942
 20
283.587927
 10
462.838987
 20
283.68213
 10
462.582923
 20
283.790368
 10
462.330791
 20
283.908817
 10
462.089631
 20
284.033651
 10
461.866482
 20
284.161047
 10
461.668386
 20
284.28718
 10
461.502382
 20
284.408225
 10
461.37551
 20
284.520358
 10
461.083746
 20
284.802407
 10
460.665531
 20
285.188998
 10
460.176722
 20
285.629216
 10
459.673178
 20
286.07214
 10
459.469716
 20
286.257807
 10
459.265294
 20
286.462187
 10
459.060198
 20
286.684656
 10
458.854713
 20
286.924595
 10
458.649124
 20
287.181383
 10
458.443716
 20
287.454398
 10
458.238773
 20
287.74302
 10
458.034583
 20
288.046627
 10
457.831428
 20
288.364597
 10
457.629593
 20
288.696312
 10
457.429365
 20
289.04115
 10
457.231028
 20
289.398489
 10
456.841166
 20
290.148188
 10
456.46229
 20
290.94044
 10
456.096678
 20
291.770278
 10
455.74661
 20
292.632734
 10
455.414367
 20
293.52284
 10
455.10223
 20
294.435627
 10
454.812477
 20
295.366129
 10
454.547391
 20
296.309377
 10
454.30925
 20
297.260401
 10
454.100334
 20
298.214236
 10
453.962886
 20
298.961296
 10
453.846835
 20
299.739202
 10
453.752074
 20
300.543346
 10
453.678495
 20
301.369118
 10
453.625987
 20
302.211911
 10
453.594445
 20
303.067115
 10
453.583757
 20
303.930122
 10
453.593817
 20
304.796325
 10
453.624515
 20
305.661113
 10
453.675744
 20
306.51988
 10
453.747393
 20
307.368014
 10
453.839355
 20
308.20091
 10
453.951523
 20
309.013958
 10
454.083787
 20
309.802549
 10
454.236037
 20
310.562075
 10
454.408167
 20
311.287927
 10
454.607545
 20
312.028622
 10
454.82574
 20
312.774125
 10
455.062711
 20
313.524368
 10
455.318417
 20
314.279279
 10
455.592815
 20
315.038789
 10
455.885862
 20
315.802829
 10
456.197517
 20
316.571329
 10
456.52774
 20
317.344219
 10
456.876485
 20
318.121429
 10
457.243713
 20
318.902891
 10
457.629381
 20
319.688533
 10
458.033446
 20
320.478286
 10
458.455869
 20
321.272082
 10
458.896605
 20
322.069849
 10
459.355613
 20
322.871519
 10
459.832852
 20
323.677022
 10
460.328279
 20
324.486286
 10
460.841852
 20
325.299245
 10
461.37353
 20
326.115827
 10
461.923269
 20
326.935963
 10
462.491029
 20
327.759583
 10
463.076766
 20
328.586617
 10
463.680442
 20
329.416996
 10
464.30201
 20
330.250651
 10
464.941431
 20
331.08751
 10
465.598663
 20
331.927506
 10
466.273663
 20
332.770567
 10
466.966389
 20
333.616625
 10
467.6768
 20
334.465609
 10
468.404853
 20
335.31745
 10
469.150506
 20
336.172078
 10
469.913718
 20
337.029424
 10
470.655107
 20
337.840868
 10
471.400447
 20
338.623132
 10
472.211713
 20
339.434423
 10
473.15088
 20
340.332949
 10
474.279921
 20
341.376915
 10
475.660809
 20
342.624528
 10
477.35552
 20
344.133996
 10
479.426026
 20
345.963526
 10
480.126628
 20
346.584445
 10
480.65146
 20
347.070515
 10
480.855241
 20
347.275674
 10
481.023814
 20
347.462354
 10
481.16009
 20
347.635633
 10
481.266981
 20
347.800586
 10
481.347398
 20
347.962292
 10
481.404254
 20
348.125829
 10
481.440459
 20
348.296274
 10
481.458925
 20
348.478705
 10
481.462564
 20
348.678199
 10
481.454287
 20
348.899836
 10
481.413632
 20
349.429841
 10
481.371098
 20
349.95802
 10
481.353309
 20
350.366374
 10
481.35745
 20
350.53489
 10
481.372286
 20
350.684573
 10
481.399317
 20
350.819137
 10
481.440048
 20
350.942287
 10
481.495981
 20
351.057733
 10
481.568617
 20
351.169184
 10
481.65946
 20
351.280349
 10
481.770014
 20
351.394937
 10
482.056256
 20
351.649214
 10
482.439366
 20
351.961685
 10
482.99323
 20
352.419637
 10
483.64268
 20
352.973706
 10
484.306822
 20
353.554033
 10
484.904759
 20
354.090758
 10
485.435463
 20
354.560846
 10
485.916544
 20
354.959734
 10
486.295067
 20
355.245274
 10
486.429325
 20
355.332367
 10
486.518092
 20
355.375315
 10
486.55185
 20
355.394489
 10
486.586256
 20
355.43148
 10
486.621107
 20
355.485485
 10
486.656199
 20
355.555702
 10
486.726299
 20
355.741563
 10
486.794934
 20
355.982641
 10
486.860479
 20
356.272516
 10
486.921315
 20
356.60477
 10
486.975818
 20
356.972981
 10
487.022365
 20
357.370731
 10
487.062338
 20
357.80171
 10
487.087099
 20
358.176603
 10
487.094966
 20
358.495642
 10
487.084258
 20
358.759061
 10
487.05329
 20
358.967096
 10
487.029685
 20
359.050418
 10
487.000384
 20
359.119981
 10
486.965178
 20
359.175815
 10
486.923856
 20
359.217949
 10
486.876209
 20
359.246413
 10
486.822024
 20
359.261235
 10
486.761095
 20
359.262445
 10
486.693208
 20
359.250074
 10
486.618155
 20
359.224148
 10
486.535724
 20
359.184698
 10
486.34789
 20
359.065344
 10
486.128026
 20
358.892244
 10
485.874449
 20
358.665634
 10
485.585477
 20
358.385747
 10
485.259428
 20
358.052817
 10
484.894621
 20
357.667079
 10
484.48938
 20
357.245765
 10
484.09539
 20
356.864651
 10
483.706733
 20
356.521526
 10
483.317487
 20
356.214181
 10
483.120794
 20
356.073235
 10
482.921733
 20
355.940404
 10
482.719566
 20
355.815413
 10
482.513551
 20
355.697985
 10
482.30295
 20
355.587843
 10
482.087021
 20
355.484712
 10
481.865025
 20
355.388315
 10
481.636222
 20
355.298376
 10
481.399872
 20
355.214619
 10
481.155235
 20
355.136765
 10
480.901571
 20
355.064542
 10
480.638139
 20
354.99767
 10
480.079016
 20
354.878879
 10
479.471943
 20
354.778182
 10
478.811002
 20
354.693368
 10
478.090272
 20
354.622227
 10
477.303834
 20
354.562547
 10
476.445767
 20
354.512119
 10
475.66203
 20
354.477791
 10
474.900171
 20
354.457457
 10
474.159463
 20
354.451199
 10
473.439179
 20
354.4591
 10
472.738593
 20
354.481243
 10
472.056978
 20
354.51771
 10
471.393607
 20
354.568586
 10
470.747753
 20
354.633951
 10
470.118691
 20
354.713889
 10
469.505692
 20
354.808483
 10
468.908031
 20
354.917816
 10
468.324981
 20
355.041971
 10
467.755815
 20
355.181029
 10
467.199807
 20
355.335076
 10
466.656229
 20
355.504192
 10
466.124356
 20
355.68846
 10
465.303113
 20
355.998492
 10
464.956827
 20
356.139495
 10
464.650478
 20
356.273554
 10
464.381852
 20
356.402469
 10
464.148734
 20
356.528035
 10
463.948908
 20
356.652052
 10
463.780162
 20
356.776317
 10
463.640279
 20
356.902628
 10
463.527046
 20
357.032785
 10
463.438246
 20
357.168586
 10
463.371667
 20
357.311826
 10
463.325092
 20
357.464306
 10
463.296308
 20
357.627824
 10
463.283099
 20
357.804176
 10
463.283251
 20
357.995163
 10
463.297214
 20
358.236736
 10
463.325221
 20
358.453282
 10
463.369845
 20
358.64596
 10
463.433654
 20
358.815933
 10
463.473559
 20
358.892768
 10
463.519223
 20
358.964361
 10
463.570971
 20
359.030858
 10
463.629122
 20
359.092404
 10
463.693998
 20
359.149145
 10
463.765921
 20
359.201225
 10
463.845211
 20
359.248789
 10
463.932192
 20
359.291983
 10
464.130505
 20
359.365839
 10
464.363433
 20
359.423956
 10
464.633546
 20
359.467492
 10
464.943416
 20
359.49761
 10
465.295613
 20
359.515471
 10
465.692709
 20
359.522235
 10
466.137276
 20
359.519062
 10
466.631883
 20
359.507115
 10
467.377111
 20
359.488379
 10
467.974916
 20
359.486684
 10
468.228241
 20
359.493959
 10
468.456358
 20
359.507574
 10
468.66315
 20
359.528221
 10
468.8525
 20
359.556592
 10
469.028289
 20
359.593381
 10
469.194401
 20
359.639282
 10
469.35472
 20
359.694985
 10
469.513125
 20
359.761186
 10
469.673503
 20
359.838575
 10
469.839734
 20
359.927846
 10
470.205287
 20
360.144809
 10
470.395722
 20
360.268775
 10
470.577983
 20
360.400456
 10
470.751992
 20
360.539545
 10
470.917669
 20
360.685737
 10
471.074933
 20
360.838726
 10
471.223704
 20
360.998207
 10
471.363901
 20
361.163873
 10
471.495446
 20
361.33542
 10
471.618259
 20
361.512542
 10
471.732258
 20
361.694933
 10
471.837364
 20
361.882287
 10
471.933498
 20
362.0743
 10
472.020578
 20
362.270664
 10
472.098527
 20
362.471076
 10
472.167261
 20
362.675228
 10
472.226704
 20
362.882817
 10
472.276773
 20
363.093536
 10
472.31739
 20
363.307078
 10
472.348473
 20
363.52314
 10
472.369943
 20
363.741415
 10
472.381721
 20
363.961598
 10
472.383726
 20
364.183382
 10
472.375879
 20
364.406463
 10
472.358098
 20
364.630535
 10
472.330304
 20
364.855293
 10
472.292417
 20
365.08043
 10
472.244357
 20
365.305641
 10
472.186045
 20
365.530621
 10
472.117399
 20
365.755063
 10
472.038341
 20
365.978663
 10
471.94879
 20
366.201115
 10
471.848666
 20
366.422113
 10
471.74773
 20
366.603318
 10
471.621015
 20
366.781356
 10
471.470581
 20
366.955126
 10
471.29849
 20
367.123526
 10
471.106804
 20
367.28545
 10
470.897583
 20
367.439798
 10
470.672888
 20
367.585465
 10
470.434783
 20
367.72135
 10
470.185327
 20
367.846347
 10
469.926582
 20
367.959357
 10
469.660609
 20
368.059274
 10
469.38947
 20
368.144995
 10
469.115227
 20
368.215419
 10
468.839939
 20
368.269443
 10
468.565668
 20
368.305961
 10
468.294476
 20
368.323874
 10
468.093003
 20
368.325712
 10
467.89454
 20
368.318773
 10
467.699067
 20
368.303039
 10
467.506562
 20
368.278493
 10
467.317001
 20
368.245111
 10
467.130365
 20
368.202878
 10
466.946632
 20
368.151775
 10
466.765778
 20
368.091781
 10
466.587782
 20
368.022879
 10
466.412623
 20
367.945048
 10
466.240279
 20
367.85827
 10
466.070726
 20
367.762527
 10
465.903945
 20
367.6578
 10
465.739913
 20
367.544068
 10
465.578607
 20
367.421314
 10
465.420007
 20
367.289517
 10
465.26409
 20
367.14866
 10
465.110833
 20
366.998724
 10
464.960217
 20
366.839689
 10
464.812218
 20
366.671536
 10
464.666815
 20
366.494247
 10
464.523986
 20
366.307803
 10
464.245961
 20
365.907371
 10
463.977969
 20
365.47009
 10
463.719834
 20
364.995808
 10
463.471384
 20
364.484372
 10
463.23244
 20
363.935633
 10
463.13309
 20
363.706929
 10
463.08408
 20
363.616611
 10
463.030476
 20
363.542076
 10
462.968504
 20
363.483147
 10
462.894386
 20
363.439646
 10
462.804347
 20
363.411395
 10
462.694609
 20
363.398215
 10
462.561396
 20
363.399928
 10
462.400932
 20
363.416356
 10
462.209439
 20
363.44732
 10
461.983143
 20
363.492643
 10
461.411032
 20
363.625651
 10
460.654388
 20
363.813953
 10
458.363769
 20
364.388549
 10
457.891253
 20
364.843257
 10
457.776048
 20
364.959164
 10
457.678453
 20
365.069622
 10
457.598862
 20
365.176371
 10
457.537665
 20
365.281153
 10
457.495255
 20
365.385707
 10
457.472021
 20
365.491774
 10
457.468356
 20
365.601097
 10
457.484653
 20
365.715413
 10
457.521302
 20
365.836466
 10
457.578694
 20
365.965994
 10
457.657222
 20
366.105738
 10
457.757277
 20
366.257441
 10
457.879251
 20
366.422841
 10
458.023534
 20
366.603681
 10
458.380598
 20
367.018639
 10
458.648291
 20
367.328639
 10
458.858561
 20
367.596124
 10
459.016529
 20
367.833475
 10
459.077502
 20
367.94472
 10
459.127321
 20
368.053075
 10
459.166627
 20
368.160087
 10
459.196061
 20
368.267306
 10
459.216263
 20
368.376278
 10
459.227872
 20
368.48855
 10
459.22788
 20
368.729189
 10
459.201207
 20
369.001606
 10
459.180055
 20
369.210144
 10
459.173036
 20
369.404878
 10
459.180144
 20
369.585803
 10
459.201376
 20
369.752913
 10
459.236726
 20
369.906203
 10
459.286191
 20
370.045667
 10
459.349765
 20
370.171299
 10
459.427444
 20
370.283093
 10
459.519224
 20
370.381046
 10
459.625101
 20
370.46515
 10
459.745067
 20
370.535399
 10
459.879122
 20
370.591788
 10
460.027259
 20
370.634313
 10
460.189474
 20
370.662967
 10
460.365762
 20
370.677744
 10
460.556119
 20
370.678638
 10
460.774026
 20
370.676305
 10
460.945097
 20
370.685745
 10
461.072635
 20
370.709341
 10
461.121112
 20
370.727192
 10
461.159944
 20
370.749474
 10
461.189546
 20
370.776485
 10
461.210331
 20
370.808523
 10
461.222712
 20
370.845885
 10
461.227101
 20
370.888869
 10
461.213557
 20
370.992893
 10
461.173007
 20
371.122975
 10
461.097552
 20
371.381421
 10
461.01955
 20
371.738766
 10
460.948199
 20
372.147812
 10
460.892698
 20
372.561362
 10
460.873927
 20
372.804513
 10
460.874648
 20
373.023267
 10
460.895163
 20
373.217768
 10
460.935769
 20
373.388157
 10
460.99677
 20
373.534577
 10
461.035012
 20
373.598843
 10
461.078465
 20
373.65717
 10
461.127168
 20
373.709575
 10
461.181156
 20
373.756078
 10
461.240469
 20
373.796694
 10
461.305144
 20
373.831442
 10
461.450729
 20
373.883406
 10
461.618212
 20
373.91211
 10
461.807894
 20
373.917698
 10
462.020076
 20
373.900311
 10
462.255058
 20
373.860091
 10
462.513142
 20
373.797181
 10
462.794627
 20
373.711723
 10
463.099817
 20
373.603858
 10
463.358654
 20
373.510168
 10
463.590612
 20
373.434576
 10
463.797191
 20
373.378185
 10
463.97989
 20
373.342096
 10
464.140211
 20
373.327411
 10
464.279653
 20
373.335232
 10
464.399716
 20
373.366661
 10
464.452949
 20
373.391573
 10
464.501901
 20
373.422801
 10
464.587709
 20
373.504752
 10
464.658638
 20
373.613618
 10
464.716191
 20
373.750501
 10
464.761867
 20
373.916501
 10
464.797166
 20
374.112722
 10
464.823588
 20
374.340264
 10
464.855803
 20
374.893726
 10
464.871546
 20
375.141496
 10
464.900928
 20
375.372658
 10
464.943721
 20
375.586971
 10
464.999691
 20
375.784191
 10
465.068606
 20
375.964079
 10
465.150238
 20
376.126391
 10
465.244351
 20
376.270888
 10
465.350715
 20
376.397325
 10
465.4691
 20
376.505462
 10
465.599273
 20
376.595057
 10
465.741001
 20
376.66587
 10
465.894054
 20
376.717656
 10
466.058201
 20
376.750175
 10
466.23321
 20
376.763185
 10
466.418849
 20
376.756445
 10
466.614885
 20
376.729712
  0
LWPOLYLINE
  5
33
330
1F
100
AcDbEntity
  8
0
100
AcDbPolyline
 90
     1512
 70
   128
 43
0.0
 10
503.105268
 20
178.132877
 10
504.846875
 20
178.403293
 10
504.955544
 20
178.425504
 10
505.075688
 20
178.459258
 10
505.346916
 20
178.559442
 10
505.653582
 20
178.699948
 10
505.988709
 20
178.876879
 10
506.34532
 20
179.086338
 10
506.716437
 20
179.324428
 10
507.095084
 20
179.587251
 10
507.474283
 20
179.870911
 10
509.17565
 20
181.191667
 10
509.530716
 20
181.191667
 10
509.572689
 20
181.186371
 10
509.624871
 20
181.170832
 10
509.756843
 20
181.111121
 10
509.920588
 20
181.016719
 10
510.11006
 20
180.891814
 10
510.319217
 20
180.740591
 10
510.542013
 20
180.567239
 10
510.772406
 20
180.375943
 10
511.004349
 20
180.170891
 10
511.546395
 20
179.690038
 10
511.788309
 20
179.48931
 10
512.015714
 20
179.313047
 10
512.232283
 20
179.159752
 10
512.441689
 20
179.027924
 10
512.647604
 20
178.916066
 10
512.853701
 20
178.822678
 10
513.063654
 20
178.746261
 10
513.281135
 20
178.685317
 10
513.509817
 20
178.638345
 10
513.753373
 20
178.603847
 10
514.015476
 20
178.580325
 10
514.299799
 20
178.566278
 10
514.949793
 20
178.560616
 10
515.318104
 20
178.569977
 10
515.674074
 20
178.591896
 10
516.019598
 20
178.627086
 10
516.356573
 20
178.676258
 10
516.686895
 20
178.740125
 10
517.012458
 20
178.819397
 10
517.335158
 20
178.914788
 10
517.656891
 20
179.027008
 10
517.979554
 20
179.15677
 10
518.30504
 20
179.304785
 10
518.635246
 20
179.471766
 10
518.972068
 20
179.658423
 10
519.317402
 20
179.86547
 10
519.673142
 20
180.093618
 10
520.041184
 20
180.343578
 10
520.423425
 20
180.616063
 10
520.98219
 20
181.039102
 10
521.229875
 20
181.240199
 10
521.45629
 20
181.434743
 10
521.66133
 20
181.623033
 10
521.844891
 20
181.805364
 10
522.006869
 20
181.982034
 10
522.14716
 20
182.15334
 10
522.265661
 20
182.319579
 10
522.362266
 20
182.481049
 10
522.436873
 20
182.638045
 10
522.489376
 20
182.790865
 10
522.519672
 20
182.939806
 10
522.527656
 20
183.085165
 10
522.513226
 20
183.22724
 10
522.476275
 20
183.366327
 10
522.416702
 20
183.502722
 10
522.3344
 20
183.636725
 10
522.229267
 20
183.76863
 10
522.101198
 20
183.898736
 10
521.95009
 20
184.027339
 10
521.775837
 20
184.154736
 10
521.578336
 20
184.281225
 10
521.357484
 20
184.407102
 10
521.113175
 20
184.532664
 10
520.845306
 20
184.658209
 10
520.553773
 20
184.784034
 10
520.238471
 20
184.910435
 10
519.536147
 20
185.166155
 10
518.7375
 20
185.427745
 10
518.136073
 20
185.622135
 10
517.668936
 20
185.790149
 10
517.482029
 20
185.867138
 10
517.324258
 20
185.940979
 10
517.194144
 20
186.012822
 10
517.090207
 20
186.083815
 10
517.01097
 20
186.155108
 10
516.954953
 20
186.227848
 10
516.920677
 20
186.303184
 10
516.906664
 20
186.382267
 10
516.911434
 20
186.466243
 10
516.933508
 20
186.556262
 10
516.971408
 20
186.653474
 10
517.023654
 20
186.759026
 10
517.060875
 20
186.81877
 10
517.106604
 20
186.874897
 10
517.16076
 20
186.927406
 10
517.223267
 20
186.976294
 10
517.373017
 20
187.063203
 10
517.555224
 20
187.135609
 10
517.769261
 20
187.193499
 10
518.014499
 20
187.23686
 10
518.290311
 20
187.265678
 10
518.596068
 20
187.279939
 10
518.931143
 20
187.27963
 10
519.294907
 20
187.264736
 10
519.686732
 20
187.235244
 10
520.10599
 20
187.191141
 10
520.552053
 20
187.132413
 10
521.024293
 20
187.059046
 10
521.522082
 20
186.971026
 10
522.044792
 20
186.86834
 10
523.122793
 20
186.651837
 10
524.100796
 20
186.46773
 10
524.986236
 20
186.316621
 10
525.786546
 20
186.199108
 10
526.50916
 20
186.115791
 10
526.843654
 20
186.087144
 10
527.161512
 20
186.067271
 10
527.463662
 20
186.056248
 10
527.751035
 20
186.054148
 10
528.024559
 20
186.061048
 10
528.285164
 20
186.077022
 10
528.533778
 20
186.102144
 10
528.771331
 20
186.136491
 10
528.998753
 20
186.180137
 10
529.216972
 20
186.233157
 10
529.426918
 20
186.295627
 10
529.62952
 20
186.36762
 10
529.825707
 20
186.449212
 10
530.016409
 20
186.540479
 10
530.202554
 20
186.641494
 10
530.385072
 20
186.752334
 10
530.564893
 20
186.873072
 10
530.742944
 20
187.003785
 10
530.920156
 20
187.144547
 10
531.097458
 20
187.295432
 10
531.456048
 20
187.627876
 10
531.58649
 20
187.760496
 10
531.716073
 20
187.903849
 10
531.972584
 20
188.222543
 10
532.225416
 20
188.583537
 10
532.474404
 20
188.986411
 10
532.719383
 20
189.430744
 10
532.960188
 20
189.916114
 10
533.196655
 20
190.442103
 10
533.428619
 20
191.008288
 10
533.655915
 20
191.614249
 10
533.878378
 20
192.259566
 10
534.095843
 20
192.943818
 10
534.308146
 20
193.666583
 10
534.515121
 20
194.427443
 10
534.716604
 20
195.225975
 10
534.912431
 20
196.061759
 10
535.102435
 20
196.934375
 10
535.360304
 20
198.221338
 10
535.584381
 20
199.4691
 10
535.774696
 20
200.684345
 10
535.857201
 20
201.281862
 10
535.931278
 20
201.873757
 10
535.996928
 20
202.460866
 10
536.054157
 20
203.044023
 10
536.102968
 20
203.624064
 10
536.143364
 20
204.201825
 10
536.175349
 20
204.778142
 10
536.198927
 20
205.35385
 10
536.214102
 20
205.929785
 10
536.220877
 20
206.506782
 10
536.219257
 20
207.085677
 10
536.209244
 20
207.667306
 10
536.190843
 20
208.252503
 10
536.164057
 20
208.842105
 10
536.128891
 20
209.436948
 10
536.085347
 20
210.037866
 10
536.033429
 20
210.645696
 10
535.973142
 20
211.261273
 10
535.827473
 20
212.51901
 10
535.64837
 20
213.817763
 10
535.435862
 20
215.164216
 10
535.189979
 20
216.565053
 10
534.597671
 20
219.791565
 10
534.464677
 20
219.924559
 10
534.420208
 20
219.939465
 10
534.025727
 20
219.937517
 42
0.067083
 10
533.946361
 20
219.926421
 10
526.196584
 20
217.757656
 10
525.657594
 20
219.683659
 10
533.920273
 20
221.99596
 42
0.374586
 10
534.134932
 20
222.338152
 10
534.132724
 20
222.295571
 10
534.108649
 20
222.284463
 10
534.114324
 20
222.489078
 10
534.025718
 20
222.977443
 10
533.881257
 20
223.686902
 10
533.695296
 20
224.543687
 10
533.179433
 20
226.857884
 42
0.421369
 10
532.814232
 20
227.083748
 10
522.293791
 20
224.467971
 10
521.811209
 20
226.408877
 10
532.350583
 20
229.029361
 42
0.332969
 10
532.577938
 20
229.308078
 10
532.578987
 20
229.333385
 10
532.570469
 20
229.471508
 10
532.550529
 20
229.645931
 10
532.480784
 20
230.082841
 10
532.378554
 20
230.602446
 10
532.252639
 20
231.163076
 10
532.111839
 20
231.723061
 10
531.964956
 20
232.240733
 10
531.820789
 20
232.674421
 10
531.74885
 20
232.85136
 10
531.710253
 20
232.921699
 10
531.665765
 20
232.980282
 10
531.612284
 20
233.027358
 10
531.546706
 20
233.063174
 10
531.21744
 20
233.164288
 42
0.117092
 10
531.079121
 20
233.173267
 10
518.015962
 20
230.953778
 10
517.680954
 20
232.92552
 10
530.892445
 20
235.170212
 42
0.338954
 10
531.143263
 20
235.462858
 10
531.131678
 20
235.439536
 10
531.126897
 20
235.423615
 10
531.160047
 20
235.638447
 10
531.156862
 20
235.851493
 10
531.136982
 20
236.118637
 10
531.101252
 20
236.43109
 10
531.050513
 20
236.780065
 10
530.98561
 20
237.156773
 10
530.907385
 20
237.552427
 10
530.481064
 20
239.579084
 42
0.387572
 10
530.152909
 20
239.815329
 10
513.458924
 20
237.878147
 10
513.22839
 20
239.864817
 10
529.304668
 20
241.730319
 42
0.185272
 10
529.495135
 20
241.829942
 10
529.834702
 20
242.21516
 10
529.878899
 20
242.278791
 10
529.916322
 20
242.34807
 10
529.947466
 20
242.423396
 10
529.972825
 20
242.50517
 10
530.008164
 20
242.689662
 10
530.026295
 20
242.904751
 10
530.031172
 20
243.153639
 10
530.016983
 20
243.765625
 10
529.982874
 20
244.67987
 10
529.96226
 20
245.052321
 10
529.936769
 20
245.372934
 10
529.904523
 20
245.645164
 10
529.863646
 20
245.87247
 10
529.81226
 20
246.058306
 10
529.748487
 20
246.20613
 10
529.71137
 20
246.266868
 10
529.670451
 20
246.319399
 10
529.652704
 20
246.337068
 42
0.22133
 10
529.41465
 20
246.423305
 10
512.23126
 20
244.905845
 10
512.055326
 20
246.898091
 10
529.353651
 20
248.425702
 42
0.24052
 10
529.656072
 20
248.689962
 10
529.64063
 20
248.675123
 10
529.756961
 20
248.858819
 10
529.811971
 20
249.014257
 10
529.8607
 20
249.23923
 10
529.902352
 20
249.527077
 10
529.936133
 20
249.871136
 10
529.961246
 20
250.264744
 10
529.976898
 20
250.701238
 10
529.982292
 20
251.173958
 10
529.982292
 20
253.478007
 42
0.438566
 10
529.657594
 20
253.776989
 10
512.325216
 20
252.345187
 10
512.16056
 20
254.338397
 10
529.804386
 20
255.795928
 42
0.339554
 10
530.061675
 20
256.035286
 10
530.069727
 20
256.062514
 10
530.081729
 20
256.079263
 10
530.118861
 20
256.284463
 10
530.139193
 20
256.521595
 10
530.149406
 20
256.818661
 10
530.149347
 20
257.165893
 10
530.138861
 20
257.553522
 10
530.117795
 20
257.971779
 10
530.085995
 20
258.410893
 10
530.024051
 20
259.124859
 10
529.962632
 20
259.659745
 10
529.926996
 20
259.867463
 10
529.885345
 20
260.039329
 10
529.835628
 20
260.178313
 10
529.775797
 20
260.287389
 10
529.703803
 20
260.369528
 10
529.618822
 20
260.426876
 42
0.171776
 10
529.424993
 20
260.477071
 10
512.437872
 20
258.99835
 10
512.264428
 20
260.990816
 10
529.008318
 20
262.448363
 42
0.337289
 10
529.288293
 20
262.772974
 10
529.298793
 20
262.808982
 10
529.334968
 20
263.004733
 10
529.345937
 20
263.187592
 10
529.333236
 20
263.404779
 10
529.297914
 20
263.659259
 10
529.241022
 20
263.954
 10
529.163608
 20
264.291969
 10
528.951415
 20
265.109456
 10
528.616819
 20
266.329546
 10
528.277364
 20
267.53355
 10
527.930843
 20
268.728008
 10
527.575047
 20
269.919463
 10
527.20777
 20
271.114454
 10
526.826805
 20
272.319524
 10
526.429943
 20
273.541212
 10
526.014977
 20
274.786061
 10
525.579699
 20
276.060611
 10
525.121903
 20
277.371403
 10
524.639381
 20
278.724978
 10
524.129925
 20
280.127878
 10
523.591328
 20
281.586643
 10
523.021382
 20
283.107815
 10
521.778614
 20
286.363542
 10
519.484092
 20
292.58125
 10
519.350327
 20
293.00371
 10
519.223859
 20
293.443915
 10
519.107576
 20
293.888936
 10
519.004366
 20
294.325841
 10
518.917116
 20
294.741702
 10
518.848714
 20
295.123588
 10
518.802048
 20
295.458569
 10
518.780007
 20
295.733715
 10
518.769583
 20
296.108056
 10
518.775211
 20
296.396173
 10
518.786932
 20
296.512477
 10
518.806131
 20
296.612721
 10
518.833963
 20
296.698736
 10
518.871583
 20
296.772354
 10
518.920148
 20
296.835407
 10
518.98081
 20
296.889726
 10
519.054726
 20
296.937143
 10
519.143051
 20
296.97949
 10
519.367548
 20
297.056301
 10
519.663542
 20
297.134814
 10
519.846819
 20
297.189635
 10
520.032388
 20
297.261582
 10
520.218299
 20
297.348875
 10
520.402607
 20
297.449733
 10
520.583363
 20
297.562376
 10
520.758618
 20
297.685022
 10
520.926427
 20
297.815891
 10
521.08484
 20
297.953203
 10
521.231911
 20
298.095177
 10
521.365692
 20
298.240031
 10
521.484234
 20
298.385987
 10
521.585591
 20
298.531262
 10
521.667815
 20
298.674077
 10
521.728957
 20
298.81265
 10
521.767071
 20
298.945201
 10
521.780208
 20
299.06995
 10
521.772495
 20
299.113724
 10
521.749862
 20
299.167451
 10
521.662888
 20
299.301749
 10
521.525386
 20
299.466804
 10
521.343453
 20
299.656578
 10
521.123188
 20
299.865034
 10
520.870689
 20
300.086133
 10
520.592054
 20
300.313837
 10
520.293382
 20
300.542107
 10
519.80293
 20
300.906966
 10
519.43634
 20
301.195561
 10
519.294641
 20
301.319607
 10
519.178086
 20
301.434602
 10
519.084733
 20
301.543887
 10
519.012641
 20
301.6508
 10
518.95987
 20
301.75868
 10
518.924478
 20
301.870864
 10
518.904526
 20
301.990693
 10
518.89807
 20
302.121505
 10
518.903172
 20
302.266638
 10
518.91789
 20
302.429431
 10
518.968411
 20
302.821354
 10
519.042663
 20
303.323891
 10
519.117271
 20
303.714914
 10
519.157593
 20
303.872895
 10
519.201464
 20
304.008142
 10
519.250038
 20
304.12237
 10
519.304469
 20
304.217294
 10
519.36591
 20
304.294627
 10
519.435514
 20
304.356087
 10
519.514436
 20
304.403386
 10
519.603828
 20
304.43824
 10
519.704844
 20
304.462363
 10
519.818637
 20
304.477471
 10
520.089171
 20
304.4875
 10
520.271988
 20
304.495363
 10
520.457798
 20
304.518265
 10
520.644855
 20
304.55518
 10
520.831408
 20
304.605079
 10
521.01571
 20
304.666936
 10
521.196013
 20
304.739722
 10
521.370569
 20
304.822409
 10
521.537628
 20
304.91397
 10
521.695443
 20
305.013377
 10
521.842266
 20
305.119603
 10
521.976347
 20
305.23162
 10
522.09594
 20
305.3484
 10
522.199295
 20
305.468915
 10
522.284664
 20
305.592138
 10
522.3503
 20
305.717041
 10
522.394453
 20
305.842597
 10
522.421552
 20
305.972811
 10
522.435607
 20
306.105499
 10
522.436828
 20
306.240223
 10
522.425423
 20
306.376544
 10
522.4016
 20
306.514024
 10
522.365568
 20
306.652223
 10
522.317536
 20
306.790702
 10
522.257712
 20
306.929024
 10
522.186306
 20
307.066748
 10
522.103524
 20
307.203437
 10
522.009577
 20
307.338652
 10
521.904672
 20
307.471953
 10
521.789019
 20
307.602902
 10
521.662825
 20
307.73106
 10
521.5263
 20
307.855989
 10
521.379651
 20
307.97725
 10
521.202048
 20
308.125802
 10
521.130196
 20
308.196283
 10
521.069133
 20
308.267211
 10
521.018475
 20
308.340823
 10
520.977839
 20
308.419351
 10
520.946842
 20
308.505031
 10
520.9251
 20
308.600098
 10
520.912231
 20
308.706785
 10
520.90785
 20
308.827326
 10
520.923022
 20
309.118911
 10
520.967549
 20
309.492728
 10
521.038366
 20
309.966652
 10
521.101581
 20
310.342485
 10
521.168803
 20
310.68629
 10
521.240478
 20
310.998715
 10
521.317052
 20
311.280408
 10
521.398971
 20
311.532018
 10
521.486681
 20
311.754195
 10
521.580629
 20
311.947587
 10
521.681261
 20
312.112843
 10
521.789022
 20
312.250611
 10
521.90436
 20
312.361541
 10
522.02772
 20
312.44628
 10
522.159549
 20
312.505479
 10
522.300292
 20
312.539786
 10
522.450395
 20
312.549849
 10
522.610306
 20
312.536317
 10
522.78047
 20
312.499839
 10
523.005507
 20
312.444125
 10
523.224205
 20
312.400868
 10
523.436238
 20
312.369716
 10
523.641281
 20
312.350316
 10
523.839006
 20
312.342313
 10
524.029088
 20
312.345355
 10
524.211201
 20
312.359087
 10
524.385018
 20
312.383157
 10
524.550213
 20
312.417211
 10
524.70646
 20
312.460895
 10
524.853433
 20
312.513856
 10
524.990805
 20
312.575741
 10
525.118251
 20
312.646196
 10
525.235444
 20
312.724867
 10
525.342057
 20
312.811401
 10
525.437766
 20
312.905445
 10
525.522242
 20
313.006646
 10
525.595161
 20
313.114649
 10
525.656196
 20
313.229101
 10
525.705021
 20
313.349649
 10
525.74131
 20
313.475939
 10
525.764736
 20
313.607618
 10
525.774973
 20
313.744332
 10
525.771696
 20
313.885728
 10
525.754577
 20
314.031453
 10
525.723291
 20
314.181153
 10
525.677511
 20
314.334474
 10
525.616912
 20
314.491063
 10
525.541166
 20
314.650567
 10
525.449948
 20
314.812631
 10
525.342932
 20
314.976904
 10
525.219792
 20
315.14303
 10
525.101054
 20
315.302882
 10
524.998366
 20
315.460971
 10
524.91174
 20
315.618537
 10
524.841191
 20
315.77682
 10
524.786733
 20
315.93706
 10
524.748378
 20
316.100495
 10
524.726142
 20
316.268367
 10
524.720037
 20
316.441914
 10
524.730078
 20
316.622377
 10
524.756278
 20
316.810994
 10
524.798651
 20
317.009006
 10
524.857212
 20
317.217652
 10
524.931972
 20
317.438172
 10
525.022947
 20
317.671806
 10
525.130151
 20
317.919793
 10
525.253596
 20
318.183373
 10
525.384317
 20
318.439239
 10
525.517721
 20
318.671735
 10
525.654373
 20
318.881162
 10
525.79484
 20
319.067824
 10
525.939688
 20
319.232023
 10
526.089483
 20
319.374061
 10
526.244792
 20
319.494242
 10
526.40618
 20
319.592866
 10
526.574214
 20
319.670237
 10
526.74946
 20
319.726657
 10
526.932484
 20
319.762429
 10
527.123851
 20
319.777855
 10
527.32413
 20
319.773238
 10
527.533884
 20
319.74888
 10
527.753682
 20
319.705084
 10
527.984088
 20
319.642151
 10
528.235914
 20
319.570889
 10
528.455443
 20
319.523322
 10
528.649326
 20
319.50001
 10
528.824212
 20
319.501512
 10
528.986751
 20
319.528387
 10
529.143592
 20
319.581195
 10
529.301385
 20
319.660494
 10
529.466781
 20
319.766845
 10
529.627039
 20
319.889378
 10
529.752132
 20
320.012158
 10
529.802262
 20
320.0762
 10
529.844526
 20
320.143376
 10
529.879233
 20
320.21471
 10
529.906692
 20
320.291227
 10
529.92721
 20
320.373949
 10
529.941096
 20
320.463902
 10
529.950208
 20
320.669595
 10
529.936496
 20
320.916499
 10
529.902429
 20
321.212806
 10
529.865068
 20
321.432527
 10
529.812309
 20
321.657292
 10
529.746587
 20
321.880768
 10
529.670336
 20
322.096619
 10
529.585991
 20
322.298513
 10
529.495988
 20
322.480114
 10
529.402762
 20
322.63509
 10
529.308747
 20
322.757106
 10
529.218249
 20
322.871681
 10
529.142842
 20
322.998101
 10
529.082429
 20
323.135513
 10
529.036916
 20
323.283068
 10
529.006209
 20
323.439915
 10
528.990212
 20
323.605202
 10
528.98883
 20
323.778079
 10
529.001969
 20
323.957695
 10
529.029533
 20
324.1432
 10
529.071429
 20
324.333742
 10
529.127561
 20
324.528471
 10
529.197834
 20
324.726537
 10
529.282153
 20
324.927087
 10
529.380424
 20
325.129273
 10
529.492552
 20
325.332242
 10
529.618441
 20
325.535144
 10
529.761721
 20
325.740028
 10
529.830805
 20
325.824454
 10
529.900937
 20
325.897715
 10
529.974182
 20
325.960447
 10
530.052603
 20
326.013283
 10
530.138265
 20
326.05686
 10
530.233232
 20
326.091813
 10
530.339568
 20
326.118775
 10
530.459338
 20
326.138382
 10
530.747435
 20
326.15807
 10
531.114037
 20
326.155956
 10
531.575657
 20
326.137119
 10
531.929559
 20
326.125784
 10
532.254281
 20
326.128141
 10
532.54858
 20
326.14401
 10
532.811211
 20
326.17321
 10
533.040929
 20
326.215559
 10
533.236491
 20
326.270878
 10
533.396651
 20
326.338985
 10
533.463067
 20
326.377777
 10
533.520167
 20
326.419699
 10
533.613974
 20
326.513359
 10
533.695602
 20
326.626919
 10
533.765025
 20
326.75795
 10
533.82222
 20
326.904023
 10
533.867161
 20
327.062708
 10
533.899824
 20
327.231575
 10
533.920185
 20
327.408197
 10
533.928218
 20
327.590142
 10
533.9239
 20
327.774984
 10
533.907205
 20
327.960291
 10
533.878109
 20
328.143635
 10
533.836587
 20
328.322586
 10
533.782615
 20
328.494716
 10
533.716169
 20
328.657595
 10
533.637222
 20
328.808793
 10
533.545752
 20
328.945882
 10
533.467719
 20
329.058196
 10
533.39492
 20
329.180651
 10
533.32895
 20
329.309304
 10
533.271402
 20
329.44021
 10
533.223869
 20
329.569426
 10
533.187944
 20
329.693007
 10
533.16522
 20
329.80701
 10
533.157292
 20
329.907489
 10
533.157292
 20
330.355506
 10
537.904621
 20
335.987159
 10
538.989532
 20
337.813334
 10
539.227449
 20
338.225159
 10
539.446967
 20
338.629238
 10
539.648505
 20
339.02706
 10
539.832486
 20
339.420114
 10
539.999329
 20
339.809891
 10
540.149456
 20
340.197882
 10
540.283288
 20
340.585575
 10
540.401245
 20
340.97446
 10
540.503748
 20
341.366029
 10
540.591219
 20
341.761771
 10
540.664078
 20
342.163175
 10
540.722747
 20
342.571733
 10
540.767645
 20
342.988933
 10
540.799194
 20
343.416266
 10
540.817814
 20
343.855223
 10
540.823928
 20
344.307292
 10
540.81833
 20
344.751243
 10
540.801069
 20
345.180676
 10
540.771441
 20
345.598118
 10
540.728744
 20
346.0061
 10
540.672275
 20
346.40715
 10
540.601333
 20
346.803798
 10
540.515213
 20
347.198573
 10
540.413215
 20
347.594004
 10
540.294634
 20
347.99262
 10
540.158769
 20
348.396952
 10
540.004916
 20
348.809527
 10
539.832374
 20
349.232875
 10
539.640439
 20
349.669526
 10
539.42841
 20
350.122008
 10
539.195582
 20
350.592851
 10
538.941255
 20
351.084585
 10
538.698691
 20
351.530004
 10
538.44871
 20
351.960315
 10
538.19105
 20
352.375671
 10
537.925452
 20
352.776226
 10
537.651654
 20
353.162135
 10
537.369396
 20
353.53355
 10
537.078418
 20
353.890627
 10
536.778458
 20
354.233519
 10
536.469257
 20
354.562379
 10
536.150554
 20
354.877363
 10
535.822087
 20
355.178623
 10
535.483598
 20
355.466315
 10
535.134824
 20
355.740591
 10
534.775506
 20
356.001606
 10
534.405382
 20
356.249513
 10
534.024193
 20
356.484467
 10
533.631678
 20
356.706622
 10
533.227575
 20
356.916131
 10
532.811626
 20
357.113149
 10
532.383568
 20
357.297829
 10
531.943142
 20
357.470325
 10
531.490086
 20
357.630792
 10
531.024141
 20
357.779383
 10
530.545045
 20
357.916252
 10
530.052539
 20
358.041554
 10
529.54636
 20
358.155442
 10
529.02625
 20
358.258069
 10
528.491948
 20
358.349591
 10
527.943192
 20
358.43016
 10
527.379722
 20
358.499932
 10
526.801278
 20
358.559059
 10
526.207599
 20
358.607697
 10
525.45101
 20
358.659154
 10
524.854662
 20
358.688845
 10
524.389901
 20
358.693152
 10
524.19791
 20
358.684656
 10
524.028071
 20
358.668456
 10
523.876801
 20
358.644101
 10
523.740518
 20
358.611138
 10
523.615641
 20
358.569114
 10
523.498588
 20
358.517578
 10
523.385777
 20
358.456077
 10
523.273627
 20
358.384159
 10
523.036979
 20
358.207261
 10
522.878568
 20
358.06985
 10
522.736463
 20
357.922646
 10
522.612148
 20
357.768164
 10
522.507107
 20
357.608918
 10
522.422826
 20
357.447423
 10
522.360787
 20
357.286193
 10
522.322475
 20
357.127743
 10
522.309375
 20
356.974587
 10
522.319088
 20
356.824729
 10
522.350489
 20
356.684724
 10
522.406975
 20
356.553077
 10
522.49194
 20
356.428291
 10
522.60878
 20
356.30887
 10
522.760889
 20
356.193318
 10
522.951662
 20
356.08014
 10
523.184496
 20
355.967838
 10
523.462784
 20
355.854918
 10
523.789922
 20
355.739883
 10
524.169306
 20
355.621236
 10
524.60433
 20
355.497483
 10
525.65488
 20
355.228671
 10
526.968733
 20
354.921479
 10
529.85
 20
354.267059
 10
531.172917
 20
353.687031
 10
531.652038
 20
353.465268
 10
532.105653
 20
353.230974
 10
532.534501
 20
352.983338
 10
532.939321
 20
352.72155
 10
533.320852
 20
352.444798
 10
533.679835
 20
352.152272
 10
534.017008
 20
351.843159
 10
534.333111
 20
351.516649
 10
534.628882
 20
351.171931
 10
534.905063
 20
350.808194
 10
535.162391
 20
350.424626
 10
535.401607
 20
350.020417
 10
535.62345
 20
349.594755
 10
535.828658
 20
349.146829
 10
536.017972
 20
348.675828
 10
536.192131
 20
348.180942
 10
536.277233
 20
347.906354
 10
536.351138
 20
347.63361
 10
536.413748
 20
347.362436
 10
536.464964
 20
347.092559
 10
536.504688
 20
346.823706
 10
536.532823
 20
346.555605
 10
536.54927
 20
346.287981
 10
536.55393
 20
346.020564
 10
536.546706
 20
345.753078
 10
536.5275
 20
345.485252
 10
536.496214
 20
345.216812
 10
536.452748
 20
344.947486
 10
536.397006
 20
344.676999
 10
536.328888
 20
344.405081
 10
536.248298
 20
344.131457
 10
536.155136
 20
343.855854
 10
536.049305
 20
343.578
 10
535.930706
 20
343.297621
 10
535.799242
 20
343.014445
 10
535.654813
 20
342.728198
 10
535.497323
 20
342.438608
 10
535.326672
 20
342.145402
 10
535.142763
 20
341.848306
 10
534.945497
 20
341.547048
 10
534.734777
 20
341.241354
 10
534.510504
 20
340.930952
 10
534.272581
 20
340.615569
 10
534.020908
 20
340.294932
 10
533.475922
 20
339.636802
 10
532.874762
 20
338.95438
 10
529.78297
 20
335.373559
 10
529.452869
 20
334.957674
 10
529.186726
 20
334.646914
 10
529.068583
 20
334.52687
 10
528.955563
 20
334.428203
 10
528.844045
 20
334.349279
 10
528.730405
 20
334.288464
 10
528.611021
 20
334.244123
 10
528.482273
 20
334.21462
 10
528.340536
 20
334.198323
 10
528.18219
 20
334.193596
 10
527.801181
 20
334.212314
 10
527.310267
 20
334.257698
 10
526.901345
 20
334.292337
 10
526.555423
 20
334.308439
 10
526.26307
 20
334.304491
 10
526.014854
 20
334.278979
 10
525.801344
 20
334.230388
 10
525.704656
 20
334.196966
 10
525.613107
 20
334.157207
 10
525.440714
 20
334.05792
 10
525.27473
 20
333.931014
 10
525.049052
 20
333.724119
 10
524.957115
 20
333.623868
 10
524.878486
 20
333.52212
 10
524.812694
 20
333.416152
 10
524.759269
 20
333.303243
 10
524.717741
 20
333.18067
 10
524.687639
 20
333.045712
 10
524.668494
 20
332.895648
 10
524.659835
 20
332.727755
 10
524.661191
 20
332.539312
 10
524.672093
 20
332.327597
 10
524.720651
 20
331.823463
 10
524.801748
 20
331.193579
 10
524.860309
 20
330.732636
 10
524.891823
 20
330.35729
 10
524.89574
 20
330.19413
 10
524.890858
 20
330.043266
 10
524.876498
 20
329.901664
 10
524.851981
 20
329.76629
 10
524.816629
 20
329.634109
 10
524.769761
 20
329.502087
 10
524.710701
 20
329.36719
 10
524.638767
 20
329.226383
 10
524.453567
 20
328.914902
 10
524.208728
 20
328.54337
 10
523.7728
 20
327.914332
 10
523.580173
 20
327.652793
 10
523.401383
 20
327.424513
 10
523.234138
 20
327.227945
 10
523.076147
 20
327.061545
 10
522.925119
 20
326.923766
 10
522.778762
 20
326.813063
 10
522.634785
 20
326.727889
 10
522.490898
 20
326.6667
 10
522.344808
 20
326.627948
 10
522.194225
 20
326.610089
 10
522.036857
 20
326.611576
 10
521.870413
 20
326.630863
 10
521.692601
 20
326.666405
 10
521.501131
 20
326.716657
 10
521.062353
 20
326.831844
 10
520.671039
 20
326.910866
 10
520.491402
 20
326.93674
 10
520.321496
 20
326.953483
 10
520.16061
 20
326.961067
 10
520.008032
 20
326.95946
 10
519.863049
 20
326.948633
 10
519.724951
 20
326.928557
 10
519.593026
 20
326.899201
 10
519.466561
 20
326.860536
 10
519.344846
 20
326.812533
 10
519.227168
 20
326.755161
 10
519.112816
 20
326.68839
 10
519.001079
 20
326.612192
 10
518.842175
 20
326.489952
 10
518.779601
 20
326.432852
 10
518.728226
 20
326.375024
 10
518.688006
 20
326.313911
 10
518.658901
 20
326.246959
 10
518.64087
 20
326.17161
 10
518.633871
 20
326.085311
 10
518.637864
 20
325.985504
 10
518.652806
 20
325.869634
 10
518.715373
 20
325.579481
 10
518.970089
 20
324.693962
 10
519.122858
 20
324.178268
 10
519.226927
 20
323.772166
 10
519.259193
 20
323.598951
 10
519.277475
 20
323.439622
 10
519.281172
 20
323.289674
 10
519.269681
 20
323.144604
 10
519.242398
 20
322.999906
 10
519.198722
 20
322.851078
 10
519.138049
 20
322.693614
 10
519.059777
 20
322.52301
 10
518.848025
 20
322.124368
 10
518.558643
 20
321.619118
 10
518.313385
 20
321.205481
 10
518.101136
 20
320.873571
 10
517.915275
 20
320.616875
 10
517.83017
 20
320.514697
 10
517.749178
 20
320.428879
 10
517.671472
 20
320.358609
 10
517.596224
 20
320.303071
 10
517.522607
 20
320.261452
 10
517.449791
 20
320.232937
 10
517.376951
 20
320.216713
 10
517.303257
 20
320.211965
 10
517.227883
 20
320.217878
 10
517.15
 20
320.23364
 10
516.518142
 20
320.383503
 10
516.227867
 20
320.442279
 10
515.95422
 20
320.490283
 10
515.696845
 20
320.527514
 10
515.455386
 20
320.553972
 10
515.229488
 20
320.569655
 10
515.018793
 20
320.574564
 10
514.822947
 20
320.568696
 10
514.641593
 20
320.552052
 10
514.474375
 20
320.52463
 10
514.320937
 20
320.48643
 10
514.180923
 20
320.437451
 10
514.053978
 20
320.377691
 10
513.939745
 20
320.30715
 10
513.837868
 20
320.225828
 10
513.71858
 20
320.112524
 10
513.615859
 20
320.001938
 10
513.529825
 20
319.891815
 10
513.460599
 20
319.779901
 10
513.408301
 20
319.663941
 10
513.373051
 20
319.541681
 10
513.35497
 20
319.410866
 10
513.354179
 20
319.269242
 10
513.370797
 20
319.114554
 10
513.404945
 20
318.944549
 10
513.456743
 20
318.75697
 10
513.526313
 20
318.549565
 10
513.719246
 20
318.066255
 10
513.984708
 20
317.476583
 10
514.203219
 20
317.002481
 10
514.359185
 20
316.634602
 10
514.413678
 20
316.481777
 10
514.452495
 20
316.345042
 10
514.475619
 20
316.220911
 10
514.483039
 20
316.105895
 10
514.474741
 20
315.996506
 10
514.45071
 20
315.889256
 10
514.410933
 20
315.780657
 10
514.355397
 20
315.66722
 10
514.196991
 20
315.41188
 10
513.975382
 20
315.095333
 10
513.413627
 20
314.313858
 10
512.958762
 20
313.712823
 10
512.762513
 20
313.472859
 10
512.582306
 20
313.269471
 10
512.414582
 20
313.099814
 10
512.25578
 20
312.961044
 10
512.102341
 20
312.850317
 10
511.950704
 20
312.764786
 10
511.797309
 20
312.701609
 10
511.638597
 20
312.65794
 10
511.471007
 20
312.630934
 10
511.29098
 20
312.617748
 10
510.879373
 20
312.621453
 10
510.665174
 20
312.625414
 10
510.460508
 20
312.620011
 10
510.265499
 20
312.605507
 10
510.08027
 20
312.582161
 10
509.904944
 20
312.550236
 10
509.739643
 20
312.509994
 10
509.584491
 20
312.461695
 10
509.439612
 20
312.405602
 10
509.305127
 20
312.341975
 10
509.18116
 20
312.271077
 10
509.067835
 20
312.193168
 10
508.965273
 20
312.108511
 10
508.873599
 20
312.017367
 10
508.792935
 20
311.919997
 10
508.723404
 20
311.816662
 10
508.665129
 20
311.707625
 10
508.618234
 20
311.593147
 10
508.582841
 20
311.473489
 10
508.559073
 20
311.348913
 10
508.547054
 20
311.21968
 10
508.546907
 20
311.086051
 10
508.558754
 20
310.94829
 10
508.582718
 20
310.806656
 10
508.618923
 20
310.661411
 10
508.667492
 20
310.512817
 10
508.728548
 20
310.361135
 10
508.802213
 20
310.206627
 10
508.888611
 20
310.049555
 10
508.987865
 20
309.890179
 10
509.100098
 20
309.728761
 10
509.225432
 20
309.565563
 10
509.363992
 20
309.400847
 10
509.631202
 20
309.091891
 10
509.737091
 20
308.960318
 10
509.824963
 20
308.83887
 10
509.895164
 20
308.723688
 10
509.94804
 20
308.610913
 10
509.983935
 20
308.496688
 10
510.003196
 20
308.377153
 10
510.006169
 20
308.24845
 10
509.993198
 20
308.10672
 10
509.96463
 20
307.948105
 10
509.920811
 20
307.768745
 10
509.788797
 20
307.33236
 10
509.599924
 20
306.766694
 10
509.406806
 20
306.20248
 10
509.245079
 20
305.776254
 10
509.168892
 20
305.607961
 10
509.092039
 20
305.465855
 10
509.011681
 20
305.347166
 10
508.924981
 20
305.249122
 10
508.829101
 20
305.168956
 10
508.721203
 20
305.103895
 10
508.598448
 20
305.051171
 10
508.457998
 20
305.008012
 10
508.297016
 20
304.97165
 10
508.112663
 20
304.939313
 10
507.662494
 20
304.875637
 10
507.102405
 20
304.789046
 10
506.863869
 20
304.741669
 10
506.651245
 20
304.6903
 10
506.463215
 20
304.633987
 10
506.298458
 20
304.571776
 10
506.155655
 20
304.502714
 10
506.033487
 20
304.425849
 10
505.930633
 20
304.340228
 10
505.845775
 20
304.244898
 10
505.777592
 20
304.138906
 10
505.724765
 20
304.0213
 10
505.685974
 20
303.891125
 10
505.6599
 20
303.747431
 10
505.645224
 20
303.589263
 10
505.640625
 20
303.415669
 10
505.645798
 20
303.275041
 10
505.661336
 20
303.137944
 10
505.68727
 20
303.004336
 10
505.72363
 20
302.874176
 10
505.770446
 20
302.747422
 10
505.827749
 20
302.624033
 10
505.895568
 20
302.503966
 10
505.973934
 20
302.387181
 10
506.062877
 20
302.273636
 10
506.162428
 20
302.163289
 10
506.272615
 20
302.056099
 10
506.393471
 20
301.952024
 10
506.525024
 20
301.851022
 10
506.667305
 20
301.753052
 10
506.820345
 20
301.658073
 10
506.984173
 20
301.566042
 10
507.104592
 20
301.490053
 10
507.207692
 20
301.399517
 10
507.293417
 20
301.293363
 10
507.361713
 20
301.17052
 10
507.412524
 20
301.02992
 10
507.445797
 20
300.87049
 10
507.461477
 20
300.691163
 10
507.459508
 20
300.490866
 10
507.439835
 20
300.268531
 10
507.402405
 20
300.023087
 10
507.347162
 20
299.753464
 10
507.274051
 20
299.458592
 10
507.183018
 20
299.1374
 10
507.074008
 20
298.788819
 10
506.801836
 20
298.005208
 10
506.609153
 20
297.449228
 10
506.452105
 20
296.919512
 10
506.385437
 20
296.654213
 10
506.32587
 20
296.383134
 10
506.272801
 20
296.102158
 10
506.225626
 20
295.80717
 10
506.146552
 20
295.158695
 10
506.083825
 20
294.404785
 10
506.032623
 20
293.512514
 10
505.988126
 20
292.448958
 10
505.965088
 20
291.562299
 10
505.961942
 20
290.68707
 10
505.978929
 20
289.82174
 10
506.01629
 20
288.964775
 10
506.074267
 20
288.114643
 10
506.153101
 20
287.269813
 10
506.253033
 20
286.428751
 10
506.374305
 20
285.589926
 10
506.517158
 20
284.751804
 10
506.681834
 20
283.912854
 10
506.868573
 20
283.071542
 10
507.077618
 20
282.226338
 10
507.309209
 20
281.375707
 10
507.563588
 20
280.518118
 10
507.840996
 20
279.652039
 10
508.141675
 20
278.775937
 10
509.717737
 20
274.357881
 10
509.990759
 20
273.589006
 10
510.087538
 20
273.277702
 10
510.152232
 20
273.010215
 10
510.171234
 20
272.891745
 10
510.18064
 20
272.782839
 10
510.179925
 20
272.683035
 10
510.168564
 20
272.59187
 10
510.146033
 20
272.50888
 10
510.111805
 20
272.433602
 10
510.065358
 20
272.365574
 10
510.006164
 20
272.304332
 10
509.933701
 20
272.249413
 10
509.847442
 20
272.200354
 10
509.746863
 20
272.156691
 10
509.63144
 20
272.117963
 10
509.353958
 20
272.053454
 10
509.010798
 20
272.003124
 10
508.597761
 20
271.963266
 10
508.110648
 20
271.930176
 10
506.897396
 20
271.869482
 10
503.65625
 20
271.718227
 10
502.436521
 20
271.338864
 10
502.1808
 20
271.252452
 10
501.921541
 20
271.152107
 10
501.6659
 20
271.041436
 10
501.42103
 20
270.924046
 10
501.194084
 20
270.803544
 10
500.992218
 20
270.683537
 10
500.822585
 20
270.567633
 10
500.692338
 20
270.459438
 10
500.392073
 20
270.186457
 10
499.962214
 20
269.812855
 10
499.460153
 20
269.387814
 10
498.94328
 20
268.960519
 10
498.734227
 20
268.78117
 10
498.523642
 20
268.583147
 10
498.311829
 20
268.367063
 10
498.099092
 20
268.13353
 10
497.885735
 20
267.883159
 10
497.672062
 20
267.616563
 10
497.458376
 20
267.334353
 10
497.244983
 20
267.037142
 10
497.032185
 20
266.725542
 10
496.820286
 20
266.400164
 10
496.609591
 20
266.06162
 10
496.400403
 20
265.710523
 10
495.987764
 20
264.973116
 10
495.584802
 20
264.192839
 10
495.193947
 20
263.374587
 10
494.81763
 20
262.523257
 10
494.458283
 20
261.643744
 10
494.118337
 20
260.740944
 10
493.800223
 20
259.819753
 10
493.506373
 20
258.885066
 10
493.239218
 20
257.941781
 10
493.001188
 20
256.994792
 10
492.840925
 20
256.252291
 10
492.701105
 20
255.478304
 10
492.581761
 20
254.67744
 10
492.482926
 20
253.854309
 10
492.404632
 20
253.013519
 10
492.346913
 20
252.159682
 10
492.3098
 20
251.297407
 10
492.293327
 20
250.431303
 10
492.297526
 20
249.56598
 10
492.32243
 20
248.706047
 10
492.368071
 20
247.856116
 10
492.434482
 20
247.020795
 10
492.521697
 20
246.204693
 10
492.629747
 20
245.412421
 10
492.758665
 20
244.648589
 10
492.908484
 20
243.917806
 10
493.085084
 20
243.171352
 10
493.280345
 20
242.419516
 10
493.494229
 20
241.662368
 10
493.726695
 20
240.89998
 10
493.977703
 20
240.132422
 10
494.247214
 20
239.359766
 10
494.535187
 20
238.582082
 10
494.841584
 20
237.799441
 10
495.166363
 20
237.011915
 10
495.509486
 20
236.219573
 10
495.870912
 20
235.422488
 10
496.250601
 20
234.62073
 10
496.648515
 20
233.81437
 10
497.064612
 20
233.003479
 10
497.498853
 20
232.188128
 10
497.951199
 20
231.368387
 10
498.421609
 20
230.544329
 10
498.910043
 20
229.716023
 10
499.416463
 20
228.883541
 10
499.940827
 20
228.046954
 10
500.483097
 20
227.206332
 10
501.043231
 20
226.361747
 10
501.621192
 20
225.513269
 10
502.216937
 20
224.66097
 10
502.830429
 20
223.80492
 10
503.461627
 20
222.94519
 10
504.110491
 20
222.081852
 10
504.776981
 20
221.214976
 10
505.461058
 20
220.344633
 10
506.162681
 20
219.470894
 10
506.881811
 20
218.593831
 10
507.618408
 20
217.713513
 10
508.334598
 20
216.879744
 10
509.055631
 20
216.07502
 10
509.84167
 20
215.239264
 10
510.752878
 20
214.312397
 10
511.849417
 20
213.234343
 10
513.191448
 20
211.945024
 10
514.839135
 20
210.384362
 10
516.852639
 20
208.49228
 10
517.533897
 20
207.850195
 10
518.043596
 20
207.34828
 10
518.240998
 20
207.136976
 10
518.403775
 20
206.945221
 10
518.53468
 20
206.76785
 10
518.636469
 20
206.599701
 10
518.711896
 20
206.435608
 10
518.763717
 20
206.270406
 10
518.794685
 20
206.098932
 10
518.807555
 20
205.916021
 10
518.805083
 20
205.716509
 10
518.790022
 20
205.49523
 10
518.733154
 20
204.966719
 10
518.674464
 20
204.44009
 10
518.644177
 20
204.032472
 10
518.643156
 20
203.863909
 10
518.6534
 20
203.713841
 10
518.676298
 20
203.578513
 10
518.713238
 20
203.454173
 10
518.765609
 20
203.337068
 10
518.834798
 20
203.223445
 10
518.922194
 20
203.10955
 10
519.029186
 20
202.99163
 10
519.307507
 20
202.728706
 10
519.680867
 20
202.404648
 10
520.220446
 20
201.929949
 10
520.852623
 20
201.35625
 10
521.49868
 20
200.755855
 10
522.079899
 20
200.201069
 10
522.595957
 20
199.714949
 10
523.064597
 20
199.301514
 10
523.434197
 20
199.004516
 10
523.565725
 20
198.913352
 10
523.653135
 20
198.867705
 10
523.68629
 20
198.847506
 10
523.719547
 20
198.809479
 10
523.752727
 20
198.754432
 10
523.785653
 20
198.683173
 10
523.850028
 20
198.495253
 10
523.911247
 20
198.252186
 10
523.967884
 20
197.960439
 10
524.018516
 20
197.626478
 10
524.061716
 20
197.25677
 10
524.09606
 20
196.857782
 10
524.122815
 20
196.42578
 10
524.136083
 20
196.050305
 10
524.134176
 20
195.731175
 10
524.115405
 20
195.468207
 10
524.078081
 20
195.261218
 10
524.051935
 20
195.178658
 10
524.020517
 20
195.110025
 10
523.983618
 20
195.055296
 10
523.941025
 20
195.014447
 10
523.892528
 20
194.987456
 10
523.837915
 20
194.9743
 10
523.776977
 20
194.974956
 10
523.709501
 20
194.989401
 10
523.635277
 20
195.017613
 10
523.554093
 20
195.059569
 10
523.370003
 20
195.18462
 10
523.155543
 20
195.364372
 10
522.909025
 20
195.598642
 10
522.62876
 20
195.887248
 10
522.313061
 20
196.230007
 10
521.960238
 20
196.626736
 10
521.56809
 20
197.060264
 10
521.185957
 20
197.453265
 10
520.807991
 20
197.808132
 10
520.42834
 20
198.127254
 10
520.236056
 20
198.274158
 10
520.041157
 20
198.413023
 10
519.842912
 20
198.544147
 10
519.64059
 20
198.667829
 10
519.433461
 20
198.784369
 10
519.220792
 20
198.894065
 10
519.001852
 20
198.997215
 10
518.775911
 20
199.094119
 10
518.542237
 20
199.185076
 10
518.300099
 20
199.270385
 10
518.048766
 20
199.350343
 10
517.787506
 20
199.425251
 10
517.232283
 20
199.56111
 10
516.628579
 20
199.680352
 10
515.970545
 20
199.785368
 10
515.252332
 20
199.878549
 10
514.468091
 20
199.962286
 10
513.611971
 20
200.03897
 10
512.829653
 20
200.097284
 10
512.068774
 20
200.140941
 10
511.328605
 20
200.169881
 10
510.608417
 20
200.184043
 10
509.907481
 20
200.183366
 10
509.225069
 20
200.167791
 10
508.560451
 20
200.137256
 10
507.912898
 20
200.091701
 10
507.281683
 20
200.031066
 10
506.666075
 20
199.95529
 10
506.065346
 20
199.864312
 10
505.478767
 20
199.758072
 10
504.905609
 20
199.63651
 10
504.345144
 20
199.499564
 10
503.796642
 20
199.347175
 10
503.259375
 20
199.179282
 10
502.429022
 20
198.894547
 10
502.07858
 20
198.764215
 10
501.768269
 20
198.639601
 10
501.495821
 20
198.518974
 10
501.258967
 20
198.400606
 10
501.055437
 20
198.282767
 10
500.882964
 20
198.163728
 10
500.739278
 20
198.04176
 10
500.622112
 20
197.915132
 10
500.529195
 20
197.782115
 10
500.45826
 20
197.640981
 10
500.407037
 20
197.489999
 10
500.373259
 20
197.327439
 10
500.354655
 20
197.151574
 10
500.348958
 20
196.960672
 10
500.355516
 20
196.718785
 10
500.376878
 20
196.501483
 10
500.41558
 20
196.307528
 10
500.474154
 20
196.135681
 10
500.511687
 20
196.05766
 10
500.555137
 20
195.984702
 10
500.604824
 20
195.916651
 10
500.661063
 20
195.853353
 10
500.724171
 20
195.794652
 10
500.794465
 20
195.740394
 10
500.872261
 20
195.690424
 10
500.957878
 20
195.644586
 10
501.153836
 20
195.564691
 10
501.384875
 20
195.499468
 10
501.653528
 20
195.44768
 10
501.96233
 20
195.408086
 10
502.313815
 20
195.379447
 10
502.710518
 20
195.360525
 10
503.154973
 20
195.350081
 10
503.649714
 20
195.346875
 10
504.395167
 20
195.342779
 10
504.992743
 20
195.326165
 10
505.245726
 20
195.311135
 10
505.473319
 20
195.29054
 10
505.679382
 20
195.26357
 10
505.867774
 20
195.229413
 10
506.042354
 20
195.187257
 10
506.206983
 20
195.136291
 10
506.36552
 20
195.075704
 10
506.521824
 20
195.004683
 10
506.679756
 20
194.922418
 10
506.843175
 20
194.828098
 10
507.201912
 20
194.600042
 10
507.388461
 20
194.470301
 10
507.566604
 20
194.3331
 10
507.736272
 20
194.188747
 10
507.897394
 20
194.03755
 10
508.049898
 20
193.879816
 10
508.193715
 20
193.715854
 10
508.328773
 20
193.545972
 10
508.455003
 20
193.370477
 10
508.572333
 20
193.189677
 10
508.680693
 20
193.00388
 10
508.780012
 20
192.813395
 10
508.87022
 20
192.618528
 10
508.951246
 20
192.419589
 10
509.02302
 20
192.216884
 10
509.08547
 20
192.010722
 10
509.138527
 20
191.80141
 10
509.182119
 20
191.589257
 10
509.216177
 20
191.374571
 10
509.240629
 20
191.157658
 10
509.255404
 20
190.938828
 10
509.260433
 20
190.718388
 10
509.255645
 20
190.496646
 10
509.240969
 20
190.27391
 10
509.216334
 20
190.050488
 10
509.18167
 20
189.826687
 10
509.136906
 20
189.602816
 10
509.081971
 20
189.379182
 10
509.016796
 20
189.156094
 10
508.941309
 20
188.933859
 10
508.85544
 20
188.712785
 10
508.759118
 20
188.49318
 10
508.652273
 20
188.275352
 10
508.545835
 20
188.097324
 10
508.413726
 20
187.92325
 10
508.258041
 20
187.754168
 10
508.080873
 20
187.591118
 10
507.884318
 20
187.43514
 10
507.670468
 20
187.287272
 10
507.441418
 20
187.148555
 10
507.199263
 20
187.020026
 10
506.946096
 20
186.902727
 10
506.684011
 20
186.797695
 10
506.415103
 20
186.70597
 10
506.141466
 20
186.628593
 10
505.865194
 20
186.566601
 10
505.588381
 20
186.521034
 10
505.31312
 20
186.492932
 10
505.041507
 20
186.483333
 10
504.840072
 20
186.487667
 10
504.641915
 20
186.50068
 10
504.447015
 20
186.522393
 10
504.255352
 20
186.552824
 10
504.066903
 20
186.591995
 10
503.881648
 20
186.639924
 10
503.699566
 20
186.69663
 10
503.520634
 20
186.762135
 10
503.344832
 20
186.836456
 10
503.172139
 20
186.919615
 10
503.002533
 20
187.01163
 10
502.835992
 20
187.112521
 10
502.672496
 20
187.222307
 10
502.512024
 20
187.341009
 10
502.354554
 20
187.468646
 10
502.200064
 20
187.605238
 10
502.048534
 20
187.750804
 10
501.899941
 20
187.905363
 10
501.754266
 20
188.068937
 10
501.611487
 20
188.241543
 10
501.471581
 20
188.423202
 10
501.334529
 20
188.613933
 10
501.068898
 20
189.022692
 10
500.814424
 20
189.467975
 10
500.570936
 20
189.94994
 10
500.338265
 20
190.468745
 10
500.116239
 20
191.024545
 10
500.02394
 20
191.256184
 10
499.977719
 20
191.347961
 10
499.926423
 20
191.424103
 10
499.866285
 20
191.484902
 10
499.793534
 20
191.530652
 10
499.704402
 20
191.561648
 10
499.595119
 20
191.578182
 10
499.461916
 20
191.58055
 10
499.301024
 20
191.569044
 10
499.108673
 20
191.543959
 10
498.881095
 20
191.505588
 10
498.305179
 20
191.390164
 10
497.543123
 20
191.225123
 10
495.235981
 20
190.720948
 10
494.749761
 20
190.280925
 10
494.63106
 20
190.168601
 10
494.530128
 20
190.061183
 10
494.447305
 20
189.956922
 10
494.382928
 20
189.854063
 10
494.337335
 20
189.750857
 10
494.310864
 20
189.645551
 10
494.303853
 20
189.536392
 10
494.316641
 20
189.42163
 10
494.349565
 20
189.299512
 10
494.402964
 20
189.168287
 10
494.477175
 20
189.026203
 10
494.572537
 20
188.871507
 10
494.689388
 20
188.702449
 10
494.828065
 20
188.517275
 10
495.172253
 20
188.091577
 10
495.430327
 20
187.773524
 10
495.632306
 20
187.499725
 10
495.782931
 20
187.257647
 10
495.840468
 20
187.144587
 10
495.886946
 20
187.034757
 10
495.922956
 20
186.926591
 10
495.949092
 20
186.818521
 10
495.965947
 20
186.708982
 10
495.974113
 20
186.596407
 10
495.966751
 20
186.35588
 10
495.931747
 20
186.084408
 10
495.904219
 20
185.876616
 10
495.891239
 20
185.682188
 10
495.892803
 20
185.50113
 10
495.908907
 20
185.333448
 10
495.939546
 20
185.179148
 10
495.984716
 20
185.038234
 10
496.044413
 20
184.910714
 10
496.118632
 20
184.796593
 10
496.207369
 20
184.695876
 10
496.31062
 20
184.608569
 10
496.428379
 20
184.534678
 10
496.560644
 20
184.47421
 10
496.707409
 20
184.427168
 10
496.86867
 20
184.39356
 10
497.044423
 20
184.373391
 10
497.234663
 20
184.366667
 10
497.45254
 20
184.362326
 10
497.623241
 20
184.347651
 10
497.749997
 20
184.32016
 10
497.797904
 20
184.300833
 10
497.836036
 20
184.277372
 10
497.864797
 20
184.249467
 10
497.884591
 20
184.216808
 10
497.895822
 20
184.179084
 10
497.898892
 20
184.135986
 10
497.882169
 20
184.032425
 10
497.837654
 20
183.903646
 10
497.754319
 20
183.647632
 10
497.66541
 20
183.292844
 10
497.581565
 20
182.886175
 10
497.513424
 20
182.474519
 10
497.487216
 20
182.232057
 10
497.481237
 20
182.013383
 10
497.495785
 20
181.818345
 10
497.531154
 20
181.646792
 10
497.587642
 20
181.498573
 10
497.623898
 20
181.433166
 10
497.665544
 20
181.373535
 10
497.712619
 20
181.319663
 10
497.765158
 20
181.271529
 10
497.823199
 20
181.229115
 10
497.88678
 20
181.192403
 10
498.030705
 20
181.136005
 10
498.19723
 20
181.102185
 10
498.386652
 20
181.09079
 10
498.599267
 20
181.101671
 10
498.835371
 20
181.134675
 10
499.09526
 20
181.189652
 10
499.379231
 20
181.266449
 10
499.687581
 20
181.364917
 10
499.949166
 20
181.450636
 10
500.18333
 20
181.519088
 10
500.391539
 20
181.569126
 10
500.575258
 20
181.599603
 10
500.735953
 20
181.609371
 10
500.87509
 20
181.597283
 10
500.994134
 20
181.562192
 10
501.04658
 20
181.535661
 10
501.094552
 20
181.502949
 10
501.17781
 20
181.418408
 10
501.245372
 20
181.307421
 10
501.298706
 20
181.16884
 10
501.339276
 20
181.001519
 10
501.368549
 20
180.804309
 10
501.38799
 20
180.576064
 10
501.40324
 20
180.021875
 10
501.411387
 20
179.773739
 10
501.433676
 20
179.541786
 10
501.469885
 20
179.326263
 10
501.519789
 20
179.127421
 10
501.583163
 20
178.945507
 10
501.659785
 20
178.780771
 10
501.749429
 20
178.63346
 10
501.851871
 20
178.503825
 10
501.966888
 20
178.392113
 10
502.094256
 20
178.298573
 10
502.233749
 20
178.223453
 10
502.385145
 20
178.167004
 10
502.548219
 20
178.129473
 10
502.722747
 20
178.111109
 10
502.908505
 20
178.112161
 10
503.105268
 20
178.132877
  0
LWPOLYLINE
  5
34
330
1F
100
AcDbEntity
  8
0
100
AcDbPolyline
 90
     2210
 70
   128
 43
0.0
 10
395.573958
 20
181.595074
 10
395.983936
 20
181.618857
 10
396.388173
 20
181.652949
 10
396.786908
 20
181.697485
 10
397.180379
 20
181.752603
 10
397.568825
 20
181.818438
 10
397.952485
 20
181.895127
 10
398.331598
 20
181.982807
 10
398.706402
 20
182.081614
 10
399.077136
 20
182.191685
 10
399.444039
 20
182.313156
 10
399.807349
 20
182.446163
 10
400.167305
 20
182.590844
 10
400.524146
 20
182.747334
 10
400.878111
 20
182.915771
 10
401.229437
 20
183.09629
 10
401.578365
 20
183.289028
 10
401.925132
 20
183.494123
 10
402.269978
 20
183.711709
 10
402.613141
 20
183.941924
 10
402.954859
 20
184.184904
 10
403.295373
 20
184.440786
 10
403.634919
 20
184.709707
 10
403.973737
 20
184.991802
 10
404.312066
 20
185.287208
 10
404.650144
 20
185.596062
 10
404.98821
 20
185.9185
 10
405.326503
 20
186.254659
 10
405.665261
 20
186.604675
 10
406.004724
 20
186.968685
 10
406.345129
 20
187.346826
 10
406.686716
 20
187.739233
 10
407.029724
 20
188.146043
 10
407.385434
 20
188.583596
 10
407.724829
 20
189.019479
 10
408.047739
 20
189.453015
 10
408.353995
 20
189.883528
 10
408.643429
 20
190.310342
 10
408.915871
 20
190.732779
 10
409.171153
 20
191.150165
 10
409.409106
 20
191.561823
 10
409.62956
 20
191.967076
 10
409.832348
 20
192.365248
 10
410.017299
 20
192.755662
 10
410.184245
 20
193.137643
 10
410.333018
 20
193.510515
 10
410.463447
 20
193.8736
 10
410.575365
 20
194.226222
 10
410.668603
 20
194.567706
 10
410.742991
 20
194.897374
 10
410.79836
 20
195.214551
 10
410.834542
 20
195.518561
 10
410.851368
 20
195.808726
 10
410.848668
 20
196.084371
 10
410.826275
 20
196.344819
 10
410.784018
 20
196.589394
 10
410.72173
 20
196.81742
 10
410.639241
 20
197.02822
 10
410.536382
 20
197.221119
 10
410.412984
 20
197.395439
 10
410.268879
 20
197.550504
 10
410.103897
 20
197.685639
 10
409.91787
 20
197.800166
 10
409.710629
 20
197.89341
 10
409.482004
 20
197.964694
 10
409.285078
 20
198.003047
 10
409.083596
 20
198.019376
 10
408.875636
 20
198.012623
 10
408.659275
 20
197.981735
 10
408.43259
 20
197.925655
 10
408.193658
 20
197.843329
 10
407.940557
 20
197.733701
 10
407.671365
 20
197.595716
 10
407.384157
 20
197.428318
 10
407.077013
 20
197.230453
 10
406.748008
 20
197.001065
 10
406.39522
 20
196.739099
 10
406.016727
 20
196.443499
 10
405.610606
 20
196.11321
 10
404.707788
 20
195.344345
 10
402.336767
 20
193.277053
 10
401.184952
 20
192.546594
 10
400.846819
 20
192.346263
 10
400.493613
 20
192.164187
 10
400.126552
 20
192.000536
 10
399.746853
 20
191.855482
 10
399.355734
 20
191.729195
 10
398.954413
 20
191.621847
 10
398.544106
 20
191.533609
 10
398.126032
 20
191.464652
 10
397.701408
 20
191.415148
 10
397.271451
 20
191.385266
 10
396.83738
 20
191.37518
 10
396.400412
 20
191.385059
 10
395.961763
 20
191.415076
 10
395.522653
 20
191.4654
 10
395.084298
 20
191.536204
 10
394.647917
 20
191.627658
 10
394.188477
 20
191.742099
 10
393.760445
 20
191.863613
 10
393.361881
 20
191.99365
 10
392.990844
 20
192.133664
 10
392.645395
 20
192.285105
 10
392.323592
 20
192.449425
 10
392.023495
 20
192.628076
 10
391.743164
 20
192.82251
 10
391.480658
 20
193.034177
 10
391.234038
 20
193.264531
 10
391.001362
 20
193.515021
 10
390.78069
 20
193.787101
 10
390.570081
 20
194.082221
 10
390.367596
 20
194.401833
 10
390.171294
 20
194.74739
 10
389.979234
 20
195.120342
 10
389.738282
 20
195.622328
 10
389.551809
 20
196.046765
 10
389.4151
 20
196.41528
 10
389.363934
 20
196.585325
 10
389.32344
 20
196.7495
 10
389.293029
 20
196.910509
 10
389.272112
 20
197.071054
 10
389.2601
 20
197.233839
 10
389.256402
 20
197.401568
 10
389.271592
 20
197.762669
 10
389.312969
 20
198.175986
 10
389.370261
 20
198.575742
 10
389.447281
 20
198.96858
 10
389.545253
 20
199.356575
 10
389.665399
 20
199.741801
 10
389.808944
 20
200.126331
 10
389.977112
 20
200.51224
 10
390.171127
 20
200.901603
 10
390.392211
 20
201.296493
 10
390.64159
 20
201.698985
 10
390.920486
 20
202.111152
 10
391.230124
 20
202.535069
 10
391.571727
 20
202.97281
 10
391.946519
 20
203.426449
 10
392.355724
 20
203.898061
 10
392.800566
 20
204.389719
 10
393.282268
 20
204.903498
 10
395.722348
 20
207.465405
 10
396.833521
 20
206.763952
 10
397.213865
 20
206.53642
 10
397.56576
 20
206.352427
 10
397.889744
 20
206.212291
 10
398.041439
 20
206.15877
 10
398.186358
 20
206.116334
 10
398.32457
 20
206.085022
 10
398.456142
 20
206.064875
 10
398.581141
 20
206.055933
 10
398.699634
 20
206.058235
 10
398.81169
 20
206.071821
 10
398.917375
 20
206.096733
 10
399.016758
 20
206.133009
 10
399.109905
 20
206.180689
 10
399.196884
 20
206.239814
 10
399.277763
 20
206.310424
 10
399.352608
 20
206.392558
 10
399.421488
 20
206.486257
 10
399.48447
 20
206.59156
 10
399.541621
 20
206.708508
 10
399.59301
 20
206.837141
 10
399.638702
 20
206.977499
 10
399.678766
 20
207.129621
 10
399.71327
 20
207.293547
 10
399.765864
 20
207.656974
 10
399.797025
 20
208.0681
 10
399.807292
 20
208.527244
 10
399.811707
 20
208.981037
 10
399.831266
 20
209.341645
 10
399.849684
 20
209.493585
 10
399.875439
 20
209.630124
 10
399.909715
 20
209.753894
 10
399.953696
 20
209.867527
 10
400.008566
 20
209.973654
 10
400.075508
 20
210.074907
 10
400.155706
 20
210.173918
 10
400.250344
 20
210.273319
 10
400.487675
 20
210.483815
 10
400.796971
 20
210.727451
 10
401.39681
 20
211.177038
 10
401.657917
 20
211.362229
 10
401.897289
 20
211.522412
 10
402.118032
 20
211.658632
 10
402.323252
 20
211.771933
 10
402.516053
 20
211.863362
 10
402.699542
 20
211.933963
 10
402.876823
 20
211.984781
 10
403.051002
 20
212.016862
 10
403.225185
 20
212.031251
 10
403.402477
 20
212.028993
 10
403.585983
 20
212.011133
 10
403.77881
 20
211.978717
 10
403.984062
 20
211.932789
 10
404.204844
 20
211.874394
 10
404.544166
 20
211.790687
 10
404.854867
 20
211.738297
 10
404.999707
 20
211.724116
 10
405.137659
 20
211.718088
 10
405.268812
 20
211.720321
 10
405.393255
 20
211.730923
 10
405.511076
 20
211.750002
 10
405.622366
 20
211.777667
 10
405.727213
 20
211.814025
 10
405.825707
 20
211.859184
 10
405.917935
 20
211.913252
 10
406.003988
 20
211.976337
 10
406.083954
 20
212.048547
 10
406.157923
 20
212.129991
 10
406.225983
 20
212.220775
 10
406.288223
 20
212.321009
 10
406.344734
 20
212.4308
 10
406.395602
 20
212.550255
 10
406.440919
 20
212.679484
 10
406.480772
 20
212.818594
 10
406.544445
 20
213.126889
 10
406.587334
 20
213.476004
 10
406.610151
 20
213.866803
 10
406.613609
 20
214.30015
 10
406.598419
 20
214.77691
 10
406.593729
 20
215.047147
 10
406.59996
 20
215.166328
 10
406.613105
 20
215.276814
 10
406.634062
 20
215.380052
 10
406.663731
 20
215.477491
 10
406.703008
 20
215.570579
 10
406.752792
 20
215.660764
 10
406.813981
 20
215.749493
 10
406.887473
 20
215.838215
 10
406.974167
 20
215.928377
 10
407.074959
 20
216.021428
 10
407.322434
 20
216.221985
 10
407.637084
 20
216.451472
 10
407.991434
 20
216.698852
 10
408.272852
 20
216.880277
 10
408.39341
 20
216.947457
 10
408.504376
 20
216.99959
 10
408.608627
 20
217.037157
 10
408.709043
 20
217.060637
 10
408.808506
 20
217.070511
 10
408.909894
 20
217.06726
 10
409.016086
 20
217.051365
 10
409.129964
 20
217.023306
 10
409.392292
 20
216.932618
 10
409.719917
 20
216.799041
 10
409.942071
 20
216.711104
 10
410.161374
 20
216.63391
 10
410.376974
 20
216.56749
 10
410.588016
 20
216.511876
 10
410.793647
 20
216.467099
 10
410.993014
 20
216.43319
 10
411.185262
 20
216.410181
 10
411.36954
 20
216.398103
 10
411.544993
 20
216.396988
 10
411.710767
 20
216.406865
 10
411.86601
 20
216.427768
 10
412.009867
 20
216.459727
 10
412.141486
 20
216.502773
 10
412.260012
 20
216.556938
 10
412.364593
 20
216.622253
 10
412.454375
 20
216.69875
 10
412.530468
 20
216.791041
 10
412.59554
 20
216.90354
 10
412.649638
 20
217.034548
 10
412.692805
 20
217.182362
 10
412.72509
 20
217.345281
 10
412.746536
 20
217.521604
 10
412.757191
 20
217.709629
 10
412.757099
 20
217.907655
 10
412.746307
 20
218.113981
 10
412.724861
 20
218.326905
 10
412.692805
 20
218.544725
 10
412.650187
 20
218.765741
 10
412.597052
 20
218.988251
 10
412.533445
 20
219.210554
 10
412.459412
 20
219.430948
 10
412.375
 20
219.647732
 10
412.220901
 20
220.029539
 10
412.094707
 20
220.366951
 10
412.009441
 20
220.623394
 10
411.978125
 20
220.762298
 10
412.005632
 20
220.821897
 10
412.08447
 20
220.928751
 10
412.374022
 20
221.260205
 10
412.80256
 20
221.708632
 10
413.32586
 20
222.226004
 10
413.582704
 20
222.468936
 10
413.821852
 20
222.684235
 10
414.046257
 20
222.87275
 10
414.258869
 20
223.035329
 10
414.462638
 20
223.17282
 10
414.660517
 20
223.286073
 10
414.855455
 20
223.375934
 10
415.050405
 20
223.443254
 10
415.248316
 20
223.488879
 10
415.45214
 20
223.513659
 10
415.664828
 20
223.518441
 10
415.88933
 20
223.504075
 10
416.128599
 20
223.471408
 10
416.385584
 20
223.421289
 10
416.663237
 20
223.354567
 10
416.964508
 20
223.272089
 10
417.227128
 20
223.202778
 10
417.447349
 20
223.161535
 10
417.544941
 20
223.152296
 10
417.63599
 20
223.1511
 10
417.721849
 20
223.158292
 10
417.803869
 20
223.174214
 10
417.883403
 20
223.199207
 10
417.961803
 20
223.233614
 10
418.040421
 20
223.277778
 10
418.12061
 20
223.332042
 10
418.291109
 20
223.472237
 10
418.484116
 20
223.656938
 10
418.632177
 20
223.813451
 10
418.75942
 20
223.966684
 10
418.865791
 20
224.117527
 10
418.951235
 20
224.266874
 10
419.015698
 20
224.415615
 10
419.059125
 20
224.564643
 10
419.081462
 20
224.714849
 10
419.082653
 20
224.867127
 10
419.062645
 20
225.022367
 10
419.021383
 20
225.181462
 10
418.958811
 20
225.345303
 10
418.874877
 20
225.514784
 10
418.769524
 20
225.690794
 10
418.642699
 20
225.874228
 10
418.494347
 20
226.065975
 10
418.324413
 20
226.26693
 10
418.105149
 20
226.525099
 10
417.934556
 20
226.747895
 10
417.80967
 20
226.943455
 10
417.763442
 20
227.033564
 10
417.72753
 20
227.119915
 10
417.701563
 20
227.203525
 10
417.685172
 20
227.285412
 10
417.677986
 20
227.366592
 10
417.679635
 20
227.448083
 10
417.707957
 20
227.616063
 10
417.767174
 20
227.797491
 10
417.858628
 20
228.013132
 10
417.961249
 20
228.214858
 10
418.07527
 20
228.402814
 10
418.200924
 20
228.57715
 10
418.338442
 20
228.738012
 10
418.488056
 20
228.885549
 10
418.650001
 20
229.019907
 10
418.824508
 20
229.141235
 10
419.011809
 20
229.24968
 10
419.212137
 20
229.34539
 10
419.425724
 20
229.428512
 10
419.652804
 20
229.499194
 10
419.893608
 20
229.557584
 10
420.148369
 20
229.603829
 10
420.41732
 20
229.638078
 10
420.700692
 20
229.660477
 10
421.123842
 20
229.689693
 10
421.46649
 20
229.72776
 10
421.74126
 20
229.780053
 10
421.857136
 20
229.813215
 10
421.960778
 20
229.851948
 10
422.053763
 20
229.896925
 10
422.137669
 20
229.948818
 10
422.214076
 20
230.008299
 10
422.28456
 20
230.076039
 10
422.3507
 20
230.152711
 10
422.414074
 20
230.238987
 10
422.538838
 20
230.443035
 10
422.657445
 20
230.665388
 10
422.736729
 20
230.851817
 10
422.760678
 20
230.936376
 10
422.773659
 20
231.017734
 10
422.775292
 20
231.097816
 10
422.765199
 20
231.178549
 10
422.743
 20
231.26186
 10
422.708316
 20
231.349675
 10
422.599976
 20
231.546522
 10
422.437146
 20
231.784502
 10
422.216792
 20
232.079027
 10
421.936911
 20
232.460357
 10
421.825649
 20
232.628506
 10
421.733205
 20
232.785858
 10
421.659354
 20
232.93557
 10
421.603871
 20
233.080801
 10
421.56653
 20
233.22471
 10
421.547106
 20
233.370456
 10
421.545373
 20
233.521197
 10
421.561105
 20
233.680093
 10
421.594079
 20
233.850301
 10
421.644067
 20
234.03498
 10
421.710846
 20
234.23729
 10
421.794188
 20
234.460389
 10
422.009665
 20
234.981588
 10
422.129941
 20
235.247198
 10
422.254473
 20
235.492015
 10
422.38396
 20
235.716544
 10
422.519104
 20
235.921288
 10
422.660603
 20
236.106754
 10
422.809159
 20
236.273444
 10
422.965472
 20
236.421864
 10
423.130242
 20
236.552519
 10
423.304169
 20
236.665913
 10
423.487954
 20
236.76255
 10
423.682297
 20
236.842936
 10
423.887898
 20
236.907575
 10
424.105458
 20
236.956971
 10
424.335676
 20
236.991629
 10
424.579254
 20
237.012054
 10
424.836891
 20
237.01875
 10
425.216037
 20
237.030456
 10
425.382092
 20
237.046109
 10
425.533873
 20
237.069202
 10
425.672432
 20
237.100417
 10
425.798822
 20
237.140434
 10
425.914096
 20
237.189932
 10
426.019307
 20
237.249593
 10
426.115508
 20
237.320097
 10
426.203752
 20
237.402125
 10
426.285092
 20
237.496356
 10
426.36058
 20
237.603472
 10
426.431271
 20
237.724153
 10
426.498215
 20
237.859079
 10
426.625081
 20
238.174389
 10
426.644879
 20
238.2441
 10
426.654826
 20
238.316211
 10
426.654573
 20
238.391287
 10
426.643772
 20
238.469895
 10
426.622074
 20
238.552597
 10
426.589132
 20
238.63996
 10
426.544596
 20
238.732549
 10
426.488119
 20
238.830927
 10
426.337948
 20
239.047313
 10
426.135831
 20
239.293638
 10
425.878981
 20
239.574421
 10
425.564613
 20
239.894181
 10
425.183142
 20
240.278277
 10
424.890114
 20
240.594914
 10
424.773444
 20
240.73477
 10
424.674899
 20
240.865965
 10
424.593149
 20
240.991232
 10
424.526865
 20
241.113305
 10
424.474719
 20
241.234919
 10
424.435382
 20
241.358808
 10
424.407525
 20
241.487707
 10
424.38982
 20
241.62435
 10
424.380937
 20
241.77147
 10
424.379547
 20
241.931803
 10
424.393933
 20
242.303043
 10
424.417539
 20
242.623737
 10
424.451116
 20
242.921931
 10
424.495061
 20
243.198237
 10
424.54977
 20
243.453267
 10
424.615639
 20
243.687633
 10
424.693064
 20
243.901947
 10
424.782443
 20
244.096822
 10
424.884171
 20
244.27287
 10
424.998645
 20
244.430702
 10
425.126261
 20
244.570931
 10
425.267416
 20
244.694169
 10
425.422506
 20
244.801028
 10
425.591927
 20
244.89212
 10
425.776075
 20
244.968058
 10
425.975348
 20
245.029453
 10
426.190141
 20
245.076917
 10
426.439591
 20
245.127578
 10
426.673884
 20
245.18539
 10
426.89299
 20
245.250037
 10
427.096882
 20
245.321199
 10
427.285529
 20
245.39856
 10
427.458905
 20
245.481802
 10
427.61698
 20
245.570607
 10
427.759727
 20
245.664657
 10
427.887115
 20
245.763635
 10
427.999117
 20
245.867223
 10
428.095705
 20
245.975102
 10
428.176849
 20
246.086956
 10
428.242522
 20
246.202467
 10
428.292694
 20
246.321316
 10
428.327338
 20
246.443187
 10
428.346424
 20
246.567761
 10
428.349925
 20
246.694721
 10
428.337811
 20
246.823748
 10
428.310054
 20
246.954526
 10
428.266625
 20
247.086737
 10
428.207497
 20
247.220062
 10
428.13264
 20
247.354184
 10
428.042026
 20
247.488785
 10
427.935626
 20
247.623548
 10
427.813412
 20
247.758154
 10
427.675356
 20
247.892287
 10
427.521429
 20
248.025628
 10
427.351601
 20
248.157859
 10
427.165846
 20
248.288664
 10
426.964133
 20
248.417723
 10
426.746436
 20
248.54472
 10
426.512724
 20
248.669336
 10
426.329508
 20
248.764134
 10
426.169163
 20
248.855233
 10
426.030163
 20
248.951378
 10
425.910983
 20
249.061316
 10
425.85835
 20
249.12419
 10
425.8101
 20
249.193793
 10
425.766043
 20
249.271216
 10
425.725989
 20
249.357555
 10
425.657124
 20
249.561347
 10
425.601981
 20
249.813917
 10
425.559036
 20
250.124009
 10
425.526764
 20
250.500371
 10
425.503639
 20
250.951748
 10
425.488138
 20
251.486886
 10
425.473908
 20
252.843429
 10
425.471875
 20
254.639969
 10
425.471875
 20
260.079601
 10
424.880857
 20
265.090926
 10
425.026486
 20
265.236556
 10
425.110092
 20
265.278655
 10
425.293156
 20
265.34276
 10
425.911582
 20
265.524274
 10
426.789608
 20
265.755671
 10
427.835077
 20
266.011522
 10
430.498038
 20
266.640859
 10
431.550306
 20
267.177686
 10
431.86529
 20
267.346044
 10
432.178858
 20
267.528887
 10
432.490791
 20
267.725922
 10
432.80087
 20
267.936856
 10
433.108877
 20
268.161394
 10
433.414592
 20
268.399245
 10
433.717796
 20
268.650112
 10
434.018271
 20
268.913704
 10
434.315797
 20
269.189727
 10
434.610155
 20
269.477886
 10
434.901126
 20
269.777888
 10
435.188492
 20
270.08944
 10
435.472033
 20
270.412249
 10
435.75153
 20
270.746019
 10
436.026765
 20
271.090459
 10
436.297518
 20
271.445273
 10
436.56357
 20
271.81017
 10
436.824703
 20
272.184854
 10
437.080697
 20
272.569033
 10
437.331333
 20
272.962412
 10
437.576393
 20
273.364699
 10
437.815657
 20
273.775599
 10
438.048907
 20
274.194819
 10
438.275923
 20
274.622065
 10
438.496486
 20
275.057044
 10
438.710378
 20
275.499462
 10
438.917379
 20
275.949026
 10
439.11727
 20
276.405441
 10
439.309833
 20
276.868415
 10
439.494849
 20
277.337654
 10
439.672097
 20
277.812863
 10
439.841361
 20
278.29375
 10
440.115425
 20
279.114601
 10
440.362965
 20
279.898312
 10
440.585204
 20
280.653723
 10
440.783366
 20
281.38967
 10
440.958677
 20
282.114992
 10
441.11236
 20
282.838525
 10
441.245639
 20
283.569108
 10
441.35974
 20
284.315578
 10
441.455886
 20
285.086772
 10
441.535301
 20
285.891529
 10
441.59921
 20
286.738687
 10
441.648837
 20
287.637082
 10
441.685407
 20
288.595552
 10
441.710143
 20
289.622935
 10
441.72427
 20
290.728069
 10
441.729013
 20
291.919792
 10
441.731266
 20
298.005208
 10
441.109087
 20
301.3125
 10
440.990019
 20
301.922069
 10
440.862665
 20
302.528688
 10
440.726883
 20
303.132682
 10
440.582532
 20
303.734371
 10
440.429471
 20
304.334078
 10
440.267557
 20
304.932125
 10
440.096651
 20
305.528834
 10
439.916609
 20
306.124528
 10
439.727291
 20
306.719529
 10
439.528555
 20
307.31416
 10
439.320259
 20
307.908741
 10
439.102263
 20
308.503597
 10
438.874425
 20
309.099048
 10
438.636604
 20
309.695417
 10
438.388657
 20
310.293026
 10
438.130444
 20
310.892198
 10
437.861823
 20
311.493255
 10
437.582653
 20
312.096519
 10
437.292791
 20
312.702312
 10
436.992098
 20
313.310957
 10
436.680431
 20
313.922775
 10
436.357649
 20
314.53809
 10
436.02361
 20
315.157222
 10
435.678173
 20
315.780495
 10
435.321197
 20
316.408231
 10
434.952539
 20
317.040752
 10
434.179616
 20
318.321437
 10
433.358272
 20
319.625128
 10
432.487376
 20
320.954404
 10
430.579201
 20
323.802083
 10
430.209936
 20
324.339169
 10
429.841073
 20
324.862581
 10
429.47073
 20
325.374549
 10
429.097025
 20
325.877306
 10
428.718079
 20
326.373083
 10
428.332011
 20
326.864111
 10
427.936938
 20
327.352622
 10
427.530981
 20
327.840848
 10
427.112258
 20
328.33102
 10
426.678889
 20
328.82537
 10
426.228993
 20
329.326129
 10
425.760688
 20
329.835529
 10
424.761329
 20
330.889177
 10
423.665765
 20
332.004167
 10
420.102975
 20
335.576042
 10
419.744717
 20
336.427439
 10
419.669302
 20
336.617787
 10
419.604178
 20
336.805752
 10
419.549282
 20
336.991219
 10
419.504549
 20
337.174074
 10
419.469918
 20
337.354201
 10
419.445326
 20
337.531485
 10
419.430708
 20
337.70581
 10
419.426001
 20
337.877062
 10
419.431144
 20
338.045125
 10
419.446072
 20
338.209884
 10
419.470722
 20
338.371224
 10
419.505032
 20
338.52903
 10
419.548937
 20
338.683186
 10
419.602376
 20
338.833577
 10
419.665284
 20
338.980088
 10
419.737599
 20
339.122604
 10
419.819257
 20
339.26101
 10
419.910196
 20
339.39519
 10
420.010352
 20
339.525029
 10
420.119662
 20
339.650412
 10
420.238063
 20
339.771224
 10
420.365491
 20
339.88735
 10
420.501885
 20
339.998673
 10
420.647179
 20
340.10508
 10
420.801312
 20
340.206455
 10
420.964221
 20
340.302683
 10
421.135841
 20
340.393648
 10
421.31611
 20
340.479236
 10
421.504965
 20
340.55933
 10
421.702342
 20
340.633817
 10
421.908179
 20
340.70258
 10
422.122412
 20
340.765504
 10
422.397491
 20
340.835357
 10
422.697325
 20
340.900929
 10
423.020417
 20
340.962213
 10
423.365268
 20
341.019201
 10
424.114259
 20
341.120255
 10
424.932316
 20
341.204027
 10
425.807455
 20
341.270455
 10
426.727694
 20
341.319474
 10
427.681049
 20
341.351021
 10
428.655539
 20
341.365031
 10
429.63918
 20
341.361441
 10
430.61999
 20
341.340187
 10
431.585985
 20
341.301206
 10
432.525184
 20
341.244433
 10
433.425602
 20
341.169805
 10
434.275258
 20
341.077259
 10
435.062169
 20
340.966729
 10
435.42835
 20
340.904701
 10
435.774351
 20
340.838154
 10
436.239767
 20
340.735955
 10
436.704513
 20
340.620513
 10
437.168409
 20
340.49195
 10
437.631274
 20
340.350388
 10
438.092929
 20
340.195948
 10
438.553194
 20
340.028752
 10
439.011889
 20
339.848922
 10
439.468833
 20
339.656579
 10
439.923846
 20
339.451845
 10
440.376748
 20
339.234842
 10
440.82736
 20
339.005691
 10
441.2755
 20
338.764514
 10
441.720989
 20
338.511434
 10
442.163647
 20
338.246571
 10
442.603294
 20
337.970047
 10
443.039749
 20
337.681984
 10
443.472833
 20
337.382503
 10
443.902365
 20
337.071727
 10
444.328165
 20
336.749777
 10
444.750053
 20
336.416775
 10
445.16785
 20
336.072843
 10
445.581374
 20
335.718101
 10
445.990446
 20
335.352672
 10
446.394885
 20
334.976678
 10
446.794512
 20
334.59024
 10
447.189147
 20
334.19348
 10
447.578609
 20
333.78652
 10
447.962718
 20
333.369481
 10
448.341294
 20
332.942485
 10
448.714158
 20
332.505654
 10
449.081128
 20
332.059109
 10
449.442025
 20
331.602972
 10
449.959979
 20
330.93906
 10
450.363742
 20
330.441915
 10
450.532882
 20
330.249041
 10
450.685571
 20
330.089654
 10
450.825842
 20
329.961018
 10
450.957727
 20
329.860398
 10
451.085258
 20
329.785059
 10
451.212468
 20
329.732265
 10
451.343389
 20
329.699282
 10
451.482053
 20
329.683374
 10
451.632493
 20
329.681807
 10
451.798741
 20
329.691845
 10
452.194792
 20
329.735796
 10
452.468722
 20
329.782554
 10
452.791469
 20
329.860234
 10
453.151163
 20
329.964699
 10
453.535937
 20
330.091815
 10
453.933921
 20
330.237446
 10
454.333247
 20
330.397457
 10
454.722047
 20
330.567711
 10
455.088451
 20
330.744074
 10
455.419086
 20
330.917614
 10
455.717539
 20
331.087515
 10
455.984836
 20
331.255453
 10
456.221997
 20
331.423105
 10
456.430046
 20
331.592145
 10
456.610006
 20
331.764249
 10
456.762901
 20
331.941093
 10
456.889752
 20
332.124352
 10
456.991582
 20
332.315703
 10
457.069416
 20
332.51682
 10
457.124274
 20
332.729381
 10
457.157182
 20
332.955059
 10
457.16916
 20
333.195531
 10
457.161233
 20
333.452472
 10
457.134423
 20
333.727559
 10
457.089753
 20
334.022466
 10
457.049129
 20
334.221335
 10
456.995937
 20
334.411687
 10
456.926235
 20
334.59747
 10
456.836077
 20
334.782631
 10
456.72152
 20
334.971117
 10
456.578619
 20
335.166878
 10
456.403431
 20
335.373859
 10
456.19201
 20
335.596009
 10
455.940413
 20
335.837275
 10
455.644695
 20
336.101605
 10
455.300913
 20
336.392946
 10
454.905122
 20
336.715246
 10
453.941736
 20
337.468514
 10
452.722984
 20
338.39299
 10
449.68125
 20
340.680771
 10
447.868085
 20
342.343983
 10
447.491936
 20
342.695121
 10
447.140598
 20
343.035717
 10
446.814006
 20
343.365864
 10
446.512094
 20
343.685656
 10
446.234799
 20
343.995185
 10
445.982053
 20
344.294546
 10
445.753793
 20
344.583832
 10
445.549952
 20
344.863136
 10
445.370466
 20
345.132552
 10
445.215269
 20
345.392172
 10
445.084297
 20
345.642091
 10
444.977483
 20
345.882401
 10
444.894762
 20
346.113197
 10
444.83607
 20
346.334572
 10
444.801341
 20
346.546618
 10
444.79051
 20
346.74943
 10
444.79838
 20
347.071091
 10
444.812046
 20
347.210522
 10
444.836925
 20
347.341523
 10
444.876559
 20
347.468473
 10
444.934493
 20
347.59575
 10
445.014271
 20
347.727733
 10
445.119438
 20
347.8688
 10
445.253536
 20
348.023329
 10
445.420109
 20
348.195699
 10
445.864859
 20
348.611472
 10
446.482039
 20
349.151146
 10
447.3
 20
349.849746
 10
450.025911
 20
352.344992
 10
450.212385
 20
352.562794
 10
450.38365
 20
352.774285
 10
450.539647
 20
352.979327
 10
450.680318
 20
353.17778
 10
450.805603
 20
353.369507
 10
450.915445
 20
353.554369
 10
451.009783
 20
353.732226
 10
451.088559
 20
353.90294
 10
451.151714
 20
354.066373
 10
451.19919
 20
354.222386
 10
451.230927
 20
354.37084
 10
451.246866
 20
354.511596
 10
451.246948
 20
354.644516
 10
451.231115
 20
354.769461
 10
451.199308
 20
354.886292
 10
451.151468
 20
354.994872
 10
451.063847
 20
355.137914
 10
450.962511
 20
355.262853
 10
450.84551
 20
355.369761
 10
450.710893
 20
355.458715
 10
450.556712
 20
355.529787
 10
450.381017
 20
355.583052
 10
450.181858
 20
355.618584
 10
449.957287
 20
355.636458
 10
449.705354
 20
355.636749
 10
449.424109
 20
355.619529
 10
449.111602
 20
355.584875
 10
448.765886
 20
355.532859
 10
448.385009
 20
355.463557
 10
447.967023
 20
355.377042
 10
447.011925
 20
355.152673
 10
444.389583
 20
354.500008
 10
443.661979
 20
354.496879
 10
443.505543
 20
354.502775
 10
443.364364
 20
354.521312
 10
443.24017
 20
354.551648
 10
443.134687
 20
354.592943
 10
443.049639
 20
354.644359
 10
442.986754
 20
354.705055
 10
442.947757
 20
354.774191
 10
442.934375
 20
354.850927
 10
442.938659
 20
354.915131
 10
442.951437
 20
354.985604
 10
443.002046
 20
355.144843
 10
443.085334
 20
355.327616
 10
443.200436
 20
355.532894
 10
443.346486
 20
355.759648
 10
443.522617
 20
356.006852
 10
443.727963
 20
356.273476
 10
443.961657
 20
356.558491
 10
444.222833
 20
356.86087
 10
444.510624
 20
357.179585
 10
444.824165
 20
357.513606
 10
445.162589
 20
357.861906
 10
445.525029
 20
358.223457
 10
445.91062
 20
358.597229
 10
446.747787
 20
359.377326
 10
449.063014
 20
361.482777
 10
449.43131
 20
362.194983
 10
449.500507
 20
362.338869
 10
449.554553
 20
362.473584
 10
449.593455
 20
362.599129
 10
449.617225
 20
362.715503
 10
449.625871
 20
362.822706
 10
449.619404
 20
362.920738
 10
449.597833
 20
363.0096
 10
449.561169
 20
363.08929
 10
449.50942
 20
363.15981
 10
449.442596
 20
363.221158
 10
449.360707
 20
363.273335
 10
449.263764
 20
363.31634
 10
449.151775
 20
363.350174
 10
449.024751
 20
363.374836
 10
448.882701
 20
363.390326
 10
448.725635
 20
363.396645
 10
448.553562
 20
363.393791
 10
448.366493
 20
363.381766
 10
447.947404
 20
363.330198
 10
447.468445
 20
363.241941
 10
446.929695
 20
363.116993
 10
446.331231
 20
362.955355
 10
445.673132
 20
362.757024
 10
444.955474
 20
362.522001
 10
444.178337
 20
362.250284
 10
443.371637
 20
361.970201
 10
443.038987
 20
361.864806
 10
442.751047
 20
361.783223
 10
442.505998
 20
361.725988
 10
442.302021
 20
361.693639
 10
442.137299
 20
361.686709
 10
442.069089
 20
361.692945
 10
442.010012
 20
361.705737
 10
441.959838
 20
361.725152
 10
441.918342
 20
361.751257
 10
441.885295
 20
361.784119
 10
441.860471
 20
361.823805
 10
441.843642
 20
361.870383
 10
441.83458
 20
361.923919
 10
441.838852
 20
362.052134
 10
441.871467
 20
362.208985
 10
441.930607
 20
362.395009
 10
442.014454
 20
362.610743
 10
442.121189
 20
362.856721
 10
442.428551
 20
363.549389
 10
442.648155
 20
364.083802
 10
442.72506
 20
364.2999
 10
442.780041
 20
364.486317
 10
442.813103
 20
364.646349
 10
442.824251
 20
364.78329
 10
442.813489
 20
364.900435
 10
442.780823
 20
365.001079
 10
442.726257
 20
365.088515
 10
442.649797
 20
365.166038
 10
442.551448
 20
365.236944
 10
442.431215
 20
365.304525
 10
442.125115
 20
365.442897
 10
441.918273
 20
365.520431
 10
441.705818
 20
365.581806
 10
441.489362
 20
365.626872
 10
441.270518
 20
365.65548
 10
441.050898
 20
365.66748
 10
440.832115
 20
365.662724
 10
440.615781
 20
365.641061
 10
440.403509
 20
365.602343
 10
440.116905
 20
365.539908
 10
439.912746
 20
365.509299
 10
439.841751
 20
365.510101
 10
439.791567
 20
365.523865
 10
439.762261
 20
365.552262
 10
439.753899
 20
365.596959
 10
439.766549
 20
365.659625
 10
439.800277
 20
365.74193
 10
439.931234
 20
365.972131
 10
440.449016
 20
366.741622
 10
440.679191
 20
367.082391
 10
440.87396
 20
367.386325
 10
441.032262
 20
367.655364
 10
441.153031
 20
367.891449
 10
441.235205
 20
368.096522
 10
441.261486
 20
368.188035
 10
441.277719
 20
368.272522
 10
441.283771
 20
368.350226
 10
441.279509
 20
368.42139
 10
441.264801
 20
368.486256
 10
441.239512
 20
368.545068
 10
441.203511
 20
368.598066
 10
441.156664
 20
368.645495
 10
441.098839
 20
368.687596
 10
441.029901
 20
368.724612
 10
440.949719
 20
368.756786
 10
440.85816
 20
368.784361
 10
440.640375
 20
368.826681
 10
440.375485
 20
368.853514
 10
440.062424
 20
368.8668
 10
439.700129
 20
368.86848
 10
439.287536
 20
368.860495
 10
438.889448
 20
368.854422
 10
438.5248
 20
368.858708
 10
438.199647
 20
368.872701
 10
437.920039
 20
368.895752
 10
437.692031
 20
368.927212
 10
437.521674
 20
368.966429
 10
437.460006
 20
368.988744
 10
437.415021
 20
369.012754
 10
437.387475
 20
369.038379
 10
437.378125
 20
369.065538
 10
437.397338
 20
369.155534
 10
437.452402
 20
369.313243
 10
437.654641
 20
369.7969
 10
437.953955
 20
370.446707
 10
438.319456
 20
371.19286
 10
438.495105
 20
371.549371
 10
438.649422
 20
371.879623
 10
438.782529
 20
372.184855
 10
438.894547
 20
372.466305
 10
438.985597
 20
372.725211
 10
439.055801
 20
372.962811
 10
439.105281
 20
373.180344
 10
439.134158
 20
373.379048
 10
439.142553
 20
373.560161
 10
439.130588
 20
373.724922
 10
439.098385
 20
373.874568
 10
439.046065
 20
374.010339
 10
438.97375
 20
374.133472
 10
438.881561
 20
374.245206
 10
438.769619
 20
374.346779
 10
438.638047
 20
374.439429
 10
438.568741
 20
374.478131
 10
438.496844
 20
374.508274
 10
438.421211
 20
374.529528
 10
438.340696
 20
374.541564
 10
438.254151
 20
374.544052
 10
438.160431
 20
374.536664
 10
438.05839
 20
374.51907
 10
437.94688
 20
374.49094
 10
437.690871
 20
374.401757
 10
437.383233
 20
374.26648
 10
437.014796
 20
374.082474
 10
436.576388
 20
373.847105
 10
436.247113
 20
373.673095
 10
435.925412
 20
373.516329
 10
435.619364
 20
373.379841
 10
435.337048
 20
373.266662
 10
435.086542
 20
373.179826
 10
434.875926
 20
373.122366
 10
434.713278
 20
373.097313
 10
434.652467
 20
373.097888
 10
434.606678
 20
373.107701
 10
434.513982
 20
373.165432
 10
434.391186
 20
373.276066
 10
434.243574
 20
373.433122
 10
434.076432
 20
373.630118
 10
433.895042
 20
373.860573
 10
433.704691
 20
374.118007
 10
433.510663
 20
374.395937
 10
433.318241
 20
374.687882
 10
433.052095
 20
375.091109
 10
432.795283
 20
375.453445
 10
432.5469
 20
375.775338
 10
432.306043
 20
376.05723
 10
432.071809
 20
376.299568
 10
431.843292
 20
376.502796
 10
431.61959
 20
376.667359
 10
431.509262
 20
376.735281
 10
431.399798
 20
376.793702
 10
431.291087
 20
376.842681
 10
431.183013
 20
376.882271
 10
431.075466
 20
376.912528
 10
430.968331
 20
376.933509
 10
430.861496
 20
376.945268
 10
430.754848
 20
376.947862
 10
430.648273
 20
376.941345
 10
430.54166
 20
376.925774
 10
430.434894
 20
376.901205
 10
430.327863
 20
376.867692
 10
430.220454
 20
376.825291
 10
430.112553
 20
376.774059
 10
429.894827
 20
376.64532
 10
429.673781
 20
376.481921
 10
429.508186
 20
376.331877
 10
429.435295
 20
376.251915
 10
429.368534
 20
376.167396
 10
429.307552
 20
376.07737
 10
429.251993
 20
375.980888
 10
429.201505
 20
375.877001
 10
429.155732
 20
375.764761
 10
429.07692
 20
375.511424
 10
429.012725
 20
375.213284
 10
428.960317
 20
374.86275
 10
428.916865
 20
374.45223
 10
428.883497
 20
374.143354
 10
428.841335
 20
373.851569
 10
428.792091
 20
373.583523
 10
428.737476
 20
373.345861
 10
428.679202
 20
373.145228
 10
428.618981
 20
372.98827
 10
428.558524
 20
372.881633
 10
428.528742
 20
372.849261
 10
428.499543
 20
372.831962
 10
428.461527
 20
372.828765
 10
428.405878
 20
372.837771
 10
428.246016
 20
372.890141
 10
428.028638
 20
372.984568
 10
427.762427
 20
373.11655
 10
427.456063
 20
373.281583
 10
427.118229
 20
373.475163
 10
426.757606
 20
373.692786
 10
426.382876
 20
373.92995
 10
425.99761
 20
374.172721
 10
425.633846
 20
374.387773
 10
425.290951
 20
374.575205
 10
424.968291
 20
374.735114
 10
424.665232
 20
374.8676
 10
424.381143
 20
374.972762
 10
424.115388
 20
375.050697
 10
423.867335
 20
375.101505
 10
423.63635
 20
375.125284
 10
423.421801
 20
375.122133
 10
423.223053
 20
375.09215
 10
423.039473
 20
375.035434
 10
422.953173
 20
374.997082
 10
422.870428
 20
374.952083
 10
422.715285
 20
374.842197
 10
422.57341
 20
374.705874
 10
422.44417
 20
374.543212
 10
422.317391
 20
374.350839
 10
422.214508
 20
374.167142
 10
422.136568
 20
373.989576
 10
422.08462
 20
373.815592
 10
422.059714
 20
373.642645
 10
422.062899
 20
373.468188
 10
422.095222
 20
373.289674
 10
422.157734
 20
373.104558
 10
422.251482
 20
372.910292
 10
422.377516
 20
372.70433
 10
422.536885
 20
372.484126
 10
422.730637
 20
372.247133
 10
422.959821
 20
371.990804
 10
423.225486
 20
371.712593
 10
423.870456
 20
371.080339
 10
424.218137
 20
370.743218
 10
424.530919
 20
370.4259
 10
424.809924
 20
370.125926
 10
425.056272
 20
369.840837
 10
425.271084
 20
369.568171
 10
425.455482
 20
369.305469
 10
425.610587
 20
369.050271
 10
425.737519
 20
368.800117
 10
425.8374
 20
368.552547
 10
425.911351
 20
368.305101
 10
425.960492
 20
368.055319
 10
425.985945
 20
367.80074
 10
425.98883
 20
367.538906
 10
425.970269
 20
367.267356
 10
425.931383
 20
366.983629
 10
425.873293
 20
366.685267
 10
425.831164
 20
366.511522
 10
425.783522
 20
366.360021
 10
425.726601
 20
366.230453
 10
425.656635
 20
366.122505
 10
425.569861
 20
366.035865
 10
425.462512
 20
365.970222
 10
425.330825
 20
365.925263
 10
425.171034
 20
365.900678
 10
424.979374
 20
365.896154
 10
424.75208
 20
365.911379
 10
424.485387
 20
365.946041
 10
424.17553
 20
365.999829
 10
423.411266
 20
366.163534
 10
422.429167
 20
366.4
 10
421.879782
 20
366.527881
 10
421.33973
 20
366.637719
 10
420.808736
 20
366.729512
 10
420.286522
 20
366.803253
 10
419.772812
 20
366.85894
 10
419.267329
 20
366.896568
 10
418.769797
 20
366.916132
 10
418.279939
 20
366.917628
 10
417.797479
 20
366.901052
 10
417.32214
 20
366.8664
 10
416.853646
 20
366.813667
 10
416.391719
 20
366.742849
 10
415.936084
 20
366.653942
 10
415.486464
 20
366.546942
 10
415.042582
 20
366.421844
 10
414.604163
 20
366.278643
 10
414.174409
 20
366.123433
 10
413.752757
 20
365.960996
 10
413.339701
 20
365.791615
 10
412.935735
 20
365.61557
 10
412.541353
 20
365.43314
 10
412.157049
 20
365.244607
 10
411.783318
 20
365.05025
 10
411.420653
 20
364.850352
 10
411.06955
 20
364.645191
 10
410.730503
 20
364.435049
 10
410.404005
 20
364.220205
 10
410.090551
 20
364.000941
 10
409.790635
 20
363.777537
 10
409.504752
 20
363.550273
 10
409.233395
 20
363.31943
 10
408.977059
 20
363.085289
 10
408.759985
 20
362.885343
 10
408.557144
 20
362.713128
 10
408.364693
 20
362.568926
 10
408.178787
 20
362.453016
 10
407.995581
 20
362.365678
 10
407.811233
 20
362.307194
 10
407.717428
 20
362.288859
 10
407.621896
 20
362.277843
 10
407.423727
 20
362.277905
 10
407.21288
 20
362.307661
 10
406.985513
 20
362.367392
 10
406.73778
 20
362.457376
 10
406.465838
 20
362.577895
 10
406.16584
 20
362.729229
 10
405.833944
 20
362.911658
 10
405.059078
 20
363.370922
 10
404.696742
 20
363.582032
 10
404.348188
 20
363.76524
 10
404.014749
 20
363.920537
 10
403.697757
 20
364.047913
 10
403.398546
 20
364.147358
 10
403.118448
 20
364.218864
 10
402.858797
 20
364.26242
 10
402.620926
 20
364.278017
 10
402.406166
 20
364.265645
 10
402.30787
 20
364.248968
 10
402.215852
 20
364.225296
 10
402.130278
 20
364.194626
 10
402.051316
 20
364.156959
 10
401.979131
 20
364.112292
 10
401.913891
 20
364.060625
 10
401.855762
 20
364.001956
 10
401.80491
 20
363.936285
 10
401.761502
 20
363.863609
 10
401.725706
 20
363.783928
 10
401.697687
 20
363.697241
 10
401.677611
 20
363.603547
 10
401.665647
 20
363.502843
 10
401.66196
 20
363.39513
 10
401.673816
 20
363.248987
 10
401.707214
 20
363.071816
 10
401.760664
 20
362.866866
 10
401.832681
 20
362.637387
 10
401.921776
 20
362.386629
 10
402.026462
 20
362.11784
 10
402.276658
 20
361.539171
 10
402.57137
 20
360.927374
 10
402.898699
 20
360.308447
 10
403.246746
 20
359.708384
 10
403.424821
 20
359.423551
 10
403.603613
 20
359.153182
 10
403.880329
 20
358.740188
 10
404.080716
 20
358.413287
 10
404.152821
 20
358.27587
 10
404.206486
 20
358.152475
 10
404.241925
 20
358.0406
 10
404.259352
 20
357.937746
 10
404.258982
 20
357.841412
 10
404.241028
 20
357.749098
 10
404.205704
 20
357.658302
 10
404.153226
 20
357.566524
 10
404.083806
 20
357.471264
 10
403.997659
 20
357.370021
 10
403.776042
 20
357.139583
 10
403.615762
 20
356.999548
 10
403.437088
 20
356.880566
 10
403.241494
 20
356.782547
 10
403.030457
 20
356.705404
 10
402.805452
 20
356.649049
 10
402.567954
 20
356.613393
 10
402.319438
 20
356.598347
 10
402.06138
 20
356.603823
 10
401.795256
 20
356.629734
 10
401.522541
 20
356.67599
 10
401.244709
 20
356.742504
 10
400.963238
 20
356.829187
 10
400.679601
 20
356.93595
 10
400.395275
 20
357.062705
 10
400.111734
 20
357.209365
 10
399.830455
 20
357.37584
 10
399.239944
 20
357.736921
 10
398.982156
 20
357.884008
 10
398.746536
 20
358.009364
 10
398.530979
 20
358.113415
 10
398.333377
 20
358.196588
 10
398.151625
 20
358.259312
 10
397.983616
 20
358.302012
 10
397.827243
 20
358.325118
 10
397.6804
 20
358.329055
 10
397.54098
 20
358.314252
 10
397.406876
 20
358.281136
 10
397.275983
 20
358.230133
 10
397.146193
 20
358.161672
 10
397.0154
 20
358.07618
 10
396.881497
 20
357.974084
 10
396.690339
 20
357.813103
 10
396.548865
 20
357.671482
 10
396.495893
 20
357.603249
 10
396.454301
 20
357.534237
 10
396.423744
 20
357.462574
 10
396.403873
 20
357.386386
 10
396.394342
 20
357.303801
 10
396.394805
 20
357.212947
 10
396.424323
 20
356.998935
 10
396.489653
 20
356.729369
 10
396.58802
 20
356.389265
 10
396.680034
 20
356.13215
 10
396.817616
 20
355.816254
 10
396.994054
 20
355.453925
 10
397.202637
 20
355.057515
 10
397.436654
 20
354.639375
 10
397.689394
 20
354.211855
 10
397.954148
 20
353.787305
 10
398.224202
 20
353.378077
 10
398.65541
 20
352.741662
 10
398.969182
 20
352.261267
 10
399.08375
 20
352.071877
 10
399.171022
 20
351.912251
 10
399.231688
 20
351.779312
 10
399.266434
 20
351.669977
 10
399.275949
 20
351.581167
 10
399.260922
 20
351.509803
 10
399.222039
 20
351.452803
 10
399.159989
 20
351.407089
 10
399.075461
 20
351.369581
 10
398.969141
 20
351.337197
 10
398.693881
 20
351.275487
 10
398.462403
 20
351.236873
 10
398.125827
 20
351.194375
 10
397.201345
 20
351.103303
 10
396.048374
 20
351.013414
 10
394.794848
 20
350.935852
 10
390.186756
 20
350.618996
 10
389.875563
 20
350.582489
 10
389.584905
 20
350.536281
 10
389.314718
 20
350.480328
 10
389.064939
 20
350.414587
 10
388.835506
 20
350.339014
 10
388.626354
 20
350.253564
 10
388.437421
 20
350.158194
 10
388.268645
 20
350.05286
 10
388.11996
 20
349.937518
 10
387.991305
 20
349.812125
 10
387.882617
 20
349.676635
 10
387.793831
 20
349.531006
 10
387.724886
 20
349.375193
 10
387.675717
 20
349.209153
 10
387.646263
 20
349.032842
 10
387.636458
 20
348.846215
 10
387.644585
 20
348.615414
 10
387.671918
 20
348.409102
 10
387.694171
 20
348.3147
 10
387.722887
 20
348.225906
 10
387.75862
 20
348.142548
 10
387.801923
 20
348.064455
 10
387.85335
 20
347.991455
 10
387.913455
 20
347.923376
 10
387.982792
 20
347.860047
 10
388.061914
 20
347.801297
 10
388.151376
 20
347.746954
 10
388.25173
 20
347.696846
 10
388.363531
 20
347.650802
 10
388.487333
 20
347.60865
 10
388.773152
 20
347.535338
 10
389.113618
 20
347.475537
 10
389.513161
 20
347.427875
 10
389.976211
 20
347.390981
 10
390.507199
 20
347.36348
 10
391.110553
 20
347.344003
 10
392.552083
 20
347.323626
 10
396.5
 20
347.297253
 10
397.161458
 20
347.11326
 10
397.314226
 20
347.061791
 10
397.446258
 20
346.998773
 10
397.557574
 20
346.925152
 10
397.648192
 20
346.841872
 10
397.71813
 20
346.749878
 10
397.767409
 20
346.650115
 10
397.796046
 20
346.543528
 10
397.804061
 20
346.431062
 10
397.791472
 20
346.313662
 10
397.758298
 20
346.192273
 10
397.704558
 20
346.06784
 10
397.63027
 20
345.941308
 10
397.535454
 20
345.813622
 10
397.420129
 20
345.685726
 10
397.284312
 20
345.558566
 10
397.128023
 20
345.433087
 10
397.028032
 20
345.363253
 10
396.921129
 20
345.298254
 10
396.806303
 20
345.237867
 10
396.682543
 20
345.181868
 10
396.404172
 20
345.082139
 10
396.077926
 20
344.997279
 10
395.695712
 20
344.925497
 10
395.249438
 20
344.865004
 10
394.731012
 20
344.814013
 10
394.132342
 20
344.770732
 10
393.4446
 20
344.723899
 10
392.898651
 20
344.674968
 10
392.473473
 20
344.617991
 10
392.299604
 20
344.584626
 10
392.148044
 20
344.547019
 10
392.016165
 20
344.504426
 10
391.901341
 20
344.456104
 10
391.800942
 20
344.401309
 10
391.712342
 20
344.339298
 10
391.632912
 20
344.269328
 10
391.560025
 20
344.190653
 10
391.423368
 20
344.004221
 10
391.302486
 20
343.812159
 10
391.216332
 20
343.650886
 10
391.164988
 20
343.509925
 10
391.152396
 20
343.443787
 10
391.148538
 20
343.378798
 10
391.153424
 20
343.313648
 10
391.167064
 20
343.247027
 10
391.220648
 20
343.104136
 10
391.309375
 20
342.939647
 10
391.433325
 20
342.743083
 10
391.495594
 20
342.655321
 10
391.564726
 20
342.572261
 10
391.641614
 20
342.493491
 10
391.727152
 20
342.418598
 10
391.822231
 20
342.347172
 10
391.927746
 20
342.278799
 10
392.044588
 20
342.213068
 10
392.173651
 20
342.149567
 10
392.472011
 20
342.027604
 10
392.829968
 20
341.909614
 10
393.254666
 20
341.7923
 10
393.753248
 20
341.672365
 10
394.531497
 20
341.483101
 10
395.244632
 20
341.287534
 10
395.813693
 20
341.10872
 10
396.019519
 20
341.0328
 10
396.159716
 20
340.969714
 10
396.27829
 20
340.89421
 10
396.376953
 20
340.80649
 10
396.45601
 20
340.70821
 10
396.515766
 20
340.601032
 10
396.556528
 20
340.486612
 10
396.578599
 20
340.366611
 10
396.582286
 20
340.242688
 10
396.567894
 20
340.1165
 10
396.535728
 20
339.989708
 10
396.486093
 20
339.86397
 10
396.419295
 20
339.740946
 10
396.335639
 20
339.622294
 10
396.23543
 20
339.509673
 10
396.118974
 20
339.404742
 10
395.986576
 20
339.30916
 10
395.838542
 20
339.224586
 10
395.177083
 20
338.891134
 10
385.3875
 20
338.880382
 10
384.425741
 20
338.61324
 10
384.178402
 20
338.535074
 10
383.961038
 20
338.445227
 10
383.770748
 20
338.341274
 10
383.604632
 20
338.220792
 10
383.45979
 20
338.081358
 10
383.333323
 20
337.920546
 10
383.22233
 20
337.735934
 10
383.123912
 20
337.525096
 10
383.068506
 20
337.381036
 10
383.023551
 20
337.241596
 10
382.989058
 20
337.106768
 10
382.965034
 20
336.976548
 10
382.951487
 20
336.85093
 10
382.948428
 20
336.729907
 10
382.955864
 20
336.613475
 10
382.973803
 20
336.501625
 10
383.002256
 20
336.394354
 10
383.041229
 20
336.291655
 10
383.090733
 20
336.193522
 10
383.150776
 20
336.09995
 10
383.221366
 20
336.010931
 10
383.302512
 20
335.926462
 10
383.394222
 20
335.846534
 10
383.496507
 20
335.771144
 10
383.609373
 20
335.700284
 10
383.73283
 20
335.633949
 10
383.866887
 20
335.572133
 10
384.011552
 20
335.51483
 10
384.33274
 20
335.413739
 10
384.696466
 20
335.33063
 10
385.102798
 20
335.265455
 10
385.551805
 20
335.218167
 10
386.043558
 20
335.188719
 10
386.578125
 20
335.177064
 10
387.600568
 20
335.153617
 10
388.917531
 20
335.0971
 10
390.359134
 20
335.015987
 10
391.755492
 20
334.918754
 10
394.948485
 20
334.670349
 10
395.393513
 20
334.499575
 10
395.499899
 20
334.445843
 10
395.591356
 20
334.373824
 10
395.667962
 20
334.286193
 10
395.729796
 20
334.185623
 10
395.776935
 20
334.074785
 10
395.809457
 20
333.956354
 10
395.827442
 20
333.833002
 10
395.830966
 20
333.707403
 10
395.820109
 20
333.582229
 10
395.794948
 20
333.460154
 10
395.755561
 20
333.34385
 10
395.702027
 20
333.235991
 10
395.634424
 20
333.13925
 10
395.55283
 20
333.056299
 10
395.457323
 20
332.989812
 10
395.347981
 20
332.942461
 10
394.982222
 20
332.851477
 10
394.348981
 20
332.718844
 10
393.537245
 20
332.562367
 10
392.636002
 20
332.399851
 10
392.152392
 20
332.310611
 10
391.716232
 20
332.219031
 10
391.326184
 20
332.123993
 10
390.980913
 20
332.024382
 10
390.679084
 20
331.91908
 10
390.419361
 20
331.806971
 10
390.200409
 20
331.686938
 10
390.105804
 20
331.623602
 10
390.02089
 20
331.557865
 10
389.945502
 20
331.48959
 10
389.879471
 20
331.418635
 10
389.82263
 20
331.344862
 10
389.774814
 20
331.268131
 10
389.735854
 20
331.188302
 10
389.705584
 20
331.105236
 10
389.683837
 20
331.018794
 10
389.670446
 20
330.928835
 10
389.665244
 20
330.83522
 10
389.668064
 20
330.737809
 10
389.697102
 20
330.531044
 10
389.756225
 20
330.307421
 10
389.844096
 20
330.065824
 10
389.923213
 20
329.896539
 10
390.019223
 20
329.736668
 10
390.131778
 20
329.586375
 10
390.260535
 20
329.445827
 10
390.405147
 20
329.315188
 10
390.565271
 20
329.194624
 10
390.740561
 20
329.0843
 10
390.930672
 20
328.984383
 10
391.135258
 20
328.895037
 10
391.353975
 20
328.816428
 10
391.586478
 20
328.748722
 10
391.832422
 20
328.692083
 10
392.091461
 20
328.646678
 10
392.363251
 20
328.612671
 10
392.647446
 20
328.590229
 10
392.943701
 20
328.579517
 10
393.156214
 20
328.570237
 10
393.358838
 20
328.549624
 10
393.550826
 20
328.51819
 10
393.731431
 20
328.476443
 10
393.899903
 20
328.424892
 10
394.055497
 20
328.364047
 10
394.197465
 20
328.294417
 10
394.325058
 20
328.216511
 10
394.437531
 20
328.130839
 10
394.534134
 20
328.037911
 10
394.614121
 20
327.938235
 10
394.676743
 20
327.832321
 10
394.721254
 20
327.720678
 10
394.746907
 20
327.603816
 10
394.752952
 20
327.482243
 10
394.738643
 20
327.35647
 10
394.720055
 20
327.276634
 10
394.695642
 20
327.205328
 10
394.663471
 20
327.142057
 10
394.621608
 20
327.086331
 10
394.568119
 20
327.037655
 10
394.501071
 20
326.995536
 10
394.418529
 20
326.959484
 10
394.318559
 20
326.929003
 10
394.199229
 20
326.903602
 10
394.058603
 20
326.882788
 10
393.70573
 20
326.85295
 10
393.24447
 20
326.835545
 10
392.659352
 20
326.826632
 10
392.366056
 20
326.819855
 10
392.079325
 20
326.805146
 10
391.79957
 20
326.782783
 10
391.527202
 20
326.753046
 10
391.262632
 20
326.716213
 10
391.006273
 20
326.672563
 10
390.758536
 20
326.622374
 10
390.519831
 20
326.565926
 10
390.290571
 20
326.503496
 10
390.071167
 20
326.435363
 10
389.86203
 20
326.361806
 10
389.663573
 20
326.283104
 10
389.476206
 20
326.199536
 10
389.30034
 20
326.111379
 10
389.136388
 20
326.018913
 10
388.984761
 20
325.922416
 10
388.84587
 20
325.822167
 10
388.720126
 20
325.718445
 10
388.607942
 20
325.611527
 10
388.509728
 20
325.501694
 10
388.425897
 20
325.389223
 10
388.356859
 20
325.274394
 10
388.303026
 20
325.157484
 10
388.264809
 20
325.038773
 10
388.242621
 20
324.918539
 10
388.236872
 20
324.79706
 10
388.247973
 20
324.674616
 10
388.276337
 20
324.551485
 10
388.322375
 20
324.427946
 10
388.386498
 20
324.304278
 10
388.469118
 20
324.180758
 10
388.570646
 20
324.057666
 10
388.70753
 20
323.920763
 10
388.861742
 20
323.792879
 10
389.032327
 20
323.674261
 10
389.218328
 20
323.565158
 10
389.418788
 20
323.465818
 10
389.632752
 20
323.37649
 10
389.859264
 20
323.29742
 10
390.097367
 20
323.228859
 10
390.346105
 20
323.171053
 10
390.604523
 20
323.124251
 10
390.871663
 20
323.088702
 10
391.14657
 20
323.064652
 10
391.428288
 20
323.052352
 10
391.715861
 20
323.052048
 10
392.008332
 20
323.063988
 10
392.304745
 20
323.088422
 10
393.721875
 20
323.234683
 10
393.826453
 20
306.207292
 10
393.824926
 20
303.873029
 10
393.819682
 20
303.291946
 10
393.804378
 20
302.793995
 10
393.778437
 20
302.375027
 10
393.741279
 20
302.030892
 10
393.692327
 20
301.757441
 10
393.663247
 20
301.645924
 10
393.631002
 20
301.550522
 10
393.595518
 20
301.470716
 10
393.556724
 20
301.405986
 10
393.514547
 20
301.355815
 10
393.468916
 20
301.319684
 10
393.357388
 20
301.269678
 10
393.175401
 20
301.211435
 10
392.932511
 20
301.147057
 10
392.638275
 20
301.07865
 10
391.933986
 20
300.938158
 10
391.138988
 20
300.80679
 10
390.759308
 20
300.746417
 10
390.401712
 20
300.681414
 10
390.065642
 20
300.611533
 10
389.750542
 20
300.536527
 10
389.455857
 20
300.45615
 10
389.181031
 20
300.370154
 10
388.925508
 20
300.278293
 10
388.688731
 20
300.180319
 10
388.470145
 20
300.075986
 10
388.269193
 20
299.965046
 10
388.08532
 20
299.847252
 10
387.91797
 20
299.722357
 10
387.766587
 20
299.590115
 10
387.630614
 20
299.450278
 10
387.509496
 20
299.3026
 10
387.402676
 20
299.146832
 10
387.080099
 20
298.630305
 10
386.534676
 20
294.216715
 10
386.424573
 20
293.254515
 10
386.320815
 20
292.210719
 10
386.225748
 20
291.118621
 10
386.141717
 20
290.011518
 10
386.071066
 20
288.922705
 10
386.016143
 20
287.885477
 10
385.979291
 20
286.933129
 10
385.962856
 20
286.098958
 10
385.93646
 20
282.394792
 10
386.387703
 20
281.551674
 10
386.573753
 20
281.218386
 10
386.745569
 20
280.952104
 10
386.83095
 20
280.840602
 10
386.918547
 20
280.741665
 10
387.010283
 20
280.653898
 10
387.108085
 20
280.575905
 10
387.213875
 20
280.506291
 10
387.32958
 20
280.443661
 10
387.457123
 20
280.386619
 10
387.59843
 20
280.333769
 10
387.930032
 20
280.235067
 10
388.339784
 20
280.136391
 10
388.551354
 20
280.10086
 10
388.796568
 20
280.081338
 10
389.072563
 20
280.077301
 10
389.376481
 20
280.08823
 10
389.70546
 20
280.113603
 10
390.05664
 20
280.152899
 10
390.427159
 20
280.205596
 10
390.814159
 20
280.271173
 10
391.214777
 20
280.349109
 10
391.626154
 20
280.438883
 10
392.045429
 20
280.539974
 10
392.469741
 20
280.65186
 10
392.89623
 20
280.774021
 10
393.322035
 20
280.905934
 10
393.744296
 20
281.047078
 10
394.160152
 20
281.196934
 10
394.743238
 20
281.405208
 10
395.271041
 20
281.575766
 10
395.685532
 20
281.691008
 10
395.832151
 20
281.722385
 10
395.928681
 20
281.733333
 10
395.968938
 20
281.721755
 10
396.012854
 20
281.687441
 10
396.060198
 20
281.631019
 10
396.110733
 20
281.553119
 10
396.220446
 20
281.335404
 10
396.340121
 20
281.039332
 10
396.467886
 20
280.669936
 10
396.601867
 20
280.232252
 10
396.740194
 20
279.731316
 10
396.880993
 20
279.172163
 10
397.083563
 20
278.325808
 10
397.228083
 20
277.68374
 10
397.278523
 20
277.428119
 10
397.314388
 20
277.210135
 10
397.335659
 20
277.025312
 10
397.342314
 20
276.869171
 10
397.334333
 20
276.737235
 10
397.311695
 20
276.625025
 10
397.27438
 20
276.528063
 10
397.222368
 20
276.441872
 10
397.155636
 20
276.361974
 10
397.074166
 20
276.283891
 10
396.866925
 20
276.115258
 10
396.392583
 20
275.739176
 10
396.024906
 20
275.43557
 10
395.750511
 20
275.18822
 10
395.644112
 20
275.080573
 10
395.556016
 20
274.980909
 10
395.484548
 20
274.8872
 10
395.428037
 20
274.797419
 10
395.384809
 20
274.709539
 10
395.353192
 20
274.621532
 10
395.331513
 20
274.531371
 10
395.318099
 20
274.43703
 10
395.309375
 20
274.227695
 10
395.315516
 20
274.074392
 10
395.334566
 20
273.9315
 10
395.367469
 20
273.798329
 10
395.415167
 20
273.674191
 10
395.478603
 20
273.558397
 10
395.558719
 20
273.450258
 10
395.656459
 20
273.349085
 10
395.772765
 20
273.25419
 10
395.908579
 20
273.164883
 10
396.064845
 20
273.080477
 10
396.242505
 20
273.000282
 10
396.442502
 20
272.92361
 10
396.665778
 20
272.849771
 10
396.913276
 20
272.778078
 10
397.484711
 20
272.638371
 10
397.945618
 20
272.532827
 10
398.133266
 20
272.483576
 10
398.295696
 20
272.432742
 10
398.435397
 20
272.377379
 10
398.554857
 20
272.31454
 10
398.656565
 20
272.241278
 10
398.743011
 20
272.154647
 10
398.816683
 20
272.051699
 10
398.880069
 20
271.929488
 10
398.93566
 20
271.785067
 10
398.985943
 20
271.615489
 10
399.080542
 20
271.189075
 10
399.183779
 20
270.626672
 10
399.241807
 20
270.285398
 10
399.288053
 20
269.972383
 10
399.321947
 20
269.685204
 10
399.342922
 20
269.42144
 10
399.350411
 20
269.178671
 10
399.343843
 20
268.954473
 10
399.322653
 20
268.746427
 10
399.286271
 20
268.552111
 10
399.23413
 20
268.369102
 10
399.165661
 20
268.194981
 10
399.080296
 20
268.027325
 10
398.977468
 20
267.863713
 10
398.856608
 20
267.701723
 10
398.717148
 20
267.538934
 10
398.55852
 20
267.372926
 10
398.380155
 20
267.201275
 10
398.259258
 20
267.083349
 10
398.149954
 20
266.965464
 10
398.052148
 20
266.847809
 10
397.965746
 20
266.730572
 10
397.890654
 20
266.61394
 10
397.826778
 20
266.498101
 10
397.774023
 20
266.383243
 10
397.732297
 20
266.269554
 10
397.701504
 20
266.157221
 10
397.68155
 20
266.046433
 10
397.672342
 20
265.937376
 10
397.673784
 20
265.83024
 10
397.685784
 20
265.725211
 10
397.708247
 20
265.622477
 10
397.741078
 20
265.522227
 10
397.784184
 20
265.424647
 10
397.837471
 20
265.329927
 10
397.900844
 20
265.238253
 10
397.974209
 20
265.149813
 10
398.057472
 20
265.064795
 10
398.15054
 20
264.983387
 10
398.253317
 20
264.905777
 10
398.36571
 20
264.832152
 10
398.487624
 20
264.762701
 10
398.618966
 20
264.69761
 10
398.759642
 20
264.637068
 10
398.909556
 20
264.581263
 10
399.068616
 20
264.530382
 10
399.413794
 20
264.444145
 10
399.794423
 20
264.379859
 10
400.200133
 20
264.321549
 10
400.517747
 20
264.259166
 10
400.648706
 20
264.222581
 10
400.763864
 20
264.18034
 10
400.865298
 20
264.130895
 10
400.955081
 20
264.072702
 10
401.03529
 20
264.004212
 10
401.107998
 20
263.923881
 10
401.175281
 20
263.830161
 10
401.239213
 20
263.721508
 10
401.365325
 20
263.453213
 10
401.502932
 20
263.106626
 10
401.621342
 20
262.785253
 10
401.720737
 20
262.489276
 10
401.800787
 20
262.216922
 10
401.861164
 20
261.966415
 10
401.901541
 20
261.735981
 10
401.921589
 20
261.523846
 10
401.92098
 20
261.328235
 10
401.899385
 20
261.147372
 10
401.856477
 20
260.979485
 10
401.791928
 20
260.822797
 10
401.705408
 20
260.675535
 10
401.59659
 20
260.535924
 10
401.465145
 20
260.402189
 10
401.310746
 20
260.272556
 10
401.133064
 20
260.14525
 10
400.931771
 20
260.018496
 10
400.619756
 20
259.824587
 10
400.340656
 20
259.634196
 10
400.094325
 20
259.446945
 10
399.880615
 20
259.262459
 10
399.699382
 20
259.08036
 10
399.550477
 20
258.900272
 10
399.433755
 20
258.721818
 10
399.349069
 20
258.544621
 10
399.318694
 20
258.456376
 10
399.296273
 20
258.368304
 10
399.281787
 20
258.280358
 10
399.275219
 20
258.192491
 10
399.27655
 20
258.104655
 10
399.285762
 20
258.016804
 10
399.302836
 20
257.928891
 10
399.327754
 20
257.840867
 10
399.40105
 20
257.664304
 10
399.505503
 20
257.486736
 10
399.640965
 20
257.307788
 10
399.807292
 20
257.127083
 10
399.957417
 20
256.993948
 10
400.121964
 20
256.882185
 10
400.304771
 20
256.790676
 10
400.509674
 20
256.718308
 10
400.74051
 20
256.663963
 10
401.001114
 20
256.626527
 10
401.295325
 20
256.604883
 10
401.626978
 20
256.597917
 10
401.916852
 20
256.593683
 10
402.176923
 20
256.57955
 10
402.409007
 20
256.553367
 10
402.614921
 20
256.512984
 10
402.796482
 20
256.456253
 10
402.955509
 20
256.381024
 10
403.093817
 20
256.285146
 10
403.213224
 20
256.166471
 10
403.315548
 20
256.022849
 10
403.402605
 20
255.85213
 10
403.476212
 20
255.652165
 10
403.538187
 20
255.420803
 10
403.590346
 20
255.155897
 10
403.634508
 20
254.855295
 10
403.672488
 20
254.516848
 10
403.706105
 20
254.138407
 10
403.745282
 20
253.611858
 10
403.764252
 20
253.201318
 10
403.764467
 20
253.033085
 10
403.757598
 20
252.886094
 10
403.742968
 20
252.75776
 10
403.719901
 20
252.645494
 10
403.68772
 20
252.546712
 10
403.645747
 20
252.458826
 10
403.593304
 20
252.379249
 10
403.529716
 20
252.305396
 10
403.454305
 20
252.234679
 10
403.366394
 20
252.164512
 10
403.150362
 20
252.015482
 10
402.980195
 20
251.897264
 10
402.818145
 20
251.771397
 10
402.664956
 20
251.639078
 10
402.521372
 20
251.501501
 10
402.388139
 20
251.359864
 10
402.266001
 20
251.215363
 10
402.155703
 20
251.069195
 10
402.057989
 20
250.922555
 10
401.973604
 20
250.776641
 10
401.903293
 20
250.632648
 10
401.847801
 20
250.491774
 10
401.807872
 20
250.355214
 10
401.784251
 20
250.224165
 10
401.777682
 20
250.099824
 10
401.788911
 20
249.983386
 10
401.818682
 20
249.876049
 10
401.842825
 20
249.827181
 10
401.879422
 20
249.773029
 10
401.98698
 20
249.651132
 10
402.135363
 20
249.514868
 10
402.318578
 20
249.36875
 10
402.530632
 20
249.21729
 10
402.765531
 20
249.065
 10
403.017282
 20
248.916392
 10
403.279892
 20
248.775977
 10
403.5969
 20
248.607749
 10
403.865805
 20
248.448214
 10
404.088406
 20
248.295708
 10
404.266501
 20
248.148561
 10
404.401888
 20
248.005108
 10
404.454129
 20
247.934245
 10
404.496367
 20
247.86368
 10
404.528828
 20
247.793204
 10
404.551735
 20
247.72261
 10
404.565315
 20
247.651689
 10
404.569792
 20
247.580232
 10
404.56444
 20
247.420539
 10
404.548442
 20
247.266706
 10
404.521879
 20
247.118847
 10
404.484836
 20
246.977076
 10
404.437396
 20
246.841506
 10
404.379641
 20
246.712249
 10
404.311657
 20
246.589419
 10
404.233525
 20
246.473129
 10
404.145329
 20
246.363493
 10
404.047153
 20
246.260623
 10
403.939079
 20
246.164633
 10
403.821192
 20
246.075636
 10
403.693574
 20
245.993745
 10
403.55631
 20
245.919073
 10
403.409481
 20
245.851735
 10
403.253172
 20
245.791841
 10
403.086474
 20
245.722152
 10
402.918835
 20
245.630529
 10
402.754793
 20
245.520882
 10
402.598882
 20
245.397117
 10
402.455639
 20
245.263143
 10
402.329599
 20
245.122867
 10
402.225299
 20
244.980199
 10
402.147274
 20
244.839045
 10
402.064693
 20
244.64393
 10
402.00984
 20
244.475717
 10
401.983729
 20
244.327316
 10
401.98177
 20
244.258331
 10
401.987377
 20
244.19164
 10
402.000677
 20
244.126358
 10
402.021798
 20
244.0616
 10
402.088009
 20
243.930107
 10
402.187024
 20
243.790072
 10
402.319861
 20
243.634408
 10
402.423199
 20
243.527894
 10
402.53303
 20
243.428525
 10
402.645989
 20
243.338477
 10
402.758712
 20
243.259925
 10
402.867837
 20
243.195043
 10
402.969998
 20
243.146006
 10
403.061832
 20
243.114989
 10
403.139976
 20
243.104167
 10
403.230564
 20
243.098671
 10
403.314076
 20
243.082392
 10
403.390374
 20
243.055645
 10
403.459321
 20
243.018746
 10
403.520781
 20
242.972007
 10
403.574618
 20
242.915745
 10
403.620694
 20
242.850272
 10
403.658873
 20
242.775905
 10
403.689019
 20
242.692958
 10
403.710994
 20
242.601745
 10
403.724662
 20
242.502581
 10
403.729887
 20
242.39578
 10
403.726532
 20
242.281658
 10
403.714459
 20
242.160528
 10
403.693534
 20
242.032705
 10
403.663618
 20
241.898504
 10
403.609795
 20
241.718173
 10
403.544386
 20
241.573338
 10
403.505481
 20
241.513129
 10
403.461454
 20
241.46047
 10
403.41156
 20
241.41492
 10
403.355059
 20
241.376038
 10
403.291208
 20
241.343383
 10
403.219265
 20
241.316513
 10
403.048131
 20
241.278366
 10
402.835721
 20
241.258066
 10
402.576095
 20
241.252083
 10
402.303804
 20
241.245008
 10
402.079259
 20
241.219501
 10
401.981942
 20
241.197829
 10
401.893023
 20
241.169139
 10
401.811323
 20
241.132631
 10
401.73566
 20
241.0875
 10
401.664857
 20
241.032943
 10
401.597732
 20
240.968159
 10
401.533108
 20
240.892344
 10
401.469803
 20
240.804695
 10
401.342436
 20
240.590684
 10
401.206193
 20
240.319704
 10
401.061085
 20
240.010437
 10
400.962362
 20
239.768602
 10
400.931863
 20
239.666727
 10
400.914724
 20
239.574219
 10
400.911531
 20
239.488579
 10
400.922872
 20
239.40731
 10
400.949335
 20
239.327914
 10
400.991507
 20
239.247895
 10
401.049977
 20
239.164754
 10
401.125331
 20
239.075995
 10
401.329045
 20
238.871633
 10
401.607349
 20
238.614827
 10
401.782984
 20
238.443023
 10
401.938285
 20
238.267303
 10
402.073197
 20
238.088136
 10
402.187667
 20
237.905992
 10
402.281639
 20
237.72134
 10
402.35506
 20
237.53465
 10
402.407877
 20
237.346392
 10
402.440035
 20
237.157035
 10
402.45148
 20
236.96705
 10
402.442158
 20
236.776905
 10
402.412016
 20
236.587071
 10
402.360998
 20
236.398018
 10
402.289052
 20
236.210214
 10
402.196124
 20
236.02413
 10
402.082158
 20
235.840235
 10
401.947102
 20
235.658999
 10
401.794535
 20
235.486697
 10
401.638361
 20
235.347571
 10
401.555996
 20
235.289454
 10
401.469217
 20
235.238436
 10
401.376856
 20
235.194119
 10
401.277741
 20
235.156107
 10
401.170702
 20
235.123999
 10
401.054569
 20
235.097399
 10
400.790339
 20
235.059129
 10
400.475688
 20
235.038111
 10
400.101254
 20
235.031161
 10
399.773695
 20
235.023534
 10
399.477644
 20
235.00211
 10
399.212005
 20
234.966609
 10
398.975677
 20
234.916746
 10
398.767563
 20
234.85224
 10
398.586563
 20
234.772807
 10
398.431579
 20
234.678165
 10
398.301513
 20
234.568031
 10
398.159405
 20
234.417168
 10
398.105202
 20
234.347947
 10
398.06274
 20
234.279753
 10
398.032401
 20
234.210253
 10
398.014565
 20
234.137111
 10
398.009614
 20
234.057993
 10
398.017929
 20
233.970564
 10
398.03989
 20
233.872491
 10
398.075879
 20
233.761437
 10
398.191465
 20
233.491052
 10
398.367734
 20
233.140734
 10
398.607734
 20
232.691805
 10
398.859194
 20
232.22188
 10
399.039252
 20
231.853539
 10
399.102637
 20
231.697714
 10
399.148331
 20
231.555587
 10
399.176386
 20
231.423259
 10
399.186855
 20
231.296829
 10
399.179792
 20
231.1724
 10
399.155248
 20
231.046072
 10
399.113278
 20
230.913944
 10
399.053933
 20
230.772118
 10
398.883334
 20
230.443775
 10
398.643873
 20
230.029847
 10
398.487975
 20
229.769641
 10
398.341228
 20
229.538117
 10
398.201813
 20
229.334336
 10
398.067915
 20
229.157359
 10
397.937715
 20
229.006247
 10
397.809398
 20
228.880062
 10
397.681145
 20
228.777864
 10
397.55114
 20
228.698714
 10
397.417567
 20
228.641674
 10
397.278606
 20
228.605806
 10
397.132443
 20
228.590169
 10
396.977259
 20
228.593825
 10
396.811238
 20
228.615836
 10
396.632563
 20
228.655263
 10
396.439416
 20
228.711166
 10
396.229981
 20
228.782607
 10
395.994285
 20
228.861421
 10
395.781642
 20
228.917745
 10
395.586535
 20
228.95158
 10
395.403445
 20
228.962931
 10
395.226854
 20
228.9518
 10
395.051245
 20
228.918191
 10
394.871099
 20
228.862107
 10
394.680899
 20
228.783553
 10
394.51206
 20
228.700175
 10
394.362962
 20
228.612252
 10
394.233421
 20
228.518736
 10
394.123252
 20
228.41858
 10
394.032269
 20
228.310738
 10
393.960287
 20
228.194162
 10
393.907121
 20
228.067806
 10
393.872587
 20
227.930621
 10
393.856498
 20
227.781562
 10
393.858669
 20
227.61958
 10
393.878916
 20
227.443629
 10
393.917052
 20
227.252663
 10
393.972894
 20
227.045633
 10
394.046256
 20
226.821492
 10
394.136952
 20
226.579194
 10
394.244797
 20
226.317692
 10
394.465897
 20
225.778774
 10
394.552053
 20
225.544989
 10
394.621844
 20
225.331759
 10
394.675191
 20
225.136666
 10
394.712019
 20
224.957289
 10
394.732249
 20
224.79121
 10
394.735805
 20
224.636008
 10
394.722609
 20
224.489263
 10
394.692584
 20
224.348557
 10
394.645653
 20
224.211468
 10
394.581739
 20
224.075579
 10
394.500763
 20
223.938468
 10
394.40265
 20
223.797717
 10
394.154699
 20
223.495614
 10
393.956013
 20
223.276953
 10
393.86786
 20
223.188983
 10
393.78377
 20
223.114557
 10
393.701193
 20
223.053154
 10
393.61758
 20
223.004251
 10
393.530382
 20
222.967327
 10
393.43705
 20
222.941859
 10
393.335035
 20
222.927326
 10
393.221787
 20
222.923206
 10
393.094758
 20
222.928976
 10
392.951399
 20
222.944115
 10
392.605492
 20
223.000411
 10
392.163676
 20
223.087918
 10
391.835274
 20
223.150638
 10
391.538184
 20
223.197062
 10
391.27102
 20
223.226307
 10
391.032394
 20
223.23749
 10
390.820917
 20
223.229728
 10
390.635203
 20
223.20214
 10
390.473863
 20
223.153842
 10
390.335509
 20
223.083951
 10
390.274519
 20
223.040633
 10
390.218755
 20
222.991586
 10
390.168044
 20
222.936699
 10
390.122212
 20
222.875863
 10
390.044492
 20
222.7359
 10
389.984208
 20
222.570814
 10
389.939972
 20
222.379723
 10
389.910397
 20
222.161743
 10
389.894094
 20
221.915993
 10
389.889676
 20
221.64159
 10
389.906903
 20
221.116868
 10
389.95066
 20
220.545161
 10
390.014332
 20
219.995524
 10
390.051568
 20
219.750563
 10
390.091302
 20
219.537016
 10
390.128963
 20
219.346125
 10
390.154106
 20
219.16774
 10
390.160644
 20
218.991356
 10
390.142495
 20
218.806468
 10
390.093573
 20
218.60257
 10
390.007795
 20
218.369158
 10
389.879076
 20
218.095725
 10
389.701332
 20
217.771768
 10
389.468479
 20
217.386781
 10
389.174433
 20
216.930258
 10
388.813109
 20
216.391695
 10
388.378423
 20
215.760587
 10
387.264628
 20
214.178711
 10
385.784375
 20
212.100591
 10
382.386137
 20
207.121634
 10
381.858483
 20
206.23446
 10
381.384611
 20
205.397606
 10
380.962371
 20
204.606567
 10
380.589611
 20
203.856835
 10
380.264181
 20
203.143905
 10
379.983928
 20
202.46327
 10
379.860072
 20
202.133654
 10
379.746703
 20
201.810422
 10
379.643553
 20
201.493011
 10
379.550353
 20
201.180856
 10
379.483063
 20
200.928387
 10
379.42359
 20
200.670732
 10
379.371839
 20
200.408109
 10
379.327715
 20
200.14074
 10
379.291125
 20
199.868846
 10
379.261971
 20
199.592646
 10
379.225598
 20
199.028214
 10
379.217838
 20
198.449206
 10
379.23793
 20
197.857389
 10
379.285116
 20
197.254524
 10
379.358637
 20
196.642377
 10
379.457734
 20
196.022712
 10
379.581647
 20
195.397291
 10
379.729618
 20
194.767881
 10
379.900888
 20
194.136243
 10
380.094697
 20
193.504143
 10
380.310287
 20
192.873344
 10
380.546898
 20
192.245611
 10
380.803771
 20
191.622707
 10
381.080148
 20
191.006396
 10
381.375268
 20
190.398443
 10
381.688374
 20
189.800611
 10
382.018706
 20
189.214664
 10
382.365505
 20
188.642367
 10
382.728012
 20
188.085483
 10
383.105467
 20
187.545776
 10
383.497112
 20
187.025011
 10
383.902188
 20
186.524951
 10
384.319936
 20
186.04736
 10
384.749596
 20
185.594003
 10
385.190409
 20
185.166643
 10
385.641617
 20
184.767044
 10
386.10246
 20
184.39697
 10
386.336258
 20
184.223557
 10
386.57218
 20
184.058186
 10
386.810131
 20
183.901079
 10
387.050016
 20
183.752455
 10
387.323415
 20
183.595181
 10
387.621923
 20
183.435506
 10
387.942372
 20
183.274632
 10
388.281596
 20
183.113764
 10
389.003693
 20
182.796851
 10
389.762872
 20
182.494387
 10
390.533789
 20
182.215993
 10
391.291101
 20
181.97129
 10
391.656736
 20
181.864579
 10
392.009467
 20
181.769898
 10
392.346124
 20
181.688451
 10
392.663542
 20
181.621439
 10
392.842316
 20
181.597787
 10
393.09783
 20
181.579735
 10
393.791328
 20
181.560863
 10
394.648537
 20
181.565687
 10
395.573958
 20
181.595074
  0
LWPOLYLINE
  5
35
330
1F
100
AcDbEntity
  8
0
100
AcDbPolyline
 90
      219
 70
   128
 43
0.0
 10
417.186685
 20
252.623124
 10
417.31259
 20
252.778686
 10
417.430784
 20
252.947823
 10
417.541271
 20
253.13079
 10
417.644057
 20
253.327839
 10
417.739146
 20
253.539225
 10
417.826542
 20
253.765202
 10
417.906249
 20
254.006023
 10
417.978272
 20
254.261943
 10
418.042616
 20
254.533215
 10
418.099284
 20
254.820094
 10
418.148282
 20
255.122833
 10
418.189613
 20
255.441686
 10
418.223283
 20
255.776908
 10
418.249295
 20
256.128751
 10
418.267654
 20
256.49747
 10
418.278364
 20
256.883319
 10
418.281431
 20
257.286552
 10
418.276857
 20
257.707423
 10
418.244809
 20
258.603092
 10
418.182255
 20
259.572359
 10
418.089231
 20
260.617255
 10
417.965772
 20
261.73981
 10
417.811914
 20
262.942057
 10
417.627692
 20
264.226027
 10
417.413142
 20
265.59375
 10
416.7429
 20
270.402096
 10
416.755049
 20
270.593831
 10
416.791857
 20
270.787911
 10
416.85203
 20
270.982961
 10
416.934277
 20
271.177609
 10
417.037305
 20
271.370481
 10
417.15982
 20
271.560205
 10
417.300529
 20
271.745408
 10
417.45814
 20
271.924716
 10
417.63136
 20
272.096756
 10
417.818896
 20
272.260156
 10
418.019456
 20
272.413542
 10
418.231745
 20
272.555542
 10
418.454472
 20
272.684782
 10
418.686344
 20
272.799889
 10
418.926068
 20
272.899491
 10
419.17235
 20
272.982214
 10
419.876197
 20
273.205299
 10
420.553747
 20
273.449543
 10
421.204756
 20
273.714757
 10
421.520229
 20
273.85517
 10
421.828974
 20
274.000757
 10
422.13096
 20
274.151493
 10
422.426155
 20
274.307355
 10
422.71453
 20
274.468321
 10
422.996053
 20
274.634367
 10
423.270693
 20
274.805469
 10
423.538419
 20
274.981604
 10
423.799201
 20
275.16275
 10
424.053008
 20
275.348883
 10
424.299808
 20
275.539979
 10
424.539571
 20
275.736015
 10
424.772266
 20
275.936969
 10
424.997862
 20
276.142816
 10
425.216328
 20
276.353533
 10
425.427634
 20
276.569098
 10
425.631748
 20
276.789487
 10
425.828639
 20
277.014676
 10
426.018277
 20
277.244643
 10
426.200631
 20
277.479363
 10
426.37567
 20
277.718815
 10
426.543362
 20
277.962974
 10
426.703678
 20
278.211818
 10
426.856586
 20
278.465322
 10
427.002055
 20
278.723464
 10
427.140055
 20
278.986221
 10
427.305355
 20
279.326074
 10
427.469861
 20
279.69083
 10
427.633282
 20
280.079108
 10
427.795327
 20
280.489525
 10
427.955703
 20
280.920699
 10
428.114121
 20
281.371249
 10
428.423914
 20
282.324949
 10
428.722376
 20
283.339569
 10
429.007176
 20
284.404054
 10
429.275984
 20
285.507349
 10
429.52647
 20
286.638399
 10
429.756304
 20
287.786149
 10
429.963156
 20
288.939544
 10
430.144695
 20
290.087529
 10
430.298592
 20
291.219049
 10
430.422517
 20
292.323048
 10
430.514138
 20
293.388472
 10
430.547107
 20
293.903264
 10
430.571126
 20
294.404266
 10
430.585905
 20
294.890097
 10
430.591151
 20
295.359375
 10
430.58767
 20
295.908072
 10
430.576003
 20
296.445234
 10
430.555705
 20
296.972127
 10
430.526329
 20
297.490021
 10
430.487427
 20
298.000182
 10
430.438554
 20
298.503877
 10
430.379262
 20
299.002375
 10
430.309106
 20
299.496943
 10
430.227638
 20
299.988849
 10
430.134411
 20
300.47936
 10
430.028979
 20
300.969744
 10
429.910895
 20
301.461268
 10
429.779713
 20
301.955201
 10
429.634986
 20
302.452808
 10
429.476267
 20
302.95536
 10
429.303109
 20
303.464121
 10
429.115066
 20
303.980362
 10
428.911692
 20
304.505348
 10
428.692538
 20
305.040348
 10
428.457159
 20
305.586629
 10
428.205109
 20
306.145458
 10
427.935939
 20
306.718104
 10
427.649205
 20
307.305834
 10
427.344458
 20
307.909916
 10
427.021253
 20
308.531616
 10
426.679142
 20
309.172204
 10
425.936417
 20
310.515109
 10
425.11271
 20
311.948772
 10
424.204448
 20
313.483333
 10
421.278566
 20
318.113542
 10
421.031316
 20
318.44949
 10
420.68935
 20
318.89861
 10
419.783047
 20
320.058229
 10
418.683204
 20
321.43613
 10
417.513366
 20
322.876042
 10
413.004527
 20
328.15468
 10
412.1801
 20
329.042471
 10
411.373267
 20
329.890569
 10
410.586875
 20
330.696549
 10
409.823771
 20
331.457984
 10
409.086802
 20
332.172447
 10
408.378817
 20
332.837513
 10
407.702662
 20
333.450755
 10
407.061184
 20
334.009746
 10
406.457231
 20
334.512061
 10
405.89365
 20
334.955272
 10
405.373289
 20
335.336954
 10
404.898994
 20
335.65468
 10
404.680011
 20
335.788802
 10
404.473613
 20
335.906024
 10
404.280155
 20
336.006045
 10
404.099993
 20
336.08856
 10
403.933484
 20
336.153266
 10
403.780982
 20
336.199861
 10
403.642845
 20
336.22804
 10
403.519427
 20
336.2375
 10
403.39736
 20
336.230482
 10
403.284694
 20
336.207379
 10
403.180187
 20
336.16512
 10
403.082599
 20
336.100633
 10
402.99069
 20
336.010846
 10
402.903217
 20
335.892688
 10
402.818942
 20
335.743087
 10
402.736622
 20
335.55897
 10
402.655018
 20
335.337267
 10
402.572887
 20
335.074905
 10
402.48899
 20
334.768813
 10
402.402086
 20
334.415918
 10
402.214292
 20
333.557436
 10
401.999579
 20
332.474883
 10
401.527083
 20
330.019792
 10
401.563267
 20
308.323958
 10
402.460193
 20
297.211458
 10
402.868297
 20
293.242708
 10
403.07841
 20
291.315487
 10
403.348817
 20
289.001934
 10
403.644647
 20
286.592882
 10
403.931028
 20
284.379167
 10
405.243436
 20
275.647917
 10
405.551666
 20
273.906547
 10
405.872266
 20
272.207905
 10
406.207706
 20
270.540795
 10
406.560459
 20
268.894024
 10
406.932997
 20
267.256399
 10
407.327792
 20
265.616725
 10
407.747315
 20
263.96381
 10
408.194039
 20
262.286458
 10
409.130765
 20
258.846875
 10
409.943666
 20
256.8625
 10
410.13343
 20
256.411242
 10
410.328645
 20
255.970179
 10
410.528487
 20
255.540647
 10
410.732135
 20
255.123985
 10
410.938764
 20
254.72153
 10
411.147552
 20
254.334619
 10
411.357676
 20
253.96459
 10
411.568312
 20
253.612779
 10
411.778638
 20
253.280526
 10
411.987831
 20
252.969167
 10
412.195067
 20
252.68004
 10
412.399523
 20
252.414481
 10
412.600376
 20
252.17383
 10
412.796804
 20
251.959422
 10
412.987983
 20
251.772596
 10
413.17309
 20
251.61469
 10
413.40842
 20
251.44557
 10
413.645312
 20
251.307275
 10
413.883875
 20
251.199834
 10
414.003817
 20
251.157691
 10
414.124218
 20
251.123272
 10
414.245091
 20
251.09658
 10
414.36645
 20
251.077618
 10
414.488308
 20
251.06639
 10
414.610679
 20
251.0629
 10
414.733576
 20
251.067149
 10
414.857013
 20
251.079143
 10
414.981004
 20
251.098883
 10
415.105561
 20
251.126375
 10
415.356433
 20
251.204624
 10
415.609735
 20
251.313917
 10
415.865577
 20
251.454281
 10
416.124068
 20
251.625744
 10
416.385315
 20
251.828332
 10
416.649428
 20
252.062073
 10
416.916515
 20
252.326995
 10
417.186685
 20
252.623124
  0
LWPOLYLINE
  5
36
330
1F
100
AcDbEntity
  8
0
100
AcDbPolyline
 90
       35
 70
   128
 43
0.0
 10
388.124618
 20
287.554167
 10
388.195927
 20
287.565913
 10
388.276739
 20
287.599308
 10
388.364785
 20
287.651579
 10
388.457798
 20
287.71996
 10
388.649649
 20
287.893967
 10
388.834149
 20
288.099175
 10
388.993155
 20
288.313426
 10
389.057427
 20
288.41702
 10
389.108522
 20
288.514566
 10
389.144171
 20
288.603296
 10
389.162106
 20
288.680439
 10
389.16006
 20
288.743227
 10
389.135764
 20
288.788889
 10
389.090149
 20
288.813866
 10
389.026653
 20
288.818215
 10
388.948161
 20
288.803195
 10
388.857561
 20
288.770067
 10
388.757741
 20
288.720092
 10
388.651588
 20
288.654528
 10
388.541989
 20
288.574636
 10
388.43183
 20
288.481676
 10
388.244418
 20
288.2985
 10
388.096805
 20
288.126157
 10
387.990379
 20
287.968835
 10
387.953045
 20
287.897117
 10
387.926528
 20
287.830725
 10
387.911001
 20
287.770183
 10
387.906639
 20
287.716014
 10
387.913614
 20
287.668742
 10
387.932099
 20
287.628891
 10
387.962269
 20
287.596985
 10
388.004296
 20
287.573546
 10
388.058355
 20
287.559099
 10
388.124618
 20
287.554167
  0
LWPOLYLINE
  5
37
330
1F
100
AcDbEntity
  8
0
100
AcDbPolyline
 90
       36
 70
   128
 43
0.0
 10
390.15
 20
289.189809
 10
390.282873
 20
289.254883
 10
390.406832
 20
289.324355
 10
390.519164
 20
289.396078
 10
390.617155
 20
289.467905
 10
390.698093
 20
289.537687
 10
390.759265
 20
289.60328
 10
390.797958
 20
289.662534
 10
390.811458
 20
289.713303
 10
390.802046
 20
289.808637
 10
390.789756
 20
289.845541
 10
390.771945
 20
289.87524
 10
390.748263
 20
289.897712
 10
390.71836
 20
289.912934
 10
390.681887
 20
289.920885
 10
390.638494
 20
289.921541
 10
390.529552
 20
289.900882
 10
390.388739
 20
289.850778
 10
390.213258
 20
289.771052
 10
390.000314
 20
289.661524
 10
389.868123
 20
289.58526
 10
389.756506
 20
289.509867
 10
389.665101
 20
289.436497
 10
389.593541
 20
289.366299
 10
389.541462
 20
289.300422
 10
389.508499
 20
289.240017
 10
389.494288
 20
289.186232
 10
389.498463
 20
289.140218
 10
389.52066
 20
289.103124
 10
389.560513
 20
289.076101
 10
389.617659
 20
289.060296
 10
389.691732
 20
289.056862
 10
389.782367
 20
289.066946
 10
389.8892
 20
289.091698
 10
390.011866
 20
289.132269
 10
390.15
 20
289.189809
  0
LWPOLYLINE
  5
38
330
1F
100
AcDbEntity
  8
0
100
AcDbPolyline
 90
       37
 70
   128
 43
0.0
 10
391.922312
 20
290.167649
 10
392.041525
 20
290.217969
 10
392.157313
 20
290.278628
 10
392.266813
 20
290.347319
 10
392.367166
 20
290.421733
 10
392.455509
 20
290.499562
 10
392.528982
 20
290.578496
 10
392.584723
 20
290.656229
 10
392.619872
 20
290.73045
 10
392.640524
 20
290.810428
 10
392.643451
 20
290.8736
 10
392.628516
 20
290.920035
 10
392.595583
 20
290.949805
 10
392.544515
 20
290.962978
 10
392.475175
 20
290.959625
 10
392.387425
 20
290.939815
 10
392.281129
 20
290.90362
 10
392.08544
 20
290.835883
 10
391.888691
 20
290.780412
 10
391.713771
 20
290.742932
 10
391.583569
 20
290.729167
 10
391.534766
 20
290.72124
 10
391.489238
 20
290.698524
 10
391.447981
 20
290.662609
 10
391.41199
 20
290.615089
 10
391.382262
 20
290.557557
 10
391.359795
 20
290.491606
 10
391.345584
 20
290.418829
 10
391.340625
 20
290.340818
 10
391.347871
 20
290.243866
 10
391.370662
 20
290.16937
 10
391.410577
 20
290.116861
 10
391.469196
 20
290.085868
 10
391.5481
 20
290.07592
 10
391.648867
 20
290.086548
 10
391.773078
 20
290.117281
 10
391.922312
 20
290.167649
  0
LWPOLYLINE
  5
39
330
1F
100
AcDbEntity
  8
0
100
AcDbPolyline
 90
       37
 70
   128
 43
0.0
 10
393.986458
 20
290.464583
 10
394.145906
 20
290.469984
 10
394.294657
 20
290.485461
 10
394.429455
 20
290.509929
 10
394.547044
 20
290.542305
 10
394.64417
 20
290.581501
 10
394.717576
 20
290.626434
 10
394.764008
 20
290.676017
 10
394.77609
 20
290.702214
 10
394.780208
 20
290.729167
 10
394.77609
 20
290.756119
 10
394.764008
 20
290.782316
 10
394.717576
 20
290.831899
 10
394.64417
 20
290.876832
 10
394.547044
 20
290.916029
 10
394.429455
 20
290.948404
 10
394.294657
 20
290.972873
 10
394.145906
 20
290.98835
 10
393.986458
 20
290.99375
 10
393.827011
 20
290.98835
 10
393.67826
 20
290.972873
 10
393.543462
 20
290.948404
 10
393.425872
 20
290.916029
 10
393.328747
 20
290.876832
 10
393.25534
 20
290.831899
 10
393.208909
 20
290.782316
 10
393.196826
 20
290.756119
 10
393.192708
 20
290.729167
 10
393.196826
 20
290.702214
 10
393.208909
 20
290.676017
 10
393.25534
 20
290.626434
 10
393.328747
 20
290.581501
 10
393.425872
 20
290.542305
 10
393.543462
 20
290.509929
 10
393.67826
 20
290.485461
 10
393.827011
 20
290.469984
 10
393.986458
 20
290.464583
  0
LWPOLYLINE
  5
3A
330
1F
100
AcDbEntity
  8
0
100
AcDbPolyline
 90
       33
 70
   128
 43
0.0
 10
395.970833
 20
290.464583
 10
396.103706
 20
290.469984
 10
396.227665
 20
290.485461
 10
396.339997
 20
290.509929
 10
396.437988
 20
290.542305
 10
396.518926
 20
290.581501
 10
396.580098
 20
290.626434
 10
396.618791
 20
290.676017
 10
396.632292
 20
290.729167
 10
396.618791
 20
290.782316
 10
396.580098
 20
290.831899
 10
396.518926
 20
290.876832
 10
396.437988
 20
290.916029
 10
396.339997
 20
290.948404
 10
396.227665
 20
290.972873
 10
396.103706
 20
290.98835
 10
395.970833
 20
290.99375
 10
395.83796
 20
290.98835
 10
395.714001
 20
290.972873
 10
395.60167
 20
290.948404
 10
395.503678
 20
290.916029
 10
395.42274
 20
290.876832
 10
395.361568
 20
290.831899
 10
395.322875
 20
290.782316
 10
395.309375
 20
290.729167
 10
395.322875
 20
290.676017
 10
395.361568
 20
290.626434
 10
395.42274
 20
290.581501
 10
395.503678
 20
290.542305
 10
395.60167
 20
290.509929
 10
395.714001
 20
290.485461
 10
395.83796
 20
290.469984
 10
395.970833
 20
290.464583
  0
LWPOLYLINE
  5
3B
330
1F
100
AcDbEntity
  8
0
100
AcDbPolyline
 90
       35
 70
   128
 43
0.0
 10
388.124618
 20
292.052083
 10
388.195927
 20
292.06383
 10
388.276739
 20
292.097224
 10
388.364785
 20
292.149496
 10
388.457798
 20
292.217876
 10
388.649649
 20
292.391884
 10
388.834149
 20
292.597091
 10
388.993155
 20
292.811343
 10
389.057427
 20
292.914937
 10
389.108522
 20
293.012483
 10
389.144171
 20
293.101212
 10
389.162106
 20
293.178356
 10
389.16006
 20
293.241143
 10
389.135764
 20
293.286806
 10
389.090149
 20
293.311783
 10
389.026653
 20
293.316131
 10
388.948161
 20
293.301112
 10
388.857561
 20
293.267984
 10
388.757741
 20
293.218008
 10
388.651588
 20
293.152445
 10
388.541989
 20
293.072553
 10
388.43183
 20
292.979593
 10
388.244418
 20
292.796417
 10
388.096805
 20
292.624073
 10
387.990379
 20
292.466752
 10
387.953045
 20
292.395034
 10
387.926528
 20
292.328641
 10
387.911001
 20
292.268099
 10
387.906639
 20
292.213931
 10
387.913614
 20
292.166659
 10
387.932099
 20
292.126808
 10
387.962269
 20
292.094901
 10
388.004296
 20
292.071463
 10
388.058355
 20
292.057015
 10
388.124618
 20
292.052083
  0
LWPOLYLINE
  5
3C
330
1F
100
AcDbEntity
  8
0
100
AcDbPolyline
 90
       36
 70
   128
 43
0.0
 10
389.702555
 20
293.375
 10
389.780093
 20
293.383426
 10
389.866494
 20
293.40742
 10
389.959544
 20
293.44506
 10
390.057033
 20
293.494422
 10
390.25647
 20
293.620616
 10
390.447104
 20
293.770613
 10
390.611231
 20
293.929023
 10
390.677824
 20
294.006574
 10
390.731151
 20
294.080458
 10
390.769001
 20
294.148751
 10
390.78916
 20
294.209529
 10
390.789417
 20
294.260868
 10
390.767557
 20
294.300846
 10
390.716446
 20
294.333797
 10
390.648577
 20
294.349996
 10
390.566719
 20
294.350893
 10
390.473637
 20
294.337941
 10
390.372101
 20
294.312589
 10
390.264875
 20
294.276288
 10
390.044428
 20
294.176643
 10
389.834434
 20
294.050613
 10
389.740275
 20
293.981331
 10
389.65703
 20
293.909804
 10
389.587467
 20
293.837484
 10
389.534353
 20
293.765822
 10
389.500456
 20
293.696269
 10
389.488542
 20
293.630274
 10
389.49291
 20
293.578995
 10
389.505429
 20
293.531156
 10
389.525221
 20
293.487804
 10
389.551408
 20
293.449987
 10
389.583113
 20
293.418751
 10
389.619458
 20
293.395143
 10
389.659564
 20
293.38021
 10
389.702555
 20
293.375
  0
LWPOLYLINE
  5
3D
330
1F
100
AcDbEntity
  8
0
100
AcDbPolyline
 90
       33
 70
   128
 43
0.0
 10
396.315529
 20
294.179998
 10
396.330978
 20
294.238732
 10
396.331607
 20
294.295377
 10
396.318738
 20
294.349339
 10
396.293695
 20
294.400021
 10
396.257801
 20
294.446829
 10
396.212381
 20
294.489165
 10
396.158757
 20
294.526435
 10
396.098254
 20
294.558043
 10
396.032194
 20
294.583394
 10
395.961902
 20
294.601891
 10
395.8887
 20
294.612939
 10
395.813912
 20
294.615942
 10
395.738862
 20
294.610306
 10
395.664874
 20
294.595433
 10
395.59327
 20
294.57073
 10
395.525375
 20
294.535599
 10
395.457976
 20
294.486506
 10
395.416671
 20
294.438452
 10
395.401583
 20
294.391199
 10
395.41284
 20
294.344508
 10
395.450565
 20
294.298141
 10
395.514886
 20
294.25186
 10
395.605926
 20
294.205427
 10
395.723812
 20
294.158603
 10
395.828218
 20
294.125933
 10
395.92878
 20
294.103537
 10
396.023072
 20
294.091328
 10
396.108666
 20
294.089216
 10
396.183136
 20
294.097115
 10
396.244054
 20
294.114937
 10
396.288994
 20
294.142594
 10
396.315529
 20
294.179998
  0
LWPOLYLINE
  5
3E
330
1F
100
AcDbEntity
  8
0
100
AcDbPolyline
 90
       38
 70
   128
 43
0.0
 10
391.951552
 20
294.172802
 10
392.043485
 20
294.179192
 10
392.137534
 20
294.19533
 10
392.326192
 20
294.252581
 10
392.505962
 20
294.336024
 10
392.665276
 20
294.43713
 10
392.792567
 20
294.54737
 10
392.84059
 20
294.60325
 10
392.876269
 20
294.658214
 10
392.89816
 20
294.711198
 10
392.904815
 20
294.761133
 10
392.89479
 20
294.806955
 10
392.866638
 20
294.847598
 10
392.804658
 20
294.89048
 10
392.722154
 20
294.918898
 10
392.622815
 20
294.933972
 10
392.510329
 20
294.936823
 10
392.388386
 20
294.928571
 10
392.260672
 20
294.910338
 10
392.130878
 20
294.883243
 10
392.002692
 20
294.848409
 10
391.879802
 20
294.806954
 10
391.765897
 20
294.760002
 10
391.664665
 20
294.708671
 10
391.579796
 20
294.654083
 10
391.514977
 20
294.597359
 10
391.473897
 20
294.53962
 10
391.460246
 20
294.481985
 10
391.464858
 20
294.453558
 10
391.477711
 20
294.425577
 10
391.516027
 20
294.374068
 10
391.564206
 20
294.326175
 10
391.620304
 20
294.282935
 10
391.682377
 20
294.245383
 10
391.748482
 20
294.214557
 10
391.816675
 20
294.191494
 10
391.885013
 20
294.17723
 10
391.951552
 20
294.172802
  0
LWPOLYLINE
  5
3F
330
1F
100
AcDbEntity
  8
0
100
AcDbPolyline
 90
       39
 70
   128
 43
0.0
 10
394.398948
 20
294.16875
 10
394.528685
 20
294.174047
 10
394.649717
 20
294.18923
 10
394.759397
 20
294.213232
 10
394.855075
 20
294.244991
 10
394.934103
 20
294.28344
 10
394.993831
 20
294.327517
 10
395.03161
 20
294.376156
 10
395.044792
 20
294.428292
 10
395.030489
 20
294.484185
 10
394.989837
 20
294.541161
 10
394.926224
 20
294.598196
 10
394.843037
 20
294.654267
 10
394.743661
 20
294.708352
 10
394.631485
 20
294.759428
 10
394.382277
 20
294.848458
 10
394.122506
 20
294.913173
 10
393.997127
 20
294.933855
 10
393.879268
 20
294.945389
 10
393.772316
 20
294.946753
 10
393.679657
 20
294.936922
 10
393.604679
 20
294.914874
 10
393.550767
 20
294.879587
 10
393.505727
 20
294.823999
 10
393.478288
 20
294.766104
 10
393.467479
 20
294.706717
 10
393.472331
 20
294.646649
 10
393.491874
 20
294.586715
 10
393.525137
 20
294.527727
 10
393.57115
 20
294.470497
 10
393.628943
 20
294.41584
 10
393.697546
 20
294.364568
 10
393.775988
 20
294.317495
 10
393.8633
 20
294.275433
 10
393.958512
 20
294.239195
 10
394.060652
 20
294.209595
 10
394.168752
 20
294.187445
 10
394.281841
 20
294.173559
 10
394.398948
 20
294.16875
  0
LWPOLYLINE
  5
40
330
1F
100
AcDbEntity
  8
0
100
AcDbPolyline
 90
       35
 70
   128
 43
0.0
 10
388.389201
 20
295.491667
 10
388.460511
 20
295.503413
 10
388.541323
 20
295.536808
 10
388.629369
 20
295.589079
 10
388.722381
 20
295.65746
 10
388.914232
 20
295.831467
 10
389.098732
 20
296.036675
 10
389.257738
 20
296.250926
 10
389.32201
 20
296.35452
 10
389.373105
 20
296.452066
 10
389.408754
 20
296.540796
 10
389.426689
 20
296.617939
 10
389.424643
 20
296.680727
 10
389.400347
 20
296.726389
 10
389.354733
 20
296.751366
 10
389.291236
 20
296.755715
 10
389.212744
 20
296.740695
 10
389.122145
 20
296.707567
 10
389.022325
 20
296.657592
 10
388.916171
 20
296.592028
 10
388.806572
 20
296.512136
 10
388.696414
 20
296.419176
 10
388.509001
 20
296.236
 10
388.361388
 20
296.063657
 10
388.254963
 20
295.906335
 10
388.217628
 20
295.834617
 10
388.191111
 20
295.768225
 10
388.175585
 20
295.707683
 10
388.171222
 20
295.653514
 10
388.178197
 20
295.606242
 10
388.196683
 20
295.566391
 10
388.226852
 20
295.534485
 10
388.26888
 20
295.511046
 10
388.322938
 20
295.496599
 10
388.389201
 20
295.491667
  0
LWPOLYLINE
  5
41
330
1F
100
AcDbEntity
  8
0
100
AcDbPolyline
 90
       34
 70
   128
 43
0.0
 10
390.480729
 20
296.714471
 10
390.769316
 20
296.787044
 10
390.99563
 20
296.852492
 10
391.163579
 20
296.913451
 10
391.277077
 20
296.972559
 10
391.314628
 20
297.002244
 10
391.340032
 20
297.032454
 10
391.353778
 20
297.063521
 10
391.356356
 20
297.095774
 10
391.348253
 20
297.129541
 10
391.329959
 20
297.165154
 10
391.264752
 20
297.243234
 10
391.208167
 20
297.281323
 10
391.130791
 20
297.30611
 10
391.035999
 20
297.318573
 10
390.927161
 20
297.319692
 10
390.80765
 20
297.310444
 10
390.680839
 20
297.29181
 10
390.418805
 20
297.230294
 10
390.168038
 20
297.142975
 10
390.055311
 20
297.092087
 10
389.955517
 20
297.037683
 10
389.872029
 20
296.980744
 10
389.808219
 20
296.922249
 10
389.767461
 20
296.863175
 10
389.753125
 20
296.804502
 10
389.766956
 20
296.752074
 10
389.807041
 20
296.710888
 10
389.87127
 20
296.681206
 10
389.957534
 20
296.663287
 10
390.063721
 20
296.657393
 10
390.187723
 20
296.663785
 10
390.327429
 20
296.682724
 10
390.480729
 20
296.714471
  0
LWPOLYLINE
  5
42
330
1F
100
AcDbEntity
  8
0
100
AcDbPolyline
 90
       33
 70
   128
 43
0.0
 10
392.660842
 20
297.022333
 10
392.821124
 20
297.051142
 10
392.957525
 20
297.086238
 10
393.070323
 20
297.126499
 10
393.159798
 20
297.170799
 10
393.226228
 20
297.218014
 10
393.269892
 20
297.267022
 10
393.291067
 20
297.316696
 10
393.290032
 20
297.365914
 10
393.267067
 20
297.413551
 10
393.222449
 20
297.458484
 10
393.156457
 20
297.499588
 10
393.069369
 20
297.535739
 10
392.961465
 20
297.565813
 10
392.833022
 20
297.588686
 10
392.684319
 20
297.603234
 10
392.515635
 20
297.608333
 10
392.38446
 20
297.60128
 10
392.262752
 20
297.581016
 10
392.152984
 20
297.548886
 10
392.057629
 20
297.506234
 10
391.979159
 20
297.454403
 10
391.920048
 20
297.394738
 10
391.882768
 20
297.328583
 10
391.869792
 20
297.257282
 10
391.881666
 20
297.175238
 10
391.917567
 20
297.108492
 10
391.97791
 20
297.056919
 10
392.063113
 20
297.020397
 10
392.173591
 20
296.9988
 10
392.309761
 20
296.992007
 10
392.472039
 20
296.999892
 10
392.660842
 20
297.022333
  0
LWPOLYLINE
  5
43
330
1F
100
AcDbEntity
  8
0
100
AcDbPolyline
 90
       37
 70
   128
 43
0.0
 10
394.515625
 20
297.079167
 10
394.675073
 20
297.084567
 10
394.823823
 20
297.100044
 10
394.958621
 20
297.124513
 10
395.076211
 20
297.156888
 10
395.173337
 20
297.196085
 10
395.246743
 20
297.241017
 10
395.293174
 20
297.290601
 10
395.305257
 20
297.316798
 10
395.309375
 20
297.34375
 10
395.305257
 20
297.370702
 10
395.293174
 20
297.396899
 10
395.246743
 20
297.446483
 10
395.173337
 20
297.491415
 10
395.076211
 20
297.530612
 10
394.958621
 20
297.562987
 10
394.823823
 20
297.587456
 10
394.675073
 20
297.602933
 10
394.515625
 20
297.608333
 10
394.356177
 20
297.602933
 10
394.207427
 20
297.587456
 10
394.072629
 20
297.562987
 10
393.955039
 20
297.530612
 10
393.857913
 20
297.491415
 10
393.784507
 20
297.446483
 10
393.738076
 20
297.396899
 10
393.725993
 20
297.370702
 10
393.721875
 20
297.34375
 10
393.725993
 20
297.316798
 10
393.738076
 20
297.290601
 10
393.784507
 20
297.241017
 10
393.857913
 20
297.196085
 10
393.955039
 20
297.156888
 10
394.072629
 20
297.124513
 10
394.207427
 20
297.100044
 10
394.356177
 20
297.084567
 10
394.515625
 20
297.079167
  0
LWPOLYLINE
  5
44
330
1F
100
AcDbEntity
  8
0
100
AcDbPolyline
 90
       81
 70
   128
 43
0.0
 10
433.144792
 20
347.550592
 10
433.328629
 20
347.595518
 10
433.514613
 20
347.665468
 10
433.700811
 20
347.758194
 10
433.885291
 20
347.871448
 10
434.066118
 20
348.00298
 10
434.241362
 20
348.150543
 10
434.409088
 20
348.311887
 10
434.567365
 20
348.484765
 10
434.714259
 20
348.666926
 10
434.847838
 20
348.856124
 10
434.966169
 20
349.050109
 10
435.067319
 20
349.246634
 10
435.149356
 20
349.443448
 10
435.210347
 20
349.638304
 10
435.248358
 20
349.828953
 10
435.261458
 20
350.013147
 10
435.252996
 20
350.25858
 10
435.228117
 20
350.494765
 10
435.187587
 20
350.721404
 10
435.132169
 20
350.938202
 10
435.062628
 20
351.144861
 10
434.979727
 20
351.341085
 10
434.884231
 20
351.526576
 10
434.776904
 20
351.701039
 10
434.65851
 20
351.864177
 10
434.529813
 20
352.015693
 10
434.391577
 20
352.15529
 10
434.244566
 20
352.282671
 10
434.089545
 20
352.39754
 10
433.927277
 20
352.499601
 10
433.758527
 20
352.588556
 10
433.584058
 20
352.664109
 10
433.404636
 20
352.725963
 10
433.221024
 20
352.773822
 10
433.033985
 20
352.807388
 10
432.844285
 20
352.826365
 10
432.652687
 20
352.830457
 10
432.459956
 20
352.819367
 10
432.266855
 20
352.792797
 10
432.074149
 20
352.750452
 10
431.882602
 20
352.692035
 10
431.692977
 20
352.617248
 10
431.50604
 20
352.525796
 10
431.322554
 20
352.417381
 10
431.143283
 20
352.291707
 10
430.968991
 20
352.148478
 10
430.800443
 20
351.987396
 10
430.638402
 20
351.808165
 10
430.483076
 20
351.60889
 10
430.348476
 20
351.405301
 10
430.234604
 20
351.19801
 10
430.141459
 20
350.987632
 10
430.06904
 20
350.774781
 10
430.017347
 20
350.560071
 10
429.98638
 20
350.344117
 10
429.976139
 20
350.127532
 10
429.986623
 20
349.910931
 10
430.017831
 20
349.694927
 10
430.069764
 20
349.480136
 10
430.14242
 20
349.26717
 10
430.235801
 20
349.056645
 10
430.349905
 20
348.849174
 10
430.484732
 20
348.645372
 10
430.640281
 20
348.445852
 10
430.772344
 20
348.295796
 10
430.904887
 20
348.159281
 10
431.038508
 20
348.036094
 10
431.173801
 20
347.926023
 10
431.311363
 20
347.828854
 10
431.45179
 20
347.744373
 10
431.595678
 20
347.672369
 10
431.743624
 20
347.612628
 10
431.896223
 20
347.564937
 10
432.054072
 20
347.529082
 10
432.217767
 20
347.504851
 10
432.387904
 20
347.492031
 10
432.565078
 20
347.490407
 10
432.749887
 20
347.499769
 10
432.942926
 20
347.519901
 10
433.144792
 20
347.550592
  0
LWPOLYLINE
  5
45
330
1F
100
AcDbEntity
  8
0
100
AcDbPolyline
 90
      168
 70
   128
 43
0.0
 10
459.316636
 20
253.431158
 10
459.400484
 20
253.673556
 10
459.505091
 20
254.035245
 10
459.62628
 20
254.498617
 10
459.759874
 20
255.046063
 10
460.047579
 20
256.322741
 10
460.334797
 20
257.724408
 10
461.003493
 20
261.16005
 10
461.220567
 20
263.209239
 10
461.265984
 20
263.698383
 10
461.3005
 20
264.203659
 10
461.324289
 20
264.724029
 10
461.337526
 20
265.258449
 10
461.340383
 20
265.80588
 10
461.333036
 20
266.365282
 10
461.315657
 20
266.935613
 10
461.288421
 20
267.515835
 10
461.251503
 20
268.104905
 10
461.205075
 20
268.701783
 10
461.149312
 20
269.305429
 10
461.084386
 20
269.914803
 10
461.010473
 20
270.528863
 10
460.927747
 20
271.146571
 10
460.836381
 20
271.766883
 10
460.736548
 20
272.388761
 10
460.628424
 20
273.011165
 10
460.512182
 20
273.633051
 10
460.387995
 20
274.253382
 10
460.256038
 20
274.871116
 10
460.116485
 20
275.485213
 10
459.969508
 20
276.094633
 10
459.815284
 20
276.698333
 10
459.653985
 20
277.295275
 10
459.485785
 20
277.884418
 10
459.310858
 20
278.46472
 10
459.129378
 20
279.035142
 10
458.941519
 20
279.594644
 10
458.747454
 20
280.142184
 10
458.547359
 20
280.676721
 10
458.341406
 20
281.197216
 10
458.129769
 20
281.702629
 10
457.944216
 20
282.09519
 10
457.729398
 20
282.483199
 10
457.488989
 20
282.863404
 10
457.226661
 20
283.232557
 10
456.946086
 20
283.587408
 10
456.650937
 20
283.924708
 10
456.344885
 20
284.241207
 10
456.031603
 20
284.533655
 10
455.714764
 20
284.798803
 10
455.398037
 20
285.033402
 10
455.085099
 20
285.234201
 10
454.779618
 20
285.397952
 10
454.630822
 20
285.464918
 10
454.485268
 20
285.521404
 10
454.343415
 20
285.567003
 10
454.205722
 20
285.601308
 10
454.072647
 20
285.623915
 10
453.944651
 20
285.634416
 10
453.59436
 20
285.628663
 42
0.402833
 10
453.299363
 20
285.33548
 10
453.067948
 20
275.093242
 10
451.068398
 20
275.135771
 10
451.299154
 20
285.348833
 42
0.517458
 10
450.978426
 20
285.631451
 10
450.982095
 20
285.625261
 10
450.898381
 20
285.616039
 10
450.798351
 20
285.595254
 10
450.724472
 20
285.581268
 10
450.20404
 20
285.410719
 10
449.976598
 20
285.323035
 10
449.7236
 20
285.204362
 10
449.453503
 20
285.059935
 10
449.174762
 20
284.894988
 10
448.895832
 20
284.714753
 10
448.625169
 20
284.524465
 10
448.37123
 20
284.329358
 10
448.142469
 20
284.134665
 10
447.816881
 20
283.828443
 10
447.674275
 20
283.680516
 10
447.5415
 20
283.529229
 10
447.415836
 20
283.369463
 10
447.294561
 20
283.196106
 10
447.174954
 20
283.004042
 10
447.054293
 20
282.788157
 10
446.929859
 20
282.543336
 10
446.798929
 20
282.264464
 10
446.506701
 20
281.584107
 10
446.15584
 20
280.70617
 10
445.724578
 20
279.589733
 10
444.341125
 20
275.979302
 10
443.80106
 20
273.805724
 10
443.68786
 20
273.327385
 10
443.573146
 20
272.800503
 10
443.351819
 20
271.670297
 10
443.251531
 20
271.101568
 10
443.162377
 20
270.553485
 10
443.087518
 20
270.043345
 10
443.030117
 20
269.588445
 10
442.73434
 20
267.001082
 10
442.68883
 20
266.513934
 10
442.660358
 20
265.965759
 10
442.648315
 20
265.363536
 10
442.652092
 20
264.71425
 10
442.671083
 20
264.02488
 10
442.704679
 20
263.30241
 10
442.752274
 20
262.55382
 10
442.813257
 20
261.786093
 10
442.887023
 20
261.00621
 10
442.972962
 20
260.221152
 10
443.070467
 20
259.437902
 10
443.178931
 20
258.66344
 10
443.297745
 20
257.904749
 10
443.426301
 20
257.168811
 10
443.563991
 20
256.462607
 10
443.710209
 20
255.793119
 10
443.83664
 20
255.270052
 10
443.964293
 20
254.789875
 10
444.094547
 20
254.350541
 10
444.228779
 20
253.950005
 10
444.368365
 20
253.58622
 10
444.514686
 20
253.25714
 10
444.669117
 20
252.960718
 10
444.833037
 20
252.694909
 10
445.007823
 20
252.457667
 10
445.194853
 20
252.246944
 10
445.395505
 20
252.060695
 10
445.611157
 20
251.896874
 10
445.843186
 20
251.753434
 10
446.09297
 20
251.62833
 10
446.361887
 20
251.519515
 10
446.651314
 20
251.424942
 10
447.138796
 20
251.288402
 10
447.56447
 20
251.184339
 10
447.738655
 20
251.149554
 10
447.87882
 20
251.128967
 10
447.978778
 20
251.124608
 10
448.011745
 20
251.129147
 10
448.032337
 20
251.138503
 10
448.082035
 20
251.193358
 10
448.12551
 20
251.261496
 10
448.507222
 20
251.928638
 42
0.12492
 10
448.546755
 20
252.070847
 10
448.855144
 20
265.719922
 10
454.853614
 20
265.584391
 10
454.547082
 20
252.017564
 42
0.231468
 10
454.657543
 20
251.778185
 10
455.284279
 20
251.26769
 10
455.397305
 20
251.206964
 10
455.548211
 20
251.154768
 10
455.684415
 20
251.121784
 10
455.82151
 20
251.096777
 10
455.959289
 20
251.079618
 10
456.097543
 20
251.070183
 10
456.374647
 20
251.07398
 10
456.651155
 20
251.107162
 10
456.925403
 20
251.168721
 10
457.195724
 20
251.257654
 10
457.460455
 20
251.372952
 10
457.717928
 20
251.513612
 10
457.966478
 20
251.678626
 10
458.204443
 20
251.86699
 10
458.430154
 20
252.077695
 10
458.641948
 20
252.309738
 10
458.838158
 20
252.562112
 10
459.01712
 20
252.83381
 10
459.177167
 20
253.123828
 10
459.316636
 20
253.431158
  0
ENDSEC
  0
SECTION
  2
OBJECTS
  0
DICTIONARY
  5
C
330
0
100
AcDbDictionary
281
     1
  3
ACAD_GROUP
350
D
  3
ACAD_LAYOUT
350
1A
  3
ACAD_MLINESTYLE
350
17
  3
ACAD_PLOTSETTINGS
350
19
  3
ACAD_PLOTSTYLENAME
350
E
  0
DICTIONARY
  5
D
102
{ACAD_REACTORS
330
C
102
}
330
C
100
AcDbDictionary
281
     1
  0
DICTIONARY
  5
1A
102
{ACAD_REACTORS
330
C
102
}
330
C
100
AcDbDictionary
281
     1
  3
Layout1
350
1E
  3
Layout2
350
26
  3
Model
350
22
  0
DICTIONARY
  5
17
102
{ACAD_REACTORS
330
C
102
}
330
C
100
AcDbDictionary
281
     1
  3
Standard
350
18
  0
DICTIONARY
  5
19
102
{ACAD_REACTORS
330
C
102
}
330
C
100
AcDbDictionary
281
     1
  0
ACDBDICTIONARYWDFLT
  5
E
102
{ACAD_REACTORS
330
C
102
}
330
C
100
AcDbDictionary
281
     1
  3
Normal
350
F
100
AcDbDictionaryWithDefault
340
F
  0
LAYOUT
  5
1E
102
{ACAD_REACTORS
330
1A
102
}
330
1A
100
AcDbPlotSettings
  1

  2

  4

  6

 40
0.0
 41
0.0
 42
0.0
 43
0.0
 44
0.0
 45
0.0
 46
0.0
 47
0.0
 48
0.0
 49
0.0
140
0.0
141
0.0
142
1.0
143
1.0
 70
   688
 72
     0
 73
     0
 74
     5
  7

 75
    16
147
1.0
148
0.0
149
0.0
100
AcDbLayout
  1
Layout1
 70
     1
 71
     1
 10
0.0
 20
0.0
 11
420.0
 21
297.0
 12
0.0
 22
0.0
 32
0.0
 14
1.000000E+20
 24
1.000000E+20
 34
1.000000E+20
 15
-1.000000E+20
 25
-1.000000E+20
 35
-1.000000E+20
146
0.0
 13
0.0
 23
0.0
 33
0.0
 16
1.0
 26
0.0
 36
0.0
 17
0.0
 27
1.0
 37
0.0
 76
     0
330
1B
  0
LAYOUT
  5
26
102
{ACAD_REACTORS
330
1A
102
}
330
1A
100
AcDbPlotSettings
  1

  2

  4

  6

 40
0.0
 41
0.0
 42
0.0
 43
0.0
 44
0.0
 45
0.0
 46
0.0
 47
0.0
 48
0.0
 49
0.0
140
0.0
141
0.0
142
1.0
143
1.0
 70
   688
 72
     0
 73
     0
 74
     5
  7

 75
    16
147
1.0
148
0.0
149
0.0
100
AcDbLayout
  1
Layout2
 70
     1
 71
     2
 10
0.0
 20
0.0
 11
0.0
 21
0.0
 12
0.0
 22
0.0
 32
0.0
 14
0.0
 24
0.0
 34
0.0
 15
0.0
 25
0.0
 35
0.0
146
0.0
 13
0.0
 23
0.0
 33
0.0
 16
1.0
 26
0.0
 36
0.0
 17
0.0
 27
1.0
 37
0.0
 76
     0
330
23
  0
LAYOUT
  5
22
102
{ACAD_REACTORS
330
1A
102
}
330
1A
100
AcDbPlotSettings
  1

  2

  4

  6

 40
0.0
 41
0.0
 42
0.0
 43
0.0
 44
0.0
 45
0.0
 46
0.0
 47
0.0
 48
0.0
 49
0.0
140
0.0
141
0.0
142
1.0
143
1.0
 70
  1712
 72
     0
 73
     0
 74
     0
  7

 75
     0
147
1.0
148
0.0
149
0.0
100
AcDbLayout
  1
Model
 70
     1
 71
     0
 10
0.0
 20
0.0
 11
0.0
 21
0.0
 12
0.0
 22
0.0
 32
0.0
 14
0.0
 24
0.0
 34
0.0
 15
0.0
 25
0.0
 35
0.0
146
0.0
 13
0.0
 23
0.0
 33
0.0
 16
1.0
 26
0.0
 36
0.0
 17
0.0
 27
1.0
 37
0.0
 76
     0
330
1F
  0
MLINESTYLE
  5
18
102
{ACAD_REACTORS
330
17
102
}
330
17
100
AcDbMlineStyle
  2
Standard
 70
     0
  3

 62
   256
 51
90.0
 52
90.0
 71
     2
 49
1.0
 62
   256
  6
BYLAYER
 49
-1.0
 62
   256
  6
BYLAYER
  0
ACDBPLACEHOLDER
  5
F
102
{ACAD_REACTORS
330
E
102
}
330
E
  0
ENDSEC
  0
EOF
