  0
SECTION
  2
HEADER
  9
$ACADVER
  1
AC1015
  9
$ACADMAINTVER
 70
     6
  9
$DWGCODEPAGE
  3
ANSI_1252
  9
$INSBASE
 10
0.0
 20
0.0
 30
0.0
  9
$EXTMIN
 10
0.0
 20
0.0
 30
0.0
  9
$EXTMAX
 10
96.0
 20
48.0
 30
0.0
  9
$LIMMIN
 10
0.0
 20
0.0
  9
$LIMMAX
 10
96.0
 20
48.0
  9
$ORTHOMODE
 70
     0
  9
$REGENMODE
 70
     1
  9
$FILLMODE
 70
     1
  9
$QTEXTMODE
 70
     0
  9
$MIRRTEXT
 70
     1
  9
$LTSCALE
 40
1.0
  9
$ATTMODE
 70
     1
  9
$TEXTSIZE
 40
0.1377952756
  9
$TRACEWID
 40
0.05
  9
$TEXTSTYLE
  7
Standard
  9
$CLAYER
  8
0
  9
$CELTYPE
  6
ByLayer
  9
$CECOLOR
 62
   256
  9
$CELTSCALE
 40
1.0
  9
$DISPSILH
 70
     0
  9
$DIMSCALE
 40
1.0
  9
$DIMASZ
 40
0.13
  9
$DIMEXO
 40
0.0393700787
  9
$DIMDLI
 40
0.38
  9
$DIMRND
 40
0.0
  9
$DIMDLE
 40
0.0
  9
$DIMEXE
 40
0.0393700787
  9
$DIMTP
 40
0.0
  9
$DIMTM
 40
0.0
  9
$DIMTXT
 40
0.1377952756
  9
$DIMCEN
 40
0.09
  9
$DIMTSZ
 40
0.0
  9
$DIMTOL
 70
     0
  9
$DIMLIM
 70
     0
  9
$DIMTIH
 70
     1
  9
$DIMTOH
 70
     1
  9
$DIMSE1
 70
     0
  9
$DIMSE2
 70
     0
  9
$DIMTAD
 70
     1
  9
$DIMZIN
 70
     0
  9
$DIMBLK
  1

  9
$DIMASO
 70
     1
  9
$DIMSHO
 70
     1
  9
$DIMPOST
  1

  9
$DIMAPOST
  1

  9
$DIMALT
 70
     0
  9
$DIMALTD
 70
     2
  9
$DIMALTF
 40
25.4
  9
$DIMLFAC
 40
1.0
  9
$DIMTOFL
 70
     0
  9
$DIMTVP
 40
0.0
  9
$DIMTIX
 70
     0
  9
$DIMSOXD
 70
     0
  9
$DIMSAH
 70
     0
  9
$DIMBLK1
  1

  9
$DIMBLK2
  1

  9
$DIMSTYLE
  2
Standard
  9
$DIMCLRD
 70
     0
  9
$DIMCLRE
 70
     0
  9
$DIMCLRT
 70
     0
  9
$DIMTFAC
 40
1.0
  9
$DIMGAP
 40
0.06
  9
$DIMJUST
 70
     0
  9
$DIMSD1
 70
     0
  9
$DIMSD2
 70
     0
  9
$DIMTOLJ
 70
     1
  9
$DIMTZIN
 70
     0
  9
$DIMALTZ
 70
     0
  9
$DIMALTTZ
 70
     0
  9
$DIMUPT
 70
     0
  9
$DIMDEC
 70
     4
  9
$DIMTDEC
 70
     4
  9
$DIMALTU
 70
     2
  9
$DIMALTTD
 70
     2
  9
$DIMTXSTY
  7
Standard
  9
$DIMAUNIT
 70
     0
  9
$DIMADEC
 70
     0
  9
$DIMALTRND
 40
0.0
  9
$DIMAZIN
 70
     0
  9
$DIMDSEP
 70
    46
  9
$DIMATFIT
 70
     3
  9
$DIMFRAC
 70
     0
  9
$DIMLDRBLK
  1

  9
$DIMLUNIT
 70
     2
  9
$DIMLWD
 70
    -2
  9
$DIMLWE
 70
    -2
  9
$DIMTMOVE
 70
     0
  9
$LUNITS
 70
     2
  9
$LUPREC
 70
     2
  9
$SKETCHINC
 40
0.1
  9
$FILLETRAD
 40
0.5
  9
$AUNITS
 70
     0
  9
$AUPREC
 70
     0
  9
$MENU
  1
.
  9
$ELEVATION
 40
0.0
  9
$PELEVATION
 40
0.0
  9
$THICKNESS
 40
0.0
  9
$LIMCHECK
 70
     0
  9
$CHAMFERA
 40
0.5
  9
$CHAMFERB
 40
0.5
  9
$CHAMFERC
 40
1.0
  9
$CHAMFERD
 40
0.0
  9
$SKPOLY
 70
     0
  9
$TDCREATE
 40
2456080.72216375
  9
$TDUCREATE
 40
2456080.888830417
  9
$TDUPDATE
 40
2456080.722163762
  9
$TDUUPDATE
 40
2456080.888830428
  9
$TDINDWG
 40
0.0000000116
  9
$TDUSRTIMER
 40
0.0000000116
  9
$USRTIMER
 70
     1
  9
$ANGBASE
 50
0.0
  9
$ANGDIR
 70
     0
  9
$PDMODE
 70
     0
  9
$PDSIZE
 40
-1.0
  9
$PLINEWID
 40
0.0
  9
$SPLFRAME
 70
     0
  9
$SPLINETYPE
 70
     6
  9
$SPLINESEGS
 70
     8
  9
$HANDSEED
  5
2A8
  9
$SURFTAB1
 70
     6
  9
$SURFTAB2
 70
     6
  9
$SURFTYPE
 70
     6
  9
$SURFU
 70
     6
  9
$SURFV
 70
     6
  9
$UCSBASE
  2

  9
$UCSNAME
  2

  9
$UCSORG
 10
0.0
 20
0.0
 30
0.0
  9
$UCSXDIR
 10
1.0
 20
0.0
 30
0.0
  9
$UCSYDIR
 10
0.0
 20
1.0
 30
0.0
  9
$UCSORTHOREF
  2

  9
$UCSORTHOVIEW
 70
     0
  9
$UCSORGTOP
 10
0.0
 20
0.0
 30
0.0
  9
$UCSORGBOTTOM
 10
0.0
 20
0.0
 30
0.0
  9
$UCSORGLEFT
 10
0.0
 20
0.0
 30
0.0
  9
$UCSORGRIGHT
 10
0.0
 20
0.0
 30
0.0
  9
$UCSORGFRONT
 10
0.0
 20
0.0
 30
0.0
  9
$UCSORGBACK
 10
0.0
 20
0.0
 30
0.0
  9
$PUCSBASE
  2

  9
$PUCSNAME
  2

  9
$PUCSORG
 10
0.0
 20
0.0
 30
0.0
  9
$PUCSXDIR
 10
1.0
 20
0.0
 30
0.0
  9
$PUCSYDIR
 10
0.0
 20
1.0
 30
0.0
  9
$PUCSORTHOREF
  2

  9
$PUCSORTHOVIEW
 70
     0
  9
$PUCSORGTOP
 10
0.0
 20
0.0
 30
0.0
  9
$PUCSORGBOTTOM
 10
0.0
 20
0.0
 30
0.0
  9
$PUCSORGLEFT
 10
0.0
 20
0.0
 30
0.0
  9
$PUCSORGRIGHT
 10
0.0
 20
0.0
 30
0.0
  9
$PUCSORGFRONT
 10
0.0
 20
0.0
 30
0.0
  9
$PUCSORGBACK
 10
0.0
 20
0.0
 30
0.0
  9
$USERI1
 70
     0
  9
$USERI2
 70
     0
  9
$USERI3
 70
     0
  9
$USERI4
 70
     0
  9
$USERI5
 70
     0
  9
$USERR1
 40
0.0
  9
$USERR2
 40
0.0
  9
$USERR3
 40
0.0
  9
$USERR4
 40
0.0
  9
$USERR5
 40
0.0
  9
$WORLDVIEW
 70
     1
  9
$SHADEDGE
 70
     3
  9
$SHADEDIF
 70
    70
  9
$TILEMODE
 70
     1
  9
$MAXACTVP
 70
    64
  9
$PINSBASE
 10
0.0
 20
0.0
 30
0.0
  9
$PLIMCHECK
 70
     0
  9
$PEXTMIN
 10
1.0000000000E+20
 20
1.0000000000E+20
 30
1.0000000000E+20
  9
$PEXTMAX
 10
-1.0000000000E+20
 20
-1.0000000000E+20
 30
-1.0000000000E+20
  9
$PLIMMIN
 10
0.0
 20
0.0
  9
$PLIMMAX
 10
12.0
 20
9.0
  9
$UNITMODE
 70
     0
  9
$VISRETAIN
 70
     1
  9
$PLINEGEN
 70
     0
  9
$PSLTSCALE
 70
     1
  9
$TREEDEPTH
 70
  3020
  9
$CMLSTYLE
  2
Standard
  9
$CMLJUST
 70
     0
  9
$CMLSCALE
 40
1.0
  9
$PROXYGRAPHICS
 70
     1
  9
$MEASUREMENT
 70
     0
  9
$CELWEIGHT
370
    -1
  9
$ENDCAPS
280
     0
  9
$JOINSTYLE
280
     0
  9
$LWDISPLAY
290
     1
  9
$INSUNITS
 70
     1
  9
$HYPERLINKBASE
  1

  9
$STYLESHEET
  1

  9
$XEDIT
290
     1
  9
$CEPSNTYPE
380
     0
  9
$PSTYLEMODE
290
     1
  9
$FINGERPRINTGUID
  2
{ADEE1BB8-CFAE-4389-9257-8CD8EBDB8E52}
  9
$VERSIONGUID
  2
{FAEB1C32-E019-11D5-929B-00C0DF256EC4}
  9
$EXTNAMES
290
     1
  9
$PSVPSCALE
 40
0.0
  9
$OLESTARTUP
290
     0
  0
ENDSEC
  0
SECTION
  2
CLASSES
  0
CLASS
  1
ACDBDICTIONARYWDFLT
  2
AcDbDictionaryWithDefault
  3
ObjectDBX Classes
 90
        0
280
     0
281
     0
  0
CLASS
  1
VISUALSTYLE
  2
AcDbVisualStyle
  3
ObjectDBX Classes
 90
     4095
280
     0
281
     0
  0
CLASS
  1
ACDBPLACEHOLDER
  2
AcDbPlaceHolder
  3
ObjectDBX Classes
 90
        0
280
     0
281
     0
  0
CLASS
  1
LAYOUT
  2
AcDbLayout
  3
ObjectDBX Classes
 90
        0
280
     0
281
     0
  0
ENDSEC
  0
SECTION
  2
TABLES
  0
TABLE
  2
VPORT
  5
8
330
0
100
AcDbSymbolTable
 70
     1
  0
VPORT
  5
29
330
8
100
AcDbSymbolTableRecord
100
AcDbViewportTableRecord
  2
*Active
 70
     0
 10
0.0
 20
0.0
 11
1.0
 21
1.0
 12
48.0
 22
24.0
 13
0.0
 23
0.0
 14
0.5
 24
0.5
 15
0.5
 25
0.5
 16
0.0
 26
0.0
 36
1.0
 17
0.0
 27
0.0
 37
0.0
 40
48.0
 41
2.0
 42
50.0
 43
0.0
 44
0.0
 50
0.0
 51
0.0
 71
     0
 72
  2000
 73
     1
 74
     3
 75
     0
 76
     0
 77
     0
 78
     0
281
     0
 65
     1
110
0.0
120
0.0
130
0.0
111
1.0
121
0.0
131
0.0
112
0.0
122
1.0
132
0.0
 79
     0
146
0.0
  0
ENDTAB
  0
TABLE
  2
LTYPE
  5
5
330
0
100
AcDbSymbolTable
 70
     6
  0
LTYPE
  5
14
330
5
100
AcDbSymbolTableRecord
100
AcDbLinetypeTableRecord
  2
ByBlock
 70
     0
  3

 72
    65
 73
     0
 40
0.0
  0
LTYPE
  5
15
330
5
100
AcDbSymbolTableRecord
100
AcDbLinetypeTableRecord
  2
ByLayer
 70
     0
  3

 72
    65
 73
     0
 40
0.0
  0
LTYPE
  5
16
330
5
100
AcDbSymbolTableRecord
100
AcDbLinetypeTableRecord
  2
Continuous
 70
     0
  3
Solid line
 72
    65
 73
     0
 40
0.0
  0
LTYPE
  5
3B
330
5
100
AcDbSymbolTableRecord
100
AcDbLinetypeTableRecord
  2
HIDDEN
 70
     0
  3
Hidden __ __ __ __ __ __ __ __ __ __ __ __ __ __
 72
    65
 73
     2
 40
0.075
 49
0.05
 74
     0
 49
-0.025
 74
     0
  0
LTYPE
  5
3C
330
5
100
AcDbSymbolTableRecord
100
AcDbLinetypeTableRecord
  2
PHANTOM
 70
     0
  3
Phantom ______  __  __  ______  __  __  ______
 72
    65
 73
     6
 40
0.5
 49
0.25
 74
     0
 49
-0.05
 74
     0
 49
0.05
 74
     0
 49
-0.05
 74
     0
 49
0.05
 74
     0
 49
-0.05
 74
     0
  0
LTYPE
  5
3D
330
5
100
AcDbSymbolTableRecord
100
AcDbLinetypeTableRecord
  2
CENTER
 70
     0
  3
Center ____ _ ____ _ ____ _ ____ _ ____ _ ____
 72
    65
 73
     4
 40
0.4
 49
0.25
 74
     0
 49
-0.05
 74
     0
 49
0.05
 74
     0
 49
-0.05
 74
     0
  0
LTYPE
  5
3E
330
5
100
AcDbSymbolTableRecord
100
AcDbLinetypeTableRecord
  2
CENTERX2
 70
     0
  3
Center (2x) ________  __  ________  __  _____
 72
    65
 73
     4
 40
0.8
 49
0.5
 74
     0
 49
-0.1
 74
     0
 49
0.1
 74
     0
 49
-0.1
 74
     0
  0
LTYPE
  5
3F
330
5
100
AcDbSymbolTableRecord
100
AcDbLinetypeTableRecord
  2
DOT2
 70
     0
  3
Dot (.5x) ........................................
 72
    65
 73
     2
 40
0.025
 49
0.0
 74
     0
 49
-0.025
 74
     0
  0
ENDTAB
  0
TABLE
  2
LAYER
  5
2
330
0
100
AcDbSymbolTable
 70
     1
  0
LAYER
  5
10
330
2
100
AcDbSymbolTableRecord
100
AcDbLayerTableRecord
  2
0
 70
     0
 62
     7
  6
Continuous
370
    -3
390
F
  0
ENDTAB
  0
TABLE
  2
STYLE
  5
3
330
0
100
AcDbSymbolTable
 70
     1
  0
STYLE
  5
11
330
3
100
AcDbSymbolTableRecord
100
AcDbTextStyleTableRecord
  2
Standard
 70
     0
 40
0.0
 41
1.0
 50
0.0
 71
     0
 42
0.2
  3
txt
  4

  0
ENDTAB
  0
TABLE
  2
VIEW
  5
6
330
0
100
AcDbSymbolTable
 70
     0
  0
ENDTAB
  0
TABLE
  2
UCS
  5
7
330
0
100
AcDbSymbolTable
 70
     0
  0
ENDTAB
  0
TABLE
  2
APPID
  5
9
330
0
100
AcDbSymbolTable
 70
     1
  0
APPID
  5
12
330
9
100
AcDbSymbolTableRecord
100
AcDbRegAppTableRecord
  2
ACAD
 70
     0
  0
ENDTAB
  0
TABLE
  2
DIMSTYLE
  5
A
330
0
100
AcDbSymbolTable
 70
     1
100
AcDbDimStyleTable
  0
DIMSTYLE
105
27
330
A
100
AcDbSymbolTableRecord
100
AcDbDimStyleTableRecord
  2
Standard
 70
     0
340
11
  0
ENDTAB
  0
TABLE
  2
BLOCK_RECORD
  5
1
330
0
100
AcDbSymbolTable
 70
     2
  0
BLOCK_RECORD
  5
1F
330
1
100
AcDbSymbolTableRecord
100
AcDbBlockTableRecord
  2
*Model_Space
340
22
  0
BLOCK_RECORD
  5
1B
330
1
100
AcDbSymbolTableRecord
100
AcDbBlockTableRecord
  2
*Paper_Space
340
1E
  0
BLOCK_RECORD
  5
23
330
1
100
AcDbSymbolTableRecord
100
AcDbBlockTableRecord
  2
*Paper_Space0
340
26
  0
BLOCK_RECORD
  5
271
330
1
100
AcDbSymbolTableRecord
100
AcDbBlockTableRecord
  2
SW_CENTERMARKSYMBOL_0
340
0
102
{BLKREFS
331
27C
102
}
  0
ENDTAB
  0
ENDSEC
  0
SECTION
  2
BLOCKS
  0
BLOCK
  5
20
330
1F
100
AcDbEntity
  8
0
100
AcDbBlockBegin
  2
*Model_Space
 70
     0
 10
0.0
 20
0.0
 30
0.0
  3
*Model_Space
  1

  0
ENDBLK
  5
21
330
1F
100
AcDbEntity
  8
0
100
AcDbBlockEnd
  0
BLOCK
  5
1C
330
1B
100
AcDbEntity
 67
     1
  8
0
100
AcDbBlockBegin
  2
*Paper_Space
 70
     0
 10
0.0
 20
0.0
 30
0.0
  3
*Paper_Space
  1

  0
ENDBLK
  5
1D
330
1B
100
AcDbEntity
 67
     1
  8
0
100
AcDbBlockEnd
  0
BLOCK
  5
24
330
23
100
AcDbEntity
  8
0
100
AcDbBlockBegin
  2
*Paper_Space0
 70
     0
 10
0.0
 20
0.0
 30
0.0
  3
*Paper_Space0
  1

  0
ENDBLK
  5
25
330
23
100
AcDbEntity
  8
0
100
AcDbBlockEnd
  0
BLOCK
  5
272
330
271
100
AcDbEntity
  8
0
100
AcDbBlockBegin
  2
SW_CENTERMARKSYMBOL_0
 70
     0
 10
0.0
 20
0.0
 30
0.0
  3
SW_CENTERMARKSYMBOL_0
  1

  0
LINE
  5
274
330
271
100
AcDbEntity
  8
0
  6
Continuous
 62
     0
370
     0
100
AcDbLine
 10
0.0
 20
0.0
 30
0.0
 11
0.0
 21
0.0984251969
 31
0.0
  0
LINE
  5
275
330
271
100
AcDbEntity
  8
0
  6
Continuous
 62
     0
370
     0
100
AcDbLine
 10
0.0
 20
0.0
 30
0.0
 11
-0.0984251969
 21
0.0
 31
0.0
  0
LINE
  5
276
330
271
100
AcDbEntity
  8
0
  6
Continuous
 62
     0
370
     0
100
AcDbLine
 10
0.0
 20
0.0
 30
0.0
 11
0.0
 21
-0.0984251969
 31
0.0
  0
LINE
  5
277
330
271
100
AcDbEntity
  8
0
  6
Continuous
 62
     0
370
     0
100
AcDbLine
 10
0.0
 20
0.0
 30
0.0
 11
0.0984251969
 21
0.0
 31
0.0
  0
LINE
  5
278
330
271
100
AcDbEntity
  8
0
  6
Continuous
 62
     0
370
     0
100
AcDbLine
 10
0.0
 20
0.1968503937
 30
0.0
 11
0.0
 21
0.5984251969
 31
0.0
  0
LINE
  5
279
330
271
100
AcDbEntity
  8
0
  6
Continuous
 62
     0
370
     0
100
AcDbLine
 10
-0.1968503937
 20
0.0
 30
0.0
 11
-0.5984251969
 21
0.0
 31
0.0
  0
LINE
  5
27A
330
271
100
AcDbEntity
  8
0
  6
Continuous
 62
     0
370
     0
100
AcDbLine
 10
0.0
 20
-0.1968503937
 30
0.0
 11
0.0
 21
-0.5984251969
 31
0.0
  0
LINE
  5
27B
330
271
100
AcDbEntity
  8
0
  6
Continuous
 62
     0
370
     0
100
AcDbLine
 10
0.1968503937
 20
0.0
 30
0.0
 11
0.5984251969
 21
0.0
 31
0.0
  0
ENDBLK
  5
273
330
271
100
AcDbEntity
  8
0
100
AcDbBlockEnd
  0
ENDSEC
  0
SECTION
  2
ENTITIES
  0
LINE
  5
40
330
1F
100
AcDbEntity
  8
0
  6
Continuous
 62
     7
370
    15
100
AcDbLine
 10
26.083859653
 20
22.5031838342
 30
0.0
 11
25.323859653
 21
22.5031838342
 31
0.0
  0
LINE
  5
41
330
1F
100
AcDbEntity
  8
0
  6
Continuous
 62
     7
370
    15
100
AcDbLine
 10
26.083859653
 20
24.5031838342
 30
0.0
 11
26.083859653
 21
22.5031838342
 31
0.0
  0
LINE
  5
42
330
1F
100
AcDbEntity
  8
0
  6
Continuous
 62
     7
370
    15
100
AcDbLine
 10
25.323859653
 20
24.5031838342
 30
0.0
 11
26.083859653
 21
24.5031838342
 31
0.0
  0
LINE
  5
43
330
1F
100
AcDbEntity
  8
0
  6
Continuous
 62
     7
370
    15
100
AcDbLine
 10
25.323859653
 20
22.5031838342
 30
0.0
 11
25.323859653
 21
24.5031838342
 31
0.0
  0
CIRCLE
  5
44
330
1F
100
AcDbEntity
  8
0
  6
Continuous
 62
     7
370
    15
100
AcDbCircle
 10
28.2231393968
 20
24.7531838342
 30
0.0
 40
0.6874999999999964
  0
CIRCLE
  5
45
330
1F
100
AcDbEntity
  8
0
  6
Continuous
 62
     7
370
    15
100
AcDbCircle
 10
28.2231393968
 20
22.2531838342
 30
0.0
 40
0.6875
  0
CIRCLE
  5
46
330
1F
100
AcDbEntity
  8
0
  6
Continuous
 62
     7
370
    15
100
AcDbCircle
 10
24.3260250797
 20
20.0031838342
 30
0.0
 40
0.6874999999999964
  0
CIRCLE
  5
47
330
1F
100
AcDbEntity
  8
0
  6
Continuous
 62
     7
370
    15
100
AcDbCircle
 10
24.3260250797
 20
27.0031838342
 30
0.0
 40
0.6874999999999964
  0
ARC
  5
48
330
1F
100
AcDbEntity
  8
0
  6
Continuous
 62
     7
370
    15
100
AcDbCircle
 10
29.2231393968
 20
23.5031838342
 30
0.0
 40
7.019279743794923
100
AcDbArc
 50
144.4463567688
 51
215.5536432312
  0
ARC
  5
49
330
1F
100
AcDbEntity
  8
0
  6
Continuous
 62
     7
370
    15
100
AcDbCircle
 10
24.3260250797
 20
27.0031838342
 30
0.0
 40
1.000000000000032
100
AcDbArc
 50
60.0
 51
144.4463567688
  0
LINE
  5
4A
330
1F
100
AcDbEntity
  8
0
  6
Continuous
 62
     7
370
    15
100
AcDbLine
 10
24.8260250797
 20
27.869209238
 30
0.0
 11
28.7231393968
 21
25.619209238
 31
0.0
  0
ARC
  5
4B
330
1F
100
AcDbEntity
  8
0
  6
Continuous
 62
     7
370
    15
100
AcDbCircle
 10
28.2231393968
 20
24.7531838342
 30
0.0
 40
1.000000000000032
100
AcDbArc
 50
0.0
 51
60.0
  0
ARC
  5
4C
330
1F
100
AcDbEntity
  8
0
  6
Continuous
 62
     7
370
    15
100
AcDbCircle
 10
28.2231393968
 20
22.2531838342
 30
0.0
 40
1.000000000000004
100
AcDbArc
 50
300.0
 51
0.0
  0
LINE
  5
4D
330
1F
100
AcDbEntity
  8
0
  6
Continuous
 62
     7
370
    15
100
AcDbLine
 10
28.7231393968
 20
21.3871584304
 30
0.0
 11
24.8260250797
 21
19.1371584304
 31
0.0
  0
ARC
  5
4E
330
1F
100
AcDbEntity
  8
0
  6
Continuous
 62
     7
370
    15
100
AcDbCircle
 10
24.3260250797
 20
20.0031838342
 30
0.0
 40
1.000000000000006
100
AcDbArc
 50
215.5536432312
 51
300.0
  0
LINE
  5
4F
330
1F
100
AcDbEntity
  8
0
  6
Continuous
 62
     7
370
    15
100
AcDbLine
 10
29.2231393968
 20
24.7531838342
 30
0.0
 11
29.2231393968
 21
22.2531838342
 31
0.0
  0
ARC
  5
50
330
1F
100
AcDbEntity
  8
0
  6
Continuous
 62
     7
370
    15
100
AcDbCircle
 10
30.7807490892
 20
35.5374722051
 30
0.0
 40
0.1250000000000071
100
AcDbArc
 50
90.0
 51
180.0
  0
LINE
  5
51
330
1F
100
AcDbEntity
  8
0
  6
Continuous
 62
     7
370
    15
100
AcDbLine
 10
30.6557490892
 20
35.5374722051
 30
0.0
 11
30.6557490892
 21
35.0374722051
 31
0.0
  0
ARC
  5
52
330
1F
100
AcDbEntity
  8
0
  6
Continuous
 62
     7
370
    15
100
AcDbCircle
 10
30.7807490892
 20
35.0374722051
 30
0.0
 40
0.1250000000000071
100
AcDbArc
 50
180.0
 51
270.0
  0
LINE
  5
53
330
1F
100
AcDbEntity
  8
0
  6
Continuous
 62
     7
370
    15
100
AcDbLine
 10
30.7807490892
 20
34.9124722051
 30
0.0
 11
31.3307490892
 21
34.9124722051
 31
0.0
  0
ARC
  5
54
330
1F
100
AcDbEntity
  8
0
  6
Continuous
 62
     7
370
    15
100
AcDbCircle
 10
31.3307490892
 20
35.0374722051
 30
0.0
 40
0.1250000000000071
100
AcDbArc
 50
270.0
 51
0.0
  0
LINE
  5
55
330
1F
100
AcDbEntity
  8
0
  6
Continuous
 62
     7
370
    15
100
AcDbLine
 10
31.4557490892
 20
35.0374722051
 30
0.0
 11
31.4557490892
 21
35.5374722051
 31
0.0
  0
ARC
  5
56
330
1F
100
AcDbEntity
  8
0
  6
Continuous
 62
     7
370
    15
100
AcDbCircle
 10
31.3307490892
 20
35.5374722051
 30
0.0
 40
0.1250000000000071
100
AcDbArc
 50
0.0
 51
90.0
  0
LINE
  5
57
330
1F
100
AcDbEntity
  8
0
  6
Continuous
 62
     7
370
    15
100
AcDbLine
 10
31.3307490892
 20
35.6624722051
 30
0.0
 11
30.7807490892
 21
35.6624722051
 31
0.0
  0
ARC
  5
58
330
1F
100
AcDbEntity
  8
0
  6
Continuous
 62
     7
370
    15
100
AcDbCircle
 10
30.6557490892
 20
35.7874722051
 30
0.0
 40
0.4999999999999964
100
AcDbArc
 50
90.0
 51
180.0
  0
LINE
  5
59
330
1F
100
AcDbEntity
  8
0
  6
Continuous
 62
     7
370
    15
100
AcDbLine
 10
32.1557490892
 20
36.2874722051
 30
0.0
 11
30.6557490892
 21
36.2874722051
 31
0.0
  0
LINE
  5
5A
330
1F
100
AcDbEntity
  8
0
  6
Continuous
 62
     7
370
    15
100
AcDbLine
 10
32.1557490892
 20
36.4124722051
 30
0.0
 11
32.1557490892
 21
36.2874722051
 31
0.0
  0
LINE
  5
5B
330
1F
100
AcDbEntity
  8
0
  6
Continuous
 62
     7
370
    15
100
AcDbLine
 10
33.9557490892
 20
36.4124722051
 30
0.0
 11
32.1557490892
 21
36.4124722051
 31
0.0
  0
LINE
  5
5C
330
1F
100
AcDbEntity
  8
0
  6
Continuous
 62
     7
370
    15
100
AcDbLine
 10
33.9557490892
 20
36.2874722051
 30
0.0
 11
33.9557490892
 21
36.4124722051
 31
0.0
  0
LINE
  5
5D
330
1F
100
AcDbEntity
  8
0
  6
Continuous
 62
     7
370
    15
100
AcDbLine
 10
35.4557490892
 20
36.2874722051
 30
0.0
 11
33.9557490892
 21
36.2874722051
 31
0.0
  0
ARC
  5
5E
330
1F
100
AcDbEntity
  8
0
  6
Continuous
 62
     7
370
    15
100
AcDbCircle
 10
35.4557490892
 20
35.7874722051
 30
0.0
 40
0.5
100
AcDbArc
 50
0.0
 51
90.0
  0
LINE
  5
5F
330
1F
100
AcDbEntity
  8
0
  6
Continuous
 62
     7
370
    15
100
AcDbLine
 10
35.9557490892
 20
34.7874722051
 30
0.0
 11
35.9557490892
 21
35.7874722051
 31
0.0
  0
ARC
  5
60
330
1F
100
AcDbEntity
  8
0
  6
Continuous
 62
     7
370
    15
100
AcDbCircle
 10
35.4557490892
 20
34.7874722051
 30
0.0
 40
0.5
100
AcDbArc
 50
270.0
 51
0.0
  0
LINE
  5
61
330
1F
100
AcDbEntity
  8
0
  6
Continuous
 62
     7
370
    15
100
AcDbLine
 10
33.9557490892
 20
34.2874722051
 30
0.0
 11
35.4557490892
 21
34.2874722051
 31
0.0
  0
LINE
  5
62
330
1F
100
AcDbEntity
  8
0
  6
Continuous
 62
     7
370
    15
100
AcDbLine
 10
33.9557490892
 20
34.1624722051
 30
0.0
 11
33.9557490892
 21
34.2874722051
 31
0.0
  0
LINE
  5
63
330
1F
100
AcDbEntity
  8
0
  6
Continuous
 62
     7
370
    15
100
AcDbLine
 10
32.1557490892
 20
34.1624722051
 30
0.0
 11
33.9557490892
 21
34.1624722051
 31
0.0
  0
LINE
  5
64
330
1F
100
AcDbEntity
  8
0
  6
Continuous
 62
     7
370
    15
100
AcDbLine
 10
32.1557490892
 20
34.2874722051
 30
0.0
 11
32.1557490892
 21
34.1624722051
 31
0.0
  0
LINE
  5
65
330
1F
100
AcDbEntity
  8
0
  6
Continuous
 62
     7
370
    15
100
AcDbLine
 10
30.6557490892
 20
34.2874722051
 30
0.0
 11
32.1557490892
 21
34.2874722051
 31
0.0
  0
ARC
  5
66
330
1F
100
AcDbEntity
  8
0
  6
Continuous
 62
     7
370
    15
100
AcDbCircle
 10
30.6557490892
 20
34.7874722051
 30
0.0
 40
0.4999999999999964
100
AcDbArc
 50
180.0
 51
270.0
  0
LINE
  5
67
330
1F
100
AcDbEntity
  8
0
  6
Continuous
 62
     7
370
    15
100
AcDbLine
 10
30.1557490892
 20
35.7874722051
 30
0.0
 11
30.1557490892
 21
34.7874722051
 31
0.0
  0
ARC
  5
68
330
1F
100
AcDbEntity
  8
0
  6
Continuous
 62
     7
370
    15
100
AcDbCircle
 10
34.7807490892
 20
35.5374722051
 30
0.0
 40
0.1250000000000071
100
AcDbArc
 50
90.0
 51
180.0
  0
LINE
  5
69
330
1F
100
AcDbEntity
  8
0
  6
Continuous
 62
     7
370
    15
100
AcDbLine
 10
34.6557490892
 20
35.5374722051
 30
0.0
 11
34.6557490892
 21
35.0374722051
 31
0.0
  0
ARC
  5
6A
330
1F
100
AcDbEntity
  8
0
  6
Continuous
 62
     7
370
    15
100
AcDbCircle
 10
34.7807490892
 20
35.0374722051
 30
0.0
 40
0.1250000000000071
100
AcDbArc
 50
180.0
 51
270.0
  0
LINE
  5
6B
330
1F
100
AcDbEntity
  8
0
  6
Continuous
 62
     7
370
    15
100
AcDbLine
 10
34.7807490892
 20
34.9124722051
 30
0.0
 11
35.3307490892
 21
34.9124722051
 31
0.0
  0
ARC
  5
6C
330
1F
100
AcDbEntity
  8
0
  6
Continuous
 62
     7
370
    15
100
AcDbCircle
 10
35.3307490892
 20
35.0374722051
 30
0.0
 40
0.1250000000000071
100
AcDbArc
 50
270.0
 51
0.0
  0
LINE
  5
6D
330
1F
100
AcDbEntity
  8
0
  6
Continuous
 62
     7
370
    15
100
AcDbLine
 10
35.4557490892
 20
35.0374722051
 30
0.0
 11
35.4557490892
 21
35.5374722051
 31
0.0
  0
ARC
  5
6E
330
1F
100
AcDbEntity
  8
0
  6
Continuous
 62
     7
370
    15
100
AcDbCircle
 10
35.3307490892
 20
35.5374722051
 30
0.0
 40
0.1250000000000071
100
AcDbArc
 50
0.0
 51
90.0
  0
LINE
  5
6F
330
1F
100
AcDbEntity
  8
0
  6
Continuous
 62
     7
370
    15
100
AcDbLine
 10
35.3307490892
 20
35.6624722051
 30
0.0
 11
34.7807490892
 21
35.6624722051
 31
0.0
  0
CIRCLE
  5
70
330
1F
100
AcDbEntity
  8
0
  6
Continuous
 62
     7
370
    15
100
AcDbCircle
 10
11.8034569358
 20
36.2481656058
 30
0.0
 40
2.562500000000007
  0
LINE
  5
71
330
1F
100
AcDbEntity
  8
0
  6
Continuous
 62
     7
370
    15
100
AcDbLine
 10
3.336240181
 20
30.9266030312
 30
0.0
 11
2.961240181
 21
31.576122084
 31
0.0
  0
LINE
  5
72
330
1F
100
AcDbEntity
  8
0
  6
Continuous
 62
     7
370
    15
100
AcDbLine
 10
2.961240181
 20
31.576122084
 30
0.0
 11
2.0952147773
 21
31.076122084
 31
0.0
  0
LINE
  5
73
330
1F
100
AcDbEntity
  8
0
  6
Continuous
 62
     7
370
    15
100
AcDbLine
 10
11.4284569358
 20
47.241771702
 30
0.0
 11
11.4284569358
 21
46.241771702
 31
0.0
  0
LINE
  5
74
330
1F
100
AcDbEntity
  8
0
  6
Continuous
 62
     7
370
    15
100
AcDbLine
 10
11.4284569358
 20
46.241771702
 30
0.0
 11
12.1784569358
 21
46.241771702
 31
0.0
  0
LINE
  5
75
330
1F
100
AcDbEntity
  8
0
  6
Continuous
 62
     7
370
    15
100
AcDbLine
 10
12.1784569358
 20
46.241771702
 30
0.0
 11
12.1784569358
 21
47.241771702
 31
0.0
  0
LINE
  5
76
330
1F
100
AcDbEntity
  8
0
  6
Continuous
 62
     7
370
    15
100
AcDbLine
 10
21.5116990944
 20
31.076122084
 30
0.0
 11
20.6456736906
 21
31.576122084
 31
0.0
  0
LINE
  5
77
330
1F
100
AcDbEntity
  8
0
  6
Continuous
 62
     7
370
    15
100
AcDbLine
 10
20.6456736906
 20
31.576122084
 30
0.0
 11
20.2706736906
 21
30.9266030312
 31
0.0
  0
LINE
  5
78
330
1F
100
AcDbEntity
  8
0
  6
Continuous
 62
     7
370
    15
100
AcDbLine
 10
20.2706736906
 20
30.9266030312
 30
0.0
 11
21.1366990944
 21
30.4266030312
 31
0.0
  0
LINE
  5
79
330
1F
100
AcDbEntity
  8
0
  6
Continuous
 62
     7
370
    15
100
AcDbLine
 10
2.4702147773
 20
30.4266030312
 30
0.0
 11
3.336240181
 21
30.9266030312
 31
0.0
  0
ARC
  5
7A
330
1F
100
AcDbEntity
  8
0
  6
Continuous
 62
     7
370
    15
100
AcDbCircle
 10
11.8034569358
 20
36.2481656058
 30
0.0
 40
11.0
100
AcDbArc
 50
91.9536437529
 51
208.0463562471
  0
ARC
  5
7B
330
1F
100
AcDbEntity
  8
0
  6
Continuous
 62
     7
370
    15
100
AcDbCircle
 10
11.8034569358
 20
36.2481656058
 30
0.0
 40
11.00000000000001
100
AcDbArc
 50
331.9536437529
 51
88.0463562471
  0
ARC
  5
7C
330
1F
100
AcDbEntity
  8
0
  6
Continuous
 62
     7
370
    15
100
AcDbCircle
 10
11.8034569358
 20
36.2481656058
 30
0.0
 40
11.0
100
AcDbArc
 50
211.9536437529
 51
328.0463562471
  0
CIRCLE
  5
7D
330
1F
100
AcDbEntity
  8
0
  6
Continuous
 62
     7
370
    15
100
AcDbCircle
 10
11.924098747
 20
13.3790492942
 30
0.0
 40
6.125
  0
CIRCLE
  5
7E
330
1F
100
AcDbEntity
  8
0
  6
Continuous
 62
     7
370
    15
100
AcDbCircle
 10
11.924098747
 20
13.3790492942
 30
0.0
 40
11.0
  0
ARC
  5
7F
330
1F
100
AcDbEntity
  8
0
  6
Continuous
 62
     7
370
    15
100
AcDbCircle
 10
28.6493508103
 20
37.5976565136
 30
0.0
 40
0.1000000000000014
100
AcDbArc
 50
180.0
 51
270.0
  0
ARC
  5
80
330
1F
100
AcDbEntity
  8
0
  6
Continuous
 62
     7
370
    15
100
AcDbCircle
 10
33.6964651274
 20
46.8403010489
 30
0.0
 40
0.75
100
AcDbArc
 50
330.0
 51
120.0
  0
LINE
  5
81
330
1F
100
AcDbEntity
  8
0
  6
Continuous
 62
     7
370
    15
100
AcDbLine
 10
34.3459841802
 20
46.4653010489
 30
0.0
 11
33.2699270217
 21
44.6015153785
 31
0.0
  0
LINE
  5
82
330
1F
100
AcDbEntity
  8
0
  6
Continuous
 62
     7
370
    15
100
AcDbLine
 10
30.3493508103
 20
41.2476565136
 30
0.0
 11
30.3493508103
 21
43.2476565136
 31
0.0
  0
LINE
  5
83
330
1F
100
AcDbEntity
  8
0
  6
Continuous
 62
     7
370
    15
100
AcDbLine
 10
31.0993508103
 20
41.2476565136
 30
0.0
 11
30.3493508103
 21
41.2476565136
 31
0.0
  0
LINE
  5
84
330
1F
100
AcDbEntity
  8
0
  6
Continuous
 62
     7
370
    15
100
AcDbLine
 10
31.0993508103
 20
43.2476565136
 30
0.0
 11
31.0993508103
 21
41.2476565136
 31
0.0
  0
LINE
  5
85
330
1F
100
AcDbEntity
  8
0
  6
Continuous
 62
     7
370
    15
100
AcDbLine
 10
30.3493508103
 20
43.2476565136
 30
0.0
 11
31.0993508103
 21
43.2476565136
 31
0.0
  0
CIRCLE
  5
86
330
1F
100
AcDbEntity
  8
0
  6
Continuous
 62
     7
370
    15
100
AcDbCircle
 10
29.5493508103
 20
44.157288347
 30
0.0
 40
0.6875
  0
CIRCLE
  5
87
330
1F
100
AcDbEntity
  8
0
  6
Continuous
 62
     7
370
    15
100
AcDbCircle
 10
33.4464651274
 20
41.907288347
 30
0.0
 40
0.6875
  0
ARC
  5
88
330
1F
100
AcDbEntity
  8
0
  6
Continuous
 62
     7
370
    15
100
AcDbCircle
 10
28.9493508103
 20
37.8976565136
 30
0.0
 40
0.1000000000000014
100
AcDbArc
 50
180.0
 51
270.0
  0
LINE
  5
89
330
1F
100
AcDbEntity
  8
0
  6
Continuous
 62
     7
370
    15
100
AcDbLine
 10
30.1493508103
 20
37.7976565136
 30
0.0
 11
28.9493508103
 21
37.7976565136
 31
0.0
  0
ARC
  5
8A
330
1F
100
AcDbEntity
  8
0
  6
Continuous
 62
     7
370
    15
100
AcDbCircle
 10
30.1493508103
 20
37.8976565136
 30
0.0
 40
0.1000000000000014
100
AcDbArc
 50
270.0
 51
0.0
  0
LINE
  5
8B
330
1F
100
AcDbEntity
  8
0
  6
Continuous
 62
     7
370
    15
100
AcDbLine
 10
30.2493508103
 20
38.1976565136
 30
0.0
 11
30.2493508103
 21
37.8976565136
 31
0.0
  0
ARC
  5
8C
330
1F
100
AcDbEntity
  8
0
  6
Continuous
 62
     7
370
    15
100
AcDbCircle
 10
30.1493508103
 20
38.1976565136
 30
0.0
 40
0.1000000000000014
100
AcDbArc
 50
0.0
 51
90.0
  0
LINE
  5
8D
330
1F
100
AcDbEntity
  8
0
  6
Continuous
 62
     7
370
    15
100
AcDbLine
 10
28.9493508103
 20
38.2976565136
 30
0.0
 11
30.1493508103
 21
38.2976565136
 31
0.0
  0
ARC
  5
8E
330
1F
100
AcDbEntity
  8
0
  6
Continuous
 62
     7
370
    15
100
AcDbCircle
 10
28.9493508103
 20
38.1976565136
 30
0.0
 40
0.1000000000000014
100
AcDbArc
 50
90.0
 51
180.0
  0
LINE
  5
8F
330
1F
100
AcDbEntity
  8
0
  6
Continuous
 62
     7
370
    15
100
AcDbLine
 10
28.8493508103
 20
37.8976565136
 30
0.0
 11
28.8493508103
 21
38.1976565136
 31
0.0
  0
ARC
  5
90
330
1F
100
AcDbEntity
  8
0
  6
Continuous
 62
     7
370
    15
100
AcDbCircle
 10
30.4493508103
 20
37.5976565136
 30
0.0
 40
0.1000000000000014
100
AcDbArc
 50
270.0
 51
0.0
  0
LINE
  5
91
330
1F
100
AcDbEntity
  8
0
  6
Continuous
 62
     7
370
    15
100
AcDbLine
 10
30.4493508103
 20
37.4976565136
 30
0.0
 11
28.6493508103
 21
37.4976565136
 31
0.0
  0
LINE
  5
92
330
1F
100
AcDbEntity
  8
0
  6
Continuous
 62
     7
370
    15
100
AcDbLine
 10
30.5493508103
 20
40.4976565136
 30
0.0
 11
30.5493508103
 21
37.5976565136
 31
0.0
  0
LINE
  5
93
330
1F
100
AcDbEntity
  8
0
  6
Continuous
 62
     7
370
    15
100
AcDbLine
 10
32.0493508103
 20
40.4976565136
 30
0.0
 11
30.5493508103
 21
40.4976565136
 31
0.0
  0
LINE
  5
94
330
1F
100
AcDbEntity
  8
0
  6
Continuous
 62
     7
370
    15
100
AcDbLine
 10
33.7052841725
 20
40.9413625207
 30
0.0
 11
32.0493508103
 21
40.4976565136
 31
0.0
  0
ARC
  5
95
330
1F
100
AcDbEntity
  8
0
  6
Continuous
 62
     7
370
    15
100
AcDbCircle
 10
33.4464651274
 20
41.907288347
 30
0.0
 40
1.000000000000006
100
AcDbArc
 50
285.0
 51
60.0
  0
LINE
  5
96
330
1F
100
AcDbEntity
  8
0
  6
Continuous
 62
     7
370
    15
100
AcDbLine
 10
33.9464651274
 20
42.7733137508
 30
0.0
 11
33.7256286494
 21
42.9008137508
 31
0.0
  0
ARC
  5
97
330
1F
100
AcDbEntity
  8
0
  6
Continuous
 62
     7
370
    15
100
AcDbCircle
 10
34.3481286494
 20
43.9790153785
 30
0.0
 40
1.245000000000083
100
AcDbArc
 50
150.0
 51
240.0
  0
LINE
  5
98
330
1F
100
AcDbEntity
  8
0
  6
Continuous
 62
     7
370
    15
100
AcDbLine
 10
29.0493508103
 20
45.0233137508
 30
0.0
 11
33.3214651274
 21
47.4898201017
 31
0.0
  0
ARC
  5
99
330
1F
100
AcDbEntity
  8
0
  6
Continuous
 62
     7
370
    15
100
AcDbCircle
 10
29.5493508103
 20
44.157288347
 30
0.0
 40
1.000000000000077
100
AcDbArc
 50
120.0
 51
180.0
  0
LINE
  5
9A
330
1F
100
AcDbEntity
  8
0
  6
Continuous
 62
     7
370
    15
100
AcDbLine
 10
28.5493508103
 20
37.5976565136
 30
0.0
 11
28.5493508103
 21
44.157288347
 31
0.0
  0
LINE
  5
9B
330
1F
100
AcDbEntity
  8
0
  6
Continuous
 62
     7
370
    15
100
AcDbLine
 10
22.1129367058
 20
46.3923694617
 30
0.0
 11
23.1889938643
 21
44.5285837913
 31
0.0
  0
ARC
  5
9C
330
1F
100
AcDbEntity
  8
0
  6
Continuous
 62
     7
370
    15
100
AcDbCircle
 10
22.7624557586
 20
46.7673694617
 30
0.0
 40
0.75
100
AcDbArc
 50
60.0
 51
210.0
  0
ARC
  5
9D
330
1F
100
AcDbEntity
  8
0
  6
Continuous
 62
     7
370
    15
100
AcDbCircle
 10
27.8095700757
 20
37.5247249264
 30
0.0
 40
0.1000000000000014
100
AcDbArc
 50
270.0
 51
0.0
  0
LINE
  5
9E
330
1F
100
AcDbEntity
  8
0
  6
Continuous
 62
     7
370
    15
100
AcDbLine
 10
25.3595700757
 20
43.1747249264
 30
0.0
 11
25.3595700757
 21
41.1747249264
 31
0.0
  0
LINE
  5
9F
330
1F
100
AcDbEntity
  8
0
  6
Continuous
 62
     7
370
    15
100
AcDbLine
 10
25.3595700757
 20
41.1747249264
 30
0.0
 11
26.1095700757
 21
41.1747249264
 31
0.0
  0
LINE
  5
A0
330
1F
100
AcDbEntity
  8
0
  6
Continuous
 62
     7
370
    15
100
AcDbLine
 10
26.1095700757
 20
41.1747249264
 30
0.0
 11
26.1095700757
 21
43.1747249264
 31
0.0
  0
LINE
  5
A1
330
1F
100
AcDbEntity
  8
0
  6
Continuous
 62
     7
370
    15
100
AcDbLine
 10
26.1095700757
 20
43.1747249264
 30
0.0
 11
25.3595700757
 21
43.1747249264
 31
0.0
  0
CIRCLE
  5
A2
330
1F
100
AcDbEntity
  8
0
  6
Continuous
 62
     7
370
    15
100
AcDbCircle
 10
26.9095700757
 20
44.0843567598
 30
0.0
 40
0.6875000000000036
  0
CIRCLE
  5
A3
330
1F
100
AcDbEntity
  8
0
  6
Continuous
 62
     7
370
    15
100
AcDbCircle
 10
23.0124557586
 20
41.8343567598
 30
0.0
 40
0.6875000000000036
  0
ARC
  5
A4
330
1F
100
AcDbEntity
  8
0
  6
Continuous
 62
     7
370
    15
100
AcDbCircle
 10
27.5095700757
 20
38.1247249264
 30
0.0
 40
0.1000000000000014
100
AcDbArc
 50
0.0
 51
90.0
  0
LINE
  5
A5
330
1F
100
AcDbEntity
  8
0
  6
Continuous
 62
     7
370
    15
100
AcDbLine
 10
26.3095700757
 20
38.2247249264
 30
0.0
 11
27.5095700757
 21
38.2247249264
 31
0.0
  0
ARC
  5
A6
330
1F
100
AcDbEntity
  8
0
  6
Continuous
 62
     7
370
    15
100
AcDbCircle
 10
26.3095700757
 20
38.1247249264
 30
0.0
 40
0.1000000000000014
100
AcDbArc
 50
90.0
 51
180.0
  0
LINE
  5
A7
330
1F
100
AcDbEntity
  8
0
  6
Continuous
 62
     7
370
    15
100
AcDbLine
 10
26.2095700757
 20
37.8247249264
 30
0.0
 11
26.2095700757
 21
38.1247249264
 31
0.0
  0
ARC
  5
A8
330
1F
100
AcDbEntity
  8
0
  6
Continuous
 62
     7
370
    15
100
AcDbCircle
 10
26.3095700757
 20
37.8247249264
 30
0.0
 40
0.1000000000000014
100
AcDbArc
 50
180.0
 51
270.0
  0
LINE
  5
A9
330
1F
100
AcDbEntity
  8
0
  6
Continuous
 62
     7
370
    15
100
AcDbLine
 10
27.5095700757
 20
37.7247249264
 30
0.0
 11
26.3095700757
 21
37.7247249264
 31
0.0
  0
ARC
  5
AA
330
1F
100
AcDbEntity
  8
0
  6
Continuous
 62
     7
370
    15
100
AcDbCircle
 10
27.5095700757
 20
37.8247249264
 30
0.0
 40
0.1000000000000014
100
AcDbArc
 50
270.0
 51
0.0
  0
LINE
  5
AB
330
1F
100
AcDbEntity
  8
0
  6
Continuous
 62
     7
370
    15
100
AcDbLine
 10
27.6095700757
 20
38.1247249264
 30
0.0
 11
27.6095700757
 21
37.8247249264
 31
0.0
  0
ARC
  5
AC
330
1F
100
AcDbEntity
  8
0
  6
Continuous
 62
     7
370
    15
100
AcDbCircle
 10
26.0095700757
 20
37.5247249264
 30
0.0
 40
0.1000000000000014
100
AcDbArc
 50
180.0
 51
270.0
  0
LINE
  5
AD
330
1F
100
AcDbEntity
  8
0
  6
Continuous
 62
     7
370
    15
100
AcDbLine
 10
26.0095700757
 20
37.4247249264
 30
0.0
 11
27.8095700757
 21
37.4247249264
 31
0.0
  0
LINE
  5
AE
330
1F
100
AcDbEntity
  8
0
  6
Continuous
 62
     7
370
    15
100
AcDbLine
 10
25.9095700757
 20
40.4247249264
 30
0.0
 11
25.9095700757
 21
37.5247249264
 31
0.0
  0
LINE
  5
AF
330
1F
100
AcDbEntity
  8
0
  6
Continuous
 62
     7
370
    15
100
AcDbLine
 10
24.4095700757
 20
40.4247249264
 30
0.0
 11
25.9095700757
 21
40.4247249264
 31
0.0
  0
LINE
  5
B0
330
1F
100
AcDbEntity
  8
0
  6
Continuous
 62
     7
370
    15
100
AcDbLine
 10
22.7536367135
 20
40.8684309335
 30
0.0
 11
24.4095700757
 21
40.4247249264
 31
0.0
  0
ARC
  5
B1
330
1F
100
AcDbEntity
  8
0
  6
Continuous
 62
     7
370
    15
100
AcDbCircle
 10
23.0124557586
 20
41.8343567598
 30
0.0
 40
1.000000000000007
100
AcDbArc
 50
120.0
 51
255.0
  0
LINE
  5
B2
330
1F
100
AcDbEntity
  8
0
  6
Continuous
 62
     7
370
    15
100
AcDbLine
 10
22.5124557586
 20
42.7003821636
 30
0.0
 11
22.7332922366
 21
42.8278821636
 31
0.0
  0
ARC
  5
B3
330
1F
100
AcDbEntity
  8
0
  6
Continuous
 62
     7
370
    15
100
AcDbCircle
 10
22.1107922366
 20
43.9060837913
 30
0.0
 40
1.245000000000083
100
AcDbArc
 50
300.0
 51
30.0
  0
LINE
  5
B4
330
1F
100
AcDbEntity
  8
0
  6
Continuous
 62
     7
370
    15
100
AcDbLine
 10
27.4095700757
 20
44.9503821636
 30
0.0
 11
23.1374557586
 21
47.4168885145
 31
0.0
  0
ARC
  5
B5
330
1F
100
AcDbEntity
  8
0
  6
Continuous
 62
     7
370
    15
100
AcDbCircle
 10
26.9095700757
 20
44.0843567598
 30
0.0
 40
1.000000000000073
100
AcDbArc
 50
0.0
 51
60.0
  0
LINE
  5
B6
330
1F
100
AcDbEntity
  8
0
  6
Continuous
 62
     7
370
    15
100
AcDbLine
 10
27.9095700757
 20
37.5247249264
 30
0.0
 11
27.9095700757
 21
44.0843567598
 31
0.0
  0
LINE
  5
B7
330
1F
100
AcDbEntity
  8
0
  6
Continuous
 62
     7
370
    15
100
AcDbLine
 10
25.8550126544
 20
3.7572571379
 30
0.0
 11
25.8550126544
 21
5.7572571379
 31
0.0
  0
LINE
  5
B8
330
1F
100
AcDbEntity
  8
0
  6
Continuous
 62
     7
370
    15
100
AcDbLine
 10
26.6050126544
 20
3.7572571379
 30
0.0
 11
25.8550126544
 21
3.7572571379
 31
0.0
  0
LINE
  5
B9
330
1F
100
AcDbEntity
  8
0
  6
Continuous
 62
     7
370
    15
100
AcDbLine
 10
26.6050126544
 20
5.7572571379
 30
0.0
 11
26.6050126544
 21
3.7572571379
 31
0.0
  0
LINE
  5
BA
330
1F
100
AcDbEntity
  8
0
  6
Continuous
 62
     7
370
    15
100
AcDbLine
 10
25.8550126544
 20
5.7572571379
 30
0.0
 11
26.6050126544
 21
5.7572571379
 31
0.0
  0
CIRCLE
  5
BB
330
1F
100
AcDbEntity
  8
0
  6
Continuous
 62
     7
370
    15
100
AcDbCircle
 10
24.8550126544
 20
4.7572571379
 30
0.0
 40
3.75
  0
LINE
  5
BC
330
1F
100
AcDbEntity
  8
0
  6
Continuous
 62
     7
370
    15
100
AcDbLine
 10
23.1050126544
 20
5.7572571379
 30
0.0
 11
23.8550126544
 21
5.7572571379
 31
0.0
  0
LINE
  5
BD
330
1F
100
AcDbEntity
  8
0
  6
Continuous
 62
     7
370
    15
100
AcDbLine
 10
23.8550126544
 20
3.7572571379
 30
0.0
 11
23.1050126544
 21
3.7572571379
 31
0.0
  0
LINE
  5
BE
330
1F
100
AcDbEntity
  8
0
  6
Continuous
 62
     7
370
    15
100
AcDbLine
 10
23.8550126544
 20
5.7572571379
 30
0.0
 11
23.8550126544
 21
3.7572571379
 31
0.0
  0
LINE
  5
BF
330
1F
100
AcDbEntity
  8
0
  6
Continuous
 62
     7
370
    15
100
AcDbLine
 10
23.1050126544
 20
3.7572571379
 30
0.0
 11
23.1050126544
 21
5.7572571379
 31
0.0
  0
LINE
  5
C0
330
1F
100
AcDbEntity
  8
0
  6
Continuous
 62
     7
370
    15
100
AcDbLine
 10
63.6144207237
 20
19.2631886086
 30
0.0
 11
64.3644207237
 21
19.2631886086
 31
0.0
  0
LINE
  5
C1
330
1F
100
AcDbEntity
  8
0
  6
Continuous
 62
     7
370
    15
100
AcDbLine
 10
63.6144207237
 20
17.2631886086
 30
0.0
 11
63.6144207237
 21
19.2631886086
 31
0.0
  0
LINE
  5
C2
330
1F
100
AcDbEntity
  8
0
  6
Continuous
 62
     7
370
    15
100
AcDbLine
 10
64.3644207237
 20
17.2631886086
 30
0.0
 11
63.6144207237
 21
17.2631886086
 31
0.0
  0
LINE
  5
C3
330
1F
100
AcDbEntity
  8
0
  6
Continuous
 62
     7
370
    15
100
AcDbLine
 10
64.3644207237
 20
19.2631886086
 30
0.0
 11
64.3644207237
 21
17.2631886086
 31
0.0
  0
CIRCLE
  5
C4
330
1F
100
AcDbEntity
  8
0
  6
Continuous
 62
     7
370
    15
100
AcDbCircle
 10
62.6144207237
 20
18.2631886086
 30
0.0
 40
2.499999999999996
  0
LINE
  5
C5
330
1F
100
AcDbEntity
  8
0
  6
Continuous
 62
     7
370
    15
100
AcDbLine
 10
61.6144207237
 20
17.2631886086
 30
0.0
 11
60.8644207237
 21
17.2631886086
 31
0.0
  0
LINE
  5
C6
330
1F
100
AcDbEntity
  8
0
  6
Continuous
 62
     7
370
    15
100
AcDbLine
 10
60.8644207237
 20
19.2631886086
 30
0.0
 11
61.6144207237
 21
19.2631886086
 31
0.0
  0
LINE
  5
C7
330
1F
100
AcDbEntity
  8
0
  6
Continuous
 62
     7
370
    15
100
AcDbLine
 10
60.8644207237
 20
17.2631886086
 30
0.0
 11
60.8644207237
 21
19.2631886086
 31
0.0
  0
LINE
  5
C8
330
1F
100
AcDbEntity
  8
0
  6
Continuous
 62
     7
370
    15
100
AcDbLine
 10
61.6144207237
 20
19.2631886086
 30
0.0
 11
61.6144207237
 21
17.2631886086
 31
0.0
  0
LINE
  5
C9
330
1F
100
AcDbEntity
  8
0
  6
Continuous
 62
     7
370
    15
100
AcDbLine
 10
62.8954049842
 20
42.0971220412
 30
0.0
 11
63.6454049842
 21
42.0971220412
 31
0.0
  0
LINE
  5
CA
330
1F
100
AcDbEntity
  8
0
  6
Continuous
 62
     7
370
    15
100
AcDbLine
 10
63.6454049842
 20
40.0971220412
 30
0.0
 11
62.8954049842
 21
40.0971220412
 31
0.0
  0
LINE
  5
CB
330
1F
100
AcDbEntity
  8
0
  6
Continuous
 62
     7
370
    15
100
AcDbLine
 10
63.6454049842
 20
42.0971220412
 30
0.0
 11
63.6454049842
 21
40.0971220412
 31
0.0
  0
LINE
  5
CC
330
1F
100
AcDbEntity
  8
0
  6
Continuous
 62
     7
370
    15
100
AcDbLine
 10
60.8954049842
 20
40.0971220412
 30
0.0
 11
60.1454049842
 21
40.0971220412
 31
0.0
  0
LINE
  5
CD
330
1F
100
AcDbEntity
  8
0
  6
Continuous
 62
     7
370
    15
100
AcDbLine
 10
60.8954049842
 20
42.0971220412
 30
0.0
 11
60.8954049842
 21
40.0971220412
 31
0.0
  0
LINE
  5
CE
330
1F
100
AcDbEntity
  8
0
  6
Continuous
 62
     7
370
    15
100
AcDbLine
 10
60.1454049842
 20
42.0971220412
 30
0.0
 11
60.8954049842
 21
42.0971220412
 31
0.0
  0
LINE
  5
CF
330
1F
100
AcDbEntity
  8
0
  6
Continuous
 62
     7
370
    15
100
AcDbLine
 10
60.1454049842
 20
40.0971220412
 30
0.0
 11
60.1454049842
 21
42.0971220412
 31
0.0
  0
LINE
  5
D0
330
1F
100
AcDbEntity
  8
0
  6
Continuous
 62
     7
370
    15
100
AcDbLine
 10
62.8954049842
 20
40.0971220412
 30
0.0
 11
62.8954049842
 21
42.0971220412
 31
0.0
  0
CIRCLE
  5
D1
330
1F
100
AcDbEntity
  8
0
  6
Continuous
 62
     7
370
    15
100
AcDbCircle
 10
61.8954049842
 20
41.0971220412
 30
0.0
 40
6.0
  0
LINE
  5
D2
330
1F
100
AcDbEntity
  8
0
  6
Continuous
 62
     7
370
    15
100
AcDbLine
 10
31.8271298019
 20
24.6876904331
 30
0.0
 11
31.8313272225
 21
24.8078888324
 31
0.0
  0
LINE
  5
D3
330
1F
100
AcDbEntity
  8
0
  6
Continuous
 62
     7
370
    15
100
AcDbLine
 10
31.8271298019
 20
24.6876904331
 30
0.0
 11
38.822865591
 21
24.4433939562
 31
0.0
  0
LINE
  5
D4
330
1F
100
AcDbEntity
  8
0
  6
Continuous
 62
     7
370
    15
100
AcDbLine
 10
38.822865591
 20
24.4433939562
 30
0.0
 11
38.8499542515
 21
25.2191116989
 31
0.0
  0
LINE
  5
D5
330
1F
100
AcDbEntity
  8
0
  6
Continuous
 62
     7
370
    15
100
AcDbLine
 10
38.8499542515
 20
25.2191116989
 30
0.0
 11
38.0999542515
 21
25.2191116989
 31
0.0
  0
LINE
  5
D6
330
1F
100
AcDbEntity
  8
0
  6
Continuous
 62
     7
370
    15
100
AcDbLine
 10
38.0855940326
 20
24.8078888324
 30
0.0
 11
38.0999542515
 21
25.2191116989
 31
0.0
  0
LINE
  5
D7
330
1F
100
AcDbEntity
  8
0
  6
Continuous
 62
     7
370
    15
100
AcDbLine
 10
31.8313272225
 20
24.8078888324
 30
0.0
 11
38.0855940326
 21
24.8078888324
 31
0.0
  0
LINE
  5
D8
330
1F
100
AcDbEntity
  8
0
  6
Continuous
 62
     7
370
    15
100
AcDbLine
 10
33.974454365
 20
27.5101148157
 30
0.0
 11
36.974454365
 21
27.2601148157
 31
0.0
  0
LINE
  5
D9
330
1F
100
AcDbEntity
  8
0
  6
Continuous
 62
     7
370
    15
100
AcDbLine
 10
33.974454365
 20
26.7601148157
 30
0.0
 11
33.974454365
 21
27.5101148157
 31
0.0
  0
LINE
  5
DA
330
1F
100
AcDbEntity
  8
0
  6
Continuous
 62
     7
370
    15
100
AcDbLine
 10
36.974454365
 20
26.7601148157
 30
0.0
 11
33.974454365
 21
26.7601148157
 31
0.0
  0
LINE
  5
DB
330
1F
100
AcDbEntity
  8
0
  6
Continuous
 62
     7
370
    15
100
AcDbLine
 10
36.974454365
 20
27.2601148157
 30
0.0
 11
36.974454365
 21
26.7601148157
 31
0.0
  0
ARC
  5
DC
330
1F
100
AcDbEntity
  8
0
  6
Continuous
 62
     7
370
    15
100
AcDbCircle
 10
36.0458704721
 20
28.6265919093
 30
0.0
 40
0.5999999999999907
100
AcDbArc
 50
35.6853347127
 51
90.0
  0
LINE
  5
DD
330
1F
100
AcDbEntity
  8
0
  6
Continuous
 62
     7
370
    15
100
AcDbLine
 10
36.0458704721
 20
29.2265919093
 30
0.0
 11
32.3316461605
 21
29.2265919093
 31
0.0
  0
ARC
  5
DE
330
1F
100
AcDbEntity
  8
0
  6
Continuous
 62
     7
370
    15
100
AcDbCircle
 10
32.3316461605
 20
30.0265919093
 30
0.0
 40
0.8000000000000007
100
AcDbArc
 50
183.5833216985
 51
270.0
  0
LINE
  5
DF
330
1F
100
AcDbEntity
  8
0
  6
Continuous
 62
     7
370
    15
100
AcDbLine
 10
31.5332101893
 20
29.9765919093
 30
0.0
 11
33.5332101893
 21
29.9765919093
 31
0.0
  0
LINE
  5
E0
330
1F
100
AcDbEntity
  8
0
  6
Continuous
 62
     7
370
    15
100
AcDbLine
 10
33.5332101893
 20
29.9765919093
 30
0.0
 11
33.5332101893
 21
30.7265919093
 31
0.0
  0
LINE
  5
E1
330
1F
100
AcDbEntity
  8
0
  6
Continuous
 62
     7
370
    15
100
AcDbLine
 10
33.5332101893
 20
30.7265919093
 30
0.0
 11
32.5332101893
 21
30.7265919093
 31
0.0
  0
LINE
  5
E2
330
1F
100
AcDbEntity
  8
0
  6
Continuous
 62
     7
370
    15
100
AcDbLine
 10
32.5332101893
 20
31.4765919093
 30
0.0
 11
31.5332101893
 21
31.4765919093
 31
0.0
  0
ARC
  5
E3
330
1F
100
AcDbEntity
  8
0
  6
Continuous
 62
     7
370
    15
100
AcDbCircle
 10
32.2832101893
 20
31.4765919093
 30
0.0
 40
0.7500000000000071
100
AcDbArc
 50
90.0
 51
180.0
  0
ARC
  5
E4
330
1F
100
AcDbEntity
  8
0
  6
Continuous
 62
     7
370
    15
100
AcDbCircle
 10
32.2832101893
 20
24.2161752426
 30
0.0
 40
8.010416666666641
100
AcDbArc
 50
40.3201994431
 51
90.0
  0
ARC
  5
E5
330
1F
100
AcDbEntity
  8
0
  6
Continuous
 62
     7
370
    15
100
AcDbCircle
 10
37.9332101893
 20
29.0111491918
 30
0.0
 40
0.6000000000000019
100
AcDbArc
 50
0.0
 51
40.3201994431
  0
LINE
  5
E6
330
1F
100
AcDbEntity
  8
0
  6
Continuous
 62
     7
370
    15
100
AcDbLine
 10
38.5332101893
 20
29.0111491918
 30
0.0
 11
38.5332101893
 21
28.9765919093
 31
0.0
  0
LINE
  5
E7
330
1F
100
AcDbEntity
  8
0
  6
Continuous
 62
     7
370
    15
100
AcDbLine
 10
38.5332101893
 20
28.9765919093
 30
0.0
 11
36.5332101893
 21
28.9765919093
 31
0.0
  0
LINE
  5
E8
330
1F
100
AcDbEntity
  8
0
  6
Continuous
 62
     7
370
    15
100
AcDbLine
 10
32.5332101893
 20
30.7265919093
 30
0.0
 11
32.5332101893
 21
31.4765919093
 31
0.0
  0
LINE
  5
E9
330
1F
100
AcDbEntity
  8
0
  6
Continuous
 62
     7
370
    15
100
AcDbLine
 10
27.9217196756
 20
31.2308583352
 30
0.0
 11
25.9217196756
 21
31.2308583352
 31
0.0
  0
LINE
  5
EA
330
1F
100
AcDbEntity
  8
0
  6
Continuous
 62
     7
370
    15
100
AcDbLine
 10
27.9217196756
 20
31.9908583352
 30
0.0
 11
27.9217196756
 21
31.2308583352
 31
0.0
  0
LINE
  5
EB
330
1F
100
AcDbEntity
  8
0
  6
Continuous
 62
     7
370
    15
100
AcDbLine
 10
25.9217196756
 20
31.9908583352
 30
0.0
 11
27.9217196756
 21
31.9908583352
 31
0.0
  0
LINE
  5
EC
330
1F
100
AcDbEntity
  8
0
  6
Continuous
 62
     7
370
    15
100
AcDbLine
 10
25.9217196756
 20
31.2308583352
 30
0.0
 11
25.9217196756
 21
31.9908583352
 31
0.0
  0
CIRCLE
  5
ED
330
1F
100
AcDbEntity
  8
0
  6
Continuous
 62
     7
370
    15
100
AcDbCircle
 10
29.1717196756
 20
30.3118202295
 30
0.0
 40
0.6874999999999964
  0
ARC
  5
EE
330
1F
100
AcDbEntity
  8
0
  6
Continuous
 62
     7
370
    15
100
AcDbCircle
 10
26.9217196756
 20
34.2089345465
 30
0.0
 40
0.999999999999999
100
AcDbArc
 50
30.0
 51
150.0
  0
LINE
  5
EF
330
1F
100
AcDbEntity
  8
0
  6
Continuous
 62
     7
370
    15
100
AcDbLine
 10
27.7877450794
 20
34.7089345465
 30
0.0
 11
30.0377450794
 21
30.8118202295
 31
0.0
  0
ARC
  5
F0
330
1F
100
AcDbEntity
  8
0
  6
Continuous
 62
     7
370
    15
100
AcDbCircle
 10
29.1717196756
 20
30.3118202295
 30
0.0
 40
1.000000000000016
100
AcDbArc
 50
270.0
 51
30.0
  0
LINE
  5
F1
330
1F
100
AcDbEntity
  8
0
  6
Continuous
 62
     7
370
    15
100
AcDbLine
 10
29.1717196756
 20
29.3118202295
 30
0.0
 11
24.6717196756
 21
29.3118202295
 31
0.0
  0
ARC
  5
F2
330
1F
100
AcDbEntity
  8
0
  6
Continuous
 62
     7
370
    15
100
AcDbCircle
 10
24.6717196756
 20
30.3118202295
 30
0.0
 40
1.000000000000004
100
AcDbArc
 50
150.0
 51
270.0
  0
LINE
  5
F3
330
1F
100
AcDbEntity
  8
0
  6
Continuous
 62
     7
370
    15
100
AcDbLine
 10
23.8056942718
 20
30.8118202295
 30
0.0
 11
26.0556942718
 21
34.7089345465
 31
0.0
  0
CIRCLE
  5
F4
330
1F
100
AcDbEntity
  8
0
  6
Continuous
 62
     7
370
    15
100
AcDbCircle
 10
26.9217196756
 20
34.2089345465
 30
0.0
 40
0.6875
  0
CIRCLE
  5
F5
330
1F
100
AcDbEntity
  8
0
  6
Continuous
 62
     7
370
    15
100
AcDbCircle
 10
24.6717196756
 20
30.3118202295
 30
0.0
 40
0.6875000000000036
  0
LINE
  5
F6
330
1F
100
AcDbEntity
  8
0
  6
Continuous
 62
     7
370
    15
100
AcDbLine
 10
36.3960690212
 20
12.5536726714
 30
0.0
 11
35.7710690379
 21
12.5536726714
 31
0.0
  0
LINE
  5
F7
330
1F
100
AcDbEntity
  8
0
  6
Continuous
 62
     7
370
    15
100
AcDbLine
 10
36.3960690212
 20
12.5536726714
 30
0.0
 11
36.3960690212
 21
12.3551767378
 31
0.0
  0
LINE
  5
F8
330
1F
100
AcDbEntity
  8
0
  6
Continuous
 62
     7
370
    15
100
AcDbLine
 10
36.3960690212
 20
12.3551767378
 30
0.0
 11
37.1460690304
 21
12.3551767378
 31
0.0
  0
LINE
  5
F9
330
1F
100
AcDbEntity
  8
0
  6
Continuous
 62
     7
370
    15
100
AcDbLine
 10
37.1460690304
 20
12.5536726714
 30
0.0
 11
37.1460690304
 21
12.3551767378
 31
0.0
  0
LINE
  5
FA
330
1F
100
AcDbEntity
  8
0
  6
Continuous
 62
     7
370
    15
100
AcDbLine
 10
37.1460690304
 20
12.5536726714
 30
0.0
 11
37.7710690137
 21
12.5536726714
 31
0.0
  0
LINE
  5
FB
330
1F
100
AcDbEntity
  8
0
  6
Continuous
 62
     7
370
    15
100
AcDbLine
 10
37.7710690137
 20
12.5536726714
 30
0.0
 11
37.7710690137
 21
13.4668614422
 31
0.0
  0
ARC
  5
FC
330
1F
100
AcDbEntity
  8
0
  6
Continuous
 62
     7
370
    15
100
AcDbCircle
 10
36.7710690258
 20
14.8403237625
 30
0.0
 40
1.698940487700634
100
AcDbArc
 50
306.057874158
 51
342.7516663444
  0
LINE
  5
FD
330
1F
100
AcDbEntity
  8
0
  6
Continuous
 62
     7
370
    15
100
AcDbLine
 10
38.9050885201
 20
14.0412597733
 30
0.0
 11
38.3936057221
 21
14.3365644519
 31
0.0
  0
LINE
  5
FE
330
1F
100
AcDbEntity
  8
0
  6
Continuous
 62
     7
370
    15
100
AcDbLine
 10
38.5300884788
 20
13.39174067
 30
0.0
 11
38.9050885201
 21
14.0412597733
 31
0.0
  0
LINE
  5
FF
330
1F
100
AcDbEntity
  8
0
  6
Continuous
 62
     7
370
    15
100
AcDbLine
 10
39.1166933689
 20
13.0530642624
 30
0.0
 11
38.5300884788
 21
13.39174067
 31
0.0
  0
ARC
  5
100
330
1F
100
AcDbEntity
  8
0
  6
Continuous
 62
     7
370
    15
100
AcDbCircle
 10
36.7710690258
 20
14.8403237625
 30
0.0
 40
2.948940487700635
100
AcDbArc
 50
289.8223456374
 51
322.6942404667
  0
LINE
  5
101
330
1F
100
AcDbEntity
  8
0
  6
Continuous
 62
     7
370
    15
100
AcDbLine
 10
37.7710690137
 20
11.3036727782
 30
0.0
 11
37.7710690137
 21
12.0661121037
 31
0.0
  0
LINE
  5
102
330
1F
100
AcDbEntity
  8
0
  6
Continuous
 62
     7
370
    15
100
AcDbLine
 10
37.0210690228
 20
11.3036727782
 30
0.0
 11
37.7710690137
 21
11.3036727782
 31
0.0
  0
LINE
  5
103
330
1F
100
AcDbEntity
  8
0
  6
Continuous
 62
     7
370
    15
100
AcDbLine
 10
37.0210690228
 20
9.803672613
 30
0.0
 11
37.0210690228
 21
11.3036727782
 31
0.0
  0
LINE
  5
104
330
1F
100
AcDbEntity
  8
0
  6
Continuous
 62
     7
370
    15
100
AcDbLine
 10
36.5210690288
 20
9.803672613
 30
0.0
 11
37.0210690228
 21
9.803672613
 31
0.0
  0
LINE
  5
105
330
1F
100
AcDbEntity
  8
0
  6
Continuous
 62
     7
370
    15
100
AcDbLine
 10
36.5210690288
 20
9.803672613
 30
0.0
 11
36.5210690288
 21
11.3036727782
 31
0.0
  0
LINE
  5
106
330
1F
100
AcDbEntity
  8
0
  6
Continuous
 62
     7
370
    15
100
AcDbLine
 10
35.7710690379
 20
12.0661121037
 30
0.0
 11
35.7710690379
 21
11.3036727782
 31
0.0
  0
ARC
  5
107
330
1F
100
AcDbEntity
  8
0
  6
Continuous
 62
     7
370
    15
100
AcDbCircle
 10
36.7710690258
 20
14.8403237625
 30
0.0
 40
2.948940487700633
100
AcDbArc
 50
217.3057595333
 51
250.1776543626
  0
LINE
  5
108
330
1F
100
AcDbEntity
  8
0
  6
Continuous
 62
     7
370
    15
100
AcDbLine
 10
34.4254446827
 20
13.0530642624
 30
0.0
 11
35.0120495728
 21
13.39174067
 31
0.0
  0
LINE
  5
109
330
1F
100
AcDbEntity
  8
0
  6
Continuous
 62
     7
370
    15
100
AcDbLine
 10
35.0120495728
 20
13.39174067
 30
0.0
 11
34.6370495315
 21
14.0412597733
 31
0.0
  0
LINE
  5
10A
330
1F
100
AcDbEntity
  8
0
  6
Continuous
 62
     7
370
    15
100
AcDbLine
 10
35.1485323295
 20
14.3365644519
 30
0.0
 11
34.6370495315
 21
14.0412597733
 31
0.0
  0
ARC
  5
10B
330
1F
100
AcDbEntity
  8
0
  6
Continuous
 62
     7
370
    15
100
AcDbCircle
 10
36.7710690258
 20
14.8403237625
 30
0.0
 40
1.698940487700634
100
AcDbArc
 50
197.2483336556
 51
233.942125842
  0
LINE
  5
10C
330
1F
100
AcDbEntity
  8
0
  6
Continuous
 62
     7
370
    15
100
AcDbLine
 10
35.7710690379
 20
12.5536726714
 30
0.0
 11
35.7710690379
 21
13.4668614422
 31
0.0
  0
LINE
  5
10D
330
1F
100
AcDbEntity
  8
0
  6
Continuous
 62
     7
370
    15
100
AcDbLine
 10
35.7710690379
 20
11.3036727782
 30
0.0
 11
36.5210690288
 21
11.3036727782
 31
0.0
  0
LINE
  5
10E
330
1F
100
AcDbEntity
  8
0
  6
Continuous
 62
     7
370
    15
100
AcDbLine
 10
36.5210690288
 20
8.8354268382
 30
0.0
 11
37.0210690228
 21
8.8354268382
 31
0.0
  0
LINE
  5
10F
330
1F
100
AcDbEntity
  8
0
  6
Continuous
 62
     7
370
    15
100
AcDbLine
 10
36.5210690288
 20
8.8354268382
 30
0.0
 11
36.5210690288
 21
9.803672613
 31
0.0
  0
LINE
  5
110
330
1F
100
AcDbEntity
  8
0
  6
Continuous
 62
     7
370
    15
100
AcDbLine
 10
37.0210690228
 20
8.8354268382
 30
0.0
 11
37.0210690228
 21
9.803672613
 31
0.0
  0
LINE
  5
111
330
1F
100
AcDbEntity
  8
0
  6
Continuous
 62
     7
370
    15
100
AcDbLine
 10
37.0314608669
 20
21.5187244183
 30
0.0
 11
37.5398449274
 21
21.2252087957
 31
0.0
  0
LINE
  5
112
330
1F
100
AcDbEntity
  8
0
  6
Continuous
 62
     7
370
    15
100
AcDbLine
 10
37.5398449274
 20
21.2252087957
 30
0.0
 11
37.1648448861
 21
20.5756897656
 31
0.0
  0
LINE
  5
113
330
1F
100
AcDbEntity
  8
0
  6
Continuous
 62
     7
370
    15
100
AcDbLine
 10
37.1648448861
 20
20.5756897656
 30
0.0
 11
37.7514496296
 21
20.2370132114
 31
0.0
  0
ARC
  5
114
330
1F
100
AcDbEntity
  8
0
  6
Continuous
 62
     7
370
    15
100
AcDbCircle
 10
35.1893190408
 20
22.1492727741
 30
0.0
 40
3.197068970166275
100
AcDbArc
 50
288.2272381652
 51
323.2639887859
  0
LINE
  5
115
330
1F
100
AcDbEntity
  8
0
  6
Continuous
 62
     7
370
    15
100
AcDbLine
 10
36.1893190288
 20
19.1126217471
 30
0.0
 11
36.1893190288
 21
18.6126217898
 31
0.0
  0
LINE
  5
116
330
1F
100
AcDbEntity
  8
0
  6
Continuous
 62
     7
370
    15
100
AcDbLine
 10
35.4393190378
 20
17.1126216246
 30
0.0
 11
34.9393190439
 21
17.1126216246
 31
0.0
  0
LINE
  5
117
330
1F
100
AcDbEntity
  8
0
  6
Continuous
 62
     7
370
    15
100
AcDbLine
 10
34.9393190439
 20
18.6126217898
 30
0.0
 11
34.9393190439
 21
17.1126216246
 31
0.0
  0
LINE
  5
118
330
1F
100
AcDbEntity
  8
0
  6
Continuous
 62
     7
370
    15
100
AcDbLine
 10
34.1893190529
 20
18.6126217898
 30
0.0
 11
34.1893190529
 21
19.1126217471
 31
0.0
  0
ARC
  5
119
330
1F
100
AcDbEntity
  8
0
  6
Continuous
 62
     7
370
    15
100
AcDbCircle
 10
35.1893190408
 20
22.1492727741
 30
0.0
 40
3.19706897016628
100
AcDbArc
 50
216.7360112141
 51
251.7727618348
  0
LINE
  5
11A
330
1F
100
AcDbEntity
  8
0
  6
Continuous
 62
     7
370
    15
100
AcDbLine
 10
33.2137931956
 20
20.5756897656
 30
0.0
 11
32.6271884521
 21
20.2370132114
 31
0.0
  0
LINE
  5
11B
330
1F
100
AcDbEntity
  8
0
  6
Continuous
 62
     7
370
    15
100
AcDbLine
 10
32.8387931543
 20
21.2252087957
 30
0.0
 11
33.2137931956
 21
20.5756897656
 31
0.0
  0
LINE
  5
11C
330
1F
100
AcDbEntity
  8
0
  6
Continuous
 62
     7
370
    15
100
AcDbLine
 10
32.8387931543
 20
21.2252087957
 30
0.0
 11
33.3471772148
 21
21.5187244183
 31
0.0
  0
ARC
  5
11D
330
1F
100
AcDbEntity
  8
0
  6
Continuous
 62
     7
370
    15
100
AcDbCircle
 10
35.1893190408
 20
22.1492727741
 30
0.0
 40
1.947068970166282
100
AcDbArc
 50
198.8956081855
 51
239.0965786354
  0
LINE
  5
11E
330
1F
100
AcDbEntity
  8
0
  6
Continuous
 62
     7
370
    15
100
AcDbLine
 10
34.1893190529
 20
20.4786208736
 30
0.0
 11
34.1893190529
 21
19.862621683
 31
0.0
  0
LINE
  5
11F
330
1F
100
AcDbEntity
  8
0
  6
Continuous
 62
     7
370
    15
100
AcDbLine
 10
34.1893190529
 20
19.862621683
 30
0.0
 11
34.8143190362
 21
19.862621683
 31
0.0
  0
LINE
  5
120
330
1F
100
AcDbEntity
  8
0
  6
Continuous
 62
     7
370
    15
100
AcDbLine
 10
34.8143190362
 20
19.4141256241
 30
0.0
 11
34.8143190362
 21
19.862621683
 31
0.0
  0
LINE
  5
121
330
1F
100
AcDbEntity
  8
0
  6
Continuous
 62
     7
370
    15
100
AcDbLine
 10
35.5643190455
 20
19.4141256241
 30
0.0
 11
34.8143190362
 21
19.4141256241
 31
0.0
  0
LINE
  5
122
330
1F
100
AcDbEntity
  8
0
  6
Continuous
 62
     7
370
    15
100
AcDbLine
 10
35.5643190455
 20
19.4141256241
 30
0.0
 11
35.5643190455
 21
19.862621683
 31
0.0
  0
LINE
  5
123
330
1F
100
AcDbEntity
  8
0
  6
Continuous
 62
     7
370
    15
100
AcDbLine
 10
36.1893190288
 20
19.862621683
 30
0.0
 11
35.5643190455
 21
19.862621683
 31
0.0
  0
LINE
  5
124
330
1F
100
AcDbEntity
  8
0
  6
Continuous
 62
     7
370
    15
100
AcDbLine
 10
36.1893190288
 20
20.4786208736
 30
0.0
 11
36.1893190288
 21
19.862621683
 31
0.0
  0
ARC
  5
125
330
1F
100
AcDbEntity
  8
0
  6
Continuous
 62
     7
370
    15
100
AcDbCircle
 10
35.1893190408
 20
22.1492727741
 30
0.0
 40
1.947068970166276
100
AcDbArc
 50
300.9034213646
 51
341.1043918145
  0
LINE
  5
126
330
1F
100
AcDbEntity
  8
0
  6
Continuous
 62
     7
370
    15
100
AcDbLine
 10
35.4393190378
 20
18.6126217898
 30
0.0
 11
35.4393190378
 21
17.1126216246
 31
0.0
  0
LINE
  5
127
330
1F
100
AcDbEntity
  8
0
  6
Continuous
 62
     7
370
    15
100
AcDbLine
 10
34.9393190439
 20
18.6126217898
 30
0.0
 11
34.1893190529
 21
18.6126217898
 31
0.0
  0
LINE
  5
128
330
1F
100
AcDbEntity
  8
0
  6
Continuous
 62
     7
370
    15
100
AcDbLine
 10
36.1893190288
 20
18.6126217898
 30
0.0
 11
35.4393190378
 21
18.6126217898
 31
0.0
  0
LINE
  5
129
330
1F
100
AcDbEntity
  8
0
  6
Continuous
 62
     7
370
    15
100
AcDbLine
 10
35.4393190378
 20
16.1443758499
 30
0.0
 11
34.9393190439
 21
16.1443758499
 31
0.0
  0
LINE
  5
12A
330
1F
100
AcDbEntity
  8
0
  6
Continuous
 62
     7
370
    15
100
AcDbLine
 10
34.9393190439
 20
17.1126216246
 30
0.0
 11
34.9393190439
 21
16.1443758499
 31
0.0
  0
LINE
  5
12B
330
1F
100
AcDbEntity
  8
0
  6
Continuous
 62
     7
370
    15
100
AcDbLine
 10
35.4393190378
 20
17.1126216246
 30
0.0
 11
35.4393190378
 21
16.1443758499
 31
0.0
  0
LINE
  5
12C
330
1F
100
AcDbEntity
  8
0
  6
Continuous
 62
     7
370
    15
100
AcDbLine
 10
29.7664224037
 20
6.2463487401
 30
0.0
 11
30.1844287215
 21
6.2463487401
 31
0.0
  0
LINE
  5
12D
330
1F
100
AcDbEntity
  8
0
  6
Continuous
 62
     7
370
    15
100
AcDbLine
 10
30.0951191399
 20
5.4963486575
 30
0.0
 11
29.7664224037
 21
6.2463487401
 31
0.0
  0
LINE
  5
12E
330
1F
100
AcDbEntity
  8
0
  6
Continuous
 62
     7
370
    15
100
AcDbLine
 10
30.5131254577
 20
5.4963486575
 30
0.0
 11
30.0951191399
 21
5.4963486575
 31
0.0
  0
ARC
  5
12F
330
1F
100
AcDbEntity
  8
0
  6
Continuous
 62
     7
370
    15
100
AcDbCircle
 10
18.0844240199
 20
0.4963484979
 30
0.0
 40
13.39673913043478
100
AcDbArc
 50
0.0
 51
21.9146588077
  0
LINE
  5
130
330
1F
100
AcDbEntity
  8
0
  6
Continuous
 62
     7
370
    15
100
AcDbLine
 10
31.1061629269
 20
0.4963484979
 30
0.0
 11
31.4811629682
 21
0.4963484979
 31
0.0
  0
LINE
  5
131
330
1F
100
AcDbEntity
  8
0
  6
Continuous
 62
     7
370
    15
100
AcDbLine
 10
31.1061629269
 20
1.2463485072
 30
0.0
 11
31.1061629269
 21
0.4963484979
 31
0.0
  0
LINE
  5
132
330
1F
100
AcDbEntity
  8
0
  6
Continuous
 62
     7
370
    15
100
AcDbLine
 10
30.7089044227
 20
1.2463485072
 30
0.0
 11
31.1061629269
 21
1.2463485072
 31
0.0
  0
ARC
  5
133
330
1F
100
AcDbEntity
  8
0
  6
Continuous
 62
     7
370
    15
100
AcDbCircle
 10
18.0844240199
 20
0.4963484979
 30
0.0
 40
12.64673913043478
100
AcDbArc
 50
3.3998537008
 51
45.9556487953
  0
LINE
  5
134
330
1F
100
AcDbEntity
  8
0
  6
Continuous
 62
     7
370
    15
100
AcDbLine
 10
26.8766267202
 20
9.5868482303
 30
0.0
 11
27.4020126242
 21
9.5868482303
 31
0.0
  0
LINE
  5
135
330
1F
100
AcDbEntity
  8
0
  6
Continuous
 62
     7
370
    15
100
AcDbLine
 10
27.4020126242
 20
9.5868482303
 30
0.0
 11
26.6520125416
 21
10.3368483129
 31
0.0
  0
LINE
  5
136
330
1F
100
AcDbEntity
  8
0
  6
Continuous
 62
     7
370
    15
100
AcDbLine
 10
26.6520125416
 20
10.3368483129
 30
0.0
 11
26.0282628406
 21
10.3368483129
 31
0.0
  0
ARC
  5
137
330
1F
100
AcDbEntity
  8
0
  6
Continuous
 62
     7
370
    15
100
AcDbCircle
 10
18.0844240199
 20
0.4963484979
 30
0.0
 40
12.64673913043478
100
AcDbArc
 50
51.0874600897
 51
51.9734391132
  0
SPLINE
  5
138
330
1F
100
AcDbEntity
  8
0
  6
Continuous
 62
     7
370
    15
100
AcDbSpline
210
0.0
220
0.0
230
1.0
 70
     8
 71
     3
 72
    37
 73
    33
 74
     0
 42
0.00000001
 43
0.00000001
 40
0.0
 40
0.0
 40
0.0
 40
0.0
 40
0.0105386452020437
 40
0.0210208587098827
 40
0.0314576590470658
 40
0.0418602090448998
 40
0.0522397820400434
 40
0.0626077263199141
 40
0.0729754283577042
 40
0.083354275423888
 40
0.0937556181846529
 40
0.1041907338982192
 40
0.1146707907973506
 40
0.1252068142021967
 40
0.1876485530829551
 40
0.2501073329374638
 40
0.3125211172411698
 40
0.3749518876463406
 40
0.4373642233355171
 40
0.4997935422474549
 40
0.5622308955220428
 40
0.6246852810350757
 40
0.6871748099807016
 40
0.7496814734413324
 40
0.8121852338716585
 40
0.8747061407982863
 40
0.8957325413952698
 40
0.9165805564828109
 40
0.9373402419402271
 40
0.9581028030458952
 40
0.9789594073528574
 40
0.9999999999999999
 40
0.9999999999999999
 40
0.9999999999999999
 40
0.9999999999999999
 10
26.33717316708247
 20
11.04929836237497
 30
0.0
 10
26.33389307951534
 20
11.05181478678574
 30
0.0
 10
26.32735046839381
 20
11.05683416081141
 30
0.0
 10
26.31725951964027
 20
11.06394140312877
 30
0.0
 10
26.3070036162526
 20
11.07070925610849
 30
0.0
 10
26.29656088805854
 20
11.07710969108635
 30
0.0
 10
26.28593719692812
 20
11.08315013288286
 30
0.0
 10
26.27513102311412
 20
11.0888285654677
 30
0.0
 10
26.26414281457203
 20
11.09414549664538
 30
0.0
 10
26.2529725220962
 20
11.09910077113866
 30
0.0
 10
26.24162013769708
 20
11.10369439925292
 30
0.0
 10
26.2300859971446
 20
11.10792642499629
 30
0.0
 10
26.21836901712339
 20
11.11179662457097
 30
0.0
 10
26.18697087446368
 20
11.12105919759604
 30
0.0
 10
26.13426655750598
 20
11.1304128318657
 30
0.0
 10
26.06036538322068
 20
11.12845581911763
 30
0.0
 10
25.98815094965547
 20
11.11253661364248
 30
0.0
 10
25.92061514753907
 20
11.08247548559945
 30
0.0
 10
25.85999077318032
 20
11.04016115050872
 30
0.0
 10
25.80907357860487
 20
10.98655478095426
 30
0.0
 10
25.76922711872051
 20
10.9242575760046
 30
0.0
 10
25.74266970454952
 20
10.85521441600781
 30
0.0
 10
25.7296780624469
 20
10.78236206595809
 30
0.0
 10
25.73157242419698
 20
10.70836020264517
 30
0.0
 10
25.74745644495768
 20
10.63606648584389
 30
0.0
 10
25.77092097399036
 20
10.58334120842671
 30
0.0
 10
25.79218511312756
 20
10.54832720056778
 30
0.0
 10
25.806291710545
 20
10.52818869184793
 30
0.0
 10
25.8216301343025
 20
10.50910490936531
 30
0.0
 10
25.83822322824395
 20
10.49110304938486
 30
0.0
 10
25.8559829371266
 20
10.47407378757841
 30
0.0
 10
25.86874438781007
 20
10.46370937712573
 30
0.0
 10
25.87515313361977
 20
10.45850441464098
 30
0.0
  0
ARC
  5
139
330
1F
100
AcDbEntity
  8
0
  6
Continuous
 62
     7
370
    15
100
AcDbCircle
 10
18.0844240199
 20
0.4963484979
 30
0.0
 40
13.39673913043478
100
AcDbArc
 50
25.4173670058
 51
51.9734391128
  0
LINE
  5
13A
330
1F
100
AcDbEntity
  8
0
  6
Continuous
 62
     7
370
    15
100
AcDbLine
 10
28.69401399
 20
17.4793233981
 30
0.0
 11
28.69401399
 21
18.2078223957
 31
0.0
  0
ARC
  5
13B
330
1F
100
AcDbEntity
  8
0
  6
Continuous
 62
     7
370
    15
100
AcDbCircle
 10
28.5489649712
 20
17.729323674
 30
0.0
 40
0.5000000000000022
100
AcDbArc
 50
11.309932474
 51
73.1361738583
  0
LINE
  5
13C
330
1F
100
AcDbEntity
  8
0
  6
Continuous
 62
     7
370
    15
100
AcDbLine
 10
29.3588668429
 20
16.2293236515
 30
0.0
 11
29.0392552684
 21
17.8273816706
 31
0.0
  0
LINE
  5
13D
330
1F
100
AcDbEntity
  8
0
  6
Continuous
 62
     7
370
    15
100
AcDbLine
 10
29.1940139473
 20
16.2293236515
 30
0.0
 11
29.3588668429
 21
16.2293236515
 31
0.0
  0
LINE
  5
13E
330
1F
100
AcDbEntity
  8
0
  6
Continuous
 62
     7
370
    15
100
AcDbLine
 10
29.1940139473
 20
15.4793235689
 30
0.0
 11
29.1940139473
 21
16.2293236515
 31
0.0
  0
LINE
  5
13F
330
1F
100
AcDbEntity
  8
0
  6
Continuous
 62
     7
370
    15
100
AcDbLine
 10
30.2455179069
 20
15.4793235689
 30
0.0
 11
29.1940139473
 21
15.4793235689
 31
0.0
  0
LINE
  5
140
330
1F
100
AcDbEntity
  8
0
  6
Continuous
 62
     7
370
    15
100
AcDbLine
 10
30.2455179069
 20
15.4793235689
 30
0.0
 11
30.2455179069
 21
14.9793239049
 31
0.0
  0
LINE
  5
141
330
1F
100
AcDbEntity
  8
0
  6
Continuous
 62
     7
370
    15
100
AcDbLine
 10
30.2455179069
 20
14.9793239049
 30
0.0
 11
29.4440140726
 21
14.9793239049
 31
0.0
  0
LINE
  5
142
330
1F
100
AcDbEntity
  8
0
  6
Continuous
 62
     7
370
    15
100
AcDbLine
 10
29.4440140726
 20
14.9793239049
 30
0.0
 11
29.4440140726
 21
14.2293238223
 31
0.0
  0
LINE
  5
143
330
1F
100
AcDbEntity
  8
0
  6
Continuous
 62
     7
370
    15
100
AcDbLine
 10
29.4440140726
 20
14.2293238223
 30
0.0
 11
29.7588668087
 21
14.2293238223
 31
0.0
  0
LINE
  5
144
330
1F
100
AcDbEntity
  8
0
  6
Continuous
 62
     7
370
    15
100
AcDbLine
 10
29.9197829231
 20
13.4247432502
 30
0.0
 11
29.7588668087
 21
14.2293238223
 31
0.0
  0
ARC
  5
145
330
1F
100
AcDbEntity
  8
0
  6
Continuous
 62
     7
370
    15
100
AcDbCircle
 10
30.4100733556
 20
13.5228012655
 30
0.0
 40
0.5000000000000029
100
AcDbArc
 50
191.309932474
 51
234.3577273041
  0
ARC
  5
146
330
1F
100
AcDbEntity
  8
0
  6
Continuous
 62
     7
370
    15
100
AcDbCircle
 10
22.3121277921
 20
2.229323674
 30
0.0
 40
13.39673913043478
100
AcDbArc
 50
25.4173670058
 51
54.3577273041
  0
LINE
  5
147
330
1F
100
AcDbEntity
  8
0
  6
Continuous
 62
     7
370
    15
100
AcDbLine
 10
33.994126176
 20
7.9793239162
 30
0.0
 11
34.4121324938
 21
7.9793239162
 31
0.0
  0
LINE
  5
148
330
1F
100
AcDbEntity
  8
0
  6
Continuous
 62
     7
370
    15
100
AcDbLine
 10
34.3228229122
 20
7.2293238336
 30
0.0
 11
33.994126176
 21
7.9793239162
 31
0.0
  0
LINE
  5
149
330
1F
100
AcDbEntity
  8
0
  6
Continuous
 62
     7
370
    15
100
AcDbLine
 10
34.74082923
 20
7.2293238336
 30
0.0
 11
34.3228229122
 21
7.2293238336
 31
0.0
  0
ARC
  5
14A
330
1F
100
AcDbEntity
  8
0
  6
Continuous
 62
     7
370
    15
100
AcDbCircle
 10
22.3121277921
 20
2.229323674
 30
0.0
 40
13.39673913043478
100
AcDbArc
 50
0.0
 51
21.9146588077
  0
LINE
  5
14B
330
1F
100
AcDbEntity
  8
0
  6
Continuous
 62
     7
370
    15
100
AcDbLine
 10
35.3338666992
 20
2.9793236833
 30
0.0
 11
35.3338666992
 21
2.229323674
 31
0.0
  0
LINE
  5
14C
330
1F
100
AcDbEntity
  8
0
  6
Continuous
 62
     7
370
    15
100
AcDbLine
 10
34.936608195
 20
2.9793236833
 30
0.0
 11
35.3338666992
 21
2.9793236833
 31
0.0
  0
ARC
  5
14D
330
1F
100
AcDbEntity
  8
0
  6
Continuous
 62
     7
370
    15
100
AcDbCircle
 10
22.3121277921
 20
2.229323674
 30
0.0
 40
12.64673913043478
100
AcDbArc
 50
3.3998537008
 51
45.9556487953
  0
LINE
  5
14E
330
1F
100
AcDbEntity
  8
0
  6
Continuous
 62
     7
370
    15
100
AcDbLine
 10
31.1043304925
 20
11.3198234065
 30
0.0
 11
31.6297163965
 21
11.3198234065
 31
0.0
  0
LINE
  5
14F
330
1F
100
AcDbEntity
  8
0
  6
Continuous
 62
     7
370
    15
100
AcDbLine
 10
31.6297163965
 20
11.3198234065
 30
0.0
 11
30.8797163139
 21
12.0698234891
 31
0.0
  0
LINE
  5
150
330
1F
100
AcDbEntity
  8
0
  6
Continuous
 62
     7
370
    15
100
AcDbLine
 10
30.2559666128
 20
12.0698234891
 30
0.0
 11
30.8797163139
 21
12.0698234891
 31
0.0
  0
ARC
  5
151
330
1F
100
AcDbEntity
  8
0
  6
Continuous
 62
     7
370
    15
100
AcDbCircle
 10
22.3121277921
 20
2.229323674
 30
0.0
 40
12.64673913043478
100
AcDbArc
 50
51.0874600897
 51
55.6317907171
  0
ARC
  5
152
330
1F
100
AcDbEntity
  8
0
  6
Continuous
 62
     7
370
    15
100
AcDbCircle
 10
29.7335816672
 20
13.0809950727
 30
0.0
 40
0.5000000000000026
100
AcDbArc
 50
191.309932474
 51
235.6317907171
  0
LINE
  5
153
330
1F
100
AcDbEntity
  8
0
  6
Continuous
 62
     7
370
    15
100
AcDbLine
 10
29.2432913247
 20
12.9829367274
 30
0.0
 11
28.3440140199
 21
17.4793233981
 31
0.0
  0
LINE
  5
154
330
1F
100
AcDbEntity
  8
0
  6
Continuous
 62
     7
370
    15
100
AcDbLine
 10
28.3440140199
 20
17.4793233981
 30
0.0
 11
28.69401399
 21
17.4793233981
 31
0.0
  0
LINE
  5
155
330
1F
100
AcDbEntity
  8
0
  6
Continuous
 62
     7
370
    15
100
AcDbLine
 10
35.3338666992
 20
2.229323674
 30
0.0
 11
35.7088667405
 21
2.229323674
 31
0.0
  0
ARC
  5
156
330
1F
100
AcDbEntity
  8
0
  6
Continuous
 62
     7
370
    15
100
AcDbCircle
 10
31.7455180385
 20
15.229323674
 30
0.0
 40
0.9999999999999984
100
AcDbArc
 50
345.5224878141
 51
14.4775121859
  0
LINE
  5
157
330
1F
100
AcDbEntity
  8
0
  6
Continuous
 62
     7
370
    15
100
AcDbLine
 10
32.7137638468
 20
15.4793235689
 30
0.0
 11
30.2455179069
 21
15.4793235689
 31
0.0
  0
LINE
  5
158
330
1F
100
AcDbEntity
  8
0
  6
Continuous
 62
     7
370
    15
100
AcDbLine
 10
30.2455179069
 20
14.9793239049
 30
0.0
 11
32.7137638468
 21
14.9793239049
 31
0.0
  0
LINE
  5
159
330
1F
100
AcDbEntity
  8
0
  6
Continuous
 62
     7
370
    15
100
AcDbLine
 10
58.7521912186
 20
2.9629446979
 30
0.0
 11
46.7521912186
 21
2.9629446979
 31
0.0
  0
LINE
  5
15A
330
1F
100
AcDbEntity
  8
0
  6
Continuous
 62
     7
370
    15
100
AcDbLine
 10
65.7521912186
 20
3.7129446979
 30
0.0
 11
58.3191785167
 21
3.7129446979
 31
0.0
  0
LINE
  5
15B
330
1F
100
AcDbEntity
  8
0
  6
Continuous
 62
     7
370
    15
100
AcDbLine
 10
65.7521912186
 20
1.7129446979
 30
0.0
 11
58.3191785167
 21
1.7129446979
 31
0.0
  0
ARC
  5
15C
330
1F
100
AcDbEntity
  8
0
  6
Continuous
 62
     7
370
    15
100
AcDbCircle
 10
39.7521912186
 20
2.7129446979
 30
0.0
 40
1.0
100
AcDbArc
 50
90.0
 51
270.0
  0
LINE
  5
15D
330
1F
100
AcDbEntity
  8
0
  6
Continuous
 62
     7
370
    15
100
AcDbLine
 10
47.1852039205
 20
3.7129446979
 30
0.0
 11
39.7521912186
 21
3.7129446979
 31
0.0
  0
CIRCLE
  5
15E
330
1F
100
AcDbEntity
  8
0
  6
Continuous
 62
     7
370
    15
100
AcDbCircle
 10
65.7521912186
 20
2.7129446979
 30
0.0
 40
0.6875
  0
CIRCLE
  5
15F
330
1F
100
AcDbEntity
  8
0
  6
Continuous
 62
     7
370
    15
100
AcDbCircle
 10
39.7521912186
 20
2.7129446979
 30
0.0
 40
0.6874999999999996
  0
ARC
  5
160
330
1F
100
AcDbEntity
  8
0
  6
Continuous
 62
     7
370
    15
100
AcDbCircle
 10
65.7521912186
 20
2.7129446979
 30
0.0
 40
1.000000000000009
100
AcDbArc
 50
270.0
 51
90.0
  0
LINE
  5
161
330
1F
100
AcDbEntity
  8
0
  6
Continuous
 62
     7
370
    15
100
AcDbLine
 10
46.7521912186
 20
2.9629446979
 30
0.0
 11
47.1852039205
 21
3.7129446979
 31
0.0
  0
LINE
  5
162
330
1F
100
AcDbEntity
  8
0
  6
Continuous
 62
     7
370
    15
100
AcDbLine
 10
58.3191785167
 20
3.7129446979
 30
0.0
 11
58.7521912186
 21
2.9629446979
 31
0.0
  0
LINE
  5
163
330
1F
100
AcDbEntity
  8
0
  6
Continuous
 62
     7
370
    15
100
AcDbLine
 10
47.1852039205
 20
1.7129446979
 30
0.0
 11
39.7521912186
 21
1.7129446979
 31
0.0
  0
LINE
  5
164
330
1F
100
AcDbEntity
  8
0
  6
Continuous
 62
     7
370
    15
100
AcDbLine
 10
58.7521912186
 20
2.4629446979
 30
0.0
 11
46.7521912186
 21
2.4629446979
 31
0.0
  0
LINE
  5
165
330
1F
100
AcDbEntity
  8
0
  6
Continuous
 62
     7
370
    15
100
AcDbLine
 10
46.7521912186
 20
2.4629446979
 30
0.0
 11
47.1852039205
 21
1.7129446979
 31
0.0
  0
LINE
  5
166
330
1F
100
AcDbEntity
  8
0
  6
Continuous
 62
     7
370
    15
100
AcDbLine
 10
58.3191785167
 20
1.7129446979
 30
0.0
 11
58.7521912186
 21
2.4629446979
 31
0.0
  0
LINE
  5
167
330
1F
100
AcDbEntity
  8
0
  6
Continuous
 62
     7
370
    15
100
AcDbLine
 10
58.6550693755
 20
6.1905589382
 30
0.0
 11
58.6550693755
 21
5.4405589382
 31
0.0
  0
LINE
  5
168
330
1F
100
AcDbEntity
  8
0
  6
Continuous
 62
     7
370
    15
100
AcDbLine
 10
58.6550693755
 20
5.4405589382
 30
0.0
 11
47.5210947792
 21
5.4405589382
 31
0.0
  0
LINE
  5
169
330
1F
100
AcDbEntity
  8
0
  6
Continuous
 62
     7
370
    15
100
AcDbLine
 10
47.5210947792
 20
5.4405589382
 30
0.0
 11
47.5210947792
 21
6.1905589382
 31
0.0
  0
LINE
  5
16A
330
1F
100
AcDbEntity
  8
0
  6
Continuous
 62
     7
370
    15
100
AcDbLine
 10
40.0880820773
 20
6.6905589382
 30
0.0
 11
40.0880820773
 21
6.1905589382
 31
0.0
  0
LINE
  5
16B
330
1F
100
AcDbEntity
  8
0
  6
Continuous
 62
     7
370
    15
100
AcDbLine
 10
47.5210947792
 20
6.6905589382
 30
0.0
 11
40.0880820773
 21
6.6905589382
 31
0.0
  0
LINE
  5
16C
330
1F
100
AcDbEntity
  8
0
  6
Continuous
 62
     7
370
    15
100
AcDbLine
 10
47.5210947792
 20
6.6905589382
 30
0.0
 11
47.5210947792
 21
7.4405589382
 31
0.0
  0
LINE
  5
16D
330
1F
100
AcDbEntity
  8
0
  6
Continuous
 62
     7
370
    15
100
AcDbLine
 10
58.6550693755
 20
7.4405589382
 30
0.0
 11
47.5210947792
 21
7.4405589382
 31
0.0
  0
LINE
  5
16E
330
1F
100
AcDbEntity
  8
0
  6
Continuous
 62
     7
370
    15
100
AcDbLine
 10
58.6550693755
 20
7.4405589382
 30
0.0
 11
58.6550693755
 21
6.6905589382
 31
0.0
  0
LINE
  5
16F
330
1F
100
AcDbEntity
  8
0
  6
Continuous
 62
     7
370
    15
100
AcDbLine
 10
66.0880820773
 20
6.6905589382
 30
0.0
 11
58.6550693755
 21
6.6905589382
 31
0.0
  0
LINE
  5
170
330
1F
100
AcDbEntity
  8
0
  6
Continuous
 62
     7
370
    15
100
AcDbLine
 10
66.0880820773
 20
6.6905589382
 30
0.0
 11
66.0880820773
 21
6.1905589382
 31
0.0
  0
LINE
  5
171
330
1F
100
AcDbEntity
  8
0
  6
Continuous
 62
     7
370
    15
100
AcDbLine
 10
58.6550693755
 20
6.1905589382
 30
0.0
 11
66.0880820773
 21
6.1905589382
 31
0.0
  0
LINE
  5
172
330
1F
100
AcDbEntity
  8
0
  6
Continuous
 62
     7
370
    15
100
AcDbLine
 10
40.0880820773
 20
6.1905589382
 30
0.0
 11
47.5210947792
 21
6.1905589382
 31
0.0
  0
LINE
  5
173
330
1F
100
AcDbEntity
  8
0
  6
Continuous
 62
     7
370
    15
100
AcDbLine
 10
47.0880820773
 20
5.4405589382
 30
0.0
 11
47.5210947792
 21
5.4405589382
 31
0.0
  0
LINE
  5
174
330
1F
100
AcDbEntity
  8
0
  6
Continuous
 62
     7
370
    15
100
AcDbLine
 10
47.0880820773
 20
6.1905589382
 30
0.0
 11
47.0880820773
 21
5.4405589382
 31
0.0
  0
LINE
  5
175
330
1F
100
AcDbEntity
  8
0
  6
Continuous
 62
     7
370
    15
100
AcDbLine
 10
59.0880820773
 20
5.4405589382
 30
0.0
 11
59.0880820773
 21
6.1905589382
 31
0.0
  0
LINE
  5
176
330
1F
100
AcDbEntity
  8
0
  6
Continuous
 62
     7
370
    15
100
AcDbLine
 10
58.6550693755
 20
5.4405589382
 30
0.0
 11
59.0880820773
 21
5.4405589382
 31
0.0
  0
LINE
  5
177
330
1F
100
AcDbEntity
  8
0
  6
Continuous
 62
     7
370
    15
100
AcDbLine
 10
58.6550693755
 20
7.4405589382
 30
0.0
 11
59.0880820773
 21
7.4405589382
 31
0.0
  0
LINE
  5
178
330
1F
100
AcDbEntity
  8
0
  6
Continuous
 62
     7
370
    15
100
AcDbLine
 10
59.0880820773
 20
6.6905589382
 30
0.0
 11
59.0880820773
 21
7.4405589382
 31
0.0
  0
LINE
  5
179
330
1F
100
AcDbEntity
  8
0
  6
Continuous
 62
     7
370
    15
100
AcDbLine
 10
47.0880820773
 20
7.4405589382
 30
0.0
 11
47.0880820773
 21
6.6905589382
 31
0.0
  0
LINE
  5
17A
330
1F
100
AcDbEntity
  8
0
  6
Continuous
 62
     7
370
    15
100
AcDbLine
 10
47.0880820773
 20
7.4405589382
 30
0.0
 11
47.5210947792
 21
7.4405589382
 31
0.0
  0
LINE
  5
17B
330
1F
100
AcDbEntity
  8
0
  6
Continuous
 62
     7
370
    15
100
AcDbLine
 10
67.0563279139
 20
6.6905589382
 30
0.0
 11
67.0563279139
 21
6.1905589382
 31
0.0
  0
LINE
  5
17C
330
1F
100
AcDbEntity
  8
0
  6
Continuous
 62
     7
370
    15
100
AcDbLine
 10
66.0880820773
 20
6.1905589382
 30
0.0
 11
67.0563279139
 21
6.1905589382
 31
0.0
  0
LINE
  5
17D
330
1F
100
AcDbEntity
  8
0
  6
Continuous
 62
     7
370
    15
100
AcDbLine
 10
67.0563279139
 20
6.6905589382
 30
0.0
 11
66.0880820773
 21
6.6905589382
 31
0.0
  0
LINE
  5
17E
330
1F
100
AcDbEntity
  8
0
  6
Continuous
 62
     7
370
    15
100
AcDbLine
 10
39.1198362408
 20
6.1905589382
 30
0.0
 11
39.1198362408
 21
6.6905589382
 31
0.0
  0
LINE
  5
17F
330
1F
100
AcDbEntity
  8
0
  6
Continuous
 62
     7
370
    15
100
AcDbLine
 10
40.0880820773
 20
6.6905589382
 30
0.0
 11
39.1198362408
 21
6.6905589382
 31
0.0
  0
LINE
  5
180
330
1F
100
AcDbEntity
  8
0
  6
Continuous
 62
     7
370
    15
100
AcDbLine
 10
39.1198362408
 20
6.1905589382
 30
0.0
 11
40.0880820773
 21
6.1905589382
 31
0.0
  0
LINE
  5
181
330
1F
100
AcDbEntity
  8
0
  6
Continuous
 62
     7
370
    15
100
AcDbLine
 10
38.0680402535
 20
33.5666392144
 30
0.0
 11
38.3860310333
 21
33.7502312002
 31
0.0
  0
LINE
  5
182
330
1F
100
AcDbEntity
  8
0
  6
Continuous
 62
     7
370
    15
100
AcDbLine
 10
38.3860310333
 20
33.7502312002
 30
0.0
 11
38.011030992
 21
34.3997502302
 31
0.0
  0
LINE
  5
183
330
1F
100
AcDbEntity
  8
0
  6
Continuous
 62
     7
370
    15
100
AcDbLine
 10
38.011030992
 20
34.3997502302
 30
0.0
 11
37.6930402122
 21
34.2161582444
 31
0.0
  0
ARC
  5
184
330
1F
100
AcDbEntity
  8
0
  6
Continuous
 62
     7
370
    15
100
AcDbCircle
 10
45.6680002981
 20
38.3874907502
 30
0.0
 40
9.000000000000005
100
AcDbArc
 50
182.3880154633
 51
207.6119845367
  0
LINE
  5
185
330
1F
100
AcDbEntity
  8
0
  6
Continuous
 62
     7
370
    15
100
AcDbLine
 10
36.6758159632
 20
38.0124907455
 30
0.0
 11
37.0430005215
 21
38.0124907455
 31
0.0
  0
LINE
  5
186
330
1F
100
AcDbEntity
  8
0
  6
Continuous
 62
     7
370
    15
100
AcDbLine
 10
37.0430005215
 20
38.0124907455
 30
0.0
 11
37.0430005215
 21
38.7624907548
 31
0.0
  0
LINE
  5
187
330
1F
100
AcDbEntity
  8
0
  6
Continuous
 62
     7
370
    15
100
AcDbLine
 10
37.0430005215
 20
38.7624907548
 30
0.0
 11
36.6758159632
 21
38.7624907548
 31
0.0
  0
ARC
  5
188
330
1F
100
AcDbEntity
  8
0
  6
Continuous
 62
     7
370
    15
100
AcDbCircle
 10
45.6680002981
 20
38.3874907502
 30
0.0
 40
9.000000000000009
100
AcDbArc
 50
152.3880154633
 51
177.6119845367
  0
LINE
  5
189
330
1F
100
AcDbEntity
  8
0
  6
Continuous
 62
     7
370
    15
100
AcDbLine
 10
37.6930402122
 20
42.5588232559
 30
0.0
 11
38.011030992
 21
42.3752312701
 31
0.0
  0
LINE
  5
18A
330
1F
100
AcDbEntity
  8
0
  6
Continuous
 62
     7
370
    15
100
AcDbLine
 10
38.011030992
 20
42.3752312701
 30
0.0
 11
38.3860310333
 21
43.0247503001
 31
0.0
  0
LINE
  5
18B
330
1F
100
AcDbEntity
  8
0
  6
Continuous
 62
     7
370
    15
100
AcDbLine
 10
38.3860310333
 20
43.0247503001
 30
0.0
 11
38.0680402535
 21
43.2083422859
 31
0.0
  0
ARC
  5
18C
330
1F
100
AcDbEntity
  8
0
  6
Continuous
 62
     7
370
    15
100
AcDbCircle
 10
45.6680002981
 20
38.3874907502
 30
0.0
 40
9.000000000000005
100
AcDbArc
 50
122.3880154633
 51
147.6119845367
  0
LINE
  5
18D
330
1F
100
AcDbEntity
  8
0
  6
Continuous
 62
     7
370
    15
100
AcDbLine
 10
40.8471487623
 20
45.9874507948
 30
0.0
 11
41.0307407481
 21
45.6694600149
 31
0.0
  0
LINE
  5
18E
330
1F
100
AcDbEntity
  8
0
  6
Continuous
 62
     7
370
    15
100
AcDbLine
 10
41.0307407481
 20
45.6694600149
 30
0.0
 11
41.6802597781
 21
46.0444600562
 31
0.0
  0
LINE
  5
18F
330
1F
100
AcDbEntity
  8
0
  6
Continuous
 62
     7
370
    15
100
AcDbLine
 10
41.6802597781
 20
46.0444600562
 30
0.0
 11
41.4966677923
 21
46.3624508361
 31
0.0
  0
ARC
  5
190
330
1F
100
AcDbEntity
  8
0
  6
Continuous
 62
     7
370
    15
100
AcDbCircle
 10
45.6680002981
 20
38.3874907502
 30
0.0
 40
9.000000000000007
100
AcDbArc
 50
92.3880154633
 51
117.6119845367
  0
LINE
  5
191
330
1F
100
AcDbEntity
  8
0
  6
Continuous
 62
     7
370
    15
100
AcDbLine
 10
45.2930002935
 20
47.379675085
 30
0.0
 11
45.2930002935
 21
47.0124905268
 31
0.0
  0
LINE
  5
192
330
1F
100
AcDbEntity
  8
0
  6
Continuous
 62
     7
370
    15
100
AcDbLine
 10
45.2930002935
 20
47.0124905268
 30
0.0
 11
46.0430003027
 21
47.0124905268
 31
0.0
  0
LINE
  5
193
330
1F
100
AcDbEntity
  8
0
  6
Continuous
 62
     7
370
    15
100
AcDbLine
 10
46.0430003027
 20
47.0124905268
 30
0.0
 11
46.0430003027
 21
47.379675085
 31
0.0
  0
ARC
  5
194
330
1F
100
AcDbEntity
  8
0
  6
Continuous
 62
     7
370
    15
100
AcDbCircle
 10
45.6680002981
 20
38.3874907502
 30
0.0
 40
9.000000000000004
100
AcDbArc
 50
62.3880154633
 51
87.6119845367
  0
LINE
  5
195
330
1F
100
AcDbEntity
  8
0
  6
Continuous
 62
     7
370
    15
100
AcDbLine
 10
49.8393328038
 20
46.3624508361
 30
0.0
 11
49.655740818
 21
46.0444600562
 31
0.0
  0
LINE
  5
196
330
1F
100
AcDbEntity
  8
0
  6
Continuous
 62
     7
370
    15
100
AcDbLine
 10
49.655740818
 20
46.0444600562
 30
0.0
 11
50.3052598481
 21
45.6694600149
 31
0.0
  0
LINE
  5
197
330
1F
100
AcDbEntity
  8
0
  6
Continuous
 62
     7
370
    15
100
AcDbLine
 10
50.3052598481
 20
45.6694600149
 30
0.0
 11
50.4888518339
 21
45.9874507948
 31
0.0
  0
ARC
  5
198
330
1F
100
AcDbEntity
  8
0
  6
Continuous
 62
     7
370
    15
100
AcDbCircle
 10
45.6680002981
 20
38.3874907502
 30
0.0
 40
9.000000000000005
100
AcDbArc
 50
32.3880154633
 51
57.6119845367
  0
LINE
  5
199
330
1F
100
AcDbEntity
  8
0
  6
Continuous
 62
     7
370
    15
100
AcDbLine
 10
53.2679603427
 20
43.2083422859
 30
0.0
 11
52.9499695628
 21
43.0247503001
 31
0.0
  0
LINE
  5
19A
330
1F
100
AcDbEntity
  8
0
  6
Continuous
 62
     7
370
    15
100
AcDbLine
 10
52.9499695628
 20
43.0247503001
 30
0.0
 11
53.3249696041
 21
42.3752312701
 31
0.0
  0
LINE
  5
19B
330
1F
100
AcDbEntity
  8
0
  6
Continuous
 62
     7
370
    15
100
AcDbLine
 10
53.3249696041
 20
42.3752312701
 30
0.0
 11
53.642960384
 21
42.5588232559
 31
0.0
  0
ARC
  5
19C
330
1F
100
AcDbEntity
  8
0
  6
Continuous
 62
     7
370
    15
100
AcDbCircle
 10
45.6680002981
 20
38.3874907502
 30
0.0
 40
9.000000000000007
100
AcDbArc
 50
2.3880154633
 51
27.6119845367
  0
LINE
  5
19D
330
1F
100
AcDbEntity
  8
0
  6
Continuous
 62
     7
370
    15
100
AcDbLine
 10
54.6601846329
 20
38.7624907548
 30
0.0
 11
54.2930000747
 21
38.7624907548
 31
0.0
  0
LINE
  5
19E
330
1F
100
AcDbEntity
  8
0
  6
Continuous
 62
     7
370
    15
100
AcDbLine
 10
54.2930000747
 20
38.7624907548
 30
0.0
 11
54.2930000747
 21
38.0124907455
 31
0.0
  0
LINE
  5
19F
330
1F
100
AcDbEntity
  8
0
  6
Continuous
 62
     7
370
    15
100
AcDbLine
 10
54.2930000747
 20
38.0124907455
 30
0.0
 11
54.6601846329
 21
38.0124907455
 31
0.0
  0
ARC
  5
1A0
330
1F
100
AcDbEntity
  8
0
  6
Continuous
 62
     7
370
    15
100
AcDbCircle
 10
45.6680002981
 20
38.3874907502
 30
0.0
 40
9.000000000000005
100
AcDbArc
 50
332.3880154633
 51
357.6119845367
  0
LINE
  5
1A1
330
1F
100
AcDbEntity
  8
0
  6
Continuous
 62
     7
370
    15
100
AcDbLine
 10
53.642960384
 20
34.2161582444
 30
0.0
 11
53.3249696041
 21
34.3997502302
 31
0.0
  0
LINE
  5
1A2
330
1F
100
AcDbEntity
  8
0
  6
Continuous
 62
     7
370
    15
100
AcDbLine
 10
53.3249696041
 20
34.3997502302
 30
0.0
 11
52.9499695628
 21
33.7502312002
 31
0.0
  0
LINE
  5
1A3
330
1F
100
AcDbEntity
  8
0
  6
Continuous
 62
     7
370
    15
100
AcDbLine
 10
52.9499695628
 20
33.7502312002
 30
0.0
 11
53.2679603427
 21
33.5666392144
 31
0.0
  0
ARC
  5
1A4
330
1F
100
AcDbEntity
  8
0
  6
Continuous
 62
     7
370
    15
100
AcDbCircle
 10
45.6680002981
 20
38.3874907502
 30
0.0
 40
9.000000000000002
100
AcDbArc
 50
302.3880154633
 51
327.6119845367
  0
LINE
  5
1A5
330
1F
100
AcDbEntity
  8
0
  6
Continuous
 62
     7
370
    15
100
AcDbLine
 10
50.4888518339
 20
30.7875307055
 30
0.0
 11
50.3052598481
 21
31.1055214854
 31
0.0
  0
LINE
  5
1A6
330
1F
100
AcDbEntity
  8
0
  6
Continuous
 62
     7
370
    15
100
AcDbLine
 10
50.3052598481
 20
31.1055214854
 30
0.0
 11
49.655740818
 21
30.7305214441
 31
0.0
  0
LINE
  5
1A7
330
1F
100
AcDbEntity
  8
0
  6
Continuous
 62
     7
370
    15
100
AcDbLine
 10
49.655740818
 20
30.7305214441
 30
0.0
 11
49.8393328038
 21
30.4125306642
 31
0.0
  0
ARC
  5
1A8
330
1F
100
AcDbEntity
  8
0
  6
Continuous
 62
     7
370
    15
100
AcDbCircle
 10
45.6680002981
 20
38.3874907502
 30
0.0
 40
9.000000000000002
100
AcDbArc
 50
272.3880154633
 51
297.6119845367
  0
LINE
  5
1A9
330
1F
100
AcDbEntity
  8
0
  6
Continuous
 62
     7
370
    15
100
AcDbLine
 10
46.0430003027
 20
29.3953064153
 30
0.0
 11
46.0430003027
 21
29.7624909736
 31
0.0
  0
LINE
  5
1AA
330
1F
100
AcDbEntity
  8
0
  6
Continuous
 62
     7
370
    15
100
AcDbLine
 10
46.0430003027
 20
29.7624909736
 30
0.0
 11
45.2930002935
 21
29.7624909736
 31
0.0
  0
LINE
  5
1AB
330
1F
100
AcDbEntity
  8
0
  6
Continuous
 62
     7
370
    15
100
AcDbLine
 10
45.2930002935
 20
29.7624909736
 30
0.0
 11
45.2930002935
 21
29.3953064153
 31
0.0
  0
ARC
  5
1AC
330
1F
100
AcDbEntity
  8
0
  6
Continuous
 62
     7
370
    15
100
AcDbCircle
 10
45.6680002981
 20
38.3874907502
 30
0.0
 40
9.000000000000002
100
AcDbArc
 50
242.3880154633
 51
267.6119845367
  0
LINE
  5
1AD
330
1F
100
AcDbEntity
  8
0
  6
Continuous
 62
     7
370
    15
100
AcDbLine
 10
41.4966677923
 20
30.4125306642
 30
0.0
 11
41.6802597781
 21
30.7305214441
 31
0.0
  0
LINE
  5
1AE
330
1F
100
AcDbEntity
  8
0
  6
Continuous
 62
     7
370
    15
100
AcDbLine
 10
41.6802597781
 20
30.7305214441
 30
0.0
 11
41.0307407481
 21
31.1055214854
 31
0.0
  0
LINE
  5
1AF
330
1F
100
AcDbEntity
  8
0
  6
Continuous
 62
     7
370
    15
100
AcDbLine
 10
41.0307407481
 20
31.1055214854
 30
0.0
 11
40.8471487623
 21
30.7875307055
 31
0.0
  0
ARC
  5
1B0
330
1F
100
AcDbEntity
  8
0
  6
Continuous
 62
     7
370
    15
100
AcDbCircle
 10
45.6680002981
 20
38.3874907502
 30
0.0
 40
9.000000000000007
100
AcDbArc
 50
212.3880154633
 51
237.6119845367
  0
CIRCLE
  5
1B1
330
1F
100
AcDbEntity
  8
0
  6
Continuous
 62
     7
370
    15
100
AcDbCircle
 10
45.6680002981
 20
38.3874907502
 30
0.0
 40
8.25
  0
LINE
  5
1B2
330
1F
100
AcDbEntity
  8
0
  6
Continuous
 62
     7
370
    15
100
AcDbLine
 10
45.1925211413
 20
12.0145030236
 30
0.0
 11
44.9783946816
 21
11.6436248547
 31
0.0
  0
LINE
  5
1B3
330
1F
100
AcDbEntity
  8
0
  6
Continuous
 62
     7
370
    15
100
AcDbLine
 10
47.921264642
 20
11.2833382434
 30
0.0
 11
47.921264642
 21
10.855085324
 31
0.0
  0
LINE
  5
1B4
330
1F
100
AcDbEntity
  8
0
  6
Continuous
 62
     7
370
    15
100
AcDbLine
 10
47.921264642
 20
10.855085324
 30
0.0
 11
48.6712646512
 21
10.855085324
 31
0.0
  0
LINE
  5
1B5
330
1F
100
AcDbEntity
  8
0
  6
Continuous
 62
     7
370
    15
100
AcDbLine
 10
48.6712646512
 20
11.2833382434
 30
0.0
 11
48.6712646512
 21
10.855085324
 31
0.0
  0
ARC
  5
1B6
330
1F
100
AcDbEntity
  8
0
  6
Continuous
 62
     7
370
    15
100
AcDbCircle
 10
48.2962646466
 20
18.1403445774
 30
0.0
 40
6.867252641280531
100
AcDbArc
 50
273.1303071288
 51
296.8696928712
  0
LINE
  5
1B7
330
1F
100
AcDbEntity
  8
0
  6
Continuous
 62
     7
370
    15
100
AcDbLine
 10
51.4000081519
 20
12.0145030236
 30
0.0
 11
51.6141346116
 21
11.6436248547
 31
0.0
  0
LINE
  5
1B8
330
1F
100
AcDbEntity
  8
0
  6
Continuous
 62
     7
370
    15
100
AcDbLine
 10
51.6141346116
 20
11.6436248547
 30
0.0
 11
52.2636536416
 21
12.018624896
 31
0.0
  0
LINE
  5
1B9
330
1F
100
AcDbEntity
  8
0
  6
Continuous
 62
     7
370
    15
100
AcDbLine
 10
52.0495271819
 20
12.3895030649
 30
0.0
 11
52.2636536416
 21
12.018624896
 31
0.0
  0
LINE
  5
1BA
330
1F
100
AcDbEntity
  8
0
  6
Continuous
 62
     7
370
    15
100
AcDbLine
 10
54.047106159
 20
14.3870820421
 30
0.0
 11
54.417984328
 21
14.1729555823
 31
0.0
  0
LINE
  5
1BB
330
1F
100
AcDbEntity
  8
0
  6
Continuous
 62
     7
370
    15
100
AcDbLine
 10
54.417984328
 20
14.1729555823
 30
0.0
 11
54.7929843693
 21
14.8224746124
 31
0.0
  0
LINE
  5
1BC
330
1F
100
AcDbEntity
  8
0
  6
Continuous
 62
     7
370
    15
100
AcDbLine
 10
54.4221062003
 20
15.0366010721
 30
0.0
 11
54.7929843693
 21
14.8224746124
 31
0.0
  0
LINE
  5
1BD
330
1F
100
AcDbEntity
  8
0
  6
Continuous
 62
     7
370
    15
100
AcDbLine
 10
55.1532709805
 20
17.7653445728
 30
0.0
 11
55.5815239
 21
17.7653445728
 31
0.0
  0
LINE
  5
1BE
330
1F
100
AcDbEntity
  8
0
  6
Continuous
 62
     7
370
    15
100
AcDbLine
 10
55.5815239
 20
17.7653445728
 30
0.0
 11
55.5815239
 21
18.515344582
 31
0.0
  0
LINE
  5
1BF
330
1F
100
AcDbEntity
  8
0
  6
Continuous
 62
     7
370
    15
100
AcDbLine
 10
55.1532709805
 20
18.515344582
 30
0.0
 11
55.5815239
 21
18.515344582
 31
0.0
  0
LINE
  5
1C0
330
1F
100
AcDbEntity
  8
0
  6
Continuous
 62
     7
370
    15
100
AcDbLine
 10
54.4221062003
 20
21.2440880827
 30
0.0
 11
54.7929843693
 21
21.4582145424
 31
0.0
  0
LINE
  5
1C1
330
1F
100
AcDbEntity
  8
0
  6
Continuous
 62
     7
370
    15
100
AcDbLine
 10
54.7929843693
 20
21.4582145424
 30
0.0
 11
54.417984328
 21
22.1077335724
 31
0.0
  0
LINE
  5
1C2
330
1F
100
AcDbEntity
  8
0
  6
Continuous
 62
     7
370
    15
100
AcDbLine
 10
54.047106159
 20
21.8936071127
 30
0.0
 11
54.417984328
 21
22.1077335724
 31
0.0
  0
LINE
  5
1C3
330
1F
100
AcDbEntity
  8
0
  6
Continuous
 62
     7
370
    15
100
AcDbLine
 10
52.0495271819
 20
23.8911860898
 30
0.0
 11
52.2636536416
 21
24.2620642588
 31
0.0
  0
LINE
  5
1C4
330
1F
100
AcDbEntity
  8
0
  6
Continuous
 62
     7
370
    15
100
AcDbLine
 10
52.2636536416
 20
24.2620642588
 30
0.0
 11
51.6141346116
 21
24.6370643001
 31
0.0
  0
LINE
  5
1C5
330
1F
100
AcDbEntity
  8
0
  6
Continuous
 62
     7
370
    15
100
AcDbLine
 10
51.4000081519
 20
24.2661861311
 30
0.0
 11
51.6141346116
 21
24.6370643001
 31
0.0
  0
LINE
  5
1C6
330
1F
100
AcDbEntity
  8
0
  6
Continuous
 62
     7
370
    15
100
AcDbLine
 10
48.6712646512
 20
24.9973509113
 30
0.0
 11
48.6712646512
 21
25.4256038308
 31
0.0
  0
LINE
  5
1C7
330
1F
100
AcDbEntity
  8
0
  6
Continuous
 62
     7
370
    15
100
AcDbLine
 10
48.6712646512
 20
25.4256038308
 30
0.0
 11
47.921264642
 21
25.4256038308
 31
0.0
  0
LINE
  5
1C8
330
1F
100
AcDbEntity
  8
0
  6
Continuous
 62
     7
370
    15
100
AcDbLine
 10
47.921264642
 20
24.9973509113
 30
0.0
 11
47.921264642
 21
25.4256038308
 31
0.0
  0
LINE
  5
1C9
330
1F
100
AcDbEntity
  8
0
  6
Continuous
 62
     7
370
    15
100
AcDbLine
 10
45.1925211413
 20
24.2661861311
 30
0.0
 11
44.9783946816
 21
24.6370643001
 31
0.0
  0
LINE
  5
1CA
330
1F
100
AcDbEntity
  8
0
  6
Continuous
 62
     7
370
    15
100
AcDbLine
 10
44.9783946816
 20
24.6370643001
 30
0.0
 11
44.3288756515
 21
24.2620642588
 31
0.0
  0
LINE
  5
1CB
330
1F
100
AcDbEntity
  8
0
  6
Continuous
 62
     7
370
    15
100
AcDbLine
 10
44.5430021113
 20
23.8911860898
 30
0.0
 11
44.3288756515
 21
24.2620642588
 31
0.0
  0
LINE
  5
1CC
330
1F
100
AcDbEntity
  8
0
  6
Continuous
 62
     7
370
    15
100
AcDbLine
 10
42.5454231341
 20
21.8936071127
 30
0.0
 11
42.1745449652
 21
22.1077335724
 31
0.0
  0
LINE
  5
1CD
330
1F
100
AcDbEntity
  8
0
  6
Continuous
 62
     7
370
    15
100
AcDbLine
 10
42.1745449652
 20
22.1077335724
 30
0.0
 11
41.7995449239
 21
21.4582145424
 31
0.0
  0
LINE
  5
1CE
330
1F
100
AcDbEntity
  8
0
  6
Continuous
 62
     7
370
    15
100
AcDbLine
 10
42.1704230928
 20
21.2440880827
 30
0.0
 11
41.7995449239
 21
21.4582145424
 31
0.0
  0
LINE
  5
1CF
330
1F
100
AcDbEntity
  8
0
  6
Continuous
 62
     7
370
    15
100
AcDbLine
 10
41.4392583126
 20
18.515344582
 30
0.0
 11
41.0110053932
 21
18.515344582
 31
0.0
  0
LINE
  5
1D0
330
1F
100
AcDbEntity
  8
0
  6
Continuous
 62
     7
370
    15
100
AcDbLine
 10
41.0110053932
 20
18.515344582
 30
0.0
 11
41.0110053932
 21
17.7653445728
 31
0.0
  0
LINE
  5
1D1
330
1F
100
AcDbEntity
  8
0
  6
Continuous
 62
     7
370
    15
100
AcDbLine
 10
41.4392583126
 20
17.7653445728
 30
0.0
 11
41.0110053932
 21
17.7653445728
 31
0.0
  0
LINE
  5
1D2
330
1F
100
AcDbEntity
  8
0
  6
Continuous
 62
     7
370
    15
100
AcDbLine
 10
42.1704230928
 20
15.0366010721
 30
0.0
 11
41.7995449239
 21
14.8224746124
 31
0.0
  0
LINE
  5
1D3
330
1F
100
AcDbEntity
  8
0
  6
Continuous
 62
     7
370
    15
100
AcDbLine
 10
41.7995449239
 20
14.8224746124
 30
0.0
 11
42.1745449652
 21
14.1729555823
 31
0.0
  0
LINE
  5
1D4
330
1F
100
AcDbEntity
  8
0
  6
Continuous
 62
     7
370
    15
100
AcDbLine
 10
42.5454231341
 20
14.3870820421
 30
0.0
 11
42.1745449652
 21
14.1729555823
 31
0.0
  0
LINE
  5
1D5
330
1F
100
AcDbEntity
  8
0
  6
Continuous
 62
     7
370
    15
100
AcDbLine
 10
44.5430021113
 20
12.3895030649
 30
0.0
 11
44.3288756515
 21
12.018624896
 31
0.0
  0
LINE
  5
1D6
330
1F
100
AcDbEntity
  8
0
  6
Continuous
 62
     7
370
    15
100
AcDbLine
 10
44.3288756515
 20
12.018624896
 30
0.0
 11
44.9783946816
 21
11.6436248547
 31
0.0
  0
CIRCLE
  5
1D7
330
1F
100
AcDbEntity
  8
0
  6
Continuous
 62
     7
370
    15
100
AcDbCircle
 10
48.2962646466
 20
18.1403445774
 30
0.0
 40
7.703265800511424
  0
ARC
  5
1D8
330
1F
100
AcDbEntity
  8
0
  6
Continuous
 62
     7
370
    15
100
AcDbCircle
 10
48.2962646466
 20
18.1403445774
 30
0.0
 40
6.867252641280533
100
AcDbArc
 50
303.1303071288
 51
326.8696928712
  0
ARC
  5
1D9
330
1F
100
AcDbEntity
  8
0
  6
Continuous
 62
     7
370
    15
100
AcDbCircle
 10
48.2962646466
 20
18.1403445774
 30
0.0
 40
6.867252641280535
100
AcDbArc
 50
333.1303071288
 51
356.8696928712
  0
ARC
  5
1DA
330
1F
100
AcDbEntity
  8
0
  6
Continuous
 62
     7
370
    15
100
AcDbCircle
 10
48.2962646466
 20
18.1403445774
 30
0.0
 40
6.867252641280531
100
AcDbArc
 50
3.1303071288
 51
26.8696928712
  0
ARC
  5
1DB
330
1F
100
AcDbEntity
  8
0
  6
Continuous
 62
     7
370
    15
100
AcDbCircle
 10
48.2962646466
 20
18.1403445774
 30
0.0
 40
6.867252641280532
100
AcDbArc
 50
33.1303071288
 51
56.8696928712
  0
ARC
  5
1DC
330
1F
100
AcDbEntity
  8
0
  6
Continuous
 62
     7
370
    15
100
AcDbCircle
 10
48.2962646466
 20
18.1403445774
 30
0.0
 40
6.867252641280537
100
AcDbArc
 50
63.1303071288
 51
86.8696928712
  0
ARC
  5
1DD
330
1F
100
AcDbEntity
  8
0
  6
Continuous
 62
     7
370
    15
100
AcDbCircle
 10
48.2962646466
 20
18.1403445774
 30
0.0
 40
6.867252641280532
100
AcDbArc
 50
93.1303071288
 51
116.8696928712
  0
ARC
  5
1DE
330
1F
100
AcDbEntity
  8
0
  6
Continuous
 62
     7
370
    15
100
AcDbCircle
 10
48.2962646466
 20
18.1403445774
 30
0.0
 40
6.867252641280536
100
AcDbArc
 50
123.1303071288
 51
146.8696928712
  0
ARC
  5
1DF
330
1F
100
AcDbEntity
  8
0
  6
Continuous
 62
     7
370
    15
100
AcDbCircle
 10
48.2962646466
 20
18.1403445774
 30
0.0
 40
6.867252641280533
100
AcDbArc
 50
153.1303071288
 51
176.8696928712
  0
ARC
  5
1E0
330
1F
100
AcDbEntity
  8
0
  6
Continuous
 62
     7
370
    15
100
AcDbCircle
 10
48.2962646466
 20
18.1403445774
 30
0.0
 40
6.867252641280534
100
AcDbArc
 50
183.1303071288
 51
206.8696928712
  0
ARC
  5
1E1
330
1F
100
AcDbEntity
  8
0
  6
Continuous
 62
     7
370
    15
100
AcDbCircle
 10
48.2962646466
 20
18.1403445774
 30
0.0
 40
6.86725264128053
100
AcDbArc
 50
213.1303071288
 51
236.8696928712
  0
ARC
  5
1E2
330
1F
100
AcDbEntity
  8
0
  6
Continuous
 62
     7
370
    15
100
AcDbCircle
 10
48.2962646466
 20
18.1403445774
 30
0.0
 40
6.867252641280531
100
AcDbArc
 50
243.1303071288
 51
266.8696928712
  0
CIRCLE
  5
1E3
330
1F
100
AcDbEntity
  8
0
  6
Continuous
 62
     7
370
    15
100
AcDbCircle
 10
48.2962646466
 20
18.1403445774
 30
0.0
 40
8.031962303300059
  0
ARC
  5
1E4
330
1F
100
AcDbEntity
  8
0
  6
Continuous
 62
     7
370
    15
100
AcDbCircle
 10
60.5534273734
 20
28.2489840911
 30
0.0
 40
4.693760574517915
100
AcDbArc
 50
274.5824323791
 51
295.4175676209
  0
LINE
  5
1E5
330
1F
100
AcDbEntity
  8
0
  6
Continuous
 62
     7
370
    15
100
AcDbLine
 10
60.9284273781
 20
24.0781346997
 30
0.0
 11
60.9284273781
 21
23.5702274471
 31
0.0
  0
LINE
  5
1E6
330
1F
100
AcDbEntity
  8
0
  6
Continuous
 62
     7
370
    15
100
AcDbLine
 10
60.1784273688
 20
24.0781346997
 30
0.0
 11
60.9284273781
 21
24.0781346997
 31
0.0
  0
LINE
  5
1E7
330
1F
100
AcDbEntity
  8
0
  6
Continuous
 62
     7
370
    15
100
AcDbLine
 10
60.1784273688
 20
24.0781346997
 30
0.0
 11
60.1784273688
 21
23.5702274471
 31
0.0
  0
ARC
  5
1E8
330
1F
100
AcDbEntity
  8
0
  6
Continuous
 62
     7
370
    15
100
AcDbCircle
 10
60.5534273734
 20
28.2489840911
 30
0.0
 40
4.693760574517915
100
AcDbArc
 50
244.5824323791
 51
265.4175676209
  0
LINE
  5
1E9
330
1F
100
AcDbEntity
  8
0
  6
Continuous
 62
     7
370
    15
100
AcDbLine
 10
58.7927621928
 20
24.4494223573
 30
0.0
 11
58.5388085665
 21
24.0095620786
 31
0.0
  0
LINE
  5
1EA
330
1F
100
AcDbEntity
  8
0
  6
Continuous
 62
     7
370
    15
100
AcDbLine
 10
58.1432430161
 20
24.8244223986
 30
0.0
 11
58.7927621928
 21
24.4494223573
 31
0.0
  0
LINE
  5
1EB
330
1F
100
AcDbEntity
  8
0
  6
Continuous
 62
     7
370
    15
100
AcDbLine
 10
58.1432430161
 20
24.8244223986
 30
0.0
 11
57.8892895365
 21
24.3845621199
 31
0.0
  0
ARC
  5
1EC
330
1F
100
AcDbEntity
  8
0
  6
Continuous
 62
     7
370
    15
100
AcDbCircle
 10
60.5534273734
 20
28.2489840911
 30
0.0
 40
4.69376057451792
100
AcDbArc
 50
214.5824323791
 51
235.4175676209
  0
LINE
  5
1ED
330
1F
100
AcDbEntity
  8
0
  6
Continuous
 62
     7
370
    15
100
AcDbLine
 10
57.1288656809
 20
25.8387997337
 30
0.0
 11
56.6890054022
 21
25.5848462541
 31
0.0
  0
LINE
  5
1EE
330
1F
100
AcDbEntity
  8
0
  6
Continuous
 62
     7
370
    15
100
AcDbLine
 10
56.7538656396
 20
26.4883189104
 30
0.0
 11
57.1288656809
 21
25.8387997337
 31
0.0
  0
LINE
  5
1EF
330
1F
100
AcDbEntity
  8
0
  6
Continuous
 62
     7
370
    15
100
AcDbLine
 10
56.7538656396
 20
26.4883189104
 30
0.0
 11
56.3140053609
 21
26.2343652841
 31
0.0
  0
ARC
  5
1F0
330
1F
100
AcDbEntity
  8
0
  6
Continuous
 62
     7
370
    15
100
AcDbCircle
 10
60.5534273734
 20
28.2489840911
 30
0.0
 40
4.693760574517918
100
AcDbArc
 50
184.5824323791
 51
205.4175676209
  0
LINE
  5
1F1
330
1F
100
AcDbEntity
  8
0
  6
Continuous
 62
     7
370
    15
100
AcDbLine
 10
56.3825779821
 20
27.8739840864
 30
0.0
 11
55.8746707295
 21
27.8739840864
 31
0.0
  0
LINE
  5
1F2
330
1F
100
AcDbEntity
  8
0
  6
Continuous
 62
     7
370
    15
100
AcDbLine
 10
56.3825779821
 20
28.6239840957
 30
0.0
 11
56.3825779821
 21
27.8739840864
 31
0.0
  0
LINE
  5
1F3
330
1F
100
AcDbEntity
  8
0
  6
Continuous
 62
     7
370
    15
100
AcDbLine
 10
56.3825779821
 20
28.6239840957
 30
0.0
 11
55.8746707295
 21
28.6239840957
 31
0.0
  0
ARC
  5
1F4
330
1F
100
AcDbEntity
  8
0
  6
Continuous
 62
     7
370
    15
100
AcDbCircle
 10
60.5534273734
 20
28.2489840911
 30
0.0
 40
4.693760574517913
100
AcDbArc
 50
154.5824323791
 51
175.4175676209
  0
LINE
  5
1F5
330
1F
100
AcDbEntity
  8
0
  6
Continuous
 62
     7
370
    15
100
AcDbLine
 10
56.7538656396
 20
30.0096492717
 30
0.0
 11
56.3140053609
 21
30.263602898
 31
0.0
  0
LINE
  5
1F6
330
1F
100
AcDbEntity
  8
0
  6
Continuous
 62
     7
370
    15
100
AcDbLine
 10
57.1288656809
 20
30.6591684484
 30
0.0
 11
56.7538656396
 21
30.0096492717
 31
0.0
  0
LINE
  5
1F7
330
1F
100
AcDbEntity
  8
0
  6
Continuous
 62
     7
370
    15
100
AcDbLine
 10
57.1288656809
 20
30.6591684484
 30
0.0
 11
56.6890054022
 21
30.9131219281
 31
0.0
  0
ARC
  5
1F8
330
1F
100
AcDbEntity
  8
0
  6
Continuous
 62
     7
370
    15
100
AcDbCircle
 10
60.5534273734
 20
28.2489840911
 30
0.0
 40
4.693760574517916
100
AcDbArc
 50
124.5824323791
 51
145.4175676209
  0
LINE
  5
1F9
330
1F
100
AcDbEntity
  8
0
  6
Continuous
 62
     7
370
    15
100
AcDbLine
 10
58.1432430161
 20
31.6735457836
 30
0.0
 11
57.8892895365
 21
32.1134060623
 31
0.0
  0
LINE
  5
1FA
330
1F
100
AcDbEntity
  8
0
  6
Continuous
 62
     7
370
    15
100
AcDbLine
 10
58.7927621928
 20
32.0485458249
 30
0.0
 11
58.1432430161
 21
31.6735457836
 31
0.0
  0
LINE
  5
1FB
330
1F
100
AcDbEntity
  8
0
  6
Continuous
 62
     7
370
    15
100
AcDbLine
 10
58.7927621928
 20
32.0485458249
 30
0.0
 11
58.5388085665
 21
32.4884061036
 31
0.0
  0
ARC
  5
1FC
330
1F
100
AcDbEntity
  8
0
  6
Continuous
 62
     7
370
    15
100
AcDbCircle
 10
60.5534273734
 20
28.2489840911
 30
0.0
 40
4.693760574517912
100
AcDbArc
 50
94.5824323791
 51
115.4175676209
  0
LINE
  5
1FD
330
1F
100
AcDbEntity
  8
0
  6
Continuous
 62
     7
370
    15
100
AcDbLine
 10
60.1784273688
 20
32.4198334824
 30
0.0
 11
60.1784273688
 21
32.927740735
 31
0.0
  0
LINE
  5
1FE
330
1F
100
AcDbEntity
  8
0
  6
Continuous
 62
     7
370
    15
100
AcDbLine
 10
60.9284273781
 20
32.4198334824
 30
0.0
 11
60.1784273688
 21
32.4198334824
 31
0.0
  0
LINE
  5
1FF
330
1F
100
AcDbEntity
  8
0
  6
Continuous
 62
     7
370
    15
100
AcDbLine
 10
60.9284273781
 20
32.4198334824
 30
0.0
 11
60.9284273781
 21
32.927740735
 31
0.0
  0
ARC
  5
200
330
1F
100
AcDbEntity
  8
0
  6
Continuous
 62
     7
370
    15
100
AcDbCircle
 10
60.5534273734
 20
28.2489840911
 30
0.0
 40
4.69376057451791
100
AcDbArc
 50
64.5824323791
 51
85.4175676209
  0
LINE
  5
201
330
1F
100
AcDbEntity
  8
0
  6
Continuous
 62
     7
370
    15
100
AcDbLine
 10
62.3140925541
 20
32.0485458249
 30
0.0
 11
62.5680461804
 21
32.4884061036
 31
0.0
  0
LINE
  5
202
330
1F
100
AcDbEntity
  8
0
  6
Continuous
 62
     7
370
    15
100
AcDbLine
 10
62.9636117308
 20
31.6735457836
 30
0.0
 11
62.3140925541
 21
32.0485458249
 31
0.0
  0
LINE
  5
203
330
1F
100
AcDbEntity
  8
0
  6
Continuous
 62
     7
370
    15
100
AcDbLine
 10
62.9636117308
 20
31.6735457836
 30
0.0
 11
63.2175652104
 21
32.1134060623
 31
0.0
  0
ARC
  5
204
330
1F
100
AcDbEntity
  8
0
  6
Continuous
 62
     7
370
    15
100
AcDbCircle
 10
60.5534273734
 20
28.2489840911
 30
0.0
 40
4.693760574517903
100
AcDbArc
 50
34.5824323791
 51
55.4175676209
  0
LINE
  5
205
330
1F
100
AcDbEntity
  8
0
  6
Continuous
 62
     7
370
    15
100
AcDbLine
 10
63.977989066
 20
30.6591684484
 30
0.0
 11
64.4178493447
 21
30.9131219281
 31
0.0
  0
LINE
  5
206
330
1F
100
AcDbEntity
  8
0
  6
Continuous
 62
     7
370
    15
100
AcDbLine
 10
64.3529891073
 20
30.0096492717
 30
0.0
 11
63.977989066
 21
30.6591684484
 31
0.0
  0
LINE
  5
207
330
1F
100
AcDbEntity
  8
0
  6
Continuous
 62
     7
370
    15
100
AcDbLine
 10
64.3529891073
 20
30.0096492717
 30
0.0
 11
64.792849386
 21
30.263602898
 31
0.0
  0
ARC
  5
208
330
1F
100
AcDbEntity
  8
0
  6
Continuous
 62
     7
370
    15
100
AcDbCircle
 10
60.5534273734
 20
28.2489840911
 30
0.0
 40
4.693760574517908
100
AcDbArc
 50
4.5824323791
 51
25.4175676209
  0
LINE
  5
209
330
1F
100
AcDbEntity
  8
0
  6
Continuous
 62
     7
370
    15
100
AcDbLine
 10
64.7242767648
 20
28.6239840957
 30
0.0
 11
65.2321840174
 21
28.6239840957
 31
0.0
  0
LINE
  5
20A
330
1F
100
AcDbEntity
  8
0
  6
Continuous
 62
     7
370
    15
100
AcDbLine
 10
64.7242767648
 20
27.8739840864
 30
0.0
 11
64.7242767648
 21
28.6239840957
 31
0.0
  0
LINE
  5
20B
330
1F
100
AcDbEntity
  8
0
  6
Continuous
 62
     7
370
    15
100
AcDbLine
 10
64.7242767648
 20
27.8739840864
 30
0.0
 11
65.2321840174
 21
27.8739840864
 31
0.0
  0
ARC
  5
20C
330
1F
100
AcDbEntity
  8
0
  6
Continuous
 62
     7
370
    15
100
AcDbCircle
 10
60.5534273734
 20
28.2489840911
 30
0.0
 40
4.693760574517915
100
AcDbArc
 50
334.5824323791
 51
355.4175676209
  0
LINE
  5
20D
330
1F
100
AcDbEntity
  8
0
  6
Continuous
 62
     7
370
    15
100
AcDbLine
 10
64.3529891073
 20
26.4883189104
 30
0.0
 11
64.792849386
 21
26.2343652841
 31
0.0
  0
LINE
  5
20E
330
1F
100
AcDbEntity
  8
0
  6
Continuous
 62
     7
370
    15
100
AcDbLine
 10
63.977989066
 20
25.8387997337
 30
0.0
 11
64.3529891073
 21
26.4883189104
 31
0.0
  0
LINE
  5
20F
330
1F
100
AcDbEntity
  8
0
  6
Continuous
 62
     7
370
    15
100
AcDbLine
 10
63.977989066
 20
25.8387997337
 30
0.0
 11
64.4178493447
 21
25.5848462541
 31
0.0
  0
ARC
  5
210
330
1F
100
AcDbEntity
  8
0
  6
Continuous
 62
     7
370
    15
100
AcDbCircle
 10
60.5534273734
 20
28.2489840911
 30
0.0
 40
4.693760574517908
100
AcDbArc
 50
304.5824323791
 51
325.4175676209
  0
LINE
  5
211
330
1F
100
AcDbEntity
  8
0
  6
Continuous
 62
     7
370
    15
100
AcDbLine
 10
62.9636117308
 20
24.8244223986
 30
0.0
 11
63.2175652104
 21
24.3845621199
 31
0.0
  0
LINE
  5
212
330
1F
100
AcDbEntity
  8
0
  6
Continuous
 62
     7
370
    15
100
AcDbLine
 10
62.3140925541
 20
24.4494223573
 30
0.0
 11
62.9636117308
 21
24.8244223986
 31
0.0
  0
LINE
  5
213
330
1F
100
AcDbEntity
  8
0
  6
Continuous
 62
     7
370
    15
100
AcDbLine
 10
62.3140925541
 20
24.4494223573
 30
0.0
 11
62.5680461804
 21
24.0095620786
 31
0.0
  0
CIRCLE
  5
214
330
1F
100
AcDbEntity
  8
0
  6
Continuous
 62
     7
370
    15
100
AcDbCircle
 10
60.5534273734
 20
28.2489840911
 30
0.0
 40
3.443760574517892
  0
LINE
  5
215
330
1F
100
AcDbEntity
  8
0
  6
Continuous
 62
     7
370
    15
100
AcDbLine
 10
55.6325778995
 20
28.6239840957
 30
0.0
 11
55.6325778995
 21
27.8739840864
 31
0.0
  0
LINE
  5
216
330
1F
100
AcDbEntity
  8
0
  6
Continuous
 62
     7
370
    15
100
AcDbLine
 10
56.4793466509
 20
31.034168343
 30
0.0
 11
56.1043466096
 21
30.384649313
 31
0.0
  0
LINE
  5
217
330
1F
100
AcDbEntity
  8
0
  6
Continuous
 62
     7
370
    15
100
AcDbLine
 10
58.4177621515
 20
32.6980648549
 30
0.0
 11
57.7682431215
 21
32.3230648136
 31
0.0
  0
LINE
  5
218
330
1F
100
AcDbEntity
  8
0
  6
Continuous
 62
     7
370
    15
100
AcDbLine
 10
60.9284273781
 20
33.169833565
 30
0.0
 11
60.1784273688
 21
33.169833565
 31
0.0
  0
LINE
  5
219
330
1F
100
AcDbEntity
  8
0
  6
Continuous
 62
     7
370
    15
100
AcDbLine
 10
63.3386116254
 20
32.3230648136
 30
0.0
 11
62.6890925954
 21
32.6980648549
 31
0.0
  0
LINE
  5
21A
330
1F
100
AcDbEntity
  8
0
  6
Continuous
 62
     7
370
    15
100
AcDbLine
 10
60.1784273688
 20
23.3281346171
 30
0.0
 11
60.9284273781
 21
23.3281346171
 31
0.0
  0
LINE
  5
21B
330
1F
100
AcDbEntity
  8
0
  6
Continuous
 62
     7
370
    15
100
AcDbLine
 10
57.7682431215
 20
24.1749033685
 30
0.0
 11
58.4177621515
 21
23.7999033272
 31
0.0
  0
LINE
  5
21C
330
1F
100
AcDbEntity
  8
0
  6
Continuous
 62
     7
370
    15
100
AcDbLine
 10
56.1043466096
 20
26.1133188691
 30
0.0
 11
56.4793466509
 21
25.4637998391
 31
0.0
  0
LINE
  5
21D
330
1F
100
AcDbEntity
  8
0
  6
Continuous
 62
     7
370
    15
100
AcDbLine
 10
62.6890925954
 20
23.7999033272
 30
0.0
 11
63.3386116254
 21
24.1749033685
 31
0.0
  0
LINE
  5
21E
330
1F
100
AcDbEntity
  8
0
  6
Continuous
 62
     7
370
    15
100
AcDbLine
 10
65.0025081373
 20
30.384649313
 30
0.0
 11
64.627508096
 21
31.034168343
 31
0.0
  0
LINE
  5
21F
330
1F
100
AcDbEntity
  8
0
  6
Continuous
 62
     7
370
    15
100
AcDbLine
 10
65.4742768474
 20
27.8739840864
 30
0.0
 11
65.4742768474
 21
28.6239840957
 31
0.0
  0
LINE
  5
220
330
1F
100
AcDbEntity
  8
0
  6
Continuous
 62
     7
370
    15
100
AcDbLine
 10
64.627508096
 20
25.4637998391
 30
0.0
 11
65.0025081373
 21
26.1133188691
 31
0.0
  0
ARC
  5
221
330
1F
100
AcDbEntity
  8
0
  6
Continuous
 62
     7
370
    15
100
AcDbCircle
 10
60.5534273734
 20
28.2489840911
 30
0.0
 40
5.443760574517934
100
AcDbArc
 50
243.9500169595
 51
266.0499830405
  0
SPLINE
  5
222
330
1F
100
AcDbEntity
  8
0
  6
Continuous
 62
     7
370
    15
100
AcDbSpline
210
0.0
220
0.0
230
1.0
 70
    24
 71
     3
 72
     8
 73
     4
 74
     0
 42
0.00000001
 43
0.00000001
 40
0.000000283296584
 40
0.000000283296584
 40
0.000000283296584
 40
0.000000283296584
 40
0.0269782996216485
 40
0.0269782996216485
 40
0.0269782996216485
 40
0.0269782996216485
 10
58.53880859939581
 20
24.00956201652565
 30
0.0
 10
58.41343555400173
 20
23.79240953200349
 30
0.0
 10
58.28809395794581
 20
23.57531151933285
 30
0.0
 10
58.16277237384004
 20
23.35824816837664
 30
0.0
  0
SPLINE
  5
223
330
1F
100
AcDbEntity
  8
0
  6
Continuous
 62
     7
370
    15
100
AcDbSpline
210
0.0
220
0.0
230
1.0
 70
    24
 71
     3
 72
     8
 73
     4
 74
     0
 42
0.00000001
 43
0.00000001
 40
0.0
 40
0.0
 40
0.0
 40
0.0
 40
1.0
 40
1.0
 40
1.0
 40
1.0
 10
60.1784273734498
 20
23.57022749012297
 30
0.0
 10
60.1784273734498
 20
23.31948139701248
 30
0.0
 10
60.1784273734498
 20
23.06879819871977
 30
0.0
 10
60.1784273734498
 20
22.81815503901142
 30
0.0
  0
ARC
  5
224
330
1F
100
AcDbEntity
  8
0
  6
Continuous
 62
     7
370
    15
100
AcDbCircle
 10
60.5534273734
 20
28.2489840911
 30
0.0
 40
5.443760574517931
100
AcDbArc
 50
273.9500169595
 51
296.0499830405
  0
SPLINE
  5
225
330
1F
100
AcDbEntity
  8
0
  6
Continuous
 62
     7
370
    15
100
AcDbSpline
210
0.0
220
0.0
230
1.0
 70
    24
 71
     3
 72
     8
 73
     4
 74
     0
 42
0.00000001
 43
0.00000001
 40
0.000000283296584
 40
0.000000283296584
 40
0.000000283296584
 40
0.000000283296584
 40
0.0269782996216494
 40
0.0269782996216494
 40
0.0269782996216494
 40
0.0269782996216494
 10
62.56804614750374
 20
24.00956201652563
 30
0.0
 10
62.69341919289781
 20
23.79240953200344
 30
0.0
 10
62.81876078895374
 20
23.5753115193328
 30
0.0
 10
62.94408237305952
 20
23.35824816837658
 30
0.0
  0
SPLINE
  5
226
330
1F
100
AcDbEntity
  8
0
  6
Continuous
 62
     7
370
    15
100
AcDbSpline
210
0.0
220
0.0
230
1.0
 70
    24
 71
     3
 72
     8
 73
     4
 74
     0
 42
0.00000001
 43
0.00000001
 40
0.0
 40
0.0
 40
0.0
 40
0.0
 40
1.0
 40
1.0
 40
1.0
 40
1.0
 10
60.92842737344981
 20
23.57022749012297
 30
0.0
 10
60.92842737344981
 20
23.3194813970125
 30
0.0
 10
60.92842737344981
 20
23.06879819871979
 30
0.0
 10
60.92842737344981
 20
22.81815503901145
 30
0.0
  0
ARC
  5
227
330
1F
100
AcDbEntity
  8
0
  6
Continuous
 62
     7
370
    15
100
AcDbCircle
 10
60.5534273734
 20
28.2489840911
 30
0.0
 40
5.44376057451792
100
AcDbArc
 50
303.9500169595
 51
326.0499830405
  0
SPLINE
  5
228
330
1F
100
AcDbEntity
  8
0
  6
Continuous
 62
     7
370
    15
100
AcDbSpline
210
0.0
220
0.0
230
1.0
 70
    24
 71
     3
 72
     8
 73
     4
 74
     0
 42
0.00000001
 43
0.00000001
 40
0.000000283296584
 40
0.000000283296584
 40
0.000000283296584
 40
0.000000283296584
 40
0.0269782996216485
 40
0.0269782996216485
 40
0.0269782996216485
 40
0.0269782996216485
 10
63.21756520034207
 20
24.38456201652562
 30
0.0
 10
63.34293824573614
 20
24.16740953200345
 30
0.0
 10
63.46827984179207
 20
23.95031151933281
 30
0.0
 10
63.59360142589783
 20
23.7332481683766
 30
0.0
  0
SPLINE
  5
229
330
1F
100
AcDbEntity
  8
0
  6
Continuous
 62
     7
370
    15
100
AcDbSpline
210
0.0
220
0.0
230
1.0
 70
    24
 71
     3
 72
     8
 73
     4
 74
     0
 42
0.00000001
 43
0.00000001
 40
0.000000283296584
 40
0.000000283296584
 40
0.000000283296584
 40
0.000000283296584
 40
0.0269782996216494
 40
0.0269782996216494
 40
0.0269782996216494
 40
0.0269782996216494
 10
64.4178494479934
 20
25.58484626417692
 30
0.0
 10
64.63500193251558
 20
25.45947321878285
 30
0.0
 10
64.85209994518623
 20
25.33413162272691
 30
0.0
 10
65.06916329614243
 20
25.20881003862114
 30
0.0
  0
ARC
  5
22A
330
1F
100
AcDbEntity
  8
0
  6
Continuous
 62
     7
370
    15
100
AcDbCircle
 10
60.5534273734
 20
28.2489840911
 30
0.0
 40
5.443760574517924
100
AcDbArc
 50
333.9500169595
 51
356.0499830405
  0
SPLINE
  5
22B
330
1F
100
AcDbEntity
  8
0
  6
Continuous
 62
     7
370
    15
100
AcDbSpline
210
0.0
220
0.0
230
1.0
 70
    24
 71
     3
 72
     8
 73
     4
 74
     0
 42
0.00000001
 43
0.00000001
 40
0.000000283296584
 40
0.000000283296584
 40
0.000000283296584
 40
0.000000283296584
 40
0.0269782996216485
 40
0.0269782996216485
 40
0.0269782996216485
 40
0.0269782996216485
 10
64.79284944799342
 20
26.23436531701525
 30
0.0
 10
65.01000193251558
 20
26.10899227162118
 30
0.0
 10
65.22709994518621
 20
25.98365067556525
 30
0.0
 10
65.44416329614243
 20
25.85832909145948
 30
0.0
  0
SPLINE
  5
22C
330
1F
100
AcDbEntity
  8
0
  6
Continuous
 62
     7
370
    15
100
AcDbSpline
210
0.0
220
0.0
230
1.0
 70
    24
 71
     3
 72
     8
 73
     4
 74
     0
 42
0.00000001
 43
0.00000001
 40
0.0
 40
0.0
 40
0.0
 40
0.0
 40
1.0
 40
1.0
 40
1.0
 40
1.0
 10
65.23218397439612
 20
27.87398409106924
 30
0.0
 10
65.4829300675066
 20
27.87398409106924
 30
0.0
 10
65.73361326579932
 20
27.87398409106923
 30
0.0
 10
65.98425642550767
 20
27.87398409106923
 30
0.0
  0
ARC
  5
22D
330
1F
100
AcDbEntity
  8
0
  6
Continuous
 62
     7
370
    15
100
AcDbCircle
 10
60.5534273734
 20
28.2489840911
 30
0.0
 40
5.443760574517928
100
AcDbArc
 50
3.9500169595
 51
26.0499830405
  0
SPLINE
  5
22E
330
1F
100
AcDbEntity
  8
0
  6
Continuous
 62
     7
370
    15
100
AcDbSpline
210
0.0
220
0.0
230
1.0
 70
    24
 71
     3
 72
     8
 73
     4
 74
     0
 42
0.00000001
 43
0.00000001
 40
0.0
 40
0.0
 40
0.0
 40
0.0
 40
1.0
 40
1.0
 40
1.0
 40
1.0
 10
65.23218397439612
 20
28.62398409106924
 30
0.0
 10
65.4829300675066
 20
28.62398409106924
 30
0.0
 10
65.73361326579932
 20
28.62398409106924
 30
0.0
 10
65.98425642550765
 20
28.62398409106924
 30
0.0
  0
SPLINE
  5
22F
330
1F
100
AcDbEntity
  8
0
  6
Continuous
 62
     7
370
    15
100
AcDbSpline
210
0.0
220
0.0
230
1.0
 70
    24
 71
     3
 72
     8
 73
     4
 74
     0
 42
0.00000001
 43
0.00000001
 40
0.000000283296584
 40
0.000000283296584
 40
0.000000283296584
 40
0.000000283296584
 40
0.0269782996216494
 40
0.0269782996216494
 40
0.0269782996216494
 40
0.0269782996216494
 10
64.79284944799346
 20
30.26360286512325
 30
0.0
 10
65.01000193251564
 20
30.38897591051731
 30
0.0
 10
65.22709994518628
 20
30.51431750657324
 30
0.0
 10
65.4441632961425
 20
30.63963909067902
 30
0.0
  0
ARC
  5
230
330
1F
100
AcDbEntity
  8
0
  6
Continuous
 62
     7
370
    15
100
AcDbCircle
 10
60.5534273734
 20
28.2489840911
 30
0.0
 40
5.44376057451793
100
AcDbArc
 50
33.9500169595
 51
56.0499830405
  0
SPLINE
  5
231
330
1F
100
AcDbEntity
  8
0
  6
Continuous
 62
     7
370
    15
100
AcDbSpline
210
0.0
220
0.0
230
1.0
 70
    24
 71
     3
 72
     8
 73
     4
 74
     0
 42
0.00000001
 43
0.00000001
 40
0.000000283296584
 40
0.000000283296584
 40
0.000000283296584
 40
0.000000283296584
 40
0.0269782996216485
 40
0.0269782996216485
 40
0.0269782996216485
 40
0.0269782996216485
 10
64.41784944799346
 20
30.91312191796158
 30
0.0
 10
64.63500193251564
 20
31.03849496335564
 30
0.0
 10
64.85209994518627
 20
31.16383655941157
 30
0.0
 10
65.06916329614249
 20
31.28915814351733
 30
0.0
  0
SPLINE
  5
232
330
1F
100
AcDbEntity
  8
0
  6
Continuous
 62
     7
370
    15
100
AcDbSpline
210
0.0
220
0.0
230
1.0
 70
    24
 71
     3
 72
     8
 73
     4
 74
     0
 42
0.00000001
 43
0.00000001
 40
0.000000283296584
 40
0.000000283296584
 40
0.000000283296584
 40
0.000000283296584
 40
0.0269782996216494
 40
0.0269782996216494
 40
0.0269782996216494
 40
0.0269782996216494
 10
63.21756520034215
 20
32.11340616561291
 30
0.0
 10
63.34293824573624
 20
32.33055865013508
 30
0.0
 10
63.46827984179216
 20
32.54765666280572
 30
0.0
 10
63.59360142589794
 20
32.76472001376194
 30
0.0
  0
ARC
  5
233
330
1F
100
AcDbEntity
  8
0
  6
Continuous
 62
     7
370
    15
100
AcDbCircle
 10
60.5534273734
 20
28.2489840911
 30
0.0
 40
5.443760574517925
100
AcDbArc
 50
63.9500169595
 51
86.0499830405
  0
SPLINE
  5
234
330
1F
100
AcDbEntity
  8
0
  6
Continuous
 62
     7
370
    15
100
AcDbSpline
210
0.0
220
0.0
230
1.0
 70
    24
 71
     3
 72
     8
 73
     4
 74
     0
 42
0.00000001
 43
0.00000001
 40
0.000000283296584
 40
0.000000283296584
 40
0.000000283296584
 40
0.000000283296584
 40
0.0269782996216485
 40
0.0269782996216485
 40
0.0269782996216485
 40
0.0269782996216485
 10
62.56804614750383
 20
32.48840616561291
 30
0.0
 10
62.6934191928979
 20
32.70555865013508
 30
0.0
 10
62.81876078895383
 20
32.92265666280571
 30
0.0
 10
62.9440823730596
 20
33.13972001376192
 30
0.0
  0
SPLINE
  5
235
330
1F
100
AcDbEntity
  8
0
  6
Continuous
 62
     7
370
    15
100
AcDbSpline
210
0.0
220
0.0
230
1.0
 70
    24
 71
     3
 72
     8
 73
     4
 74
     0
 42
0.00000001
 43
0.00000001
 40
0.0
 40
0.0
 40
0.0
 40
0.0
 40
1.0
 40
1.0
 40
1.0
 40
1.0
 10
60.92842737344984
 20
32.9277406920156
 30
0.0
 10
60.92842737344984
 20
33.17848675321844
 30
0.0
 10
60.92842737344984
 20
33.42916995711881
 30
0.0
 10
60.92842737344984
 20
33.67981314312716
 30
0.0
  0
ARC
  5
236
330
1F
100
AcDbEntity
  8
0
  6
Continuous
 62
     7
370
    15
100
AcDbCircle
 10
60.5534273734
 20
28.2489840911
 30
0.0
 40
5.443760574517931
100
AcDbArc
 50
93.9500169595
 51
116.0499830405
  0
SPLINE
  5
237
330
1F
100
AcDbEntity
  8
0
  6
Continuous
 62
     7
370
    15
100
AcDbSpline
210
0.0
220
0.0
230
1.0
 70
    24
 71
     3
 72
     8
 73
     4
 74
     0
 42
0.00000001
 43
0.00000001
 40
0.0
 40
0.0
 40
0.0
 40
0.0
 40
1.0
 40
1.0
 40
1.0
 40
1.0
 10
60.17842737344984
 20
32.9277406920156
 30
0.0
 10
60.17842737344984
 20
33.17848675321844
 30
0.0
 10
60.17842737344984
 20
33.4291699571188
 30
0.0
 10
60.17842737344984
 20
33.67981314312714
 30
0.0
  0
SPLINE
  5
238
330
1F
100
AcDbEntity
  8
0
  6
Continuous
 62
     7
370
    15
100
AcDbSpline
210
0.0
220
0.0
230
1.0
 70
    24
 71
     3
 72
     8
 73
     4
 74
     0
 42
0.00000001
 43
0.00000001
 40
0.000000283296584
 40
0.000000283296584
 40
0.000000283296584
 40
0.000000283296584
 40
0.0269782996216494
 40
0.0269782996216494
 40
0.0269782996216494
 40
0.0269782996216494
 10
58.53880859939584
 20
32.48840616561294
 30
0.0
 10
58.41343555400176
 20
32.70555865013512
 30
0.0
 10
58.28809395794583
 20
32.92265666280576
 30
0.0
 10
58.16277237384006
 20
33.13972001376198
 30
0.0
  0
ARC
  5
239
330
1F
100
AcDbEntity
  8
0
  6
Continuous
 62
     7
370
    15
100
AcDbCircle
 10
60.5534273734
 20
28.2489840911
 30
0.0
 40
5.443760574517935
100
AcDbArc
 50
123.9500169595
 51
146.0499830405
  0
SPLINE
  5
23A
330
1F
100
AcDbEntity
  8
0
  6
Continuous
 62
     7
370
    15
100
AcDbSpline
210
0.0
220
0.0
230
1.0
 70
    24
 71
     3
 72
     8
 73
     4
 74
     0
 42
0.00000001
 43
0.00000001
 40
0.000000283296584
 40
0.000000283296584
 40
0.000000283296584
 40
0.000000283296584
 40
0.0269782996216485
 40
0.0269782996216485
 40
0.0269782996216485
 40
0.0269782996216485
 10
57.8892895465575
 20
32.11340616561294
 30
0.0
 10
57.76391650116344
 20
32.33055865013512
 30
0.0
 10
57.63857490510752
 20
32.54765666280575
 30
0.0
 10
57.51325332100174
 20
32.76472001376197
 30
0.0
  0
SPLINE
  5
23B
330
1F
100
AcDbEntity
  8
0
  6
Continuous
 62
     7
370
    15
100
AcDbSpline
210
0.0
220
0.0
230
1.0
 70
    24
 71
     3
 72
     8
 73
     4
 74
     0
 42
0.00000001
 43
0.00000001
 40
0.000000283296584
 40
0.000000283296584
 40
0.000000283296584
 40
0.000000283296584
 40
0.0269782996216494
 40
0.0269782996216494
 40
0.0269782996216494
 40
0.0269782996216494
 10
56.68900529890617
 20
30.91312191796163
 30
0.0
 10
56.471852814384
 20
31.0384949633557
 30
0.0
 10
56.25475480171335
 20
31.16383655941163
 30
0.0
 10
56.03769145075714
 20
31.28915814351741
 30
0.0
  0
ARC
  5
23C
330
1F
100
AcDbEntity
  8
0
  6
Continuous
 62
     7
370
    15
100
AcDbCircle
 10
60.5534273734
 20
28.2489840911
 30
0.0
 40
5.443760574517928
100
AcDbArc
 50
153.9500169595
 51
176.0499830405
  0
SPLINE
  5
23D
330
1F
100
AcDbEntity
  8
0
  6
Continuous
 62
     7
370
    15
100
AcDbSpline
210
0.0
220
0.0
230
1.0
 70
    24
 71
     3
 72
     8
 73
     4
 74
     0
 42
0.00000001
 43
0.00000001
 40
0.0
 40
0.0
 40
0.0
 40
0.0
 40
1.0
 40
1.0
 40
1.0
 40
1.0
 10
55.87467077250349
 20
28.6239840910693
 30
0.0
 10
55.62392471130065
 20
28.62398409106931
 30
0.0
 10
55.37324150740028
 20
28.62398409106931
 30
0.0
 10
55.12259832139194
 20
28.62398409106931
 30
0.0
  0
SPLINE
  5
23E
330
1F
100
AcDbEntity
  8
0
  6
Continuous
 62
     7
370
    15
100
AcDbSpline
210
0.0
220
0.0
230
1.0
 70
    24
 71
     3
 72
     8
 73
     4
 74
     0
 42
0.00000001
 43
0.00000001
 40
0.000000283296584
 40
0.000000283296584
 40
0.000000283296584
 40
0.000000283296584
 40
0.0269782996216485
 40
0.0269782996216485
 40
0.0269782996216485
 40
0.0269782996216485
 10
56.31400529890617
 20
30.2636028651233
 30
0.0
 10
56.09685281438401
 20
30.38897591051737
 30
0.0
 10
55.87975480171337
 20
30.5143175065733
 30
0.0
 10
55.66269145075716
 20
30.63963909067907
 30
0.0
  0
ARC
  5
23F
330
1F
100
AcDbEntity
  8
0
  6
Continuous
 62
     7
370
    15
100
AcDbCircle
 10
60.5534273734
 20
28.2489840911
 30
0.0
 40
5.443760574517934
100
AcDbArc
 50
183.9500169595
 51
206.0499830405
  0
SPLINE
  5
240
330
1F
100
AcDbEntity
  8
0
  6
Continuous
 62
     7
370
    15
100
AcDbSpline
210
0.0
220
0.0
230
1.0
 70
    24
 71
     3
 72
     8
 73
     4
 74
     0
 42
0.00000001
 43
0.00000001
 40
0.0
 40
0.0
 40
0.0
 40
0.0
 40
1.0
 40
1.0
 40
1.0
 40
1.0
 10
55.87467077250349
 20
27.87398409106931
 30
0.0
 10
55.62392471130065
 20
27.87398409106931
 30
0.0
 10
55.37324150740029
 20
27.87398409106931
 30
0.0
 10
55.12259832139195
 20
27.87398409106931
 30
0.0
  0
SPLINE
  5
241
330
1F
100
AcDbEntity
  8
0
  6
Continuous
 62
     7
370
    15
100
AcDbSpline
210
0.0
220
0.0
230
1.0
 70
    24
 71
     3
 72
     8
 73
     4
 74
     0
 42
0.00000001
 43
0.00000001
 40
0.000000283296584
 40
0.000000283296584
 40
0.000000283296584
 40
0.000000283296584
 40
0.0269782996216494
 40
0.0269782996216494
 40
0.0269782996216494
 40
0.0269782996216494
 10
56.31400529890616
 20
26.23436531701531
 30
0.0
 10
56.09685281438398
 20
26.10899227162123
 30
0.0
 10
55.87975480171334
 20
25.9836506755653
 30
0.0
 10
55.66269145075712
 20
25.85832909145953
 30
0.0
  0
ARC
  5
242
330
1F
100
AcDbEntity
  8
0
  6
Continuous
 62
     7
370
    15
100
AcDbCircle
 10
60.5534273734
 20
28.2489840911
 30
0.0
 40
5.443760574517932
100
AcDbArc
 50
213.9500169595
 51
236.0499830405
  0
SPLINE
  5
243
330
1F
100
AcDbEntity
  8
0
  6
Continuous
 62
     7
370
    15
100
AcDbSpline
210
0.0
220
0.0
230
1.0
 70
    24
 71
     3
 72
     8
 73
     4
 74
     0
 42
0.00000001
 43
0.00000001
 40
0.000000283296584
 40
0.000000283296584
 40
0.000000283296584
 40
0.000000283296584
 40
0.0269782996216485
 40
0.0269782996216485
 40
0.0269782996216485
 40
0.0269782996216485
 10
56.68900529890616
 20
25.58484626417698
 30
0.0
 10
56.47185281438399
 20
25.45947321878291
 30
0.0
 10
56.25475480171335
 20
25.33413162272699
 30
0.0
 10
56.03769145075714
 20
25.20881003862121
 30
0.0
  0
SPLINE
  5
244
330
1F
100
AcDbEntity
  8
0
  6
Continuous
 62
     7
370
    15
100
AcDbSpline
210
0.0
220
0.0
230
1.0
 70
    24
 71
     3
 72
     8
 73
     4
 74
     0
 42
0.00000001
 43
0.00000001
 40
0.000000283296584
 40
0.000000283296584
 40
0.000000283296584
 40
0.000000283296584
 40
0.0269782996216494
 40
0.0269782996216494
 40
0.0269782996216494
 40
0.0269782996216494
 10
57.88928954655747
 20
24.38456201652565
 30
0.0
 10
57.7639165011634
 20
24.16740953200348
 30
0.0
 10
57.63857490510748
 20
23.95031151933284
 30
0.0
 10
57.5132533210017
 20
23.73324816837662
 30
0.0
  0
CIRCLE
  5
245
330
1F
100
AcDbEntity
  8
0
  6
Continuous
 62
     7
370
    15
100
AcDbCircle
 10
62.7993619232
 20
10.847213482
 30
0.0
 40
1.840098048640721
  0
SPLINE
  5
246
330
1F
100
AcDbEntity
  8
0
  6
Continuous
 62
     7
370
    15
100
AcDbSpline
210
0.0
220
0.0
230
1.0
 70
     8
 71
     3
 72
    11
 73
     7
 74
     0
 42
0.00000001
 43
0.00000001
 40
0.0
 40
0.0
 40
0.0
 40
0.0
 40
0.2494069767021474
 40
0.4988457817867924
 40
0.7494390002091955
 40
1.0
 40
1.0
 40
1.0
 40
1.0
 10
61.26767405741614
 20
12.16454653073133
 30
0.0
 10
61.23652525475639
 20
12.11059511658459
 30
0.0
 10
61.17422367434359
 20
12.00268540321408
 30
0.0
 10
61.08046291255314
 20
11.8402872721349
 30
0.0
 10
60.98655744926369
 20
11.67763819798725
 30
0.0
 10
60.92396725032395
 20
11.5692287432873
 30
0.0
 10
60.89267416278025
 20
11.51502750069726
 30
0.0
  0
SPLINE
  5
247
330
1F
100
AcDbEntity
  8
0
  6
Continuous
 62
     7
370
    15
100
AcDbSpline
210
0.0
220
0.0
230
1.0
 70
     8
 71
     3
 72
    13
 73
     9
 74
     0
 42
0.00000001
 43
0.00000001
 40
0.0
 40
0.0
 40
0.0
 40
0.0
 40
0.1633702644322857
 40
0.3315076906012105
 40
0.4948752081792373
 40
0.6629139258632043
 40
0.8290720021857714
 40
1.0
 40
1.0
 40
1.0
 40
1.0
 10
60.99498750084784
 20
12.32198228535339
 30
0.0
 10
61.00085729763573
 20
12.31859334304007
 30
0.0
 10
61.01276817250771
 20
12.31171656871535
 30
0.0
 10
61.04518435966731
 20
12.29300114055363
 30
0.0
 10
61.08757538218904
 20
12.26852645896189
 30
0.0
 10
61.13940865196071
 20
12.23860062528199
 30
0.0
 10
61.19960448923556
 20
12.2038465995421
 30
0.0
 10
61.24477115837536
 20
12.1777695543574
 30
0.0
 10
61.26767405741614
 20
12.16454653073133
 30
0.0
  0
ARC
  5
248
330
1F
100
AcDbEntity
  8
0
  6
Continuous
 62
     7
370
    15
100
AcDbCircle
 10
62.7993619232
 20
10.847213482
 30
0.0
 40
2.330388386486183
100
AcDbArc
 50
99.2601483966
 51
140.7398516034
  0
SPLINE
  5
249
330
1F
100
AcDbEntity
  8
0
  6
Continuous
 62
     7
370
    15
100
AcDbSpline
210
0.0
220
0.0
230
1.0
 70
    24
 71
     3
 72
    14
 73
    10
 74
     0
 42
0.00000001
 43
0.00000001
 40
0.0
 40
0.0
 40
0.0
 40
0.0
 40
0.1025905875454105
 40
0.268821354901366
 40
0.4350606055769653
 40
0.6012197647085832
 40
0.7673894759807852
 40
0.8836938145743153
 40
1.0
 40
1.0
 40
1.0
 40
1.0
 10
62.42436191859259
 20
13.14723191199928
 30
0.0
 10
62.42436191859259
 20
13.14327196687157
 30
0.0
 10
62.42436191859259
 20
13.1328955976545
 30
0.0
 10
62.42436191859259
 20
13.1042798598033
 30
0.0
 10
62.42436191859259
 20
13.05980709114291
 30
0.0
 10
62.42436191859259
 20
13.0035823519188
 30
0.0
 10
62.42436191859259
 20
12.94439705340262
 30
0.0
 10
62.42436191859259
 20
12.88663117812312
 30
0.0
 10
62.42436191859259
 20
12.8504508547401
 30
0.0
 10
62.42436191859259
 20
12.83236054942013
 30
0.0
  0
SPLINE
  5
24A
330
1F
100
AcDbEntity
  8
0
  6
Continuous
 62
     7
370
    15
100
AcDbSpline
210
0.0
220
0.0
230
1.0
 70
    24
 71
     3
 72
    11
 73
     7
 74
     0
 42
0.00000001
 43
0.00000001
 40
0.0
 40
0.0
 40
0.0
 40
0.0
 40
0.2498283349503304
 40
0.50000001178634
 40
0.7498595194392005
 40
1.0
 40
1.0
 40
1.0
 40
1.0
 10
62.42436191859259
 20
12.83236054942013
 30
0.0
 10
62.48676629818988
 20
12.83236054942013
 30
0.0
 10
62.61166082042401
 20
12.83236054942013
 30
0.0
 10
62.79928383133181
 20
12.83236054942013
 30
0.0
 10
62.98698484718759
 20
12.83236054942013
 30
0.0
 10
63.11187950629282
 20
12.83236054942013
 30
0.0
 10
63.17436192786182
 20
12.83236054942013
 30
0.0
  0
SPLINE
  5
24B
330
1F
100
AcDbEntity
  8
0
  6
Continuous
 62
     7
370
    15
100
AcDbSpline
210
0.0
220
0.0
230
1.0
 70
    24
 71
     3
 72
    15
 73
    11
 74
     0
 42
0.00000001
 43
0.00000001
 40
0.0
 40
0.0
 40
0.0
 40
0.0
 40
0.0028599057737003
 40
0.1754488326305483
 40
0.348022523758005
 40
0.5176581964657103
 40
0.6872825203359355
 40
0.7923462854883597
 40
0.8974062277816994
 40
1.0
 40
1.0
 40
1.0
 40
1.0
 10
63.17436192786182
 20
12.83236054942013
 30
0.0
 10
63.17436192786182
 20
12.83281079325889
 30
0.0
 10
63.17436192786182
 20
12.86043224730683
 30
0.0
 10
63.17436192786182
 20
12.91342744763231
 30
0.0
 10
63.17436192786182
 20
12.9843073453399
 30
0.0
 10
63.17436192786182
 20
13.04489567390849
 30
0.0
 10
63.17436192786182
 20
13.08782742945074
 30
0.0
 10
63.17436192786182
 20
13.11645337639894
 30
0.0
 10
63.17436192786182
 20
13.13529802988868
 30
0.0
 10
63.17436192786182
 20
13.14328557226954
 30
0.0
 10
63.17436192786182
 20
13.14723191199928
 30
0.0
  0
ARC
  5
24C
330
1F
100
AcDbEntity
  8
0
  6
Continuous
 62
     7
370
    15
100
AcDbCircle
 10
62.7993619232
 20
10.847213482
 30
0.0
 40
2.330388386486187
100
AcDbArc
 50
39.2601483966
 51
80.7398516034
  0
SPLINE
  5
24D
330
1F
100
AcDbEntity
  8
0
  6
Continuous
 62
     7
370
    15
100
AcDbSpline
210
0.0
220
0.0
230
1.0
 70
     8
 71
     3
 72
    13
 73
     9
 74
     0
 42
0.00000001
 43
0.00000001
 40
0.0
 40
0.0
 40
0.0
 40
0.0
 40
0.1633702644322857
 40
0.3315076906012105
 40
0.4948752081792373
 40
0.6629139258632043
 40
0.8290720021857714
 40
1.0
 40
1.0
 40
1.0
 40
1.0
 10
64.60373634560658
 20
12.32198228535339
 30
0.0
 10
64.59786654881867
 20
12.31859334304007
 30
0.0
 10
64.5859556739467
 20
12.31171656871535
 30
0.0
 10
64.5535394867871
 20
12.29300114055363
 30
0.0
 10
64.51114846426536
 20
12.26852645896189
 30
0.0
 10
64.4593151944937
 20
12.23860062528199
 30
0.0
 10
64.39911935721885
 20
12.2038465995421
 30
0.0
 10
64.35395268807905
 20
12.1777695543574
 30
0.0
 10
64.33104978903827
 20
12.16454653073133
 30
0.0
  0
SPLINE
  5
24E
330
1F
100
AcDbEntity
  8
0
  6
Continuous
 62
     7
370
    15
100
AcDbSpline
210
0.0
220
0.0
230
1.0
 70
     8
 71
     3
 72
    11
 73
     7
 74
     0
 42
0.00000001
 43
0.00000001
 40
0.0
 40
0.0
 40
0.0
 40
0.0
 40
0.2494069767021474
 40
0.4988457817867924
 40
0.7494390002091955
 40
1.0
 40
1.0
 40
1.0
 40
1.0
 10
64.33104978903827
 20
12.16454653073133
 30
0.0
 10
64.36219859169802
 20
12.11059511658459
 30
0.0
 10
64.42450017211083
 20
12.00268540321408
 30
0.0
 10
64.51826093390126
 20
11.8402872721349
 30
0.0
 10
64.61216639719072
 20
11.67763819798725
 30
0.0
 10
64.67475659613045
 20
11.5692287432873
 30
0.0
 10
64.70604968367415
 20
11.51502750069726
 30
0.0
  0
SPLINE
  5
24F
330
1F
100
AcDbEntity
  8
0
  6
Continuous
 62
     7
370
    15
100
AcDbSpline
210
0.0
220
0.0
230
1.0
 70
     8
 71
     3
 72
    13
 73
     9
 74
     0
 42
0.00000001
 43
0.00000001
 40
0.0
 40
0.0
 40
0.0
 40
0.0
 40
0.1665084650896813
 40
0.3377892796406384
 40
0.5043269226799997
 40
0.6757998722893391
 40
0.8356747946206793
 40
0.9999999999999999
 40
0.9999999999999999
 40
0.9999999999999999
 40
0.9999999999999999
 10
64.70604968367415
 20
11.51502750069726
 30
0.0
 10
64.72836748240317
 20
11.52791268761777
 30
0.0
 10
64.7736427370383
 20
11.55405236769692
 30
0.0
 10
64.83384398136651
 20
11.58880953158888
 30
0.0
 10
64.88688880122885
 20
11.61943498637618
 30
0.0
 10
64.92896304284594
 20
11.64372660542966
 30
0.0
 10
64.96117341519306
 20
11.66232323756712
 30
0.0
 10
64.97282873230172
 20
11.66905241014668
 30
0.0
 10
64.97873638690743
 20
11.67246318198683
 30
0.0
  0
ARC
  5
250
330
1F
100
AcDbEntity
  8
0
  6
Continuous
 62
     7
370
    15
100
AcDbCircle
 10
62.7993619232
 20
10.847213482
 30
0.0
 40
2.33038838648619
100
AcDbArc
 50
339.2601483966
 51
20.7398516034
  0
SPLINE
  5
251
330
1F
100
AcDbEntity
  8
0
  6
Continuous
 62
     7
370
    15
100
AcDbSpline
210
0.0
220
0.0
230
1.0
 70
     8
 71
     3
 72
    13
 73
     9
 74
     0
 42
0.00000001
 43
0.00000001
 40
0.0
 40
0.0
 40
0.0
 40
0.0
 40
0.1665084650896813
 40
0.3377892796406384
 40
0.5043269226799997
 40
0.6757998722893391
 40
0.8356747946206793
 40
0.9999999999999999
 40
0.9999999999999999
 40
0.9999999999999999
 40
0.9999999999999999
 10
64.70604968367415
 20
10.17939946331965
 30
0.0
 10
64.72836748240317
 20
10.16651427639914
 30
0.0
 10
64.7736427370383
 20
10.14037459631998
 30
0.0
 10
64.83384398136651
 20
10.10561743242803
 30
0.0
 10
64.88688880122885
 20
10.07499197764072
 30
0.0
 10
64.92896304284594
 20
10.05070035858725
 30
0.0
 10
64.96117341519306
 20
10.03210372644978
 30
0.0
 10
64.97282873230172
 20
10.02537455387023
 30
0.0
 10
64.97873638690743
 20
10.02196378203007
 30
0.0
  0
SPLINE
  5
252
330
1F
100
AcDbEntity
  8
0
  6
Continuous
 62
     7
370
    15
100
AcDbSpline
210
0.0
220
0.0
230
1.0
 70
     8
 71
     3
 72
    11
 73
     7
 74
     0
 42
0.00000001
 43
0.00000001
 40
0.0
 40
0.0
 40
0.0
 40
0.0
 40
0.2494069767021474
 40
0.4988457817867924
 40
0.7494390002091955
 40
1.0
 40
1.0
 40
1.0
 40
1.0
 10
64.33104978903827
 20
9.529880433285577
 30
0.0
 10
64.36219859169802
 20
9.583831847432316
 30
0.0
 10
64.42450017211083
 20
9.691741560802823
 30
0.0
 10
64.51826093390126
 20
9.854139691882004
 30
0.0
 10
64.61216639719072
 20
10.01678876602966
 30
0.0
 10
64.67475659613045
 20
10.12519822072961
 30
0.0
 10
64.70604968367415
 20
10.17939946331965
 30
0.0
  0
SPLINE
  5
253
330
1F
100
AcDbEntity
  8
0
  6
Continuous
 62
     7
370
    15
100
AcDbSpline
210
0.0
220
0.0
230
1.0
 70
     8
 71
     3
 72
    13
 73
     9
 74
     0
 42
0.00000001
 43
0.00000001
 40
0.0
 40
0.0
 40
0.0
 40
0.0
 40
0.1633702644322857
 40
0.3315076906012105
 40
0.4948752081792373
 40
0.6629139258632043
 40
0.8290720021857714
 40
1.0
 40
1.0
 40
1.0
 40
1.0
 10
64.60373634560658
 20
9.372444678663516
 30
0.0
 10
64.59786654881867
 20
9.375833620976838
 30
0.0
 10
64.5859556739467
 20
9.382710395301556
 30
0.0
 10
64.5535394867871
 20
9.401425823463278
 30
0.0
 10
64.51114846426536
 20
9.425900505055015
 30
0.0
 10
64.4593151944937
 20
9.455826338734912
 30
0.0
 10
64.39911935721885
 20
9.490580364474805
 30
0.0
 10
64.35395268807905
 20
9.516657409659501
 30
0.0
 10
64.33104978903827
 20
9.529880433285577
 30
0.0
  0
ARC
  5
254
330
1F
100
AcDbEntity
  8
0
  6
Continuous
 62
     7
370
    15
100
AcDbCircle
 10
62.7993619232
 20
10.847213482
 30
0.0
 40
2.330388386486187
100
AcDbArc
 50
279.2601483966
 51
320.7398516034
  0
SPLINE
  5
255
330
1F
100
AcDbEntity
  8
0
  6
Continuous
 62
     7
370
    15
100
AcDbSpline
210
0.0
220
0.0
230
1.0
 70
    24
 71
     3
 72
    15
 73
    11
 74
     0
 42
0.00000001
 43
0.00000001
 40
0.0
 40
0.0
 40
0.0
 40
0.0
 40
0.0028599057737003
 40
0.1754488326305483
 40
0.348022523758005
 40
0.5176581964657103
 40
0.6872825203359355
 40
0.7923462854883597
 40
0.8974062277816994
 40
1.0
 40
1.0
 40
1.0
 40
1.0
 10
63.17436192786182
 20
8.862066414596775
 30
0.0
 10
63.17436192786182
 20
8.861616170758014
 30
0.0
 10
63.17436192786182
 20
8.833994716710079
 30
0.0
 10
63.17436192786182
 20
8.780999516384592
 30
0.0
 10
63.17436192786182
 20
8.710119618677005
 30
0.0
 10
63.17436192786182
 20
8.649531290108412
 30
0.0
 10
63.17436192786182
 20
8.60659953456616
 30
0.0
 10
63.17436192786182
 20
8.577973587617963
 30
0.0
 10
63.17436192786182
 20
8.559128934128228
 30
0.0
 10
63.17436192786182
 20
8.551141391747366
 30
0.0
 10
63.17436192786182
 20
8.547195052017624
 30
0.0
  0
SPLINE
  5
256
330
1F
100
AcDbEntity
  8
0
  6
Continuous
 62
     7
370
    15
100
AcDbSpline
210
0.0
220
0.0
230
1.0
 70
    24
 71
     3
 72
    11
 73
     7
 74
     0
 42
0.00000001
 43
0.00000001
 40
0.0
 40
0.0
 40
0.0
 40
0.0
 40
0.2498283349503304
 40
0.50000001178634
 40
0.7498595194392005
 40
1.0
 40
1.0
 40
1.0
 40
1.0
 10
62.42436191859259
 20
8.862066414596775
 30
0.0
 10
62.48676629818988
 20
8.862066414596775
 30
0.0
 10
62.61166082042401
 20
8.862066414596775
 30
0.0
 10
62.79928383133181
 20
8.862066414596775
 30
0.0
 10
62.98698484718759
 20
8.862066414596775
 30
0.0
 10
63.11187950629282
 20
8.862066414596775
 30
0.0
 10
63.17436192786182
 20
8.862066414596775
 30
0.0
  0
SPLINE
  5
257
330
1F
100
AcDbEntity
  8
0
  6
Continuous
 62
     7
370
    15
100
AcDbSpline
210
0.0
220
0.0
230
1.0
 70
    24
 71
     3
 72
    14
 73
    10
 74
     0
 42
0.00000001
 43
0.00000001
 40
0.0
 40
0.0
 40
0.0
 40
0.0
 40
0.1025905875454105
 40
0.268821354901366
 40
0.4350606055769653
 40
0.6012197647085832
 40
0.7673894759807852
 40
0.8836938145743153
 40
1.0
 40
1.0
 40
1.0
 40
1.0
 10
62.42436191859259
 20
8.547195052017624
 30
0.0
 10
62.42436191859259
 20
8.551154997145337
 30
0.0
 10
62.42436191859259
 20
8.561531366362404
 30
0.0
 10
62.42436191859259
 20
8.590147104213607
 30
0.0
 10
62.42436191859259
 20
8.634619872874
 30
0.0
 10
62.42436191859259
 20
8.690844612098106
 30
0.0
 10
62.42436191859259
 20
8.75002991061429
 30
0.0
 10
62.42436191859259
 20
8.80779578589379
 30
0.0
 10
62.42436191859259
 20
8.843976109276802
 30
0.0
 10
62.42436191859259
 20
8.862066414596775
 30
0.0
  0
ARC
  5
258
330
1F
100
AcDbEntity
  8
0
  6
Continuous
 62
     7
370
    15
100
AcDbCircle
 10
62.7993619232
 20
10.847213482
 30
0.0
 40
2.330388386486183
100
AcDbArc
 50
219.2601483966
 51
260.7398516034
  0
SPLINE
  5
259
330
1F
100
AcDbEntity
  8
0
  6
Continuous
 62
     7
370
    15
100
AcDbSpline
210
0.0
220
0.0
230
1.0
 70
     8
 71
     3
 72
    13
 73
     9
 74
     0
 42
0.00000001
 43
0.00000001
 40
0.0
 40
0.0
 40
0.0
 40
0.0
 40
0.1633702644322857
 40
0.3315076906012105
 40
0.4948752081792373
 40
0.6629139258632043
 40
0.8290720021857714
 40
1.0
 40
1.0
 40
1.0
 40
1.0
 10
60.99498750084784
 20
9.372444678663516
 30
0.0
 10
61.00085729763573
 20
9.375833620976838
 30
0.0
 10
61.01276817250771
 20
9.382710395301556
 30
0.0
 10
61.04518435966731
 20
9.401425823463278
 30
0.0
 10
61.08757538218904
 20
9.425900505055015
 30
0.0
 10
61.13940865196071
 20
9.455826338734912
 30
0.0
 10
61.19960448923556
 20
9.490580364474805
 30
0.0
 10
61.24477115837536
 20
9.516657409659501
 30
0.0
 10
61.26767405741614
 20
9.529880433285577
 30
0.0
  0
SPLINE
  5
25A
330
1F
100
AcDbEntity
  8
0
  6
Continuous
 62
     7
370
    15
100
AcDbSpline
210
0.0
220
0.0
230
1.0
 70
     8
 71
     3
 72
    11
 73
     7
 74
     0
 42
0.00000001
 43
0.00000001
 40
0.0
 40
0.0
 40
0.0
 40
0.0
 40
0.2494069767021474
 40
0.4988457817867924
 40
0.7494390002091955
 40
1.0
 40
1.0
 40
1.0
 40
1.0
 10
61.26767405741614
 20
9.529880433285577
 30
0.0
 10
61.23652525475639
 20
9.583831847432316
 30
0.0
 10
61.17422367434359
 20
9.691741560802823
 30
0.0
 10
61.08046291255314
 20
9.854139691882004
 30
0.0
 10
60.98655744926369
 20
10.01678876602966
 30
0.0
 10
60.92396725032395
 20
10.12519822072961
 30
0.0
 10
60.89267416278025
 20
10.17939946331965
 30
0.0
  0
SPLINE
  5
25B
330
1F
100
AcDbEntity
  8
0
  6
Continuous
 62
     7
370
    15
100
AcDbSpline
210
0.0
220
0.0
230
1.0
 70
     8
 71
     3
 72
    13
 73
     9
 74
     0
 42
0.00000001
 43
0.00000001
 40
0.0
 40
0.0
 40
0.0
 40
0.0
 40
0.1665084650896813
 40
0.3377892796406384
 40
0.5043269226799997
 40
0.6757998722893391
 40
0.8356747946206793
 40
0.9999999999999999
 40
0.9999999999999999
 40
0.9999999999999999
 40
0.9999999999999999
 10
60.89267416278025
 20
10.17939946331965
 30
0.0
 10
60.87035636405123
 20
10.16651427639914
 30
0.0
 10
60.82508110941611
 20
10.14037459631998
 30
0.0
 10
60.7648798650879
 20
10.10561743242803
 30
0.0
 10
60.71183504522556
 20
10.07499197764072
 30
0.0
 10
60.66976080360847
 20
10.05070035858725
 30
0.0
 10
60.63755043126135
 20
10.03210372644978
 30
0.0
 10
60.62589511415269
 20
10.02537455387023
 30
0.0
 10
60.61998745954698
 20
10.02196378203007
 30
0.0
  0
ARC
  5
25C
330
1F
100
AcDbEntity
  8
0
  6
Continuous
 62
     7
370
    15
100
AcDbCircle
 10
62.7993619232
 20
10.847213482
 30
0.0
 40
2.330388386486184
100
AcDbArc
 50
159.2601483966
 51
200.7398516034
  0
SPLINE
  5
25D
330
1F
100
AcDbEntity
  8
0
  6
Continuous
 62
     7
370
    15
100
AcDbSpline
210
0.0
220
0.0
230
1.0
 70
     8
 71
     3
 72
    13
 73
     9
 74
     0
 42
0.00000001
 43
0.00000001
 40
0.0
 40
0.0
 40
0.0
 40
0.0
 40
0.1665084650896813
 40
0.3377892796406384
 40
0.5043269226799997
 40
0.6757998722893391
 40
0.8356747946206793
 40
0.9999999999999999
 40
0.9999999999999999
 40
0.9999999999999999
 40
0.9999999999999999
 10
60.89267416278025
 20
11.51502750069726
 30
0.0
 10
60.87035636405123
 20
11.52791268761777
 30
0.0
 10
60.82508110941611
 20
11.55405236769692
 30
0.0
 10
60.7648798650879
 20
11.58880953158888
 30
0.0
 10
60.71183504522556
 20
11.61943498637618
 30
0.0
 10
60.66976080360847
 20
11.64372660542966
 30
0.0
 10
60.63755043126135
 20
11.66232323756712
 30
0.0
 10
60.62589511415269
 20
11.66905241014668
 30
0.0
 10
60.61998745954698
 20
11.67246318198683
 30
0.0
  0
CIRCLE
  5
25E
330
1F
100
AcDbEntity
  8
0
  6
Continuous
 62
     7
370
    15
100
AcDbCircle
 10
62.7993619232
 20
10.847213482
 30
0.0
 40
0.5
  0
ARC
  5
25F
330
1F
100
AcDbEntity
  8
0
  6
Continuous
 62
     7
370
    15
100
AcDbCircle
 10
62.7993619232
 20
10.847213482
 30
0.0
 40
2.400000000000002
100
AcDbArc
 50
98.9892993452
 51
141.0107006548
  0
SPLINE
  5
260
330
1F
100
AcDbEntity
  8
0
  6
Continuous
 62
     7
370
    15
100
AcDbSpline
210
0.0
220
0.0
230
1.0
 70
    24
 71
     3
 72
    11
 73
     7
 74
     0
 42
0.00000001
 43
0.00000001
 40
0.0244559959762762
 40
0.0244559959762762
 40
0.0244559959762762
 40
0.0244559959762762
 40
0.0256519226994146
 40
0.0256519226994146
 40
0.0256519226994146
 40
0.0334762214025926
 40
0.0334762214025926
 40
0.0334762214025926
 40
0.0334762214025926
 10
62.4243619232272
 20
13.21773557640032
 30
0.0
 10
62.4243619232272
 20
13.2146208402587
 30
0.0
 10
62.4243619232272
 20
13.21150596014699
 30
0.0
 10
62.4243619232272
 20
13.20839093435156
 30
0.0
 10
62.4243619232272
 20
13.18801101343574
 30
0.0
 10
62.4243619232272
 20
13.16762486098871
 30
0.0
 10
62.4243619232272
 20
13.14723196712323
 30
0.0
  0
SPLINE
  5
261
330
1F
100
AcDbEntity
  8
0
  6
Continuous
 62
     7
370
    15
100
AcDbSpline
210
0.0
220
0.0
230
1.0
 70
    24
 71
     3
 72
     8
 73
     4
 74
     0
 42
0.00000001
 43
0.00000001
 40
0.0000002040589126
 40
0.0000002040589126
 40
0.0000002040589126
 40
0.0000002040589126
 40
0.0090204295439232
 40
0.0090204295439232
 40
0.0090204295439232
 40
0.0090204295439232
 10
60.93392956925155
 20
12.35723405562354
 30
0.0
 10
60.95427489795102
 20
12.34548767462215
 30
0.0
 10
60.97462731310358
 20
12.33373720225517
 30
0.0
 10
60.994987485944
 20
12.321982250985
 30
0.0
  0
ARC
  5
262
330
1F
100
AcDbEntity
  8
0
  6
Continuous
 62
     7
370
    15
100
AcDbCircle
 10
62.7993619232
 20
10.847213482
 30
0.0
 40
2.399999999999998
100
AcDbArc
 50
158.9892993452
 51
201.0107006548
  0
SPLINE
  5
263
330
1F
100
AcDbEntity
  8
0
  6
Continuous
 62
     7
370
    15
100
AcDbSpline
210
0.0
220
0.0
230
1.0
 70
    24
 71
     3
 72
     8
 73
     4
 74
     0
 42
0.00000001
 43
0.00000001
 40
0.0000002040650195
 40
0.0000002040650195
 40
0.0000002040650195
 40
0.0000002040650195
 40
0.0090204295500301
 40
0.0090204295500301
 40
0.0090204295500301
 40
0.0090204295500301
 10
60.619987485944
 20
11.67246319814667
 30
0.0
 10
60.59962731310358
 20
11.68421814941684
 30
0.0
 10
60.57927489795103
 20
11.69596862178383
 30
0.0
 10
60.55892956925155
 20
11.70771500278522
 30
0.0
  0
SPLINE
  5
264
330
1F
100
AcDbEntity
  8
0
  6
Continuous
 62
     7
370
    15
100
AcDbSpline
210
0.0
220
0.0
230
1.0
 70
    24
 71
     3
 72
     8
 73
     4
 74
     0
 42
0.00000001
 43
0.00000001
 40
0.0000002040650195
 40
0.0000002040650195
 40
0.0000002040650195
 40
0.0000002040650195
 40
0.0090204295500301
 40
0.0090204295500301
 40
0.0090204295500301
 40
0.0090204295500301
 10
60.619987485944
 20
10.02196376587023
 30
0.0
 10
60.59962731310358
 20
10.01020881460007
 30
0.0
 10
60.57927489795103
 20
9.99845834223308
 30
0.0
 10
60.55892956925155
 20
9.98671196123169
 30
0.0
  0
ARC
  5
265
330
1F
100
AcDbEntity
  8
0
  6
Continuous
 62
     7
370
    15
100
AcDbCircle
 10
62.7993619232
 20
10.847213482
 30
0.0
 40
2.400000000000002
100
AcDbArc
 50
38.9892993452
 51
81.0107006548
  0
SPLINE
  5
266
330
1F
100
AcDbEntity
  8
0
  6
Continuous
 62
     7
370
    15
100
AcDbSpline
210
0.0
220
0.0
230
1.0
 70
    24
 71
     3
 72
     8
 73
     4
 74
     0
 42
0.00000001
 43
0.00000001
 40
0.0000002040589126
 40
0.0000002040589126
 40
0.0000002040589126
 40
0.0000002040589126
 40
0.0090204295439232
 40
0.0090204295439232
 40
0.0090204295439232
 40
0.0090204295439232
 10
64.66479427720286
 20
12.35723405562354
 30
0.0
 10
64.6444489485034
 20
12.34548767462215
 30
0.0
 10
64.62409653335082
 20
12.33373720225517
 30
0.0
 10
64.60373636051041
 20
12.321982250985
 30
0.0
  0
SPLINE
  5
267
330
1F
100
AcDbEntity
  8
0
  6
Continuous
 62
     7
370
    15
100
AcDbSpline
210
0.0
220
0.0
230
1.0
 70
    24
 71
     3
 72
    11
 73
     7
 74
     0
 42
0.00000001
 43
0.00000001
 40
0.0178276242340192
 40
0.0178276242340192
 40
0.0178276242340192
 40
0.0178276242340192
 40
0.0256519228816209
 40
0.0256519228816209
 40
0.0256519228816209
 40
0.0268478495962646
 40
0.0268478495962646
 40
0.0268478495962646
 40
0.0268478495962646
 10
63.1743619232272
 20
13.14723196712323
 30
0.0
 10
63.1743619232272
 20
13.16762486098871
 30
0.0
 10
63.1743619232272
 20
13.18801101343574
 30
0.0
 10
63.1743619232272
 20
13.20839093435156
 30
0.0
 10
63.1743619232272
 20
13.21150596014699
 30
0.0
 10
63.1743619232272
 20
13.2146208402587
 30
0.0
 10
63.1743619232272
 20
13.21773557640032
 30
0.0
  0
ARC
  5
268
330
1F
100
AcDbEntity
  8
0
  6
Continuous
 62
     7
370
    15
100
AcDbCircle
 10
62.7993619232
 20
10.847213482
 30
0.0
 40
2.400000000000002
100
AcDbArc
 50
278.9892993452
 51
321.0107006548
  0
SPLINE
  5
269
330
1F
100
AcDbEntity
  8
0
  6
Continuous
 62
     7
370
    15
100
AcDbSpline
210
0.0
220
0.0
230
1.0
 70
    24
 71
     3
 72
     8
 73
     4
 74
     0
 42
0.00000001
 43
0.00000001
 40
0.0000002040589126
 40
0.0000002040589126
 40
0.0000002040589126
 40
0.0000002040589126
 40
0.0090204295439232
 40
0.0090204295439232
 40
0.0090204295439232
 40
0.0090204295439232
 10
64.66479427720286
 20
9.33719290839336
 30
0.0
 10
64.6444489485034
 20
9.348939289394751
 30
0.0
 10
64.62409653335082
 20
9.360689761761739
 30
0.0
 10
64.60373636051041
 20
9.372444713031905
 30
0.0
  0
SPLINE
  5
26A
330
1F
100
AcDbEntity
  8
0
  6
Continuous
 62
     7
370
    15
100
AcDbSpline
210
0.0
220
0.0
230
1.0
 70
    24
 71
     3
 72
    11
 73
     7
 74
     0
 42
0.00000001
 43
0.00000001
 40
0.0178276242340192
 40
0.0178276242340192
 40
0.0178276242340192
 40
0.0178276242340192
 40
0.0256519228816209
 40
0.0256519228816209
 40
0.0256519228816209
 40
0.0268478495962646
 40
0.0268478495962646
 40
0.0268478495962646
 40
0.0268478495962646
 10
63.1743619232272
 20
8.547194996893678
 30
0.0
 10
63.1743619232272
 20
8.526802103028198
 30
0.0
 10
63.1743619232272
 20
8.506415950581168
 30
0.0
 10
63.1743619232272
 20
8.486036029665348
 30
0.0
 10
63.1743619232272
 20
8.482921003869919
 30
0.0
 10
63.1743619232272
 20
8.479806123758209
 30
0.0
 10
63.1743619232272
 20
8.476691387616587
 30
0.0
  0
ARC
  5
26B
330
1F
100
AcDbEntity
  8
0
  6
Continuous
 62
     7
370
    15
100
AcDbCircle
 10
62.7993619232
 20
10.847213482
 30
0.0
 40
2.4
100
AcDbArc
 50
218.9892993452
 51
261.0107006548
  0
SPLINE
  5
26C
330
1F
100
AcDbEntity
  8
0
  6
Continuous
 62
     7
370
    15
100
AcDbSpline
210
0.0
220
0.0
230
1.0
 70
    24
 71
     3
 72
    11
 73
     7
 74
     0
 42
0.00000001
 43
0.00000001
 40
0.0244559959762762
 40
0.0244559959762762
 40
0.0244559959762762
 40
0.0244559959762762
 40
0.0256519226994146
 40
0.0256519226994146
 40
0.0256519226994146
 40
0.0334762214025926
 40
0.0334762214025926
 40
0.0334762214025926
 40
0.0334762214025926
 10
62.4243619232272
 20
8.476691387616587
 30
0.0
 10
62.4243619232272
 20
8.479806123758209
 30
0.0
 10
62.4243619232272
 20
8.482921003869919
 30
0.0
 10
62.4243619232272
 20
8.486036029665348
 30
0.0
 10
62.4243619232272
 20
8.506415950581168
 30
0.0
 10
62.4243619232272
 20
8.526802103028198
 30
0.0
 10
62.4243619232272
 20
8.547194996893676
 30
0.0
  0
SPLINE
  5
26D
330
1F
100
AcDbEntity
  8
0
  6
Continuous
 62
     7
370
    15
100
AcDbSpline
210
0.0
220
0.0
230
1.0
 70
    24
 71
     3
 72
     8
 73
     4
 74
     0
 42
0.00000001
 43
0.00000001
 40
0.0000002040589126
 40
0.0000002040589126
 40
0.0000002040589126
 40
0.0000002040589126
 40
0.0090204295439232
 40
0.0090204295439232
 40
0.0090204295439232
 40
0.0090204295439232
 10
60.93392956925155
 20
9.337192908393359
 30
0.0
 10
60.95427489795102
 20
9.34893928939475
 30
0.0
 10
60.97462731310358
 20
9.360689761761739
 30
0.0
 10
60.994987485944
 20
9.372444713031904
 30
0.0
  0
ARC
  5
26E
330
1F
100
AcDbEntity
  8
0
  6
Continuous
 62
     7
370
    15
100
AcDbCircle
 10
62.7993619232
 20
10.847213482
 30
0.0
 40
2.400000000000005
100
AcDbArc
 50
338.9892993452
 51
21.0107006548
  0
SPLINE
  5
26F
330
1F
100
AcDbEntity
  8
0
  6
Continuous
 62
     7
370
    15
100
AcDbSpline
210
0.0
220
0.0
230
1.0
 70
    24
 71
     3
 72
     8
 73
     4
 74
     0
 42
0.00000001
 43
0.00000001
 40
0.0000002040650195
 40
0.0000002040650195
 40
0.0000002040650195
 40
0.0000002040650195
 40
0.0090204295500301
 40
0.0090204295500301
 40
0.0090204295500301
 40
0.0090204295500301
 10
64.97873636051041
 20
10.02196376587023
 30
0.0
 10
64.99909653335082
 20
10.01020881460007
 30
0.0
 10
65.01944894850338
 20
9.99845834223308
 30
0.0
 10
65.03979427720286
 20
9.98671196123169
 30
0.0
  0
SPLINE
  5
270
330
1F
100
AcDbEntity
  8
0
  6
Continuous
 62
     7
370
    15
100
AcDbSpline
210
0.0
220
0.0
230
1.0
 70
    24
 71
     3
 72
     8
 73
     4
 74
     0
 42
0.00000001
 43
0.00000001
 40
0.0000002040650195
 40
0.0000002040650195
 40
0.0000002040650195
 40
0.0000002040650195
 40
0.0090204295500301
 40
0.0090204295500301
 40
0.0090204295500301
 40
0.0090204295500301
 10
64.97873636051041
 20
11.67246319814667
 30
0.0
 10
64.99909653335082
 20
11.68421814941684
 30
0.0
 10
65.01944894850338
 20
11.69596862178383
 30
0.0
 10
65.03979427720286
 20
11.70771500278522
 30
0.0
  0
INSERT
  5
27C
330
1F
100
AcDbEntity
  8
0
  6
Continuous
 62
     7
370
     0
100
AcDbBlockReference
  2
SW_CENTERMARKSYMBOL_0
 10
62.7993619232
 20
10.847213482
 30
0.0
  0
LINE
  5
27D
330
1F
100
AcDbEntity
  8
0
  6
Continuous
 62
     7
370
    15
100
AcDbLine
 10
58.3952189053
 20
9.7943369687
 30
0.0
 11
58.3952189053
 21
9.2943370114
 31
0.0
  0
LINE
  5
27E
330
1F
100
AcDbEntity
  8
0
  6
Continuous
 62
     7
370
    15
100
AcDbLine
 10
58.3952189053
 20
9.2943370114
 30
0.0
 11
56.3952190761
 21
9.2943370114
 31
0.0
  0
LINE
  5
27F
330
1F
100
AcDbEntity
  8
0
  6
Continuous
 62
     7
370
    15
100
AcDbLine
 10
56.3952190761
 20
9.2943370114
 30
0.0
 11
56.3952190761
 21
9.7943369687
 31
0.0
  0
LINE
  5
280
330
1F
100
AcDbEntity
  8
0
  6
Continuous
 62
     7
370
    15
100
AcDbLine
 10
57.1452191587
 20
11.0443368619
 30
0.0
 11
56.3952190761
 21
11.0443368619
 31
0.0
  0
LINE
  5
281
330
1F
100
AcDbEntity
  8
0
  6
Continuous
 62
     7
370
    15
100
AcDbLine
 10
56.3952190761
 20
11.0443368619
 30
0.0
 11
56.3952190761
 21
12.5443370271
 31
0.0
  0
ARC
  5
282
330
1F
100
AcDbEntity
  8
0
  6
Continuous
 62
     7
370
    15
100
AcDbCircle
 10
57.3952190536
 20
12.5443369935
 30
0.0
 40
1.000000000000007
100
AcDbArc
 50
0.0
 51
180.0
  0
LINE
  5
283
330
1F
100
AcDbEntity
  8
0
  6
Continuous
 62
     7
370
    15
100
AcDbLine
 10
58.3952189053
 20
12.5443370271
 30
0.0
 11
58.3952189053
 21
11.0443368619
 31
0.0
  0
LINE
  5
284
330
1F
100
AcDbEntity
  8
0
  6
Continuous
 62
     7
370
    15
100
AcDbLine
 10
58.3952189053
 20
11.0443368619
 30
0.0
 11
57.6452188227
 21
11.0443368619
 31
0.0
  0
CIRCLE
  5
285
330
1F
100
AcDbEntity
  8
0
  6
Continuous
 62
     7
370
    15
100
AcDbCircle
 10
57.3952190536
 20
12.5443369935
 30
0.0
 40
0.6875
  0
LINE
  5
286
330
1F
100
AcDbEntity
  8
0
  6
Continuous
 62
     7
370
    15
100
AcDbLine
 10
57.6452188227
 20
9.7943369687
 30
0.0
 11
58.3952189053
 21
9.7943369687
 31
0.0
  0
LINE
  5
287
330
1F
100
AcDbEntity
  8
0
  6
Continuous
 62
     7
370
    15
100
AcDbLine
 10
56.3952190761
 20
9.7943369687
 30
0.0
 11
57.1452191587
 21
9.7943369687
 31
0.0
  0
LINE
  5
288
330
1F
100
AcDbEntity
  8
0
  6
Continuous
 62
     7
370
    15
100
AcDbLine
 10
57.1452191587
 20
9.7943369687
 30
0.0
 11
57.1452191587
 21
11.0443368619
 31
0.0
  0
LINE
  5
289
330
1F
100
AcDbEntity
  8
0
  6
Continuous
 62
     7
370
    15
100
AcDbLine
 10
57.6452188227
 20
11.0443368619
 30
0.0
 11
57.6452188227
 21
9.7943369687
 31
0.0
  0
LINE
  5
28A
330
1F
100
AcDbEntity
  8
0
  6
Continuous
 62
     7
370
    15
100
AcDbLine
 10
27.0067504141
 20
13.30000407
 30
0.0
 11
26.7942503275
 21
13.30000407
 31
0.0
  0
LINE
  5
28B
330
1F
100
AcDbEntity
  8
0
  6
Continuous
 62
     7
370
    15
100
AcDbLine
 10
27.0067504141
 20
14.0500041526
 30
0.0
 11
27.0067504141
 21
13.30000407
 31
0.0
  0
LINE
  5
28C
330
1F
100
AcDbEntity
  8
0
  6
Continuous
 62
     7
370
    15
100
AcDbLine
 10
27.0067504141
 20
14.0500041526
 30
0.0
 11
26.6442503347
 21
14.0500041526
 31
0.0
  0
LINE
  5
28D
330
1F
100
AcDbEntity
  8
0
  6
Continuous
 62
     7
370
    15
100
AcDbLine
 10
26.6442503347
 20
14.0500041526
 30
0.0
 11
26.5442504241
 21
14.5500038166
 31
0.0
  0
LINE
  5
28E
330
1F
100
AcDbEntity
  8
0
  6
Continuous
 62
     7
370
    15
100
AcDbLine
 10
26.7567503837
 20
14.5500038166
 30
0.0
 11
26.5442504241
 21
14.5500038166
 31
0.0
  0
LINE
  5
28F
330
1F
100
AcDbEntity
  8
0
  6
Continuous
 62
     7
370
    15
100
AcDbLine
 10
26.7567503837
 20
15.3000038992
 30
0.0
 11
26.7567503837
 21
14.5500038166
 31
0.0
  0
LINE
  5
290
330
1F
100
AcDbEntity
  8
0
  6
Continuous
 62
     7
370
    15
100
AcDbLine
 10
26.7567503837
 20
15.3000038992
 30
0.0
 11
26.3942504313
 21
15.3000038992
 31
0.0
  0
LINE
  5
291
330
1F
100
AcDbEntity
  8
0
  6
Continuous
 62
     7
370
    15
100
AcDbLine
 10
26.3942504313
 20
15.3000038992
 30
0.0
 11
26.1442503825
 21
16.5500036458
 31
0.0
  0
LINE
  5
292
330
1F
100
AcDbEntity
  8
0
  6
Continuous
 62
     7
370
    15
100
AcDbLine
 10
26.4942503418
 20
16.5500036458
 30
0.0
 11
26.1442503825
 21
16.5500036458
 31
0.0
  0
LINE
  5
293
330
1F
100
AcDbEntity
  8
0
  6
Continuous
 62
     7
370
    15
100
AcDbLine
 10
26.4942503418
 20
16.5500036458
 30
0.0
 11
26.4942503418
 21
17.2785026434
 31
0.0
  0
ARC
  5
294
330
1F
100
AcDbEntity
  8
0
  6
Continuous
 62
     7
370
    15
100
AcDbCircle
 10
26.3492013435
 20
16.8000039217
 30
0.0
 40
0.5000000000000016
100
AcDbArc
 50
11.309932474
 51
73.1361738583
  0
LINE
  5
295
330
1F
100
AcDbEntity
  8
0
  6
Continuous
 62
     7
370
    15
100
AcDbLine
 10
27.72001949
 20
12.4954234979
 30
0.0
 11
26.8394917258
 21
16.8980619183
 31
0.0
  0
ARC
  5
296
330
1F
100
AcDbEntity
  8
0
  6
Continuous
 62
     7
370
    15
100
AcDbCircle
 10
28.2103097279
 20
12.5934815132
 30
0.0
 40
0.5000000000000053
100
AcDbArc
 50
191.309932474
 51
234.3577273041
  0
ARC
  5
297
330
1F
100
AcDbEntity
  8
0
  6
Continuous
 62
     7
370
    15
100
AcDbCircle
 10
20.1123641644
 20
1.3000039217
 30
0.0
 40
13.39673913043478
100
AcDbArc
 50
25.4173670058
 51
54.3577273041
  0
LINE
  5
298
330
1F
100
AcDbEntity
  8
0
  6
Continuous
 62
     7
370
    15
100
AcDbLine
 10
31.7943625985
 20
7.0500041639
 30
0.0
 11
32.2123692892
 21
7.0500041639
 31
0.0
  0
LINE
  5
299
330
1F
100
AcDbEntity
  8
0
  6
Continuous
 62
     7
370
    15
100
AcDbLine
 10
32.1230588046
 20
6.3000040813
 30
0.0
 11
31.7943625985
 21
7.0500041639
 31
0.0
  0
LINE
  5
29A
330
1F
100
AcDbEntity
  8
0
  6
Continuous
 62
     7
370
    15
100
AcDbLine
 10
32.1230588046
 20
6.3000040813
 30
0.0
 11
32.5410653487
 21
6.3000040813
 31
0.0
  0
ARC
  5
29B
330
1F
100
AcDbEntity
  8
0
  6
Continuous
 62
     7
370
    15
100
AcDbCircle
 10
20.1123641644
 20
1.3000039217
 30
0.0
 40
13.39673913043478
100
AcDbArc
 50
0.0
 51
21.9146588077
  0
LINE
  5
29C
330
1F
100
AcDbEntity
  8
0
  6
Continuous
 62
     7
370
    15
100
AcDbLine
 10
33.1341034899
 20
1.3000039217
 30
0.0
 11
33.5091031093
 21
1.3000039217
 31
0.0
  0
LINE
  5
29D
330
1F
100
AcDbEntity
  8
0
  6
Continuous
 62
     7
370
    15
100
AcDbLine
 10
33.1341034899
 20
2.050003931
 30
0.0
 11
33.1341034899
 21
1.3000039217
 31
0.0
  0
LINE
  5
29E
330
1F
100
AcDbEntity
  8
0
  6
Continuous
 62
     7
370
    15
100
AcDbLine
 10
32.7368448334
 20
2.050003931
 30
0.0
 11
33.1341034899
 21
2.050003931
 31
0.0
  0
ARC
  5
29F
330
1F
100
AcDbEntity
  8
0
  6
Continuous
 62
     7
370
    15
100
AcDbCircle
 10
20.1123641644
 20
1.3000039217
 30
0.0
 40
12.64673913043478
100
AcDbArc
 50
3.3998537008
 51
45.9556487953
  0
LINE
  5
2A0
330
1F
100
AcDbEntity
  8
0
  6
Continuous
 62
     7
370
    15
100
AcDbLine
 10
28.9045666127
 20
10.3905036542
 30
0.0
 11
29.4299528708
 21
10.3905036542
 31
0.0
  0
LINE
  5
2A1
330
1F
100
AcDbEntity
  8
0
  6
Continuous
 62
     7
370
    15
100
AcDbLine
 10
29.4299528708
 20
10.3905036542
 30
0.0
 11
28.6799528699
 21
11.1405037368
 31
0.0
  0
LINE
  5
2A2
330
1F
100
AcDbEntity
  8
0
  6
Continuous
 62
     7
370
    15
100
AcDbLine
 10
28.0562030479
 20
11.1405037368
 30
0.0
 11
28.6799528699
 21
11.1405037368
 31
0.0
  0
ARC
  5
2A3
330
1F
100
AcDbEntity
  8
0
  6
Continuous
 62
     7
370
    15
100
AcDbCircle
 10
20.1123641644
 20
1.3000039217
 30
0.0
 40
12.64673913043478
100
AcDbArc
 50
51.0874600897
 51
55.6317907171
  0
ARC
  5
2A4
330
1F
100
AcDbEntity
  8
0
  6
Continuous
 62
     7
370
    15
100
AcDbCircle
 10
27.5338180395
 20
12.1516753204
 30
0.0
 40
0.5000000000000016
100
AcDbArc
 50
191.309932474
 51
235.6317907171
  0
LINE
  5
2A5
330
1F
100
AcDbEntity
  8
0
  6
Continuous
 62
     7
370
    15
100
AcDbLine
 10
27.0435277278
 20
12.0536169751
 30
0.0
 11
26.7942503275
 21
13.30000407
 31
0.0
  0
ENDSEC
  0
SECTION
  2
OBJECTS
  0
DICTIONARY
  5
C
330
0
100
AcDbDictionary
281
     1
  3
ACAD_GROUP
350
D
  3
ACAD_LAYOUT
350
1A
  3
ACAD_MLEADERSTYLE
350
2A7
  3
ACAD_MLINESTYLE
350
17
  3
ACAD_PLOTSETTINGS
350
19
  3
ACAD_PLOTSTYLENAME
350
E
  3
ACAD_TABLESTYLE
350
2A6
  3
ACAD_VISUALSTYLE
350
2A
  0
DICTIONARY
  5
D
102
{ACAD_REACTORS
330
C
102
}
330
C
100
AcDbDictionary
281
     1
  0
DICTIONARY
  5
1A
102
{ACAD_REACTORS
330
C
102
}
330
C
100
AcDbDictionary
281
     1
  3
Layout1
350
1E
  3
Layout2
350
26
  3
Model
350
22
  0
DICTIONARY
  5
2A7
102
{ACAD_REACTORS
330
C
102
}
330
C
100
AcDbDictionary
281
     1
  0
DICTIONARY
  5
17
102
{ACAD_REACTORS
330
C
102
}
330
C
100
AcDbDictionary
281
     1
  3
Standard
350
18
  0
DICTIONARY
  5
19
102
{ACAD_REACTORS
330
C
102
}
330
C
100
AcDbDictionary
281
     1
  0
ACDBDICTIONARYWDFLT
  5
E
102
{ACAD_REACTORS
330
C
102
}
330
C
100
AcDbDictionary
281
     1
  3
Normal
350
F
100
AcDbDictionaryWithDefault
340
F
  0
DICTIONARY
  5
2A6
102
{ACAD_REACTORS
330
C
102
}
330
C
100
AcDbDictionary
281
     1
  0
DICTIONARY
  5
2A
102
{ACAD_REACTORS
330
C
102
}
330
C
100
AcDbDictionary
281
     1
  3
2dWireframe
350
2F
  3
3D Hidden
350
31
  3
3dWireframe
350
30
  3
Basic
350
32
  3
Brighten
350
36
  3
ColorChange
350
3A
  3
Conceptual
350
34
  3
Dim
350
35
  3
Facepattern
350
39
  3
Flat
350
2B
  3
FlatWithEdges
350
2C
  3
Gouraud
350
2D
  3
GouraudWithEdges
350
2E
  3
Linepattern
350
38
  3
Realistic
350
33
  3
Thicken
350
37
  0
LAYOUT
  5
1E
102
{ACAD_REACTORS
330
1A
102
}
330
1A
100
AcDbPlotSettings
  1

  2
none_device
  4

  6

 40
0.0
 41
0.0
 42
0.0
 43
0.0
 44
0.0
 45
0.0
 46
0.0
 47
0.0
 48
0.0
 49
0.0
140
0.0
141
0.0
142
1.0
143
1.0
 70
   688
 72
     0
 73
     0
 74
     5
  7

 75
    16
147
1.0
148
0.0
149
0.0
100
AcDbLayout
  1
Layout1
 70
     1
 71
     1
 10
0.0
 20
0.0
 11
12.0
 21
9.0
 12
0.0
 22
0.0
 32
0.0
 14
1.0000000000E+20
 24
1.0000000000E+20
 34
1.0000000000E+20
 15
-1.0000000000E+20
 25
-1.0000000000E+20
 35
-1.0000000000E+20
146
0.0
 13
0.0
 23
0.0
 33
0.0
 16
1.0
 26
0.0
 36
0.0
 17
0.0
 27
1.0
 37
0.0
 76
     0
330
1B
  0
LAYOUT
  5
26
102
{ACAD_REACTORS
330
1A
102
}
330
1A
100
AcDbPlotSettings
  1

  2
none_device
  4

  6

 40
0.0
 41
0.0
 42
0.0
 43
0.0
 44
0.0
 45
0.0
 46
0.0
 47
0.0
 48
0.0
 49
0.0
140
0.0
141
0.0
142
1.0
143
1.0
 70
   688
 72
     0
 73
     0
 74
     5
  7

 75
    16
147
1.0
148
0.0
149
0.0
100
AcDbLayout
  1
Layout2
 70
     1
 71
     2
 10
0.0
 20
0.0
 11
0.0
 21
0.0
 12
0.0
 22
0.0
 32
0.0
 14
0.0
 24
0.0
 34
0.0
 15
0.0
 25
0.0
 35
0.0
146
0.0
 13
0.0
 23
0.0
 33
0.0
 16
1.0
 26
0.0
 36
0.0
 17
0.0
 27
1.0
 37
0.0
 76
     0
330
23
  0
LAYOUT
  5
22
102
{ACAD_REACTORS
330
1A
102
}
330
1A
100
AcDbPlotSettings
  1

  2
none_device
  4

  6

 40
0.0
 41
0.0
 42
0.0
 43
0.0
 44
0.0
 45
0.0
 46
0.0
 47
0.0
 48
0.0
 49
0.0
140
0.0
141
0.0
142
1.0
143
1.0
 70
  1712
 72
     0
 73
     0
 74
     0
  7

 75
     0
147
1.0
148
0.0
149
0.0
100
AcDbLayout
  1
Model
 70
     1
 71
     0
 10
0.0
 20
0.0
 11
96.0
 21
48.0
 12
0.0
 22
0.0
 32
0.0
 14
0.0
 24
0.0
 34
0.0
 15
96.0
 25
48.0
 35
0.0
146
0.0
 13
0.0
 23
0.0
 33
0.0
 16
1.0
 26
0.0
 36
0.0
 17
0.0
 27
1.0
 37
0.0
 76
     0
330
1F
331
29
  0
MLINESTYLE
  5
18
102
{ACAD_REACTORS
330
17
102
}
330
17
100
AcDbMlineStyle
  2
Standard
 70
     0
  3

 62
   256
 51
90.0
 52
90.0
 71
     2
 49
0.5
 62
   256
  6
BYLAYER
 49
-0.5
 62
   256
  6
BYLAYER
  0
ACDBPLACEHOLDER
  5
F
102
{ACAD_REACTORS
330
E
102
}
330
E
  0
VISUALSTYLE
  5
2F
102
{ACAD_REACTORS
330
2A
102
}
330
2A
100
AcDbVisualStyle
  2
2dWireframe
 70
     4
 71
     0
 72
     2
 73
     0
 90
        0
 40
-0.6
 41
-30.0
 62
     5
 63
     7
 74
     1
 91
        4
 64
     7
 65
   257
 75
     1
175
     1
 42
1.0
 92
        0
 66
   257
 43
1.0
 76
     1
 77
     6
 78
     2
 67
     7
 79
     5
170
     0
171
     0
290
     0
174
     0
 93
        1
 44
0.0
173
     0
291
     0
 45
0.0
1001
ACAD
1000
AcDbSavedByObjectVersion
1070
     0
  0
VISUALSTYLE
  5
31
102
{ACAD_REACTORS
330
2A
102
}
330
2A
100
AcDbVisualStyle
  2
3D Hidden
 70
     6
 71
     1
 72
     2
 73
     2
 90
        0
 40
-0.6
 41
-30.0
 62
     5
 63
     7
 74
     2
 91
        2
 64
     7
 65
   257
 75
     2
175
     1
 42
40.0
 92
        0
 66
   257
 43
1.0
 76
     1
 77
     6
 78
     2
 67
     7
 79
     3
170
     0
171
     0
290
     0
174
     0
 93
        1
 44
0.0
173
     0
291
     0
 45
0.0
1001
ACAD
1000
AcDbSavedByObjectVersion
1070
     0
  0
VISUALSTYLE
  5
30
102
{ACAD_REACTORS
330
2A
102
}
330
2A
100
AcDbVisualStyle
  2
3dWireframe
 70
     5
 71
     0
 72
     2
 73
     0
 90
        0
 40
-0.6
 41
-30.0
 62
     5
 63
     7
 74
     1
 91
        4
 64
     7
 65
   257
 75
     1
175
     1
 42
1.0
 92
        0
 66
   257
 43
1.0
 76
     1
 77
     6
 78
     2
 67
     7
 79
     5
170
     0
171
     0
290
     0
174
     0
 93
        1
 44
0.0
173
     0
291
     0
 45
0.0
1001
ACAD
1000
AcDbSavedByObjectVersion
1070
     0
  0
VISUALSTYLE
  5
32
102
{ACAD_REACTORS
330
2A
102
}
330
2A
100
AcDbVisualStyle
  2
Basic
 70
     7
 71
     1
 72
     0
 73
     1
 90
        0
 40
-0.6
 41
-30.0
 62
     5
 63
     7
 74
     0
 91
        4
 64
     7
 65
   257
 75
     1
175
     1
 42
1.0
 92
        8
 66
     7
 43
1.0
 76
     1
 77
     6
 78
     2
 67
     7
 79
     5
170
     0
171
     0
290
     0
174
     0
 93
        1
 44
0.0
173
     0
291
     1
 45
0.0
1001
ACAD
1000
AcDbSavedByObjectVersion
1070
     0
  0
VISUALSTYLE
  5
36
102
{ACAD_REACTORS
330
2A
102
}
330
2A
100
AcDbVisualStyle
  2
Brighten
 70
    12
 71
     2
 72
     2
 73
     0
 90
        0
 40
-0.6
 41
-30.0
 62
     5
 63
     7
 74
     1
 91
        4
 64
     7
 65
   257
 75
     1
175
     1
 42
1.0
 92
        8
 66
     7
 43
1.0
 76
     1
 77
     6
 78
     2
 67
     7
 79
     5
170
     0
171
     0
290
     0
174
     0
 93
        1
 44
50.0
173
     0
291
     1
 45
0.0
1001
ACAD
1000
AcDbSavedByObjectVersion
1070
     0
  0
VISUALSTYLE
  5
3A
102
{ACAD_REACTORS
330
2A
102
}
330
2A
100
AcDbVisualStyle
  2
ColorChange
 70
    16
 71
     2
 72
     2
 73
     3
 90
        0
 40
-0.6
 41
-30.0
 62
     5
 63
     8
 74
     1
 91
        4
 64
     7
 65
   257
 75
     1
175
     1
 42
1.0
 92
        8
 66
     8
 43
1.0
 76
     1
 77
     6
 78
     2
 67
     7
 79
     5
170
     0
171
     0
290
     0
174
     0
 93
        1
 44
0.0
173
     0
291
     1
 45
0.0
1001
ACAD
1000
AcDbSavedByObjectVersion
1070
     0
  0
VISUALSTYLE
  5
34
102
{ACAD_REACTORS
330
2A
102
}
330
2A
100
AcDbVisualStyle
  2
Conceptual
 70
     9
 71
     3
 72
     2
 73
     0
 90
        0
 40
-0.6
 41
-30.0
 62
     5
 63
     7
 74
     2
 91
        2
 64
     7
 65
   257
 75
     1
175
     1
 42
40.0
 92
        8
 66
     7
 43
1.0
 76
     1
 77
     6
 78
     2
 67
     7
 79
     3
170
     0
171
     0
290
     0
174
     0
 93
        1
 44
0.0
173
     0
291
     0
 45
0.0
1001
ACAD
1000
AcDbSavedByObjectVersion
1070
     0
  0
VISUALSTYLE
  5
35
102
{ACAD_REACTORS
330
2A
102
}
330
2A
100
AcDbVisualStyle
  2
Dim
 70
    11
 71
     2
 72
     2
 73
     0
 90
        0
 40
-0.6
 41
-30.0
 62
     5
 63
     7
 74
     1
 91
        4
 64
     7
 65
   257
 75
     1
175
     1
 42
1.0
 92
        8
 66
     7
 43
1.0
 76
     1
 77
     6
 78
     2
 67
     7
 79
     5
170
     0
171
     0
290
     0
174
     0
 93
        1
 44
-50.0
173
     0
291
     1
 45
0.0
1001
ACAD
1000
AcDbSavedByObjectVersion
1070
     0
  0
VISUALSTYLE
  5
39
102
{ACAD_REACTORS
330
2A
102
}
330
2A
100
AcDbVisualStyle
  2
Facepattern
 70
    15
 71
     2
 72
     2
 73
     0
 90
        0
 40
-0.6
 41
-30.0
 62
     5
 63
     7
 74
     1
 91
        4
 64
     7
 65
   257
 75
     1
175
     1
 42
1.0
 92
        8
 66
     7
 43
1.0
 76
     1
 77
     6
 78
     2
 67
     7
 79
     5
170
     0
171
     0
290
     0
174
     0
 93
        1
 44
0.0
173
     0
291
     1
 45
0.0
1001
ACAD
1000
AcDbSavedByObjectVersion
1070
     0
  0
VISUALSTYLE
  5
2B
102
{ACAD_REACTORS
330
2A
102
}
330
2A
100
AcDbVisualStyle
  2
Flat
 70
     0
 71
     2
 72
     1
 73
     1
 90
        2
 40
-0.6
 41
30.0
 62
     5
 63
     7
 74
     0
 91
        4
 64
     7
 65
   257
 75
     1
175
     1
 42
1.0
 92
        8
 66
     7
 43
1.0
 76
     1
 77
     6
 78
     2
 67
     7
 79
     5
170
     0
171
     0
290
     0
174
     0
 93
       13
 44
0.0
173
     0
291
     1
 45
0.0
1001
ACAD
1000
AcDbSavedByObjectVersion
1070
     0
  0
VISUALSTYLE
  5
2C
102
{ACAD_REACTORS
330
2A
102
}
330
2A
100
AcDbVisualStyle
  2
FlatWithEdges
 70
     1
 71
     2
 72
     1
 73
     1
 90
        2
 40
-0.6
 41
30.0
 62
     5
 63
     7
 74
     1
 91
        4
 64
     7
 65
   257
 75
     1
175
     1
 42
1.0
 92
        0
 66
   257
 43
1.0
 76
     1
 77
     6
 78
     2
 67
     7
 79
     5
170
     0
171
     0
290
     0
174
     0
 93
       13
 44
0.0
173
     0
291
     1
 45
0.0
1001
ACAD
1000
AcDbSavedByObjectVersion
1070
     0
  0
VISUALSTYLE
  5
2D
102
{ACAD_REACTORS
330
2A
102
}
330
2A
100
AcDbVisualStyle
  2
Gouraud
 70
     2
 71
     2
 72
     2
 73
     1
 90
        2
 40
-0.6
 41
30.0
 62
     5
 63
     7
 74
     0
 91
        4
 64
     7
 65
   257
 75
     1
175
     1
 42
1.0
 92
        0
 66
     7
 43
1.0
 76
     1
 77
     6
 78
     2
 67
     7
 79
     5
170
     0
171
     0
290
     0
174
     0
 93
       13
 44
0.0
173
     0
291
     1
 45
0.0
1001
ACAD
1000
AcDbSavedByObjectVersion
1070
     0
  0
VISUALSTYLE
  5
2E
102
{ACAD_REACTORS
330
2A
102
}
330
2A
100
AcDbVisualStyle
  2
GouraudWithEdges
 70
     3
 71
     2
 72
     2
 73
     1
 90
        2
 40
-0.6
 41
30.0
 62
     5
 63
     7
 74
     1
 91
        4
 64
     7
 65
   257
 75
     1
175
     1
 42
1.0
 92
        0
 66
   257
 43
1.0
 76
     1
 77
     6
 78
     2
 67
     7
 79
     5
170
     0
171
     0
290
     0
174
     0
 93
       13
 44
0.0
173
     0
291
     1
 45
0.0
1001
ACAD
1000
AcDbSavedByObjectVersion
1070
     0
  0
VISUALSTYLE
  5
38
102
{ACAD_REACTORS
330
2A
102
}
330
2A
100
AcDbVisualStyle
  2
Linepattern
 70
    14
 71
     2
 72
     2
 73
     0
 90
        0
 40
-0.6
 41
-30.0
 62
     5
 63
     7
 74
     1
 91
        4
 64
     7
 65
   257
 75
     7
175
     7
 42
1.0
 92
        8
 66
     7
 43
1.0
 76
     1
 77
     6
 78
     2
 67
     7
 79
     5
170
     0
171
     0
290
     0
174
     0
 93
        1
 44
0.0
173
     0
291
     1
 45
0.0
1001
ACAD
1000
AcDbSavedByObjectVersion
1070
     0
  0
VISUALSTYLE
  5
33
102
{ACAD_REACTORS
330
2A
102
}
330
2A
100
AcDbVisualStyle
  2
Realistic
 70
     8
 71
     2
 72
     2
 73
     0
 90
        0
 40
-0.6
 41
-30.0
 62
     5
 63
     7
 74
     1
 91
        0
 64
     7
 65
   257
 75
     1
175
     1
 42
1.0
 92
        8
 66
     8
 43
1.0
 76
     1
 77
     6
 78
     2
 67
     7
 79
     5
170
     0
171
     0
290
     0
174
     0
 93
       13
 44
0.0
173
     0
291
     0
 45
0.0
1001
ACAD
1000
AcDbSavedByObjectVersion
1070
     0
  0
VISUALSTYLE
  5
37
102
{ACAD_REACTORS
330
2A
102
}
330
2A
100
AcDbVisualStyle
  2
Thicken
 70
    13
 71
     2
 72
     2
 73
     0
 90
        0
 40
-0.6
 41
-30.0
 62
     5
 63
     7
 74
     1
 91
        4
 64
     7
 65
   257
 75
     1
175
     1
 42
1.0
 92
       12
 66
     7
 43
1.0
 76
     1
 77
     6
 78
     2
 67
     7
 79
     5
170
     0
171
     0
290
     0
174
     0
 93
        1
 44
0.0
173
     0
291
     1
 45
0.0
1001
ACAD
1000
AcDbSavedByObjectVersion
1070
     0
  0
ENDSEC
  0
EOF
