ISO-10303-21;
HEADER;
/* Generated by software containing ST-Developer
 * from STEP Tools, Inc. (www.steptools.com) 
 */

FILE_DESCRIPTION(
/* description */ (''),
/* implementation_level */ '2;1');

FILE_NAME(
/* name */ 'D:/Users/Alex C/Desktop/Stand.step',
/* time_stamp */ '2016-07-30T22:08:26+01:00',
/* author */ (''),
/* organization */ (''),
/* preprocessor_version */ 'ST-DEVELOPER v16.5',
/* originating_system */ 'Autodesk Translation Framework v5.1.0.2740',
/* authorisation */ '');

FILE_SCHEMA (('AUTOMOTIVE_DESIGN { 1 0 10303 214 3 1 1 }'));
ENDSEC;

DATA;
#10=MECHANICAL_DESIGN_GEOMETRIC_PRESENTATION_REPRESENTATION('',(#16,#17),
#490);
#11=DIMENSIONAL_EXPONENTS(0.,0.,0.,0.,0.,0.,0.);
#12=(
CONVERSION_BASED_UNIT('degree',#13)
NAMED_UNIT(#11)
PLANE_ANGLE_UNIT()
);
#13=PLANE_ANGLE_MEASURE_WITH_UNIT(PLANE_ANGLE_MEASURE(0.01745329252),#494);
#14=SHAPE_REPRESENTATION_RELATIONSHIP('SRR','None',#497,#15);
#15=ADVANCED_BREP_SHAPE_REPRESENTATION('',(#18,#19),#489);
#16=STYLED_ITEM('',(#507),#18);
#17=STYLED_ITEM('',(#507),#19);
#18=MANIFOLD_SOLID_BREP('Body1',#309);
#19=MANIFOLD_SOLID_BREP('Body3',#310);
#20=FACE_OUTER_BOUND('',#37,.T.);
#21=FACE_OUTER_BOUND('',#38,.T.);
#22=FACE_OUTER_BOUND('',#39,.T.);
#23=FACE_OUTER_BOUND('',#40,.T.);
#24=FACE_OUTER_BOUND('',#41,.T.);
#25=FACE_OUTER_BOUND('',#42,.T.);
#26=FACE_OUTER_BOUND('',#43,.T.);
#27=FACE_OUTER_BOUND('',#44,.T.);
#28=FACE_OUTER_BOUND('',#45,.T.);
#29=FACE_OUTER_BOUND('',#46,.T.);
#30=FACE_OUTER_BOUND('',#47,.T.);
#31=FACE_OUTER_BOUND('',#48,.T.);
#32=FACE_OUTER_BOUND('',#49,.T.);
#33=FACE_OUTER_BOUND('',#50,.T.);
#34=FACE_OUTER_BOUND('',#51,.T.);
#35=FACE_OUTER_BOUND('',#52,.T.);
#36=FACE_OUTER_BOUND('',#53,.T.);
#37=EDGE_LOOP('',(#197,#198,#199,#200));
#38=EDGE_LOOP('',(#201,#202,#203,#204));
#39=EDGE_LOOP('',(#205,#206,#207,#208));
#40=EDGE_LOOP('',(#209,#210,#211,#212));
#41=EDGE_LOOP('',(#213,#214,#215,#216));
#42=EDGE_LOOP('',(#217,#218,#219,#220));
#43=EDGE_LOOP('',(#221,#222,#223,#224));
#44=EDGE_LOOP('',(#225,#226,#227,#228));
#45=EDGE_LOOP('',(#229,#230,#231,#232));
#46=EDGE_LOOP('',(#233,#234,#235,#236));
#47=EDGE_LOOP('',(#237,#238,#239,#240,#241,#242,#243,#244,#245));
#48=EDGE_LOOP('',(#246,#247,#248,#249));
#49=EDGE_LOOP('',(#250,#251,#252,#253));
#50=EDGE_LOOP('',(#254,#255,#256,#257,#258,#259,#260,#261,#262));
#51=EDGE_LOOP('',(#263,#264,#265,#266));
#52=EDGE_LOOP('',(#267,#268,#269,#270));
#53=EDGE_LOOP('',(#271,#272,#273,#274));
#54=LINE('',#408,#93);
#55=LINE('',#410,#94);
#56=LINE('',#412,#95);
#57=LINE('',#413,#96);
#58=LINE('',#417,#97);
#59=LINE('',#419,#98);
#60=LINE('',#421,#99);
#61=LINE('',#422,#100);
#62=LINE('',#424,#101);
#63=LINE('',#425,#102);
#64=LINE('',#427,#103);
#65=LINE('',#429,#104);
#66=LINE('',#434,#105);
#67=LINE('',#436,#106);
#68=LINE('',#438,#107);
#69=LINE('',#439,#108);
#70=LINE('',#443,#109);
#71=LINE('',#445,#110);
#72=LINE('',#447,#111);
#73=LINE('',#448,#112);
#74=LINE('',#451,#113);
#75=LINE('',#453,#114);
#76=LINE('',#454,#115);
#77=LINE('',#457,#116);
#78=LINE('',#459,#117);
#79=LINE('',#460,#118);
#80=LINE('',#463,#119);
#81=LINE('',#465,#120);
#82=LINE('',#467,#121);
#83=LINE('',#468,#122);
#84=LINE('',#469,#123);
#85=LINE('',#472,#124);
#86=LINE('',#473,#125);
#87=LINE('',#475,#126);
#88=LINE('',#478,#127);
#89=LINE('',#480,#128);
#90=LINE('',#481,#129);
#91=LINE('',#483,#130);
#92=LINE('',#485,#131);
#93=VECTOR('',#333,1.);
#94=VECTOR('',#334,1.);
#95=VECTOR('',#335,1.);
#96=VECTOR('',#336,1.);
#97=VECTOR('',#339,1.);
#98=VECTOR('',#340,1.);
#99=VECTOR('',#341,1.);
#100=VECTOR('',#342,1.);
#101=VECTOR('',#345,1.);
#102=VECTOR('',#346,1.);
#103=VECTOR('',#349,1.);
#104=VECTOR('',#352,1.);
#105=VECTOR('',#357,1.);
#106=VECTOR('',#358,1.);
#107=VECTOR('',#359,1.);
#108=VECTOR('',#360,1.);
#109=VECTOR('',#363,1.);
#110=VECTOR('',#364,1.);
#111=VECTOR('',#365,1.);
#112=VECTOR('',#366,1.);
#113=VECTOR('',#369,1.);
#114=VECTOR('',#370,1.);
#115=VECTOR('',#371,1.);
#116=VECTOR('',#374,1.);
#117=VECTOR('',#375,1.);
#118=VECTOR('',#376,1.);
#119=VECTOR('',#379,1.);
#120=VECTOR('',#380,1.);
#121=VECTOR('',#381,1.);
#122=VECTOR('',#382,1.);
#123=VECTOR('',#383,1.);
#124=VECTOR('',#386,1.);
#125=VECTOR('',#387,1.);
#126=VECTOR('',#390,1.);
#127=VECTOR('',#393,1.);
#128=VECTOR('',#394,1.);
#129=VECTOR('',#395,1.);
#130=VECTOR('',#398,1.);
#131=VECTOR('',#401,1.);
#132=VERTEX_POINT('',#406);
#133=VERTEX_POINT('',#407);
#134=VERTEX_POINT('',#409);
#135=VERTEX_POINT('',#411);
#136=VERTEX_POINT('',#415);
#137=VERTEX_POINT('',#416);
#138=VERTEX_POINT('',#418);
#139=VERTEX_POINT('',#420);
#140=VERTEX_POINT('',#432);
#141=VERTEX_POINT('',#433);
#142=VERTEX_POINT('',#435);
#143=VERTEX_POINT('',#437);
#144=VERTEX_POINT('',#441);
#145=VERTEX_POINT('',#442);
#146=VERTEX_POINT('',#444);
#147=VERTEX_POINT('',#446);
#148=VERTEX_POINT('',#450);
#149=VERTEX_POINT('',#452);
#150=VERTEX_POINT('',#456);
#151=VERTEX_POINT('',#458);
#152=VERTEX_POINT('',#462);
#153=VERTEX_POINT('',#464);
#154=VERTEX_POINT('',#466);
#155=VERTEX_POINT('',#471);
#156=VERTEX_POINT('',#477);
#157=VERTEX_POINT('',#479);
#158=EDGE_CURVE('',#132,#133,#54,.T.);
#159=EDGE_CURVE('',#133,#134,#55,.T.);
#160=EDGE_CURVE('',#134,#135,#56,.T.);
#161=EDGE_CURVE('',#135,#132,#57,.T.);
#162=EDGE_CURVE('',#136,#137,#58,.T.);
#163=EDGE_CURVE('',#137,#138,#59,.T.);
#164=EDGE_CURVE('',#138,#139,#60,.T.);
#165=EDGE_CURVE('',#139,#136,#61,.T.);
#166=EDGE_CURVE('',#135,#138,#62,.T.);
#167=EDGE_CURVE('',#132,#137,#63,.T.);
#168=EDGE_CURVE('',#134,#139,#64,.T.);
#169=EDGE_CURVE('',#133,#136,#65,.T.);
#170=EDGE_CURVE('',#140,#141,#66,.T.);
#171=EDGE_CURVE('',#142,#140,#67,.T.);
#172=EDGE_CURVE('',#143,#142,#68,.T.);
#173=EDGE_CURVE('',#141,#143,#69,.T.);
#174=EDGE_CURVE('',#144,#145,#70,.T.);
#175=EDGE_CURVE('',#144,#146,#71,.T.);
#176=EDGE_CURVE('',#147,#146,#72,.T.);
#177=EDGE_CURVE('',#145,#147,#73,.T.);
#178=EDGE_CURVE('',#148,#144,#74,.T.);
#179=EDGE_CURVE('',#148,#149,#75,.T.);
#180=EDGE_CURVE('',#146,#149,#76,.T.);
#181=EDGE_CURVE('',#150,#148,#77,.T.);
#182=EDGE_CURVE('',#151,#150,#78,.T.);
#183=EDGE_CURVE('',#149,#151,#79,.T.);
#184=EDGE_CURVE('',#142,#152,#80,.T.);
#185=EDGE_CURVE('',#152,#153,#81,.T.);
#186=EDGE_CURVE('',#153,#154,#82,.T.);
#187=EDGE_CURVE('',#154,#147,#83,.T.);
#188=EDGE_CURVE('',#151,#143,#84,.T.);
#189=EDGE_CURVE('',#155,#154,#85,.T.);
#190=EDGE_CURVE('',#145,#155,#86,.T.);
#191=EDGE_CURVE('',#141,#150,#87,.T.);
#192=EDGE_CURVE('',#155,#156,#88,.T.);
#193=EDGE_CURVE('',#156,#157,#89,.T.);
#194=EDGE_CURVE('',#157,#140,#90,.T.);
#195=EDGE_CURVE('',#156,#153,#91,.T.);
#196=EDGE_CURVE('',#157,#152,#92,.T.);
#197=ORIENTED_EDGE('',*,*,#158,.T.);
#198=ORIENTED_EDGE('',*,*,#159,.T.);
#199=ORIENTED_EDGE('',*,*,#160,.T.);
#200=ORIENTED_EDGE('',*,*,#161,.T.);
#201=ORIENTED_EDGE('',*,*,#162,.T.);
#202=ORIENTED_EDGE('',*,*,#163,.T.);
#203=ORIENTED_EDGE('',*,*,#164,.T.);
#204=ORIENTED_EDGE('',*,*,#165,.T.);
#205=ORIENTED_EDGE('',*,*,#166,.T.);
#206=ORIENTED_EDGE('',*,*,#163,.F.);
#207=ORIENTED_EDGE('',*,*,#167,.F.);
#208=ORIENTED_EDGE('',*,*,#161,.F.);
#209=ORIENTED_EDGE('',*,*,#168,.T.);
#210=ORIENTED_EDGE('',*,*,#164,.F.);
#211=ORIENTED_EDGE('',*,*,#166,.F.);
#212=ORIENTED_EDGE('',*,*,#160,.F.);
#213=ORIENTED_EDGE('',*,*,#169,.T.);
#214=ORIENTED_EDGE('',*,*,#165,.F.);
#215=ORIENTED_EDGE('',*,*,#168,.F.);
#216=ORIENTED_EDGE('',*,*,#159,.F.);
#217=ORIENTED_EDGE('',*,*,#167,.T.);
#218=ORIENTED_EDGE('',*,*,#162,.F.);
#219=ORIENTED_EDGE('',*,*,#169,.F.);
#220=ORIENTED_EDGE('',*,*,#158,.F.);
#221=ORIENTED_EDGE('',*,*,#170,.F.);
#222=ORIENTED_EDGE('',*,*,#171,.F.);
#223=ORIENTED_EDGE('',*,*,#172,.F.);
#224=ORIENTED_EDGE('',*,*,#173,.F.);
#225=ORIENTED_EDGE('',*,*,#174,.F.);
#226=ORIENTED_EDGE('',*,*,#175,.T.);
#227=ORIENTED_EDGE('',*,*,#176,.F.);
#228=ORIENTED_EDGE('',*,*,#177,.F.);
#229=ORIENTED_EDGE('',*,*,#178,.F.);
#230=ORIENTED_EDGE('',*,*,#179,.T.);
#231=ORIENTED_EDGE('',*,*,#180,.F.);
#232=ORIENTED_EDGE('',*,*,#175,.F.);
#233=ORIENTED_EDGE('',*,*,#181,.F.);
#234=ORIENTED_EDGE('',*,*,#182,.F.);
#235=ORIENTED_EDGE('',*,*,#183,.F.);
#236=ORIENTED_EDGE('',*,*,#179,.F.);
#237=ORIENTED_EDGE('',*,*,#172,.T.);
#238=ORIENTED_EDGE('',*,*,#184,.T.);
#239=ORIENTED_EDGE('',*,*,#185,.T.);
#240=ORIENTED_EDGE('',*,*,#186,.T.);
#241=ORIENTED_EDGE('',*,*,#187,.T.);
#242=ORIENTED_EDGE('',*,*,#176,.T.);
#243=ORIENTED_EDGE('',*,*,#180,.T.);
#244=ORIENTED_EDGE('',*,*,#183,.T.);
#245=ORIENTED_EDGE('',*,*,#188,.T.);
#246=ORIENTED_EDGE('',*,*,#177,.T.);
#247=ORIENTED_EDGE('',*,*,#187,.F.);
#248=ORIENTED_EDGE('',*,*,#189,.F.);
#249=ORIENTED_EDGE('',*,*,#190,.F.);
#250=ORIENTED_EDGE('',*,*,#173,.T.);
#251=ORIENTED_EDGE('',*,*,#188,.F.);
#252=ORIENTED_EDGE('',*,*,#182,.T.);
#253=ORIENTED_EDGE('',*,*,#191,.F.);
#254=ORIENTED_EDGE('',*,*,#170,.T.);
#255=ORIENTED_EDGE('',*,*,#191,.T.);
#256=ORIENTED_EDGE('',*,*,#181,.T.);
#257=ORIENTED_EDGE('',*,*,#178,.T.);
#258=ORIENTED_EDGE('',*,*,#174,.T.);
#259=ORIENTED_EDGE('',*,*,#190,.T.);
#260=ORIENTED_EDGE('',*,*,#192,.T.);
#261=ORIENTED_EDGE('',*,*,#193,.T.);
#262=ORIENTED_EDGE('',*,*,#194,.T.);
#263=ORIENTED_EDGE('',*,*,#189,.T.);
#264=ORIENTED_EDGE('',*,*,#186,.F.);
#265=ORIENTED_EDGE('',*,*,#195,.F.);
#266=ORIENTED_EDGE('',*,*,#192,.F.);
#267=ORIENTED_EDGE('',*,*,#171,.T.);
#268=ORIENTED_EDGE('',*,*,#194,.F.);
#269=ORIENTED_EDGE('',*,*,#196,.T.);
#270=ORIENTED_EDGE('',*,*,#184,.F.);
#271=ORIENTED_EDGE('',*,*,#195,.T.);
#272=ORIENTED_EDGE('',*,*,#185,.F.);
#273=ORIENTED_EDGE('',*,*,#196,.F.);
#274=ORIENTED_EDGE('',*,*,#193,.F.);
#275=PLANE('',#312);
#276=PLANE('',#313);
#277=PLANE('',#314);
#278=PLANE('',#315);
#279=PLANE('',#316);
#280=PLANE('',#317);
#281=PLANE('',#318);
#282=PLANE('',#319);
#283=PLANE('',#320);
#284=PLANE('',#321);
#285=PLANE('',#322);
#286=PLANE('',#323);
#287=PLANE('',#324);
#288=PLANE('',#325);
#289=PLANE('',#326);
#290=PLANE('',#327);
#291=PLANE('',#328);
#292=ADVANCED_FACE('',(#20),#275,.T.);
#293=ADVANCED_FACE('',(#21),#276,.F.);
#294=ADVANCED_FACE('',(#22),#277,.F.);
#295=ADVANCED_FACE('',(#23),#278,.F.);
#296=ADVANCED_FACE('',(#24),#279,.F.);
#297=ADVANCED_FACE('',(#25),#280,.F.);
#298=ADVANCED_FACE('',(#26),#281,.F.);
#299=ADVANCED_FACE('',(#27),#282,.F.);
#300=ADVANCED_FACE('',(#28),#283,.F.);
#301=ADVANCED_FACE('',(#29),#284,.F.);
#302=ADVANCED_FACE('',(#30),#285,.F.);
#303=ADVANCED_FACE('',(#31),#286,.F.);
#304=ADVANCED_FACE('',(#32),#287,.F.);
#305=ADVANCED_FACE('',(#33),#288,.T.);
#306=ADVANCED_FACE('',(#34),#289,.F.);
#307=ADVANCED_FACE('',(#35),#290,.F.);
#308=ADVANCED_FACE('',(#36),#291,.F.);
#309=CLOSED_SHELL('',(#292,#293,#294,#295,#296,#297));
#310=CLOSED_SHELL('',(#298,#299,#300,#301,#302,#303,#304,#305,#306,#307,
#308));
#311=AXIS2_PLACEMENT_3D('placement',#404,#329,#330);
#312=AXIS2_PLACEMENT_3D('',#405,#331,#332);
#313=AXIS2_PLACEMENT_3D('',#414,#337,#338);
#314=AXIS2_PLACEMENT_3D('',#423,#343,#344);
#315=AXIS2_PLACEMENT_3D('',#426,#347,#348);
#316=AXIS2_PLACEMENT_3D('',#428,#350,#351);
#317=AXIS2_PLACEMENT_3D('',#430,#353,#354);
#318=AXIS2_PLACEMENT_3D('',#431,#355,#356);
#319=AXIS2_PLACEMENT_3D('',#440,#361,#362);
#320=AXIS2_PLACEMENT_3D('',#449,#367,#368);
#321=AXIS2_PLACEMENT_3D('',#455,#372,#373);
#322=AXIS2_PLACEMENT_3D('',#461,#377,#378);
#323=AXIS2_PLACEMENT_3D('',#470,#384,#385);
#324=AXIS2_PLACEMENT_3D('',#474,#388,#389);
#325=AXIS2_PLACEMENT_3D('',#476,#391,#392);
#326=AXIS2_PLACEMENT_3D('',#482,#396,#397);
#327=AXIS2_PLACEMENT_3D('',#484,#399,#400);
#328=AXIS2_PLACEMENT_3D('',#486,#402,#403);
#329=DIRECTION('axis',(0.,0.,1.));
#330=DIRECTION('refdir',(1.,0.,0.));
#331=DIRECTION('center_axis',(0.,1.,0.));
#332=DIRECTION('ref_axis',(0.,0.,1.));
#333=DIRECTION('',(1.,0.,0.));
#334=DIRECTION('',(0.,0.,-1.));
#335=DIRECTION('',(-1.,0.,0.));
#336=DIRECTION('',(0.,0.,1.));
#337=DIRECTION('center_axis',(0.,1.,0.));
#338=DIRECTION('ref_axis',(0.,0.,1.));
#339=DIRECTION('',(-1.,0.,0.));
#340=DIRECTION('',(0.,0.,-1.));
#341=DIRECTION('',(1.,0.,0.));
#342=DIRECTION('',(0.,0.,1.));
#343=DIRECTION('center_axis',(1.,0.,0.));
#344=DIRECTION('ref_axis',(0.,1.,0.));
#345=DIRECTION('',(0.,-1.,0.));
#346=DIRECTION('',(0.,-1.,0.));
#347=DIRECTION('center_axis',(0.,0.,1.));
#348=DIRECTION('ref_axis',(0.,-1.,0.));
#349=DIRECTION('',(0.,-1.,0.));
#350=DIRECTION('center_axis',(-1.,0.,0.));
#351=DIRECTION('ref_axis',(0.,-1.,0.));
#352=DIRECTION('',(0.,-1.,0.));
#353=DIRECTION('center_axis',(0.,0.,-1.));
#354=DIRECTION('ref_axis',(0.,1.,0.));
#355=DIRECTION('center_axis',(2.8653302154314E-16,-0.251633851764952,0.967822506788272));
#356=DIRECTION('ref_axis',(5.58739392009125E-17,0.967822506788272,0.251633851764952));
#357=DIRECTION('',(5.58739392009125E-17,0.967822506788272,0.251633851764952));
#358=DIRECTION('',(1.,2.84672570416706E-16,-2.22044604925031E-16));
#359=DIRECTION('',(-5.58739392009125E-17,-0.967822506788272,-0.251633851764952));
#360=DIRECTION('',(-1.,-6.57384087684176E-32,2.96059473233375E-16));
#361=DIRECTION('center_axis',(0.,-0.164398987305357,0.986393923832144));
#362=DIRECTION('ref_axis',(3.65039081862932E-17,0.986393923832144,0.164398987305357));
#363=DIRECTION('',(3.65039081862932E-17,0.986393923832144,0.164398987305357));
#364=DIRECTION('',(-1.,0.,0.));
#365=DIRECTION('',(-3.65039081862932E-17,-0.986393923832144,-0.164398987305357));
#366=DIRECTION('',(-1.,1.09476442525376E-47,1.82460737542294E-48));
#367=DIRECTION('center_axis',(0.,-1.,0.));
#368=DIRECTION('ref_axis',(2.22044604925031E-16,0.,1.));
#369=DIRECTION('',(2.22044604925031E-16,0.,1.));
#370=DIRECTION('',(-1.,0.,0.));
#371=DIRECTION('',(-2.22044604925031E-16,0.,-1.));
#372=DIRECTION('center_axis',(0.,1.09476442525376E-47,-1.));
#373=DIRECTION('ref_axis',(4.93038065763132E-32,-1.,-1.09476442525376E-47));
#374=DIRECTION('',(4.93038065763132E-32,-1.,-1.09476442525376E-47));
#375=DIRECTION('',(1.,-1.09476442525376E-47,-1.1985091468012E-94));
#376=DIRECTION('',(-4.93038065763132E-32,1.,1.09476442525376E-47));
#377=DIRECTION('center_axis',(1.,4.93038065763132E-32,-2.22044604925031E-16));
#378=DIRECTION('ref_axis',(-1.09476442525376E-47,-1.,-2.22044604925031E-16));
#379=DIRECTION('',(-1.09476442525376E-47,-1.,-2.22044604925031E-16));
#380=DIRECTION('',(2.22044604925031E-16,-2.22044604925031E-16,1.));
#381=DIRECTION('',(1.09476442525376E-47,1.,2.22044604925031E-16));
#382=DIRECTION('',(-2.22044604925031E-16,2.22044604925031E-16,-1.));
#383=DIRECTION('',(-2.22044604925031E-16,2.22044604925031E-16,-1.));
#384=DIRECTION('center_axis',(-1.09476442525376E-47,-1.,-2.22044604925031E-16));
#385=DIRECTION('ref_axis',(-1.,-4.93038065763132E-32,2.22044604925031E-16));
#386=DIRECTION('',(-1.,-4.93038065763132E-32,2.22044604925031E-16));
#387=DIRECTION('',(2.22044604925031E-16,-2.22044604925031E-16,1.));
#388=DIRECTION('center_axis',(-1.09476442525376E-47,-1.,-2.22044604925031E-16));
#389=DIRECTION('ref_axis',(-1.,-4.93038065763132E-32,2.22044604925031E-16));
#390=DIRECTION('',(2.22044604925031E-16,-2.22044604925031E-16,1.));
#391=DIRECTION('center_axis',(1.,4.93038065763132E-32,-2.22044604925031E-16));
#392=DIRECTION('ref_axis',(-1.09476442525376E-47,-1.,-2.22044604925031E-16));
#393=DIRECTION('',(-1.09476442525376E-47,-1.,-2.22044604925031E-16));
#394=DIRECTION('',(-2.22044604925031E-16,2.22044604925031E-16,-1.));
#395=DIRECTION('',(1.09476442525376E-47,1.,2.22044604925031E-16));
#396=DIRECTION('center_axis',(-2.22044604925031E-16,2.22044604925031E-16,
-1.));
#397=DIRECTION('ref_axis',(1.,4.93038065763132E-32,-2.22044604925031E-16));
#398=DIRECTION('',(-1.,-4.93038065763132E-32,2.22044604925031E-16));
#399=DIRECTION('center_axis',(2.22044604925031E-16,-2.22044604925031E-16,
1.));
#400=DIRECTION('ref_axis',(-1.,-4.93038065763132E-32,2.22044604925031E-16));
#401=DIRECTION('',(-1.,-4.93038065763132E-32,2.22044604925031E-16));
#402=DIRECTION('center_axis',(1.09476442525376E-47,1.,2.22044604925031E-16));
#403=DIRECTION('ref_axis',(1.,4.93038065763132E-32,-2.22044604925031E-16));
#404=CARTESIAN_POINT('',(0.,0.,0.));
#405=CARTESIAN_POINT('Origin',(3.25,1.5,5.));
#406=CARTESIAN_POINT('',(0.,1.5,10.));
#407=CARTESIAN_POINT('',(6.5,1.5,10.));
#408=CARTESIAN_POINT('',(3.25,1.5,10.));
#409=CARTESIAN_POINT('',(6.5,1.5,0.));
#410=CARTESIAN_POINT('',(6.5,1.5,5.));
#411=CARTESIAN_POINT('',(0.,1.5,0.));
#412=CARTESIAN_POINT('',(3.25,1.5,0.));
#413=CARTESIAN_POINT('',(0.,1.5,5.));
#414=CARTESIAN_POINT('Origin',(3.25,0.,5.));
#415=CARTESIAN_POINT('',(6.5,0.,10.));
#416=CARTESIAN_POINT('',(0.,0.,10.));
#417=CARTESIAN_POINT('',(3.25,0.,10.));
#418=CARTESIAN_POINT('',(0.,0.,0.));
#419=CARTESIAN_POINT('',(0.,0.,5.));
#420=CARTESIAN_POINT('',(6.5,0.,0.));
#421=CARTESIAN_POINT('',(3.25,0.,0.));
#422=CARTESIAN_POINT('',(6.5,0.,5.));
#423=CARTESIAN_POINT('Origin',(0.,0.75,5.));
#424=CARTESIAN_POINT('',(0.,0.75,0.));
#425=CARTESIAN_POINT('',(0.,0.75,10.));
#426=CARTESIAN_POINT('Origin',(3.25,0.75,0.));
#427=CARTESIAN_POINT('',(6.5,0.75,0.));
#428=CARTESIAN_POINT('Origin',(6.5,0.75,5.));
#429=CARTESIAN_POINT('',(6.5,0.75,10.));
#430=CARTESIAN_POINT('Origin',(3.25,0.75,10.));
#431=CARTESIAN_POINT('Origin',(4.,6.5,1.75));
#432=CARTESIAN_POINT('',(4.,6.5,1.75));
#433=CARTESIAN_POINT('',(4.,11.5,3.05));
#434=CARTESIAN_POINT('',(4.,6.89574747096291,1.85289434245036));
#435=CARTESIAN_POINT('',(2.5,6.5,1.75));
#436=CARTESIAN_POINT('',(3.625,6.50000000000001,1.75));
#437=CARTESIAN_POINT('',(2.5,11.5,3.05));
#438=CARTESIAN_POINT('',(2.5,6.89574747096291,1.85289434245036));
#439=CARTESIAN_POINT('',(3.625,11.5,3.05));
#440=CARTESIAN_POINT('Origin',(4.,8.5,6.55));
#441=CARTESIAN_POINT('',(4.,8.5,6.55));
#442=CARTESIAN_POINT('',(4.,11.5,7.05));
#443=CARTESIAN_POINT('',(4.,7.40135135135135,6.3668918918919));
#444=CARTESIAN_POINT('',(2.5,8.5,6.55));
#445=CARTESIAN_POINT('',(4.,8.5,6.55));
#446=CARTESIAN_POINT('',(2.5,11.5,7.05));
#447=CARTESIAN_POINT('',(2.5,7.40135135135135,6.3668918918919));
#448=CARTESIAN_POINT('',(3.625,11.5,7.05));
#449=CARTESIAN_POINT('Origin',(4.,8.5,6.05));
#450=CARTESIAN_POINT('',(4.,8.5,6.05));
#451=CARTESIAN_POINT('',(4.,8.5,5.525));
#452=CARTESIAN_POINT('',(2.5,8.5,6.05));
#453=CARTESIAN_POINT('',(4.,8.5,6.05));
#454=CARTESIAN_POINT('',(2.5,8.5,5.525));
#455=CARTESIAN_POINT('Origin',(4.,11.5,6.05));
#456=CARTESIAN_POINT('',(4.,11.5,6.05));
#457=CARTESIAN_POINT('',(4.,9.,6.05));
#458=CARTESIAN_POINT('',(2.5,11.5,6.05));
#459=CARTESIAN_POINT('',(3.625,11.5,6.05));
#460=CARTESIAN_POINT('',(2.5,9.,6.05));
#461=CARTESIAN_POINT('Origin',(2.5,6.5,5.));
#462=CARTESIAN_POINT('',(2.5,1.5,1.75));
#463=CARTESIAN_POINT('',(2.5,6.5,1.75));
#464=CARTESIAN_POINT('',(2.5,1.5,8.25));
#465=CARTESIAN_POINT('',(2.5,1.5,5.));
#466=CARTESIAN_POINT('',(2.5,11.5,8.25));
#467=CARTESIAN_POINT('',(2.5,6.5,8.25));
#468=CARTESIAN_POINT('',(2.5,11.5,5.));
#469=CARTESIAN_POINT('',(2.5,11.5,5.));
#470=CARTESIAN_POINT('Origin',(3.25,11.5,5.));
#471=CARTESIAN_POINT('',(4.,11.5,8.25));
#472=CARTESIAN_POINT('',(3.25,11.5,8.25));
#473=CARTESIAN_POINT('',(4.,11.5,5.));
#474=CARTESIAN_POINT('Origin',(3.25,11.5,5.));
#475=CARTESIAN_POINT('',(4.,11.5,5.));
#476=CARTESIAN_POINT('Origin',(4.,6.5,5.));
#477=CARTESIAN_POINT('',(4.,1.5,8.25));
#478=CARTESIAN_POINT('',(4.,6.5,8.25));
#479=CARTESIAN_POINT('',(4.,1.5,1.75));
#480=CARTESIAN_POINT('',(4.,1.5,5.));
#481=CARTESIAN_POINT('',(4.,6.5,1.75));
#482=CARTESIAN_POINT('Origin',(3.25,6.5,8.25));
#483=CARTESIAN_POINT('',(3.25,1.5,8.25));
#484=CARTESIAN_POINT('Origin',(3.25,6.5,1.75));
#485=CARTESIAN_POINT('',(3.25,1.5,1.75));
#486=CARTESIAN_POINT('Origin',(3.25,1.5,5.));
#487=UNCERTAINTY_MEASURE_WITH_UNIT(LENGTH_MEASURE(0.001),#491,
'DISTANCE_ACCURACY_VALUE',
'Maximum model space distance between geometric entities at asserted c
onnectivities');
#488=UNCERTAINTY_MEASURE_WITH_UNIT(LENGTH_MEASURE(1.E-6),#492,
'DISTANCE_ACCURACY_VALUE',
'Maximum model space distance between geometric entities at asserted c
onnectivities');
#489=(
GEOMETRIC_REPRESENTATION_CONTEXT(3)
GLOBAL_UNCERTAINTY_ASSIGNED_CONTEXT((#487))
GLOBAL_UNIT_ASSIGNED_CONTEXT((#491,#494,#493))
REPRESENTATION_CONTEXT('','3D')
);
#490=(
GEOMETRIC_REPRESENTATION_CONTEXT(3)
GLOBAL_UNCERTAINTY_ASSIGNED_CONTEXT((#488))
GLOBAL_UNIT_ASSIGNED_CONTEXT((#492,#12,#493))
REPRESENTATION_CONTEXT('','3D')
);
#491=(
LENGTH_UNIT()
NAMED_UNIT(*)
SI_UNIT(.CENTI.,.METRE.)
);
#492=(
LENGTH_UNIT()
NAMED_UNIT(*)
SI_UNIT(.MILLI.,.METRE.)
);
#493=(
NAMED_UNIT(*)
SI_UNIT($,.STERADIAN.)
SOLID_ANGLE_UNIT()
);
#494=(
NAMED_UNIT(*)
PLANE_ANGLE_UNIT()
SI_UNIT($,.RADIAN.)
);
#495=SHAPE_DEFINITION_REPRESENTATION(#496,#497);
#496=PRODUCT_DEFINITION_SHAPE('',$,#499);
#497=SHAPE_REPRESENTATION('',(#311),#489);
#498=PRODUCT_DEFINITION_CONTEXT('part definition',#503,'design');
#499=PRODUCT_DEFINITION('Untitled v5','Untitled v5',#500,#498);
#500=PRODUCT_DEFINITION_FORMATION('',$,#505);
#501=PRODUCT_RELATED_PRODUCT_CATEGORY('Untitled v5','Untitled v5',(#505));
#502=APPLICATION_PROTOCOL_DEFINITION('international standard',
'automotive_design',2009,#503);
#503=APPLICATION_CONTEXT(
'Core Data for Automotive Mechanical Design Process');
#504=PRODUCT_CONTEXT('part definition',#503,'mechanical');
#505=PRODUCT('Untitled v5','Untitled v5',$,(#504));
#506=PRESENTATION_STYLE_ASSIGNMENT((#508));
#507=PRESENTATION_STYLE_ASSIGNMENT((#509));
#508=SURFACE_STYLE_USAGE(.BOTH.,#510);
#509=SURFACE_STYLE_USAGE(.BOTH.,#511);
#510=SURFACE_SIDE_STYLE('',(#512));
#511=SURFACE_SIDE_STYLE('',(#513));
#512=SURFACE_STYLE_FILL_AREA(#514);
#513=SURFACE_STYLE_FILL_AREA(#515);
#514=FILL_AREA_STYLE('Steel - Satin',(#516));
#515=FILL_AREA_STYLE('Pine',(#517));
#516=FILL_AREA_STYLE_COLOUR('Steel - Satin',#518);
#517=FILL_AREA_STYLE_COLOUR('Pine',#519);
#518=COLOUR_RGB('Steel - Satin',0.627450980392157,0.627450980392157,0.627450980392157);
#519=COLOUR_RGB('Pine',0.,0.,0.);
ENDSEC;
END-ISO-10303-21;
