0
SECTION
2
HEADER
9
$INSUNITS
70
4
9
$ACADVER
1
AC1014
9
$HANDSEED
5
FFFF
0
ENDSEC
0
SECTION
2
TABLES
0
TABLE
2
VPORT
5
8
100
AcDbSymbolTable
0
ENDTAB
0
TABLE
2
LTYPE
5
5
100
AcDbSymbolTable
0
LTYPE
5
14
100
AcDbSymbolTableRecord
100
AcDbLinetypeTableRecord
2
BYBLOCK
70
0
0
LTYPE
5
15
100
AcDbSymbolTableRecord
100
AcDbLinetypeTableRecord
2
BYLAYER
70
0
0
ENDTAB
0
TABLE
2
LAYER
5
2
100
AcDbSymbolTable
70
2
0
LAYER
5
50
100
AcDbSymbolTableRecord
100
AcDbLayerTableRecord
2
0
70
0
6
CONTINUOUS
0
ENDTAB
0
TABLE
2
STYLE
5
3
100
AcDbSymbolTable
70
1
0
STYLE
5
11
100
AcDbSymbolTableRecord
100
AcDbTextStyleTableRecord
2
STANDARD
70
0
0
ENDTAB
0
TABLE
2
VIEW
5
6
100
AcDbSymbolTable
70
0
0
ENDTAB
0
TABLE
2
UCS
5
7
100
AcDbSymbolTable
70
0
0
ENDTAB
0
TABLE
2
APPID
5
9
100
AcDbSymbolTable
70
2
0
APPID
5
12
100
AcDbSymbolTableRecord
100
AcDbRegAppTableRecord
2
ACAD
70
0
0
ENDTAB
0
TABLE
2
DIMSTYLE
5
A
100
AcDbSymbolTable
70
1
0
ENDTAB
0
TABLE
2
BLOCK_RECORD
5
1
100
AcDbSymbolTable
70
1
0
BLOCK_RECORD
5
1F
100
AcDbSymbolTableRecord
100
AcDbBlockTableRecord
2
*MODEL_SPACE
0
BLOCK_RECORD
5
1B
100
AcDbSymbolTableRecord
100
AcDbBlockTableRecord
2
*PAPER_SPACE
0
ENDTAB
0
ENDSEC
0
SECTION
2
BLOCKS
0
BLOCK
5
20
100
AcDbEntity
100
AcDbBlockBegin
2
*MODEL_SPACE
0
ENDBLK
5
21
100
AcDbEntity
100
AcDbBlockEnd
0
BLOCK
5
1C
100
AcDbEntity
100
AcDbBlockBegin
2
*PAPER_SPACE
0
ENDBLK
5
1D
100
AcDbEntity
100
AcDbBlockEnd
0
ENDSEC
0
SECTION
2
ENTITIES
0
LWPOLYLINE
5
100
100
AcDbEntity
8
0
100
AcDbPolyline
90
4
70
1
43
0.0
10
87.62631802680589
20
61.815620937307173
10
87.62631802680589
20
71.815620937307173
10
81.626318026805905
20
71.815620937307159
10
81.626318026805905
20
61.815620937307159
0
LWPOLYLINE
5
101
100
AcDbEntity
8
0
100
AcDbPolyline
90
4
70
1
43
0.0
10
81.626318026805919
20
31.815620937307195
10
81.626318026805905
20
21.815620937307216
10
87.62631802680589
20
21.815620937307216
10
87.626318026805905
20
31.815620937307202
0
LWPOLYLINE
5
102
100
AcDbEntity
8
0
100
AcDbPolyline
90
4
70
1
43
0.0
10
81.626318026805905
20
-8.1843790626927664
10
81.626318026805905
20
-18.184379062692777
10
87.62631802680589
20
-18.184379062692781
10
87.626318026805876
20
-8.1843790626927717
0
LWPOLYLINE
5
103
100
AcDbEntity
8
0
100
AcDbPolyline
90
4
70
1
43
0.0
10
87.62631802680589
20
1.8156209373072252
10
87.626318026805905
20
11.815620937307227
10
81.626318026805919
20
11.815620937307227
10
81.626318026805905
20
1.8156209373072247
0
LWPOLYLINE
5
104
100
AcDbEntity
8
0
100
AcDbPolyline
90
4
70
1
43
0.0
10
87.626318026805876
20
41.815620937307195
10
87.62631802680589
20
51.815620937307159
10
81.626318026805905
20
51.815620937307173
10
81.626318026805876
20
41.815620937307202
0
LWPOLYLINE
5
105
100
AcDbEntity
8
0
100
AcDbPolyline
90
4
70
1
43
0.0
10
81.626318026805905
20
91.815620937307216
10
81.626318026805905
20
81.815620937307216
10
87.626318026805876
20
81.815620937307216
10
87.626318026805876
20
91.815620937307216
0
LWPOLYLINE
5
106
100
AcDbEntity
8
0
100
AcDbPolyline
90
4
70
1
43
0.0
10
3.6090740841029478
20
-53.184379062692919
10
9.2659283335953173
20
-53.184379062692919
10
-5.7340716664046223
20
-38.184379062692983
10
-11.390925915896988
20
-38.184379062692969
0
LWPOLYLINE
5
107
100
AcDbEntity
8
0
100
AcDbPolyline
90
4
70
1
43
0.0
10
-62.302614161328584
20
-38.184379062692983
10
-47.302614161328663
20
-53.18437906269294
10
-41.645759911836286
20
-53.18437906269294
10
-56.645759911836215
20
-38.184379062692983
0
LWPOLYLINE
5
108
100
AcDbEntity
8
0
100
AcDbPolyline
90
4
70
1
43
0.0
10
1.336996145460867
20
-38.184379062692969
10
13.446123180200633
20
-50.293506097432747
10
16.274550304946832
20
-47.465078972686563
10
6.9938503949532391
20
-38.184379062692969
0
CIRCLE
5
109
100
AcDbEntity
8
0
100
AcDbCircle
10
12.626318026805913
20
141.81562093730722
30
0
40
1.6500000000000006
0
CIRCLE
5
110
100
AcDbEntity
8
0
100
AcDbCircle
10
2.6263180268059321
20
151.81562093730724
30
0
40
1.6500000000000006
0
CIRCLE
5
111
100
AcDbEntity
8
0
100
AcDbCircle
10
-49.373681973194152
20
141.81562093730722
30
0
40
1.6500000000000006
0
CIRCLE
5
112
100
AcDbEntity
8
0
100
AcDbCircle
10
-39.373681973194167
20
151.81562093730722
30
0
40
1.6500000000000006
0
CIRCLE
5
113
100
AcDbEntity
8
0
100
AcDbCircle
10
-59.373681973194152
20
131.81562093730716
30
0
40
1.6500000000000006
0
CIRCLE
5
114
100
AcDbEntity
8
0
100
AcDbCircle
10
-59.373681973194181
20
151.81562093730722
30
0
40
1.6500000000000006
0
CIRCLE
5
115
100
AcDbEntity
8
0
100
AcDbCircle
10
22.626318026805926
20
131.81562093730719
30
0
40
1.6500000000000006
0
CIRCLE
5
116
100
AcDbEntity
8
0
100
AcDbCircle
10
22.626318026805929
20
151.81562093730722
30
0
40
1.6500000000000006
0
LWPOLYLINE
5
117
100
AcDbEntity
8
0
100
AcDbPolyline
90
3
70
1
43
0.0
10
19.81008421087957
20
-43.929545066753818
10
25.555250214940436
20
-38.184379062692969
10
14.064918206818735
20
-38.184379062692962
0
LWPOLYLINE
5
118
100
AcDbEntity
8
0
100
AcDbPolyline
90
4
70
1
43
0.0
10
-21.846770038612867
20
-53.184379062692926
10
-16.189915789120498
20
-53.184379062692926
10
-31.18991578912042
20
-38.184379062692976
10
-36.846770038612803
20
-38.184379062692983
0
LWPOLYLINE
5
119
100
AcDbEntity
8
0
100
AcDbPolyline
90
4
70
1
43
0.0
10
-34.574692099970775
20
-53.184379062692926
10
-28.917837850478403
20
-53.184379062692926
10
-43.917837850478321
20
-38.184379062692983
10
-49.574692099970704
20
-38.184379062692983
0
LWPOLYLINE
5
120
100
AcDbEntity
8
0
100
AcDbPolyline
90
4
70
1
43
0.0
10
-9.1188479772549602
20
-53.184379062692919
10
-3.4619937277625912
20
-53.184379062692919
10
-18.461993727762529
20
-38.184379062692983
10
-24.118847977254894
20
-38.184379062692983
0
LWPOLYLINE
5
121
100
AcDbEntity
8
0
100
AcDbPolyline
90
4
70
1
43
0.0
10
116.62631802680592
20
7.8156209373071199
10
116.6263180268059
20
1.8156209373071124
10
126.62631802680592
20
1.8156209373071153
10
126.62631802680592
20
7.8156209373071208
0
CIRCLE
5
122
100
AcDbEntity
8
0
100
AcDbCircle
10
117.6263180268059
20
36.815620937307138
30
0
40
1.6500000000000006
0
CIRCLE
5
123
100
AcDbEntity
8
0
100
AcDbCircle
10
127.62631802680593
20
46.815620937307145
30
0
40
1.6500000000000006
0
CIRCLE
5
124
100
AcDbEntity
8
0
100
AcDbCircle
10
127.62631802680595
20
26.815620937307134
30
0
40
1.6500000000000006
0
LWPOLYLINE
5
125
100
AcDbEntity
8
0
100
AcDbPolyline
90
4
70
1
43
0.0
10
106.62631802680592
20
7.8156209373071182
10
96.626318026805905
20
7.8156209373071377
10
96.626318026805919
20
1.8156209373071204
10
106.62631802680593
20
1.8156209373071219
0
CIRCLE
5
126
100
AcDbEntity
8
0
100
AcDbCircle
10
4.376318026805583
20
83.06562093730696
30
0
40
1.6500000000000008
0
CIRCLE
5
127
100
AcDbEntity
8
0
100
AcDbCircle
10
-48.123681973194408
20
30.565620937306939
30
0
40
1.6500000000000008
0
CIRCLE
5
128
100
AcDbEntity
8
0
100
AcDbCircle
10
4.3763180268055946
20
30.565620937306942
30
0
40
1.6500000000000008
0
CIRCLE
5
129
100
AcDbEntity
8
0
100
AcDbCircle
10
-48.123681973194437
20
83.06562093730696
30
0
40
1.6500000000000008
0
CIRCLE
5
130
100
AcDbEntity
8
0
100
AcDbCircle
10
-21.873681973194422
20
56.815620937306939
30
0
40
26.250000000000014
0
LWPOLYLINE
5
131
100
AcDbEntity
8
0
100
AcDbPolyline
90
39
70
1
43
0.0
10
-79.373681973194167
20
-38.184379062692891
10
-79.373681973194167
20
-32.184379062692891
10
-89.373681973194167
20
-32.184379062692898
10
-89.373681973194167
20
-38.184379062692884
10
-99.373681973194167
20
-38.184379062692891
10
-99.373681973194152
20
-32.184379062692898
10
-109.37368197319415
20
-32.184379062692898
10
-109.37368197319415
20
-38.184379062692891
10
-124.37368197319415
20
-38.184379062692955
10
-124.37368197319418
20
-19.184379062693143
10
-118.37368197319421
20
-19.18437906269315
10
-118.37368197319418
20
-9.1843790626931465
10
-124.37368197319415
20
-9.1843790626931359
10
-124.37368197319415
20
0.81562093730682295
10
-118.37368197319418
20
0.81562093730683349
10
-118.37368197319418
20
10.815620937306871
10
-124.37368197319414
20
10.815620937306889
10
-124.37368197319422
20
101.81562093730717
10
-64.373681973194209
20
161.81562093730716
10
27.626318026805929
20
161.81562093730719
10
137.62631802680593
20
51.815620937307116
10
137.6263180268059
20
-28.184379062692972
10
127.62631802680588
20
-38.184379062692912
10
87.626318026805876
20
-38.184379062692962
10
87.626318026805876
20
-28.184379062692887
10
81.626318026805876
20
-28.184379062692891
10
81.626318026805905
20
-38.184379062692891
10
72.626318026805905
20
-38.184379062692891
10
72.626318026805905
20
-32.184379062692891
10
62.626318026805905
20
-32.184379062692891
10
62.626318026805912
20
-38.184379062692891
10
52.626318026805912
20
-38.184379062692891
10
52.626318026805905
20
-32.184379062692884
10
42.626318026805905
20
-32.184379062692898
10
42.626318026805905
20
-38.184379062692891
10
32.626318026805983
20
-38.184379062692898
10
12.626318026805912
20
-58.184379062692955
10
-49.373681973194145
20
-58.184379062692926
10
-69.373681973194138
20
-38.184379062692933
0
ENDSEC
0
SECTION
2
OBJECTS
0
DICTIONARY
5
C
100
AcDbDictionary
3
ACAD_GROUP
350
D
3
ACAD_MLINESTYLE
350
17
0
DICTIONARY
5
D
100
AcDbDictionary
0
DICTIONARY
5
1A
330
C
100
AcDbDictionary
0
DICTIONARY
5
17
100
AcDbDictionary
0
ENDSEC
0
EOF
