0
SECTION
2
HEADER
9
$INSUNITS
70
4
9
$ACADVER
1
AC1014
9
$HANDSEED
5
FFFF
0
ENDSEC
0
SECTION
2
TABLES
0
TABLE
2
VPORT
5
8
100
AcDbSymbolTable
0
ENDTAB
0
TABLE
2
LTYPE
5
5
100
AcDbSymbolTable
70
2
0
LTYPE
5
14
100
AcDbSymbolTableRecord
100
AcDbLinetypeTableRecord
2
BYBLOCK
70
0
0
LTYPE
5
15
100
AcDbSymbolTableRecord
100
AcDbLinetypeTableRecord
2
BYLAYER
70
0
0
ENDTAB
0
TABLE
2
LAYER
5
2
100
AcDbSymbolTable
70
3
0
LAYER
5
50
100
AcDbSymbolTableRecord
100
AcDbLayerTableRecord
2
0
70
0
6
CONTINUOUS
0
LAYER
5
51
100
AcDbSymbolTableRecord
100
AcDbLayerTableRecord
2
CUTOUTS
70
0
62
1
6
CONTINUOUS
0
LAYER
5
52
100
AcDbSymbolTableRecord
100
AcDbLayerTableRecord
2
PERIMETER
70
0
62
5
6
CONTINUOUS
0
ENDTAB
0
TABLE
2
STYLE
5
3
100
AcDbSymbolTable
70
1
0
STYLE
5
11
100
AcDbSymbolTableRecord
100
AcDbTextStyleTableRecord
2
STANDARD
70
0
0
ENDTAB
0
TABLE
2
VIEW
5
6
100
AcDbSymbolTable
0
ENDTAB
0
TABLE
2
UCS
5
7
100
AcDbSymbolTable
0
ENDTAB
0
TABLE
2
APPID
5
9
100
AcDbSymbolTable
70
1
0
APPID
5
12
100
AcDbSymbolTableRecord
100
AcDbRegAppTableRecord
2
ACAD
70
0
0
ENDTAB
0
TABLE
2
DIMSTYLE
5
A
100
AcDbSymbolTable
0
ENDTAB
0
TABLE
2
BLOCK_RECORD
5
1
100
AcDbSymbolTable
70
2
0
BLOCK_RECORD
5
1F
100
AcDbSymbolTableRecord
100
AcDbBlockTableRecord
2
*MODEL_SPACE
0
BLOCK_RECORD
5
1B
100
AcDbSymbolTableRecord
100
AcDbBlockTableRecord
2
*PAPER_SPACE
0
ENDTAB
0
ENDSEC
0
SECTION
2
BLOCKS
0
BLOCK
5
20
100
AcDbEntity
100
AcDbBlockBegin
2
*MODEL_SPACE
0
ENDBLK
5
21
100
AcDbEntity
100
AcDbBlockEnd
0
BLOCK
5
1C
100
AcDbEntity
100
AcDbBlockBegin
2
*PAPER_SPACE
0
ENDBLK
5
1D
100
AcDbEntity
100
AcDbBlockEnd
0
ENDSEC
0
SECTION
2
ENTITIES
0
CIRCLE
5
100
100
AcDbEntity
8
CUTOUTS
100
AcDbCircle
10
49.345723936805818
20
-17.340498267702991
30
-7.4107386893729199e-14
40
1.5249999999999986
210
0
220
0
230
1
0
CIRCLE
5
101
100
AcDbEntity
8
CUTOUTS
100
AcDbCircle
10
-70.973484542314822
20
-17.340572598304579
30
-3.9135361618036768e-14
40
1.5249999999999986
210
0
220
0
230
1
0
CIRCLE
5
102
100
AcDbEntity
8
CUTOUTS
100
AcDbCircle
10
-10.813858089611534
20
-53.297028778957383
30
-1.0380585280245214e-13
40
1.5250000000000008
210
0
220
0
230
1
0
CIRCLE
5
103
100
AcDbEntity
8
CUTOUTS
100
AcDbCircle
10
-10.813935628305853
20
72.215130980322769
30
-9.4368957093138306e-15
40
1.5249999999999964
210
0
220
0
230
1
0
ARC
5
104
100
AcDbEntity
8
CUTOUTS
100
AcDbCircle
10
75.186068646444838
20
65.295603259584411
30
0
40
90.099999999999923
210
0
220
0
230
1
100
AcDbArc
50
208.6516944241061
51
218.89994380627249
0
ARC
5
105
100
AcDbEntity
8
CUTOUTS
100
AcDbCircle
10
-1.0818202657534259
20
3.7552984108386589
30
0
40
7.8999999999999719
210
-0
220
0
230
1
100
AcDbArc
50
-64.652711162737276
51
38.899943806274138
0
ARC
5
106
100
AcDbEntity
8
CUTOUTS
100
AcDbCircle
10
15.186127880273311
20
-30.586423490053068
30
0
40
30.100000000000048
210
0
220
0
230
1
100
AcDbArc
50
115.34728883726281
51
133.17358650335083
0
ARC
5
107
100
AcDbEntity
8
CUTOUTS
100
AcDbCircle
10
-10.81388924009747
20
-2.8736266311933178
30
0
40
7.8999999999999835
210
0
220
0
230
1
100
AcDbArc
50
226.8264842888328
51
313.17358650335086
0
ARC
5
108
100
AcDbEntity
8
CUTOUTS
100
AcDbCircle
10
-36.813872119716819
20
-30.586455614527026
30
0
40
30.100000000000019
210
0
220
-0
230
1
100
AcDbArc
50
46.826484288832901
51
64.652781954920897
0
ARC
5
109
100
AcDbEntity
8
CUTOUTS
100
AcDbCircle
10
-20.545966404846752
20
3.7552863863106722
30
0
40
7.9000000000000137
210
0
220
0
230
1
100
AcDbArc
50
141.10012698591117
51
244.65278195492084
0
ARC
5
10A
100
AcDbEntity
8
CUTOUTS
100
AcDbCircle
10
-96.813931353522605
20
65.295497001709322
30
0
40
90.100000000000335
210
-0
220
0
230
1
100
AcDbArc
50
321.10012698591106
51
331.34837636807742
0
ARC
5
10B
100
AcDbEntity
8
CUTOUTS
100
AcDbCircle
10
-10.813902324529355
20
18.306189632772856
30
0
40
7.9000000000000083
210
0
220
-0
230
1
100
AcDbArc
50
28.651694424106243
51
151.34837636807811
0
ARC
5
10C
100
AcDbEntity
8
PERIMETER
100
AcDbCircle
10
-70.973484542314822
20
-17.340572598304576
30
0
40
6.1000000000000227
210
0
220
0
230
1
100
AcDbArc
50
114.01180190274134
51
294.01180104896753
0
LINE
5
10D
100
AcDbEntity
8
PERIMETER
100
AcDbLine
10
-68.491243210941434
20
-22.912688710951716
30
0
11
-44.911675807311944
21
-12.408568624088005
31
0
0
ARC
5
10E
100
AcDbEntity
8
PERIMETER
100
AcDbCircle
10
-36.813872119716819
20
-30.586455614527026
30
0
40
19.900000000000016
210
0
220
-0
230
1
100
AcDbArc
50
3.5398159637176649e-05
51
114.0118019027412
0
LINE
5
10F
100
AcDbEntity
8
PERIMETER
100
AcDbLine
10
-16.913872119720597
20
-30.58644332073797
30
0
11
-16.913858089610379
21
-53.29703254740528
31
0
0
ARC
5
110
100
AcDbEntity
8
PERIMETER
100
AcDbCircle
10
-10.813858089611532
20
-53.297028778957383
30
0
40
6.1000000000000121
210
0
220
0
230
1
100
AcDbArc
50
-179.99996460184036
51
3.5398159637176649e-05
0
LINE
5
111
100
AcDbEntity
8
PERIMETER
100
AcDbLine
10
-4.7138580896126792
20
-53.2970250105095
30
0
11
-4.7138721197229394
21
-30.586435783842099
31
0
0
ARC
5
112
100
AcDbEntity
8
PERIMETER
100
AcDbCircle
10
15.186127880273311
20
-30.586423490053068
30
0
40
19.900000000000023
210
0
220
-0
230
1
100
AcDbArc
50
65.988268889442637
51
180.00003539815964
0
LINE
5
113
100
AcDbEntity
8
PERIMETER
100
AcDbLine
10
23.283909108052324
20
-12.408526494332399
30
0
11
46.86348957176957
21
-22.912617483677572
31
0
0
ARC
5
114
100
AcDbEntity
8
PERIMETER
100
AcDbCircle
10
49.345723936805818
20
-17.340498267702987
30
0
40
6.100000000000005
210
0
220
0
230
1
100
AcDbArc
50
-114.01173027078001
51
65.98826972922015
0
LINE
5
115
100
AcDbEntity
8
PERIMETER
100
AcDbLine
10
51.827958300480915
20
-11.768379051122047
30
0
11
42.672866631392488
21
-7.6900233714748083
31
0
0
ARC
5
116
100
AcDbEntity
8
PERIMETER
100
AcDbCircle
10
75.186068646444838
20
65.295603259584411
30
0
40
79.899999999999878
210
0
220
0
230
1
100
AcDbArc
50
180.00003539815964
51
245.98826888944259
0
LINE
5
117
100
AcDbEntity
8
PERIMETER
100
AcDbLine
10
-4.7139313535397687
20
65.295553899094756
30
0
11
-4.7139356283070537
21
72.215134748770694
31
0
0
ARC
5
118
100
AcDbEntity
8
PERIMETER
100
AcDbCircle
10
-10.81393562830586
20
72.215130980322769
30
0
40
6.0999999999999579
210
0
220
-0
230
1
100
AcDbArc
50
3.5398159637176649e-05
51
180.00003539815964
0
LINE
5
119
100
AcDbEntity
8
PERIMETER
100
AcDbLine
10
-16.913935628304657
20
72.21512721187483
30
0
11
-16.913931353537592
21
65.295546362198749
31
0
0
ARC
5
11A
100
AcDbEntity
8
PERIMETER
100
AcDbCircle
10
-96.813931353522605
20
65.295497001709322
30
0
40
79.900000000000347
210
-0
220
0
230
1
100
AcDbArc
50
-65.988198097258888
51
3.5398159637176649e-05
0
LINE
5
11B
100
AcDbEntity
8
PERIMETER
100
AcDbLine
10
-64.300639160615461
20
-7.6900894573902612
30
0
11
-73.455725873688223
21
-11.768456485657421
31
0
0
ENDSEC
0
SECTION
2
OBJECTS
0
DICTIONARY
5
C
100
AcDbDictionary
3
ACAD_GROUP
350
D
3
ACAD_MLINESTYLE
350
17
0
DICTIONARY
5
D
100
AcDbDictionary
0
DICTIONARY
5
1A
330
C
100
AcDbDictionary
0
DICTIONARY
5
17
100
AcDbDictionary
0
ENDSEC
0
EOF
