ISO-10303-21;
HEADER;
/* Generated by software containing ST-Developer
 * from STEP Tools, Inc. (www.steptools.com) 
 */

FILE_DESCRIPTION(
/* description */ (''),
/* implementation_level */ '2;1');

FILE_NAME(
/* name */ 
'C:\\Users\\Mark\\Desktop\\Inventor Projects\\Khun_Phaen_Puzzle\\1x1.s
tp',
/* time_stamp */ '2017-10-24T21:25:59-04:00',
/* author */ ('Mark'),
/* organization */ (''),
/* preprocessor_version */ 'ST-DEVELOPER v16.1',
/* originating_system */ 'Autodesk Inventor 2016',
/* authorisation */ '');

FILE_SCHEMA (('AUTOMOTIVE_DESIGN { 1 0 10303 214 3 1 1 }'));
ENDSEC;

DATA;
#10=MECHANICAL_DESIGN_GEOMETRIC_PRESENTATION_REPRESENTATION('',(#120,#121,
#122),#213);
#11=SHAPE_REPRESENTATION_RELATIONSHIP('SRR','None',#225,#12);
#12=ADVANCED_BREP_SHAPE_REPRESENTATION('',(#13),#212);
#13=MANIFOLD_SOLID_BREP('Solid1',#131);
#14=LINE('',#187,#26);
#15=LINE('',#189,#27);
#16=LINE('',#191,#28);
#17=LINE('',#192,#29);
#18=LINE('',#195,#30);
#19=LINE('',#197,#31);
#20=LINE('',#198,#32);
#21=LINE('',#201,#33);
#22=LINE('',#203,#34);
#23=LINE('',#204,#35);
#24=LINE('',#206,#36);
#25=LINE('',#207,#37);
#26=VECTOR('',#155,1.);
#27=VECTOR('',#156,0.5);
#28=VECTOR('',#157,1.);
#29=VECTOR('',#158,0.5);
#30=VECTOR('',#161,1.);
#31=VECTOR('',#162,1.);
#32=VECTOR('',#163,0.5);
#33=VECTOR('',#166,1.);
#34=VECTOR('',#167,1.);
#35=VECTOR('',#168,0.5);
#36=VECTOR('',#171,1.);
#37=VECTOR('',#172,1.);
#38=PLANE('',#137);
#39=PLANE('',#138);
#40=PLANE('',#139);
#41=PLANE('',#140);
#42=PLANE('',#141);
#43=PLANE('',#142);
#44=CONICAL_SURFACE('',#136,0.1875,80.);
#45=FACE_BOUND('',#56,.T.);
#46=FACE_BOUND('',#63,.T.);
#47=FACE_OUTER_BOUND('',#55,.T.);
#48=FACE_OUTER_BOUND('',#57,.T.);
#49=FACE_OUTER_BOUND('',#58,.T.);
#50=FACE_OUTER_BOUND('',#59,.T.);
#51=FACE_OUTER_BOUND('',#60,.T.);
#52=FACE_OUTER_BOUND('',#61,.T.);
#53=FACE_OUTER_BOUND('',#62,.T.);
#54=FACE_OUTER_BOUND('',#64,.T.);
#55=EDGE_LOOP('',(#91));
#56=EDGE_LOOP('',(#92));
#57=EDGE_LOOP('',(#93));
#58=EDGE_LOOP('',(#94,#95,#96,#97));
#59=EDGE_LOOP('',(#98,#99,#100,#101));
#60=EDGE_LOOP('',(#102,#103,#104,#105));
#61=EDGE_LOOP('',(#106,#107,#108,#109));
#62=EDGE_LOOP('',(#110,#111,#112,#113));
#63=EDGE_LOOP('',(#114));
#64=EDGE_LOOP('',(#115,#116,#117,#118));
#65=CIRCLE('',#134,0.375);
#66=CIRCLE('',#135,0.279624933454431);
#67=VERTEX_POINT('',#179);
#68=VERTEX_POINT('',#181);
#69=VERTEX_POINT('',#185);
#70=VERTEX_POINT('',#186);
#71=VERTEX_POINT('',#188);
#72=VERTEX_POINT('',#190);
#73=VERTEX_POINT('',#194);
#74=VERTEX_POINT('',#196);
#75=VERTEX_POINT('',#200);
#76=VERTEX_POINT('',#202);
#77=EDGE_CURVE('',#67,#67,#65,.T.);
#78=EDGE_CURVE('',#68,#68,#66,.T.);
#79=EDGE_CURVE('',#69,#70,#14,.T.);
#80=EDGE_CURVE('',#70,#71,#15,.T.);
#81=EDGE_CURVE('',#72,#71,#16,.T.);
#82=EDGE_CURVE('',#69,#72,#17,.T.);
#83=EDGE_CURVE('',#73,#69,#18,.T.);
#84=EDGE_CURVE('',#74,#72,#19,.T.);
#85=EDGE_CURVE('',#73,#74,#20,.T.);
#86=EDGE_CURVE('',#75,#73,#21,.T.);
#87=EDGE_CURVE('',#76,#74,#22,.T.);
#88=EDGE_CURVE('',#75,#76,#23,.T.);
#89=EDGE_CURVE('',#70,#75,#24,.T.);
#90=EDGE_CURVE('',#71,#76,#25,.T.);
#91=ORIENTED_EDGE('',*,*,#77,.F.);
#92=ORIENTED_EDGE('',*,*,#78,.T.);
#93=ORIENTED_EDGE('',*,*,#78,.F.);
#94=ORIENTED_EDGE('',*,*,#79,.T.);
#95=ORIENTED_EDGE('',*,*,#80,.T.);
#96=ORIENTED_EDGE('',*,*,#81,.F.);
#97=ORIENTED_EDGE('',*,*,#82,.F.);
#98=ORIENTED_EDGE('',*,*,#83,.T.);
#99=ORIENTED_EDGE('',*,*,#82,.T.);
#100=ORIENTED_EDGE('',*,*,#84,.F.);
#101=ORIENTED_EDGE('',*,*,#85,.F.);
#102=ORIENTED_EDGE('',*,*,#86,.T.);
#103=ORIENTED_EDGE('',*,*,#85,.T.);
#104=ORIENTED_EDGE('',*,*,#87,.F.);
#105=ORIENTED_EDGE('',*,*,#88,.F.);
#106=ORIENTED_EDGE('',*,*,#89,.T.);
#107=ORIENTED_EDGE('',*,*,#88,.T.);
#108=ORIENTED_EDGE('',*,*,#90,.F.);
#109=ORIENTED_EDGE('',*,*,#80,.F.);
#110=ORIENTED_EDGE('',*,*,#90,.T.);
#111=ORIENTED_EDGE('',*,*,#87,.T.);
#112=ORIENTED_EDGE('',*,*,#84,.T.);
#113=ORIENTED_EDGE('',*,*,#81,.T.);
#114=ORIENTED_EDGE('',*,*,#77,.T.);
#115=ORIENTED_EDGE('',*,*,#89,.F.);
#116=ORIENTED_EDGE('',*,*,#79,.F.);
#117=ORIENTED_EDGE('',*,*,#83,.F.);
#118=ORIENTED_EDGE('',*,*,#86,.F.);
#119=TOROIDAL_SURFACE('',#133,0.257918911246065,0.125);
#120=STYLED_ITEM('',(#235),#123);
#121=STYLED_ITEM('',(#235),#124);
#122=STYLED_ITEM('',(#234),#13);
#123=ADVANCED_FACE('',(#47,#45),#119,.F.);
#124=ADVANCED_FACE('',(#48),#44,.F.);
#125=ADVANCED_FACE('',(#49),#38,.T.);
#126=ADVANCED_FACE('',(#50),#39,.T.);
#127=ADVANCED_FACE('',(#51),#40,.T.);
#128=ADVANCED_FACE('',(#52),#41,.T.);
#129=ADVANCED_FACE('',(#53,#46),#42,.T.);
#130=ADVANCED_FACE('',(#54),#43,.F.);
#131=CLOSED_SHELL('',(#123,#124,#125,#126,#127,#128,#129,#130));
#132=AXIS2_PLACEMENT_3D('placement',#177,#143,#144);
#133=AXIS2_PLACEMENT_3D('',#178,#145,#146);
#134=AXIS2_PLACEMENT_3D('',#180,#147,#148);
#135=AXIS2_PLACEMENT_3D('',#182,#149,#150);
#136=AXIS2_PLACEMENT_3D('',#183,#151,#152);
#137=AXIS2_PLACEMENT_3D('',#184,#153,#154);
#138=AXIS2_PLACEMENT_3D('',#193,#159,#160);
#139=AXIS2_PLACEMENT_3D('',#199,#164,#165);
#140=AXIS2_PLACEMENT_3D('',#205,#169,#170);
#141=AXIS2_PLACEMENT_3D('',#208,#173,#174);
#142=AXIS2_PLACEMENT_3D('',#209,#175,#176);
#143=DIRECTION('axis',(0.,0.,1.));
#144=DIRECTION('refdir',(1.,0.,0.));
#145=DIRECTION('center_axis',(0.,0.,-1.));
#146=DIRECTION('ref_axis',(1.,0.,0.));
#147=DIRECTION('center_axis',(0.,0.,-1.));
#148=DIRECTION('ref_axis',(1.,0.,0.));
#149=DIRECTION('center_axis',(0.,0.,-1.));
#150=DIRECTION('ref_axis',(1.,0.,0.));
#151=DIRECTION('center_axis',(0.,0.,1.));
#152=DIRECTION('ref_axis',(1.,0.,0.));
#153=DIRECTION('center_axis',(-1.,-3.06161699786838E-16,0.));
#154=DIRECTION('ref_axis',(3.06161699786838E-16,-1.,0.));
#155=DIRECTION('',(3.06161699786838E-16,-1.,0.));
#156=DIRECTION('',(0.,0.,1.));
#157=DIRECTION('',(3.06161699786838E-16,-1.,0.));
#158=DIRECTION('',(0.,0.,1.));
#159=DIRECTION('center_axis',(-1.74838271594513E-16,1.,0.));
#160=DIRECTION('ref_axis',(-1.,-2.8199664825479E-16,0.));
#161=DIRECTION('',(-1.,-1.74838271594513E-16,0.));
#162=DIRECTION('',(-1.,-1.74838271594513E-16,0.));
#163=DIRECTION('',(0.,0.,1.));
#164=DIRECTION('center_axis',(1.,1.74838271594513E-16,0.));
#165=DIRECTION('ref_axis',(-2.8199664825479E-16,1.,0.));
#166=DIRECTION('',(-1.74838271594513E-16,1.,0.));
#167=DIRECTION('',(-1.74838271594513E-16,1.,0.));
#168=DIRECTION('',(0.,0.,1.));
#169=DIRECTION('center_axis',(0.,-1.,0.));
#170=DIRECTION('ref_axis',(1.,0.,0.));
#171=DIRECTION('',(1.,0.,0.));
#172=DIRECTION('',(1.,0.,0.));
#173=DIRECTION('center_axis',(0.,0.,1.));
#174=DIRECTION('ref_axis',(1.,0.,0.));
#175=DIRECTION('center_axis',(0.,0.,1.));
#176=DIRECTION('ref_axis',(1.,0.,0.));
#177=CARTESIAN_POINT('',(0.,0.,0.));
#178=CARTESIAN_POINT('Origin',(0.5,0.5,0.543783771607677));
#179=CARTESIAN_POINT('',(0.875,0.5,0.5));
#180=CARTESIAN_POINT('Origin',(0.5,0.5,0.5));
#181=CARTESIAN_POINT('',(0.220375066545568,0.5,0.420682802481151));
#182=CARTESIAN_POINT('Origin',(0.5,0.5,0.420682802481151));
#183=CARTESIAN_POINT('Origin',(0.5,0.5,0.404438691117163));
#184=CARTESIAN_POINT('Origin',(-3.06161699786838E-16,1.,0.));
#185=CARTESIAN_POINT('',(-3.06161699786838E-16,1.,0.));
#186=CARTESIAN_POINT('',(0.,0.,0.));
#187=CARTESIAN_POINT('',(-3.06161699786838E-16,1.,0.));
#188=CARTESIAN_POINT('',(0.,0.,0.5));
#189=CARTESIAN_POINT('',(0.,0.,0.));
#190=CARTESIAN_POINT('',(-3.06161699786838E-16,1.,0.5));
#191=CARTESIAN_POINT('',(-3.06161699786838E-16,1.,0.5));
#192=CARTESIAN_POINT('',(-3.06161699786838E-16,1.,0.));
#193=CARTESIAN_POINT('Origin',(1.,1.,0.));
#194=CARTESIAN_POINT('',(1.,1.,0.));
#195=CARTESIAN_POINT('',(1.,1.,0.));
#196=CARTESIAN_POINT('',(1.,1.,0.5));
#197=CARTESIAN_POINT('',(1.,1.,0.5));
#198=CARTESIAN_POINT('',(1.,1.,0.));
#199=CARTESIAN_POINT('Origin',(1.,0.,0.));
#200=CARTESIAN_POINT('',(1.,0.,0.));
#201=CARTESIAN_POINT('',(1.,0.,0.));
#202=CARTESIAN_POINT('',(1.,0.,0.5));
#203=CARTESIAN_POINT('',(1.,0.,0.5));
#204=CARTESIAN_POINT('',(1.,0.,0.));
#205=CARTESIAN_POINT('Origin',(0.,0.,0.));
#206=CARTESIAN_POINT('',(0.,0.,0.));
#207=CARTESIAN_POINT('',(0.,0.,0.5));
#208=CARTESIAN_POINT('Origin',(0.5,0.5,0.5));
#209=CARTESIAN_POINT('Origin',(0.5,0.5,0.));
#210=UNCERTAINTY_MEASURE_WITH_UNIT(LENGTH_MEASURE(0.000393700787401575),
#214,'DISTANCE_ACCURACY_VALUE',
'Maximum model space distance between geometric entities at asserted c
onnectivities');
#211=UNCERTAINTY_MEASURE_WITH_UNIT(LENGTH_MEASURE(1.E-6),#215,
'DISTANCE_ACCURACY_VALUE',
'Maximum model space distance between geometric entities at asserted c
onnectivities');
#212=(
GEOMETRIC_REPRESENTATION_CONTEXT(3)
GLOBAL_UNCERTAINTY_ASSIGNED_CONTEXT((#210))
GLOBAL_UNIT_ASSIGNED_CONTEXT((#214,#220,#217))
REPRESENTATION_CONTEXT('','3D')
);
#213=(
GEOMETRIC_REPRESENTATION_CONTEXT(3)
GLOBAL_UNCERTAINTY_ASSIGNED_CONTEXT((#211))
GLOBAL_UNIT_ASSIGNED_CONTEXT((#215,#220,#217))
REPRESENTATION_CONTEXT('','3D')
);
#214=(
CONVERSION_BASED_UNIT('__CONSTANT UNIT inch',#216)
LENGTH_UNIT()
NAMED_UNIT(#219)
);
#215=(
LENGTH_UNIT()
NAMED_UNIT(*)
SI_UNIT(.MILLI.,.METRE.)
);
#216=LENGTH_MEASURE_WITH_UNIT(LENGTH_MEASURE(25.4),#215);
#217=(
NAMED_UNIT(*)
SI_UNIT($,.STERADIAN.)
SOLID_ANGLE_UNIT()
);
#218=DIMENSIONAL_EXPONENTS(0.,0.,0.,0.,0.,0.,0.);
#219=DIMENSIONAL_EXPONENTS(1.,0.,0.,0.,0.,0.,0.);
#220=(
CONVERSION_BASED_UNIT('degree',#222)
NAMED_UNIT(#218)
PLANE_ANGLE_UNIT()
);
#221=(
NAMED_UNIT(*)
PLANE_ANGLE_UNIT()
SI_UNIT($,.RADIAN.)
);
#222=PLANE_ANGLE_MEASURE_WITH_UNIT(PLANE_ANGLE_MEASURE(0.01745329252),#221);
#223=SHAPE_DEFINITION_REPRESENTATION(#224,#225);
#224=PRODUCT_DEFINITION_SHAPE('',$,#227);
#225=SHAPE_REPRESENTATION('',(#132),#212);
#226=PRODUCT_DEFINITION_CONTEXT('part definition',#231,'design');
#227=PRODUCT_DEFINITION('1x1','1x1',#228,#226);
#228=PRODUCT_DEFINITION_FORMATION('',$,#233);
#229=PRODUCT_RELATED_PRODUCT_CATEGORY('1x1','1x1',(#233));
#230=APPLICATION_PROTOCOL_DEFINITION('international standard',
'automotive_design',2009,#231);
#231=APPLICATION_CONTEXT(
'Core Data for Automotive Mechanical Design Process');
#232=PRODUCT_CONTEXT('part definition',#231,'mechanical');
#233=PRODUCT('1x1','1x1',$,(#232));
#234=PRESENTATION_STYLE_ASSIGNMENT((#236));
#235=PRESENTATION_STYLE_ASSIGNMENT((#237));
#236=SURFACE_STYLE_USAGE(.BOTH.,#238);
#237=SURFACE_STYLE_USAGE(.BOTH.,#239);
#238=SURFACE_SIDE_STYLE('',(#240));
#239=SURFACE_SIDE_STYLE('',(#241));
#240=SURFACE_STYLE_FILL_AREA(#242);
#241=SURFACE_STYLE_FILL_AREA(#243);
#242=FILL_AREA_STYLE('',(#244));
#243=FILL_AREA_STYLE('',(#245));
#244=FILL_AREA_STYLE_COLOUR('',#246);
#245=FILL_AREA_STYLE_COLOUR('',#247);
#246=COLOUR_RGB('',0.913725490196078,0.482352941176471,0.231372549019608);
#247=COLOUR_RGB('',1.,0.,0.);
ENDSEC;
END-ISO-10303-21;
