ISO-10303-21;
HEADER;
/* Generated by software containing ST-Developer
 * from STEP Tools, Inc. (www.steptools.com) 
 */

FILE_DESCRIPTION(
/* description */ (''),
/* implementation_level */ '2;1');

FILE_NAME(
/* name */ 
'C:/Users/Jeff/Dropbox/Electronics Projects/Logitect Joystick Mod/Slid
e.step',
/* time_stamp */ '2019-06-01T14:18:44-05:00',
/* author */ (''),
/* organization */ (''),
/* preprocessor_version */ 'ST-DEVELOPER v18',
/* originating_system */ 'Autodesk Translation Framework v8.2.0.1029',
/* authorisation */ '');

FILE_SCHEMA (('AUTOMOTIVE_DESIGN { 1 0 10303 214 3 1 1 }'));
ENDSEC;

DATA;
#10=MECHANICAL_DESIGN_GEOMETRIC_PRESENTATION_REPRESENTATION('',(#13),#653);
#11=SHAPE_REPRESENTATION_RELATIONSHIP('SRR','None',#660,#12);
#12=ADVANCED_BREP_SHAPE_REPRESENTATION('',(#14),#652);
#13=STYLED_ITEM('',(#669),#14);
#14=MANIFOLD_SOLID_BREP('Body1',#401);
#15=FACE_BOUND('',#49,.T.);
#16=FACE_BOUND('',#63,.T.);
#17=CIRCLE('',#417,1.2);
#18=CIRCLE('',#418,1.2);
#19=CIRCLE('',#421,1.2);
#20=CIRCLE('',#422,1.2);
#21=CYLINDRICAL_SURFACE('',#416,1.2);
#22=CYLINDRICAL_SURFACE('',#420,1.2);
#23=FACE_OUTER_BOUND('',#43,.T.);
#24=FACE_OUTER_BOUND('',#44,.T.);
#25=FACE_OUTER_BOUND('',#45,.T.);
#26=FACE_OUTER_BOUND('',#46,.T.);
#27=FACE_OUTER_BOUND('',#47,.T.);
#28=FACE_OUTER_BOUND('',#48,.T.);
#29=FACE_OUTER_BOUND('',#50,.T.);
#30=FACE_OUTER_BOUND('',#51,.T.);
#31=FACE_OUTER_BOUND('',#52,.T.);
#32=FACE_OUTER_BOUND('',#53,.T.);
#33=FACE_OUTER_BOUND('',#54,.T.);
#34=FACE_OUTER_BOUND('',#55,.T.);
#35=FACE_OUTER_BOUND('',#56,.T.);
#36=FACE_OUTER_BOUND('',#57,.T.);
#37=FACE_OUTER_BOUND('',#58,.T.);
#38=FACE_OUTER_BOUND('',#59,.T.);
#39=FACE_OUTER_BOUND('',#60,.T.);
#40=FACE_OUTER_BOUND('',#61,.T.);
#41=FACE_OUTER_BOUND('',#62,.T.);
#42=FACE_OUTER_BOUND('',#64,.T.);
#43=EDGE_LOOP('',(#255,#256,#257,#258));
#44=EDGE_LOOP('',(#259,#260,#261,#262));
#45=EDGE_LOOP('',(#263,#264,#265,#266));
#46=EDGE_LOOP('',(#267,#268,#269,#270));
#47=EDGE_LOOP('',(#271,#272,#273,#274));
#48=EDGE_LOOP('',(#275,#276,#277,#278));
#49=EDGE_LOOP('',(#279,#280,#281,#282));
#50=EDGE_LOOP('',(#283,#284,#285,#286));
#51=EDGE_LOOP('',(#287,#288,#289,#290,#291,#292));
#52=EDGE_LOOP('',(#293,#294,#295,#296,#297,#298));
#53=EDGE_LOOP('',(#299,#300,#301,#302));
#54=EDGE_LOOP('',(#303,#304,#305,#306));
#55=EDGE_LOOP('',(#307,#308,#309,#310));
#56=EDGE_LOOP('',(#311,#312,#313,#314));
#57=EDGE_LOOP('',(#315,#316,#317,#318));
#58=EDGE_LOOP('',(#319,#320,#321,#322));
#59=EDGE_LOOP('',(#323,#324,#325,#326));
#60=EDGE_LOOP('',(#327,#328,#329,#330));
#61=EDGE_LOOP('',(#331,#332,#333,#334));
#62=EDGE_LOOP('',(#335,#336,#337,#338,#339,#340,#341,#342,#343,#344,#345,
#346));
#63=EDGE_LOOP('',(#347,#348,#349,#350));
#64=EDGE_LOOP('',(#351,#352,#353,#354,#355,#356,#357,#358,#359,#360,#361,
#362));
#65=LINE('',#543,#115);
#66=LINE('',#545,#116);
#67=LINE('',#547,#117);
#68=LINE('',#548,#118);
#69=LINE('',#554,#119);
#70=LINE('',#557,#120);
#71=LINE('',#559,#121);
#72=LINE('',#560,#122);
#73=LINE('',#567,#123);
#74=LINE('',#569,#124);
#75=LINE('',#571,#125);
#76=LINE('',#572,#126);
#77=LINE('',#575,#127);
#78=LINE('',#577,#128);
#79=LINE('',#578,#129);
#80=LINE('',#581,#130);
#81=LINE('',#583,#131);
#82=LINE('',#584,#132);
#83=LINE('',#587,#133);
#84=LINE('',#589,#134);
#85=LINE('',#590,#135);
#86=LINE('',#593,#136);
#87=LINE('',#595,#137);
#88=LINE('',#596,#138);
#89=LINE('',#599,#139);
#90=LINE('',#601,#140);
#91=LINE('',#602,#141);
#92=LINE('',#605,#142);
#93=LINE('',#607,#143);
#94=LINE('',#608,#144);
#95=LINE('',#611,#145);
#96=LINE('',#613,#146);
#97=LINE('',#614,#147);
#98=LINE('',#617,#148);
#99=LINE('',#619,#149);
#100=LINE('',#620,#150);
#101=LINE('',#623,#151);
#102=LINE('',#625,#152);
#103=LINE('',#626,#153);
#104=LINE('',#629,#154);
#105=LINE('',#631,#155);
#106=LINE('',#632,#156);
#107=LINE('',#635,#157);
#108=LINE('',#637,#158);
#109=LINE('',#638,#159);
#110=LINE('',#641,#160);
#111=LINE('',#643,#161);
#112=LINE('',#644,#162);
#113=LINE('',#646,#163);
#114=LINE('',#647,#164);
#115=VECTOR('',#443,10.);
#116=VECTOR('',#444,10.);
#117=VECTOR('',#445,10.);
#118=VECTOR('',#446,10.);
#119=VECTOR('',#453,10.);
#120=VECTOR('',#456,10.);
#121=VECTOR('',#457,10.);
#122=VECTOR('',#458,10.);
#123=VECTOR('',#467,10.);
#124=VECTOR('',#468,10.);
#125=VECTOR('',#469,10.);
#126=VECTOR('',#470,10.);
#127=VECTOR('',#473,10.);
#128=VECTOR('',#474,10.);
#129=VECTOR('',#475,10.);
#130=VECTOR('',#478,10.);
#131=VECTOR('',#479,10.);
#132=VECTOR('',#480,10.);
#133=VECTOR('',#483,10.);
#134=VECTOR('',#484,10.);
#135=VECTOR('',#485,10.);
#136=VECTOR('',#488,10.);
#137=VECTOR('',#489,10.);
#138=VECTOR('',#490,10.);
#139=VECTOR('',#493,10.);
#140=VECTOR('',#494,10.);
#141=VECTOR('',#495,10.);
#142=VECTOR('',#498,10.);
#143=VECTOR('',#499,10.);
#144=VECTOR('',#500,10.);
#145=VECTOR('',#503,10.);
#146=VECTOR('',#504,10.);
#147=VECTOR('',#505,10.);
#148=VECTOR('',#508,10.);
#149=VECTOR('',#509,10.);
#150=VECTOR('',#510,10.);
#151=VECTOR('',#513,10.);
#152=VECTOR('',#514,10.);
#153=VECTOR('',#515,10.);
#154=VECTOR('',#518,10.);
#155=VECTOR('',#519,10.);
#156=VECTOR('',#520,10.);
#157=VECTOR('',#523,10.);
#158=VECTOR('',#524,10.);
#159=VECTOR('',#525,10.);
#160=VECTOR('',#528,10.);
#161=VECTOR('',#529,10.);
#162=VECTOR('',#530,10.);
#163=VECTOR('',#533,10.);
#164=VECTOR('',#534,10.);
#165=VERTEX_POINT('',#541);
#166=VERTEX_POINT('',#542);
#167=VERTEX_POINT('',#544);
#168=VERTEX_POINT('',#546);
#169=VERTEX_POINT('',#550);
#170=VERTEX_POINT('',#552);
#171=VERTEX_POINT('',#556);
#172=VERTEX_POINT('',#558);
#173=VERTEX_POINT('',#565);
#174=VERTEX_POINT('',#566);
#175=VERTEX_POINT('',#568);
#176=VERTEX_POINT('',#570);
#177=VERTEX_POINT('',#574);
#178=VERTEX_POINT('',#576);
#179=VERTEX_POINT('',#580);
#180=VERTEX_POINT('',#582);
#181=VERTEX_POINT('',#586);
#182=VERTEX_POINT('',#588);
#183=VERTEX_POINT('',#592);
#184=VERTEX_POINT('',#594);
#185=VERTEX_POINT('',#598);
#186=VERTEX_POINT('',#600);
#187=VERTEX_POINT('',#604);
#188=VERTEX_POINT('',#606);
#189=VERTEX_POINT('',#610);
#190=VERTEX_POINT('',#612);
#191=VERTEX_POINT('',#616);
#192=VERTEX_POINT('',#618);
#193=VERTEX_POINT('',#622);
#194=VERTEX_POINT('',#624);
#195=VERTEX_POINT('',#628);
#196=VERTEX_POINT('',#630);
#197=VERTEX_POINT('',#634);
#198=VERTEX_POINT('',#636);
#199=VERTEX_POINT('',#640);
#200=VERTEX_POINT('',#642);
#201=EDGE_CURVE('',#165,#166,#65,.T.);
#202=EDGE_CURVE('',#167,#165,#66,.T.);
#203=EDGE_CURVE('',#168,#167,#67,.T.);
#204=EDGE_CURVE('',#168,#166,#68,.T.);
#205=EDGE_CURVE('',#166,#169,#17,.T.);
#206=EDGE_CURVE('',#170,#168,#18,.T.);
#207=EDGE_CURVE('',#170,#169,#69,.T.);
#208=EDGE_CURVE('',#169,#171,#70,.T.);
#209=EDGE_CURVE('',#172,#170,#71,.T.);
#210=EDGE_CURVE('',#172,#171,#72,.T.);
#211=EDGE_CURVE('',#171,#165,#19,.T.);
#212=EDGE_CURVE('',#167,#172,#20,.T.);
#213=EDGE_CURVE('',#173,#174,#73,.T.);
#214=EDGE_CURVE('',#174,#175,#74,.T.);
#215=EDGE_CURVE('',#176,#175,#75,.T.);
#216=EDGE_CURVE('',#173,#176,#76,.T.);
#217=EDGE_CURVE('',#175,#177,#77,.T.);
#218=EDGE_CURVE('',#178,#177,#78,.T.);
#219=EDGE_CURVE('',#178,#176,#79,.T.);
#220=EDGE_CURVE('',#179,#177,#80,.T.);
#221=EDGE_CURVE('',#180,#179,#81,.T.);
#222=EDGE_CURVE('',#180,#178,#82,.T.);
#223=EDGE_CURVE('',#181,#180,#83,.T.);
#224=EDGE_CURVE('',#181,#182,#84,.T.);
#225=EDGE_CURVE('',#182,#173,#85,.T.);
#226=EDGE_CURVE('',#179,#183,#86,.T.);
#227=EDGE_CURVE('',#184,#174,#87,.T.);
#228=EDGE_CURVE('',#183,#184,#88,.T.);
#229=EDGE_CURVE('',#183,#185,#89,.T.);
#230=EDGE_CURVE('',#186,#184,#90,.T.);
#231=EDGE_CURVE('',#185,#186,#91,.T.);
#232=EDGE_CURVE('',#187,#185,#92,.T.);
#233=EDGE_CURVE('',#188,#186,#93,.T.);
#234=EDGE_CURVE('',#187,#188,#94,.T.);
#235=EDGE_CURVE('',#189,#187,#95,.T.);
#236=EDGE_CURVE('',#190,#188,#96,.T.);
#237=EDGE_CURVE('',#189,#190,#97,.T.);
#238=EDGE_CURVE('',#191,#189,#98,.T.);
#239=EDGE_CURVE('',#192,#190,#99,.T.);
#240=EDGE_CURVE('',#191,#192,#100,.T.);
#241=EDGE_CURVE('',#191,#193,#101,.T.);
#242=EDGE_CURVE('',#194,#192,#102,.T.);
#243=EDGE_CURVE('',#193,#194,#103,.T.);
#244=EDGE_CURVE('',#193,#195,#104,.T.);
#245=EDGE_CURVE('',#196,#194,#105,.T.);
#246=EDGE_CURVE('',#195,#196,#106,.T.);
#247=EDGE_CURVE('',#195,#197,#107,.T.);
#248=EDGE_CURVE('',#198,#196,#108,.T.);
#249=EDGE_CURVE('',#197,#198,#109,.T.);
#250=EDGE_CURVE('',#199,#197,#110,.T.);
#251=EDGE_CURVE('',#200,#198,#111,.T.);
#252=EDGE_CURVE('',#199,#200,#112,.T.);
#253=EDGE_CURVE('',#199,#181,#113,.T.);
#254=EDGE_CURVE('',#182,#200,#114,.T.);
#255=ORIENTED_EDGE('',*,*,#201,.F.);
#256=ORIENTED_EDGE('',*,*,#202,.F.);
#257=ORIENTED_EDGE('',*,*,#203,.F.);
#258=ORIENTED_EDGE('',*,*,#204,.T.);
#259=ORIENTED_EDGE('',*,*,#205,.F.);
#260=ORIENTED_EDGE('',*,*,#204,.F.);
#261=ORIENTED_EDGE('',*,*,#206,.F.);
#262=ORIENTED_EDGE('',*,*,#207,.T.);
#263=ORIENTED_EDGE('',*,*,#208,.F.);
#264=ORIENTED_EDGE('',*,*,#207,.F.);
#265=ORIENTED_EDGE('',*,*,#209,.F.);
#266=ORIENTED_EDGE('',*,*,#210,.T.);
#267=ORIENTED_EDGE('',*,*,#211,.F.);
#268=ORIENTED_EDGE('',*,*,#210,.F.);
#269=ORIENTED_EDGE('',*,*,#212,.F.);
#270=ORIENTED_EDGE('',*,*,#202,.T.);
#271=ORIENTED_EDGE('',*,*,#213,.T.);
#272=ORIENTED_EDGE('',*,*,#214,.T.);
#273=ORIENTED_EDGE('',*,*,#215,.F.);
#274=ORIENTED_EDGE('',*,*,#216,.F.);
#275=ORIENTED_EDGE('',*,*,#215,.T.);
#276=ORIENTED_EDGE('',*,*,#217,.T.);
#277=ORIENTED_EDGE('',*,*,#218,.F.);
#278=ORIENTED_EDGE('',*,*,#219,.T.);
#279=ORIENTED_EDGE('',*,*,#203,.T.);
#280=ORIENTED_EDGE('',*,*,#212,.T.);
#281=ORIENTED_EDGE('',*,*,#209,.T.);
#282=ORIENTED_EDGE('',*,*,#206,.T.);
#283=ORIENTED_EDGE('',*,*,#218,.T.);
#284=ORIENTED_EDGE('',*,*,#220,.F.);
#285=ORIENTED_EDGE('',*,*,#221,.F.);
#286=ORIENTED_EDGE('',*,*,#222,.T.);
#287=ORIENTED_EDGE('',*,*,#223,.F.);
#288=ORIENTED_EDGE('',*,*,#224,.T.);
#289=ORIENTED_EDGE('',*,*,#225,.T.);
#290=ORIENTED_EDGE('',*,*,#216,.T.);
#291=ORIENTED_EDGE('',*,*,#219,.F.);
#292=ORIENTED_EDGE('',*,*,#222,.F.);
#293=ORIENTED_EDGE('',*,*,#226,.F.);
#294=ORIENTED_EDGE('',*,*,#220,.T.);
#295=ORIENTED_EDGE('',*,*,#217,.F.);
#296=ORIENTED_EDGE('',*,*,#214,.F.);
#297=ORIENTED_EDGE('',*,*,#227,.F.);
#298=ORIENTED_EDGE('',*,*,#228,.F.);
#299=ORIENTED_EDGE('',*,*,#229,.F.);
#300=ORIENTED_EDGE('',*,*,#228,.T.);
#301=ORIENTED_EDGE('',*,*,#230,.F.);
#302=ORIENTED_EDGE('',*,*,#231,.F.);
#303=ORIENTED_EDGE('',*,*,#232,.T.);
#304=ORIENTED_EDGE('',*,*,#231,.T.);
#305=ORIENTED_EDGE('',*,*,#233,.F.);
#306=ORIENTED_EDGE('',*,*,#234,.F.);
#307=ORIENTED_EDGE('',*,*,#235,.T.);
#308=ORIENTED_EDGE('',*,*,#234,.T.);
#309=ORIENTED_EDGE('',*,*,#236,.F.);
#310=ORIENTED_EDGE('',*,*,#237,.F.);
#311=ORIENTED_EDGE('',*,*,#238,.T.);
#312=ORIENTED_EDGE('',*,*,#237,.T.);
#313=ORIENTED_EDGE('',*,*,#239,.F.);
#314=ORIENTED_EDGE('',*,*,#240,.F.);
#315=ORIENTED_EDGE('',*,*,#241,.F.);
#316=ORIENTED_EDGE('',*,*,#240,.T.);
#317=ORIENTED_EDGE('',*,*,#242,.F.);
#318=ORIENTED_EDGE('',*,*,#243,.F.);
#319=ORIENTED_EDGE('',*,*,#244,.F.);
#320=ORIENTED_EDGE('',*,*,#243,.T.);
#321=ORIENTED_EDGE('',*,*,#245,.F.);
#322=ORIENTED_EDGE('',*,*,#246,.F.);
#323=ORIENTED_EDGE('',*,*,#247,.F.);
#324=ORIENTED_EDGE('',*,*,#246,.T.);
#325=ORIENTED_EDGE('',*,*,#248,.F.);
#326=ORIENTED_EDGE('',*,*,#249,.F.);
#327=ORIENTED_EDGE('',*,*,#250,.T.);
#328=ORIENTED_EDGE('',*,*,#249,.T.);
#329=ORIENTED_EDGE('',*,*,#251,.F.);
#330=ORIENTED_EDGE('',*,*,#252,.F.);
#331=ORIENTED_EDGE('',*,*,#253,.F.);
#332=ORIENTED_EDGE('',*,*,#252,.T.);
#333=ORIENTED_EDGE('',*,*,#254,.F.);
#334=ORIENTED_EDGE('',*,*,#224,.F.);
#335=ORIENTED_EDGE('',*,*,#254,.T.);
#336=ORIENTED_EDGE('',*,*,#251,.T.);
#337=ORIENTED_EDGE('',*,*,#248,.T.);
#338=ORIENTED_EDGE('',*,*,#245,.T.);
#339=ORIENTED_EDGE('',*,*,#242,.T.);
#340=ORIENTED_EDGE('',*,*,#239,.T.);
#341=ORIENTED_EDGE('',*,*,#236,.T.);
#342=ORIENTED_EDGE('',*,*,#233,.T.);
#343=ORIENTED_EDGE('',*,*,#230,.T.);
#344=ORIENTED_EDGE('',*,*,#227,.T.);
#345=ORIENTED_EDGE('',*,*,#213,.F.);
#346=ORIENTED_EDGE('',*,*,#225,.F.);
#347=ORIENTED_EDGE('',*,*,#201,.T.);
#348=ORIENTED_EDGE('',*,*,#205,.T.);
#349=ORIENTED_EDGE('',*,*,#208,.T.);
#350=ORIENTED_EDGE('',*,*,#211,.T.);
#351=ORIENTED_EDGE('',*,*,#253,.T.);
#352=ORIENTED_EDGE('',*,*,#223,.T.);
#353=ORIENTED_EDGE('',*,*,#221,.T.);
#354=ORIENTED_EDGE('',*,*,#226,.T.);
#355=ORIENTED_EDGE('',*,*,#229,.T.);
#356=ORIENTED_EDGE('',*,*,#232,.F.);
#357=ORIENTED_EDGE('',*,*,#235,.F.);
#358=ORIENTED_EDGE('',*,*,#238,.F.);
#359=ORIENTED_EDGE('',*,*,#241,.T.);
#360=ORIENTED_EDGE('',*,*,#244,.T.);
#361=ORIENTED_EDGE('',*,*,#247,.T.);
#362=ORIENTED_EDGE('',*,*,#250,.F.);
#363=PLANE('',#415);
#364=PLANE('',#419);
#365=PLANE('',#423);
#366=PLANE('',#424);
#367=PLANE('',#425);
#368=PLANE('',#426);
#369=PLANE('',#427);
#370=PLANE('',#428);
#371=PLANE('',#429);
#372=PLANE('',#430);
#373=PLANE('',#431);
#374=PLANE('',#432);
#375=PLANE('',#433);
#376=PLANE('',#434);
#377=PLANE('',#435);
#378=PLANE('',#436);
#379=PLANE('',#437);
#380=PLANE('',#438);
#381=ADVANCED_FACE('',(#23),#363,.F.);
#382=ADVANCED_FACE('',(#24),#21,.F.);
#383=ADVANCED_FACE('',(#25),#364,.F.);
#384=ADVANCED_FACE('',(#26),#22,.F.);
#385=ADVANCED_FACE('',(#27),#365,.T.);
#386=ADVANCED_FACE('',(#28,#15),#366,.T.);
#387=ADVANCED_FACE('',(#29),#367,.T.);
#388=ADVANCED_FACE('',(#30),#368,.T.);
#389=ADVANCED_FACE('',(#31),#369,.T.);
#390=ADVANCED_FACE('',(#32),#370,.T.);
#391=ADVANCED_FACE('',(#33),#371,.T.);
#392=ADVANCED_FACE('',(#34),#372,.T.);
#393=ADVANCED_FACE('',(#35),#373,.T.);
#394=ADVANCED_FACE('',(#36),#374,.T.);
#395=ADVANCED_FACE('',(#37),#375,.T.);
#396=ADVANCED_FACE('',(#38),#376,.T.);
#397=ADVANCED_FACE('',(#39),#377,.T.);
#398=ADVANCED_FACE('',(#40),#378,.T.);
#399=ADVANCED_FACE('',(#41,#16),#379,.T.);
#400=ADVANCED_FACE('',(#42),#380,.F.);
#401=CLOSED_SHELL('',(#381,#382,#383,#384,#385,#386,#387,#388,#389,#390,
#391,#392,#393,#394,#395,#396,#397,#398,#399,#400));
#402=DERIVED_UNIT_ELEMENT(#404,1.);
#403=DERIVED_UNIT_ELEMENT(#655,3.);
#404=(
MASS_UNIT()
NAMED_UNIT(*)
SI_UNIT(.KILO.,.GRAM.)
);
#405=DERIVED_UNIT((#402,#403));
#406=MEASURE_REPRESENTATION_ITEM('density measure',
POSITIVE_RATIO_MEASURE(1425.),#405);
#407=PROPERTY_DEFINITION_REPRESENTATION(#412,#409);
#408=PROPERTY_DEFINITION_REPRESENTATION(#413,#410);
#409=REPRESENTATION('material name',(#411),#652);
#410=REPRESENTATION('density',(#406),#652);
#411=DESCRIPTIVE_REPRESENTATION_ITEM('Acetal Resin, Black',
'Acetal Resin, Black');
#412=PROPERTY_DEFINITION('material property','material name',#662);
#413=PROPERTY_DEFINITION('material property','density of part',#662);
#414=AXIS2_PLACEMENT_3D('placement',#539,#439,#440);
#415=AXIS2_PLACEMENT_3D('',#540,#441,#442);
#416=AXIS2_PLACEMENT_3D('',#549,#447,#448);
#417=AXIS2_PLACEMENT_3D('',#551,#449,#450);
#418=AXIS2_PLACEMENT_3D('',#553,#451,#452);
#419=AXIS2_PLACEMENT_3D('',#555,#454,#455);
#420=AXIS2_PLACEMENT_3D('',#561,#459,#460);
#421=AXIS2_PLACEMENT_3D('',#562,#461,#462);
#422=AXIS2_PLACEMENT_3D('',#563,#463,#464);
#423=AXIS2_PLACEMENT_3D('',#564,#465,#466);
#424=AXIS2_PLACEMENT_3D('',#573,#471,#472);
#425=AXIS2_PLACEMENT_3D('',#579,#476,#477);
#426=AXIS2_PLACEMENT_3D('',#585,#481,#482);
#427=AXIS2_PLACEMENT_3D('',#591,#486,#487);
#428=AXIS2_PLACEMENT_3D('',#597,#491,#492);
#429=AXIS2_PLACEMENT_3D('',#603,#496,#497);
#430=AXIS2_PLACEMENT_3D('',#609,#501,#502);
#431=AXIS2_PLACEMENT_3D('',#615,#506,#507);
#432=AXIS2_PLACEMENT_3D('',#621,#511,#512);
#433=AXIS2_PLACEMENT_3D('',#627,#516,#517);
#434=AXIS2_PLACEMENT_3D('',#633,#521,#522);
#435=AXIS2_PLACEMENT_3D('',#639,#526,#527);
#436=AXIS2_PLACEMENT_3D('',#645,#531,#532);
#437=AXIS2_PLACEMENT_3D('',#648,#535,#536);
#438=AXIS2_PLACEMENT_3D('',#649,#537,#538);
#439=DIRECTION('axis',(0.,0.,1.));
#440=DIRECTION('refdir',(1.,0.,0.));
#441=DIRECTION('center_axis',(-1.,6.93889390390723E-17,0.));
#442=DIRECTION('ref_axis',(-6.93889390390723E-17,-1.,0.));
#443=DIRECTION('',(6.93889390390723E-17,1.,0.));
#444=DIRECTION('',(0.,0.,1.));
#445=DIRECTION('',(-6.93889390390723E-17,-1.,0.));
#446=DIRECTION('',(0.,0.,1.));
#447=DIRECTION('center_axis',(0.,0.,1.));
#448=DIRECTION('ref_axis',(-1.,0.,0.));
#449=DIRECTION('center_axis',(0.,0.,-1.));
#450=DIRECTION('ref_axis',(-1.,0.,0.));
#451=DIRECTION('center_axis',(0.,0.,1.));
#452=DIRECTION('ref_axis',(-1.,0.,0.));
#453=DIRECTION('',(0.,0.,1.));
#454=DIRECTION('center_axis',(1.,-6.93889390390723E-17,0.));
#455=DIRECTION('ref_axis',(6.93889390390723E-17,1.,0.));
#456=DIRECTION('',(-6.93889390390723E-17,-1.,0.));
#457=DIRECTION('',(6.93889390390723E-17,1.,0.));
#458=DIRECTION('',(0.,0.,1.));
#459=DIRECTION('center_axis',(0.,0.,1.));
#460=DIRECTION('ref_axis',(1.,0.,0.));
#461=DIRECTION('center_axis',(0.,0.,-1.));
#462=DIRECTION('ref_axis',(1.,0.,0.));
#463=DIRECTION('center_axis',(0.,0.,1.));
#464=DIRECTION('ref_axis',(1.,0.,0.));
#465=DIRECTION('center_axis',(0.,-1.,0.));
#466=DIRECTION('ref_axis',(-1.,0.,0.));
#467=DIRECTION('',(-1.,0.,0.));
#468=DIRECTION('',(0.,0.,-1.));
#469=DIRECTION('',(-1.,0.,0.));
#470=DIRECTION('',(0.,0.,-1.));
#471=DIRECTION('center_axis',(0.,0.,-1.));
#472=DIRECTION('ref_axis',(-1.,0.,0.));
#473=DIRECTION('',(0.,1.,0.));
#474=DIRECTION('',(-1.,0.,0.));
#475=DIRECTION('',(0.,-1.,0.));
#476=DIRECTION('center_axis',(0.,-1.,0.));
#477=DIRECTION('ref_axis',(1.,0.,0.));
#478=DIRECTION('',(0.,0.,1.));
#479=DIRECTION('',(-1.,0.,0.));
#480=DIRECTION('',(0.,0.,1.));
#481=DIRECTION('center_axis',(1.,0.,0.));
#482=DIRECTION('ref_axis',(0.,1.,0.));
#483=DIRECTION('',(0.,-1.,0.));
#484=DIRECTION('',(0.,0.,1.));
#485=DIRECTION('',(0.,-1.,0.));
#486=DIRECTION('center_axis',(-1.,0.,0.));
#487=DIRECTION('ref_axis',(0.,-1.,0.));
#488=DIRECTION('',(0.,1.,0.));
#489=DIRECTION('',(0.,-1.,0.));
#490=DIRECTION('',(0.,0.,1.));
#491=DIRECTION('center_axis',(-1.70342231278936E-5,0.999999999854918,0.));
#492=DIRECTION('ref_axis',(-0.999999999854918,-1.70342231278936E-5,0.));
#493=DIRECTION('',(0.999999999854918,1.70342231278936E-5,0.));
#494=DIRECTION('',(-0.999999999854918,-1.70342231278936E-5,0.));
#495=DIRECTION('',(0.,0.,1.));
#496=DIRECTION('center_axis',(1.,0.,0.));
#497=DIRECTION('ref_axis',(0.,1.,0.));
#498=DIRECTION('',(0.,1.,0.));
#499=DIRECTION('',(0.,1.,0.));
#500=DIRECTION('',(0.,0.,1.));
#501=DIRECTION('center_axis',(0.,1.,0.));
#502=DIRECTION('ref_axis',(-1.,0.,0.));
#503=DIRECTION('',(-1.,0.,0.));
#504=DIRECTION('',(-1.,0.,0.));
#505=DIRECTION('',(0.,0.,1.));
#506=DIRECTION('center_axis',(1.,0.,0.));
#507=DIRECTION('ref_axis',(0.,1.,0.));
#508=DIRECTION('',(0.,1.,0.));
#509=DIRECTION('',(0.,1.,0.));
#510=DIRECTION('',(0.,0.,1.));
#511=DIRECTION('center_axis',(0.,1.,0.));
#512=DIRECTION('ref_axis',(-1.,0.,0.));
#513=DIRECTION('',(1.,0.,0.));
#514=DIRECTION('',(-1.,0.,0.));
#515=DIRECTION('',(0.,0.,1.));
#516=DIRECTION('center_axis',(-1.,0.,0.));
#517=DIRECTION('ref_axis',(0.,-1.,0.));
#518=DIRECTION('',(0.,1.,0.));
#519=DIRECTION('',(0.,-1.,0.));
#520=DIRECTION('',(0.,0.,1.));
#521=DIRECTION('center_axis',(0.,1.,0.));
#522=DIRECTION('ref_axis',(-1.,0.,0.));
#523=DIRECTION('',(1.,0.,0.));
#524=DIRECTION('',(-1.,0.,0.));
#525=DIRECTION('',(0.,0.,1.));
#526=DIRECTION('center_axis',(-1.,0.,0.));
#527=DIRECTION('ref_axis',(0.,-1.,0.));
#528=DIRECTION('',(0.,-1.,0.));
#529=DIRECTION('',(0.,-1.,0.));
#530=DIRECTION('',(0.,0.,1.));
#531=DIRECTION('center_axis',(0.,1.,0.));
#532=DIRECTION('ref_axis',(-1.,0.,0.));
#533=DIRECTION('',(1.,0.,0.));
#534=DIRECTION('',(-1.,0.,0.));
#535=DIRECTION('center_axis',(0.,0.,1.));
#536=DIRECTION('ref_axis',(1.,0.,0.));
#537=DIRECTION('center_axis',(0.,0.,1.));
#538=DIRECTION('ref_axis',(1.,0.,0.));
#539=CARTESIAN_POINT('',(0.,0.,0.));
#540=CARTESIAN_POINT('Origin',(-1.2,-4.5,1.5));
#541=CARTESIAN_POINT('',(-1.2,-6.5,3.));
#542=CARTESIAN_POINT('',(-1.2,-4.5,3.));
#543=CARTESIAN_POINT('',(-1.2,-0.249988932253168,3.));
#544=CARTESIAN_POINT('',(-1.2,-6.5,1.5));
#545=CARTESIAN_POINT('',(-1.2,-6.5,1.5));
#546=CARTESIAN_POINT('',(-1.2,-4.5,1.5));
#547=CARTESIAN_POINT('',(-1.2,-5.,1.5));
#548=CARTESIAN_POINT('',(-1.2,-4.5,1.5));
#549=CARTESIAN_POINT('Origin',(0.,-4.5,1.5));
#550=CARTESIAN_POINT('',(1.2,-4.5,3.));
#551=CARTESIAN_POINT('Origin',(0.,-4.5,3.));
#552=CARTESIAN_POINT('',(1.2,-4.5,1.5));
#553=CARTESIAN_POINT('Origin',(0.,-4.5,1.5));
#554=CARTESIAN_POINT('',(1.2,-4.5,1.5));
#555=CARTESIAN_POINT('Origin',(1.2,-6.5,1.5));
#556=CARTESIAN_POINT('',(1.2,-6.5,3.));
#557=CARTESIAN_POINT('',(1.2,-1.24998893225317,3.));
#558=CARTESIAN_POINT('',(1.2,-6.5,1.5));
#559=CARTESIAN_POINT('',(1.2,-6.,1.5));
#560=CARTESIAN_POINT('',(1.2,-6.5,1.5));
#561=CARTESIAN_POINT('Origin',(-1.05192302426775E-16,-6.5,1.5));
#562=CARTESIAN_POINT('Origin',(-1.05192302426775E-16,-6.5,3.));
#563=CARTESIAN_POINT('Origin',(-1.05192302426775E-16,-6.5,1.5));
#564=CARTESIAN_POINT('Origin',(5.,-9.,3.));
#565=CARTESIAN_POINT('',(5.,-9.,3.));
#566=CARTESIAN_POINT('',(-5.,-9.,3.));
#567=CARTESIAN_POINT('',(5.,-9.,3.));
#568=CARTESIAN_POINT('',(-5.,-9.,1.5));
#569=CARTESIAN_POINT('',(-5.,-9.,3.));
#570=CARTESIAN_POINT('',(5.,-9.,1.5));
#571=CARTESIAN_POINT('',(5.,-9.,1.5));
#572=CARTESIAN_POINT('',(5.,-9.,3.));
#573=CARTESIAN_POINT('Origin',(0.,-5.5,1.5));
#574=CARTESIAN_POINT('',(-5.,-2.,1.5));
#575=CARTESIAN_POINT('',(-5.,-9.,1.5));
#576=CARTESIAN_POINT('',(5.,-2.,1.5));
#577=CARTESIAN_POINT('',(-2.5,-2.,1.5));
#578=CARTESIAN_POINT('',(5.,-2.,1.5));
#579=CARTESIAN_POINT('Origin',(-5.,-2.,0.));
#580=CARTESIAN_POINT('',(-5.,-2.,0.));
#581=CARTESIAN_POINT('',(-5.,-2.,0.));
#582=CARTESIAN_POINT('',(5.,-2.,0.));
#583=CARTESIAN_POINT('',(5.,-2.,0.));
#584=CARTESIAN_POINT('',(5.,-2.,0.));
#585=CARTESIAN_POINT('Origin',(5.,-2.,0.));
#586=CARTESIAN_POINT('',(5.,10.,0.));
#587=CARTESIAN_POINT('',(5.,10.,0.));
#588=CARTESIAN_POINT('',(5.,10.,3.));
#589=CARTESIAN_POINT('',(5.,10.,0.));
#590=CARTESIAN_POINT('',(5.,-2.,3.));
#591=CARTESIAN_POINT('Origin',(-5.,10.,0.));
#592=CARTESIAN_POINT('',(-5.,10.,0.));
#593=CARTESIAN_POINT('',(-5.,-2.,0.));
#594=CARTESIAN_POINT('',(-5.,10.,3.));
#595=CARTESIAN_POINT('',(-5.,-2.,3.));
#596=CARTESIAN_POINT('',(-5.,10.,0.));
#597=CARTESIAN_POINT('Origin',(-2.40105627375854,10.0000442709873,0.));
#598=CARTESIAN_POINT('',(-2.40105627375854,10.0000442709873,0.));
#599=CARTESIAN_POINT('',(-5.,10.,0.));
#600=CARTESIAN_POINT('',(-2.40105627375854,10.0000442709873,3.));
#601=CARTESIAN_POINT('',(-5.,10.,3.));
#602=CARTESIAN_POINT('',(-2.40105627375854,10.0000442709873,0.));
#603=CARTESIAN_POINT('Origin',(-2.40105627375854,1.75,0.));
#604=CARTESIAN_POINT('',(-2.40105627375854,1.75,0.));
#605=CARTESIAN_POINT('',(-2.40105627375854,1.75,0.));
#606=CARTESIAN_POINT('',(-2.40105627375854,1.75,3.));
#607=CARTESIAN_POINT('',(-2.40105627375854,1.75,3.));
#608=CARTESIAN_POINT('',(-2.40105627375854,1.75,0.));
#609=CARTESIAN_POINT('Origin',(-2.15,1.75,0.));
#610=CARTESIAN_POINT('',(-2.15,1.75,0.));
#611=CARTESIAN_POINT('',(-2.15,1.75,0.));
#612=CARTESIAN_POINT('',(-2.15,1.75,3.));
#613=CARTESIAN_POINT('',(-2.15,1.75,3.));
#614=CARTESIAN_POINT('',(-2.15,1.75,0.));
#615=CARTESIAN_POINT('Origin',(-2.15,0.,0.));
#616=CARTESIAN_POINT('',(-2.15,0.,0.));
#617=CARTESIAN_POINT('',(-2.15,0.,0.));
#618=CARTESIAN_POINT('',(-2.15,0.,3.));
#619=CARTESIAN_POINT('',(-2.15,0.,3.));
#620=CARTESIAN_POINT('',(-2.15,0.,0.));
#621=CARTESIAN_POINT('Origin',(2.15,0.,0.));
#622=CARTESIAN_POINT('',(2.15,0.,0.));
#623=CARTESIAN_POINT('',(0.,0.,0.));
#624=CARTESIAN_POINT('',(2.15,0.,3.));
#625=CARTESIAN_POINT('',(0.,0.,3.));
#626=CARTESIAN_POINT('',(2.15,0.,0.));
#627=CARTESIAN_POINT('Origin',(2.15,1.75,0.));
#628=CARTESIAN_POINT('',(2.15,1.75,0.));
#629=CARTESIAN_POINT('',(2.15,0.,0.));
#630=CARTESIAN_POINT('',(2.15,1.75,3.));
#631=CARTESIAN_POINT('',(2.15,0.,3.));
#632=CARTESIAN_POINT('',(2.15,1.75,0.));
#633=CARTESIAN_POINT('Origin',(2.4,1.75,0.));
#634=CARTESIAN_POINT('',(2.4,1.75,0.));
#635=CARTESIAN_POINT('',(2.15,1.75,0.));
#636=CARTESIAN_POINT('',(2.4,1.75,3.));
#637=CARTESIAN_POINT('',(2.15,1.75,3.));
#638=CARTESIAN_POINT('',(2.4,1.75,0.));
#639=CARTESIAN_POINT('Origin',(2.4,10.,0.));
#640=CARTESIAN_POINT('',(2.4,10.,0.));
#641=CARTESIAN_POINT('',(2.4,10.,0.));
#642=CARTESIAN_POINT('',(2.4,10.,3.));
#643=CARTESIAN_POINT('',(2.4,10.,3.));
#644=CARTESIAN_POINT('',(2.4,10.,0.));
#645=CARTESIAN_POINT('Origin',(5.,10.,0.));
#646=CARTESIAN_POINT('',(2.4,10.,0.));
#647=CARTESIAN_POINT('',(2.4,10.,3.));
#648=CARTESIAN_POINT('Origin',(0.,4.00002213549367,3.));
#649=CARTESIAN_POINT('Origin',(0.,4.00002213549367,0.));
#650=UNCERTAINTY_MEASURE_WITH_UNIT(LENGTH_MEASURE(0.01),#654,
'DISTANCE_ACCURACY_VALUE',
'Maximum model space distance between geometric entities at asserted c
onnectivities');
#651=UNCERTAINTY_MEASURE_WITH_UNIT(LENGTH_MEASURE(0.01),#654,
'DISTANCE_ACCURACY_VALUE',
'Maximum model space distance between geometric entities at asserted c
onnectivities');
#652=(
GEOMETRIC_REPRESENTATION_CONTEXT(3)
GLOBAL_UNCERTAINTY_ASSIGNED_CONTEXT((#650))
GLOBAL_UNIT_ASSIGNED_CONTEXT((#654,#656,#657))
REPRESENTATION_CONTEXT('','3D')
);
#653=(
GEOMETRIC_REPRESENTATION_CONTEXT(3)
GLOBAL_UNCERTAINTY_ASSIGNED_CONTEXT((#651))
GLOBAL_UNIT_ASSIGNED_CONTEXT((#654,#656,#657))
REPRESENTATION_CONTEXT('','3D')
);
#654=(
LENGTH_UNIT()
NAMED_UNIT(*)
SI_UNIT(.MILLI.,.METRE.)
);
#655=(
LENGTH_UNIT()
NAMED_UNIT(*)
SI_UNIT($,.METRE.)
);
#656=(
NAMED_UNIT(*)
PLANE_ANGLE_UNIT()
SI_UNIT($,.RADIAN.)
);
#657=(
NAMED_UNIT(*)
SI_UNIT($,.STERADIAN.)
SOLID_ANGLE_UNIT()
);
#658=SHAPE_DEFINITION_REPRESENTATION(#659,#660);
#659=PRODUCT_DEFINITION_SHAPE('',$,#662);
#660=SHAPE_REPRESENTATION('',(#414),#652);
#661=PRODUCT_DEFINITION_CONTEXT('part definition',#666,'design');
#662=PRODUCT_DEFINITION('Slide','Slide v4',#663,#661);
#663=PRODUCT_DEFINITION_FORMATION('',$,#668);
#664=PRODUCT_RELATED_PRODUCT_CATEGORY('Slide v4','Slide v4',(#668));
#665=APPLICATION_PROTOCOL_DEFINITION('international standard',
'automotive_design',2009,#666);
#666=APPLICATION_CONTEXT(
'Core Data for Automotive Mechanical Design Process');
#667=PRODUCT_CONTEXT('part definition',#666,'mechanical');
#668=PRODUCT('Slide','Slide v4',$,(#667));
#669=PRESENTATION_STYLE_ASSIGNMENT((#670));
#670=SURFACE_STYLE_USAGE(.BOTH.,#671);
#671=SURFACE_SIDE_STYLE('',(#672));
#672=SURFACE_STYLE_FILL_AREA(#673);
#673=FILL_AREA_STYLE('Plastic - Glossy (Black)',(#674));
#674=FILL_AREA_STYLE_COLOUR('Plastic - Glossy (Black)',#675);
#675=COLOUR_RGB('Plastic - Glossy (Black)',0.0980392156862745,0.0980392156862745,
0.0980392156862745);
ENDSEC;
END-ISO-10303-21;
