  0
SECTION
  2
HEADER
  9
$ACADVER
  1
AC1014
  9
$HANDSEED
  5
FFFF
  9
$MEASUREMENT
 70
     1
  0
ENDSEC
  0
SECTION
  2
TABLES
  0
TABLE
  2
VPORT
  5
8
330
0
100
AcDbSymbolTable
 70
     4
  0
VPORT
  5
2E
330
8
100
AcDbSymbolTableRecord
100
AcDbViewportTableRecord
  2
*ACTIVE
 70
     0
 10
0.0
 20
0.0
 11
1.0
 21
1.0
 12
210.0
 22
148.5
 13
0.0
 23
0.0
 14
10.0
 24
10.0
 15
10.0
 25
10.0
 16
0.0
 26
0.0
 36
1.0
 17
0.0
 27
0.0
 37
0.0
 40
341.0
 41
1.24
 42
50.0
 43
0.0
 44
0.0
 50
0.0
 51
0.0
 71
     0
 72
   100
 73
     1
 74
     3
 75
     0
 76
     0
 77
     0
 78
     0
  0
ENDTAB
  0
TABLE
  2
LTYPE
  5
5
330
0
100
AcDbSymbolTable
 70
     1
  0
LTYPE
  5
14
330
5
100
AcDbSymbolTableRecord
100
AcDbLinetypeTableRecord
  2
BYBLOCK
 70
     0
  3

 72
    65
 73
     0
 40
0.0
  0
LTYPE
  5
15
330
5
100
AcDbSymbolTableRecord
100
AcDbLinetypeTableRecord
  2
BYLAYER
 70
     0
  3

 72
    65
 73
     0
 40
0.0
  0
LTYPE
  5
16
330
5
100
AcDbSymbolTableRecord
100
AcDbLinetypeTableRecord
  2
CONTINUOUS
 70
     0
  3
Solid line
 72
    65
 73
     0
 40
0.0
  0
ENDTAB
  0
TABLE
  2
LAYER
  5
2
100
AcDbSymbolTable
 70
2
  0
LAYER
  5
50
100
AcDbSymbolTableRecord
100
AcDbLayerTableRecord
  2
0
 70
0
  6
CONTINUOUS
  0
LAYER
  5
51
100
AcDbSymbolTableRecord
100
AcDbLayerTableRecord
  2
Layer_1
 70
0
  6
CONTINUOUS
  0
ENDTAB
  0
TABLE
  2
STYLE
  5
3
330
0
100
AcDbSymbolTable
 70
     1
  0
STYLE
  5
11
330
3
100
AcDbSymbolTableRecord
100
AcDbTextStyleTableRecord
  2
STANDARD
 70
     0
 40
0.0
 41
1.0
 50
0.0
 71
     0
 42
2.5
  3
txt
  4

  0
ENDTAB
  0
TABLE
  2
VIEW
  5
6
330
0
100
AcDbSymbolTable
 70
     0
  0
ENDTAB
  0
TABLE
  2
UCS
  5
7
330
0
100
AcDbSymbolTable
 70
     0
  0
ENDTAB
  0
TABLE
  2
APPID
  5
9
330
0
100
AcDbSymbolTable
 70
     2
  0
APPID
  5
12
330
9
100
AcDbSymbolTableRecord
100
AcDbRegAppTableRecord
  2
ACAD
 70
     0
  0
ENDTAB
  0
TABLE
  2
DIMSTYLE
  5
A
330
0
100
AcDbSymbolTable
 70
     1
  0
DIMSTYLE
105
27
330
A
100
AcDbSymbolTableRecord
100
AcDbDimStyleTableRecord
  2
ISO-25
 70
     0
  3

  4

  5

  6

  7

 40
1.0
 41
2.5
 42
0.625
 43
3.75
 44
1.25
 45
0.0
 46
0.0
 47
0.0
 48
0.0
140
2.5
141
2.5
142
0.0
143
0.03937007874016
144
1.0
145
0.0
146
1.0
147
0.625
 71
     0
 72
     0
 73
     0
 74
     0
 75
     0
 76
     0
 77
     1
 78
     8
170
     0
171
     3
172
     1
173
     0
174
     0
175
     0
176
     0
177
     0
178
     0
270
     2
271
     2
272
     2
273
     2
274
     3
340
11
275
     0
280
     0
281
     0
282
     0
283
     0
284
     8
285
     0
286
     0
287
     3
288
     0
  0
ENDTAB
  0
TABLE
  2
BLOCK_RECORD
  5
1
330
0
100
AcDbSymbolTable
 70
     1
  0
BLOCK_RECORD
  5
1F
330
1
100
AcDbSymbolTableRecord
100
AcDbBlockTableRecord
  2
*MODEL_SPACE
  0
BLOCK_RECORD
  5
1B
330
1
100
AcDbSymbolTableRecord
100
AcDbBlockTableRecord
  2
*PAPER_SPACE
  0
ENDTAB
  0
ENDSEC
  0
SECTION
  2
BLOCKS
  0
BLOCK
  5
20
330
1F
100
AcDbEntity
  8
0
100
AcDbBlockBegin
  2
*MODEL_SPACE
 70
     0
 10
0.0
 20
0.0
 30
0.0
  3
*MODEL_SPACE
  1

  0
ENDBLK
  5
21
330
1F
100
AcDbEntity
  8
0
100
AcDbBlockEnd
  0
BLOCK
  5
1C
330
1B
100
AcDbEntity
 67
     1
  8
0
100
AcDbBlockBegin
  2
*PAPER_SPACE
  1

  0
ENDBLK
  5
1D
330
1B
100
AcDbEntity
 67
     1
  8
0
100
AcDbBlockEnd
  0
ENDSEC
  0
SECTION
  2
ENTITIES
  0
SPLINE
  5
100
100
AcDbEntity
  8
Layer_1
 62
7
100
AcDbSpline
 70
0
 71
3
 72
10
 73
6
 74
4
 40
0.000000
 40
0.000000
 40
0.000000
 40
0.000000
 40
35.462135
 40
70.027331
 40
117.402239
 40
117.402239
 40
117.402239
 40
117.402239
 10
169.111944
 20
731.000004
 30
0.0
 10
157.737116
 20
736.980818
 30
0.0
 10
135.275161
 20
748.791175
 30
0.0
 10
97.008184
 20
712.170418
 30
0.0
 10
119.109720
 20
688.314846
 30
0.0
 10
131.888056
 20
674.522388
 30
0.0
 11
169.111944
 21
731.000004
 31
0.0
 11
134.894296
 21
740.312124
 31
0.0
 11
109.868908
 21
716.469248
 31
0.0
 11
131.888056
 21
674.522388
 31
0.0
  0
SPLINE
  5
101
100
AcDbEntity
  8
Layer_1
 62
7
100
AcDbSpline
 70
0
 71
3
 72
10
 73
6
 74
4
 40
0.000000
 40
0.000000
 40
0.000000
 40
0.000000
 40
37.062836
 40
68.509098
 40
100.317676
 40
100.317676
 40
100.317676
 40
100.317676
 10
131.888056
 20
674.522388
 30
0.0
 10
141.761129
 20
667.378968
 30
0.0
 10
160.011091
 20
654.174655
 30
0.0
 10
183.011284
 20
625.808048
 30
0.0
 10
177.606119
 20
604.201150
 30
0.0
 10
174.888056
 20
593.335820
 30
0.0
 11
131.888056
 21
674.522388
 31
0.0
 11
160.763118
 21
651.286971
 31
0.0
 11
178.008109
 21
624.991007
 31
0.0
 11
174.888056
 21
593.335820
 31
0.0
  0
SPLINE
  5
102
100
AcDbEntity
  8
Layer_1
 62
7
100
AcDbSpline
 70
0
 71
3
 72
16
 73
12
 74
10
 40
0.000000
 40
0.000000
 40
0.000000
 40
0.000000
 40
34.513295
 40
64.956269
 40
95.146951
 40
117.902293
 40
144.236158
 40
174.764881
 40
211.442392
 40
238.602993
 40
252.583952
 40
252.583952
 40
252.583952
 40
252.583952
 10
174.888056
 20
593.335820
 30
0.0
 10
175.196984
 20
605.679472
 30
0.0
 10
175.778407
 20
628.911028
 30
0.0
 10
146.694975
 20
648.105775
 30
0.0
 10
121.436180
 20
658.611812
 30
0.0
 10
101.428113
 20
676.514732
 30
0.0
 10
88.707839
 20
701.798883
 30
0.0
 10
99.224285
 20
733.877126
 30
0.0
 10
129.363273
 20
754.458713
 30
0.0
 10
155.755475
 20
743.477926
 30
0.0
 10
165.724286
 20
734.164832
 30
0.0
 10
169.111944
 20
731.000004
 30
0.0
 11
174.888056
 21
593.335820
 31
0.0
 11
170.045349
 21
627.507675
 31
0.0
 11
146.660125
 21
646.998852
 31
0.0
 11
120.053888
 21
661.267188
 31
0.0
 11
103.308067
 21
676.674429
 31
0.0
 11
92.697596
 21
700.776096
 31
0.0
 11
101.402992
 21
730.037316
 31
0.0
 11
132.819341
 21
748.964884
 31
0.0
 11
158.488859
 21
740.089409
 31
0.0
 11
169.111944
 21
731.000004
 31
0.0
  0
SPLINE
  5
103
100
AcDbEntity
  8
Layer_1
 62
7
100
AcDbSpline
 70
0
 71
3
 72
10
 73
6
 74
4
 40
0.000000
 40
0.000000
 40
0.000000
 40
0.000000
 40
44.399934
 40
78.159499
 40
115.665130
 40
115.665130
 40
115.665130
 40
115.665130
 10
167.476688
 20
720.095908
 30
0.0
 10
179.670084
 20
731.470649
 30
0.0
 10
201.134750
 20
751.494193
 30
0.0
 10
243.189403
 20
723.425073
 30
0.0
 10
235.033899
 20
698.416971
 30
0.0
 10
230.741800
 20
685.255644
 30
0.0
 11
167.476688
 21
720.095908
 31
0.0
 11
206.300726
 21
741.637686
 31
0.0
 11
234.182504
 21
722.603119
 31
0.0
 11
230.741800
 21
685.255644
 31
0.0
  0
SPLINE
  5
104
100
AcDbEntity
  8
Layer_1
 62
7
100
AcDbSpline
 70
0
 71
3
 72
10
 73
6
 74
4
 40
0.000000
 40
0.000000
 40
0.000000
 40
0.000000
 40
28.414613
 40
50.579558
 40
71.339730
 40
71.339730
 40
71.339730
 40
71.339730
 10
230.741800
 20
685.255644
 30
0.0
 10
224.893682
 20
677.728786
 30
0.0
 10
214.483715
 20
664.330568
 30
0.0
 10
190.689643
 20
654.335239
 30
0.0
 10
187.150802
 20
639.634967
 30
0.0
 10
185.439288
 20
632.525372
 30
0.0
 11
230.741800
 21
685.255644
 31
0.0
 11
211.158711
 21
664.666985
 31
0.0
 11
193.094867
 21
651.822441
 31
0.0
 11
185.439288
 21
632.525372
 31
0.0
  0
LWPOLYLINE
  5
105
100
AcDbEntity
  8
Layer_1
 62
7
100
AcDbPolyline
 90
2
 70
1
 10
169.111944
 20
731.000004
 30
0.0
 10
169.111944
 20
731.000004
 30
0.0
  0
LWPOLYLINE
  5
106
100
AcDbEntity
  8
Layer_1
 62
7
100
AcDbPolyline
 90
2
 70
1
 10
167.476688
 20
720.095908
 30
0.0
 10
167.476688
 20
720.095908
 30
0.0
  0
LWPOLYLINE
  5
107
100
AcDbEntity
  8
Layer_1
 62
7
100
AcDbPolyline
 90
5
 70
1
 10
65.451422
 20
785.480261
 30
0.0
 10
277.645784
 20
785.480261
 30
0.0
 10
277.645784
 20
573.285924
 30
0.0
 10
65.451422
 20
573.285924
 30
0.0
 10
65.451422
 20
785.480261
 30
0.0
  0
SPLINE
  5
108
100
AcDbEntity
  8
Layer_1
 62
7
100
AcDbSpline
 70
0
 71
3
 72
16
 73
12
 74
10
 40
0.000000
 40
0.000000
 40
0.000000
 40
0.000000
 40
19.208463
 40
37.285851
 40
70.233028
 40
89.159528
 40
110.888044
 40
137.018994
 40
168.143318
 40
197.154540
 40
217.612377
 40
217.612377
 40
217.612377
 40
217.612377
 10
185.439288
 20
632.525372
 30
0.0
 10
187.759343
 20
638.968628
 30
0.0
 10
192.262838
 20
651.475736
 30
0.0
 10
216.804152
 20
657.431226
 30
0.0
 10
235.061264
 20
672.674259
 30
0.0
 10
248.698531
 20
693.665553
 30
0.0
 10
250.398567
 20
716.970565
 30
0.0
 10
237.345086
 20
741.816180
 30
0.0
 10
206.781298
 20
753.060106
 30
0.0
 10
180.972257
 20
739.123013
 30
0.0
 10
171.424956
 20
725.662484
 30
0.0
 10
167.476688
 20
720.095908
 30
0.0
 11
185.439288
 21
632.525372
 31
0.0
 11
194.662017
 21
649.374891
 31
0.0
 11
211.041897
 21
657.022866
 31
0.0
 11
237.136216
 21
677.137612
 31
0.0
 11
246.771111
 21
693.428136
 31
0.0
 11
248.405043
 21
715.095131
 31
0.0
 11
235.915992
 21
738.048348
 31
0.0
 11
206.581265
 21
748.450143
 31
0.0
 11
180.398001
 21
735.956638
 31
0.0
 11
167.476688
 21
720.095908
 31
0.0
  0
LWPOLYLINE
  5
109
100
AcDbEntity
  8
Layer_1
 62
7
100
AcDbPolyline
 90
5
 70
1
 10
290.362864
 20
785.283843
 30
0.0
 10
326.777200
 20
785.283843
 30
0.0
 10
326.777200
 20
573.121492
 30
0.0
 10
290.362864
 20
573.121492
 30
0.0
 10
290.362864
 20
785.283843
 30
0.0
  0
ENDSEC
  0
SECTION
  2
OBJECTS
  0
DICTIONARY
  5
C
330
0
100
AcDbDictionary
  3
ACAD_GROUP
350
D
  3
ACAD_MLINESTYLE
350
17
  0
DICTIONARY
  5
D
330
C
100
AcDbDictionary
  0
DICTIONARY
  5
1A
330
C
100
AcDbDictionary
  0
DICTIONARY
  5
17
330
C
100
AcDbDictionary
  3
STANDARD
350
18
  0
DICTIONARY
  5
19
330
C
100
AcDbDictionary
  0
ENDSEC
  0
EOF
