  0
SECTION
  2
HEADER
  9
$ACADVER
  1
AC1009
  9
$DWGCODEPAGE
  3
ansi_1252
  9
$INSBASE
 10
0.0
 20
0.0
 30
0.0
  9
$EXTMIN
 10
-2446.44520962258
 20
-1828.8
 30
1.542802548035694
  9
$EXTMAX
 10
-1836.845209622581
 20
-1219.2
 30
3.089688073466505
  9
$LIMMIN
 10
0.0
 20
0.0
  9
$LIMMAX
 10
12.0
 20
9.0
  9
$ORTHOMODE
 70
     0
  9
$REGENMODE
 70
     1
  9
$FILLMODE
 70
     1
  9
$QTEXTMODE
 70
     0
  9
$MIRRTEXT
 70
     1
  9
$DRAGMODE
 70
     2
  9
$LTSCALE
 40
1.0
  9
$OSMODE
 70
    37
  9
$ATTMODE
 70
     1
  9
$TEXTSIZE
 40
0.2
  9
$TRACEWID
 40
0.05
  9
$TEXTSTYLE
  7
STANDARD
  9
$CLAYER
  8
DEFAULT
  9
$CELTYPE
  6
BYLAYER
  9
$CECOLOR
 62
   256
  9
$DIMSCALE
 40
1.0
  9
$DIMASZ
 40
0.18
  9
$DIMEXO
 40
0.0625
  9
$DIMDLI
 40
0.38
  9
$DIMRND
 40
0.0
  9
$DIMDLE
 40
0.0
  9
$DIMEXE
 40
0.18
  9
$DIMTP
 40
0.0
  9
$DIMTM
 40
0.0
  9
$DIMTXT
 40
0.18
  9
$DIMCEN
 40
0.09
  9
$DIMTSZ
 40
0.0
  9
$DIMTOL
 70
     0
  9
$DIMLIM
 70
     0
  9
$DIMTIH
 70
     1
  9
$DIMTOH
 70
     1
  9
$DIMSE1
 70
     0
  9
$DIMSE2
 70
     0
  9
$DIMTAD
 70
     0
  9
$DIMZIN
 70
     0
  9
$DIMBLK
  1

  9
$DIMASO
 70
     1
  9
$DIMSHO
 70
     1
  9
$DIMPOST
  1

  9
$DIMAPOST
  1

  9
$DIMALT
 70
     0
  9
$DIMALTD
 70
     2
  9
$DIMALTF
 40
25.4
  9
$DIMLFAC
 40
1.0
  9
$DIMTOFL
 70
     0
  9
$DIMTVP
 40
0.0
  9
$DIMTIX
 70
     0
  9
$DIMSOXD
 70
     0
  9
$DIMSAH
 70
     0
  9
$DIMBLK1
  1

  9
$DIMBLK2
  1

  9
$DIMSTYLE
  2
STANDARD
  9
$DIMCLRD
 70
     0
  9
$DIMCLRE
 70
     0
  9
$DIMCLRT
 70
     0
  9
$DIMTFAC
 40
1.0
  9
$DIMGAP
 40
0.09
  9
$LUNITS
 70
     2
  9
$LUPREC
 70
     2
  9
$SKETCHINC
 40
0.1
  9
$FILLETRAD
 40
0.5
  9
$AUNITS
 70
     0
  9
$AUPREC
 70
     0
  9
$MENU
  1
.
  9
$ELEVATION
 40
0.0
  9
$PELEVATION
 40
0.0
  9
$THICKNESS
 40
0.0
  9
$LIMCHECK
 70
     0
  9
$CHAMFERA
 40
0.0
  9
$CHAMFERB
 40
0.0
  9
$SKPOLY
 70
     0
  9
$TDCREATE
 40
2458244.635237836
  9
$TDUPDATE
 40
2458244.635243136
  9
$TDINDWG
 40
0.0000000116
  9
$TDUSRTIMER
 40
0.0000000116
  9
$USRTIMER
 70
     1
  9
$ANGBASE
 50
0.0
  9
$ANGDIR
 70
     0
  9
$PDMODE
 70
     0
  9
$PDSIZE
 40
0.0
  9
$PLINEWID
 40
0.0
  9
$COORDS
 70
     1
  9
$SPLFRAME
 70
     0
  9
$SPLINETYPE
 70
     6
  9
$SPLINESEGS
 70
     8
  9
$ATTDIA
 70
     0
  9
$ATTREQ
 70
     1
  9
$HANDLING
 70
     1
  9
$HANDSEED
  5
1E2
  9
$SURFTAB1
 70
     6
  9
$SURFTAB2
 70
     6
  9
$SURFTYPE
 70
     6
  9
$SURFU
 70
     6
  9
$SURFV
 70
     6
  9
$UCSNAME
  2

  9
$UCSORG
 10
0.0
 20
0.0
 30
0.0
  9
$UCSXDIR
 10
1.0
 20
0.0
 30
0.0
  9
$UCSYDIR
 10
0.0
 20
1.0
 30
0.0
  9
$PUCSNAME
  2

  9
$PUCSORG
 10
0.0
 20
0.0
 30
0.0
  9
$PUCSXDIR
 10
1.0
 20
0.0
 30
0.0
  9
$PUCSYDIR
 10
0.0
 20
1.0
 30
0.0
  9
$USERI1
 70
     0
  9
$USERI2
 70
     0
  9
$USERI3
 70
     0
  9
$USERI4
 70
     0
  9
$USERI5
 70
     0
  9
$USERR1
 40
0.0
  9
$USERR2
 40
0.0
  9
$USERR3
 40
0.0
  9
$USERR4
 40
0.0
  9
$USERR5
 40
0.0
  9
$WORLDVIEW
 70
     1
  9
$SHADEDGE
 70
     3
  9
$SHADEDIF
 70
    70
  9
$TILEMODE
 70
     1
  9
$MAXACTVP
 70
    64
  9
$PLIMCHECK
 70
     0
  9
$PEXTMIN
 10
1.000000000000000E+20
 20
1.000000000000000E+20
 30
1.000000000000000E+20
  9
$PEXTMAX
 10
-1.000000000000000E+20
 20
-1.000000000000000E+20
 30
-1.000000000000000E+20
  9
$PLIMMIN
 10
0.0
 20
0.0
  9
$PLIMMAX
 10
12.0
 20
9.0
  9
$UNITMODE
 70
     0
  9
$VISRETAIN
 70
     1
  9
$PLINEGEN
 70
     0
  9
$PSLTSCALE
 70
     1
  0
ENDSEC
  0
SECTION
  2
TABLES
  0
TABLE
  2
VPORT
 70
     1
  0
VPORT
  2
*ACTIVE
 70
     0
 10
0.0
 20
0.0
 11
1.0
 21
1.0
 12
-2141.64520962258
 22
-1524.0
 13
0.0
 23
0.0
 14
0.5
 24
0.5
 15
0.5
 25
0.5
 16
0.0
 26
0.0
 36
1.0
 17
0.0
 27
0.0
 37
0.0
 40
621.7919999999999
 41
1.0
 42
50.0
 43
0.0
 44
0.0
 50
0.0
 51
0.0
 71
     0
 72
   100
 73
     1
 74
     3
 75
     0
 76
     0
 77
     0
 78
     0
  0
ENDTAB
  0
TABLE
  2
LTYPE
 70
     1
  0
LTYPE
  2
CONTINUOUS
 70
     0
  3
Solid line
 72
    65
 73
     0
 40
0.0
  0
ENDTAB
  0
TABLE
  2
LAYER
 70
     2
  0
LAYER
  2
0
 70
     0
 62
     7
  6
CONTINUOUS
  0
LAYER
  2
DEFAULT
 70
     0
 62
     7
  6
CONTINUOUS
  0
ENDTAB
  0
TABLE
  2
STYLE
 70
     1
  0
STYLE
  2
STANDARD
 70
     0
 40
0.0
 41
1.0
 50
0.0
 71
     0
 42
0.2
  3
txt
  4

  0
ENDTAB
  0
TABLE
  2
VIEW
 70
     0
  0
ENDTAB
  0
TABLE
  2
UCS
 70
     0
  0
ENDTAB
  0
TABLE
  2
APPID
 70
     1
  0
APPID
  2
ACAD
 70
     0
  0
ENDTAB
  0
TABLE
  2
DIMSTYLE
 70
     1
  0
DIMSTYLE
  2
STANDARD
 70
     0
  3

  4

  5

  6

  7

 40
1.0
 41
0.18
 42
0.0625
 43
0.38
 44
0.18
 45
0.0
 46
0.0
 47
0.0
 48
0.0
140
0.18
141
0.09
142
0.0
143
25.4
144
1.0
145
0.0
146
1.0
147
0.09
 71
     0
 72
     0
 73
     1
 74
     1
 75
     0
 76
     0
 77
     0
 78
     0
170
     0
171
     2
172
     0
173
     0
174
     0
175
     0
176
     0
177
     0
178
     0
  0
ENDTAB
  0
ENDSEC
  0
SECTION
  2
BLOCKS
  0
BLOCK
  8
0
  2
$MODEL_SPACE
 70
     0
 10
0.0
 20
0.0
 30
0.0
  3
$MODEL_SPACE
  1

  0
ENDBLK
  5
21
  8
0
  0
BLOCK
 67
     1
  8
0
  2
$PAPER_SPACE
 70
     0
 10
0.0
 20
0.0
 30
0.0
  3
$PAPER_SPACE
  1

  0
ENDBLK
  5
1D
 67
     1
  8
0
  0
ENDSEC
  0
SECTION
  2
ENTITIES
  0
POLYLINE
  5
6F
  8
DEFAULT
 10
0.0
 20
0.0
 30
0.0
 66
     1
 70
     9
  0
VERTEX
  5
70
  8
DEFAULT
 10
-1882.346707285297
 20
-1434.680881733839
 30
3.089679454463067
 70
    32
  0
VERTEX
  5
71
  8
DEFAULT
 10
-1862.346707285297
 20
-1434.680881733839
 30
3.089688073459001
 70
    32
  0
VERTEX
  5
72
  8
DEFAULT
 10
-1862.346707285297
 20
-1264.68088173384
 30
3.089688073459001
 70
    32
  0
VERTEX
  5
73
  8
DEFAULT
 10
-1882.346707285297
 20
-1264.680881733839
 30
3.089678455448166
 70
    32
  0
VERTEX
  5
74
  8
DEFAULT
 10
-1882.346707285297
 20
-1259.880881733839
 30
3.089670835446668
 70
    32
  0
VERTEX
  5
75
  8
DEFAULT
 10
-1942.346707285297
 20
-1259.880881733839
 30
3.089670835446668
 70
    32
  0
VERTEX
  5
76
  8
DEFAULT
 10
-1942.346707285297
 20
-1264.680881733839
 30
3.089675458383226
 70
    32
  0
VERTEX
  5
77
  8
DEFAULT
 10
-1972.346707285297
 20
-1264.680881733839
 30
3.089677084223695
 70
    32
  0
VERTEX
  5
78
  8
DEFAULT
 10
-1972.346707285297
 20
-1259.880881733839
 30
3.089670835446668
 70
    32
  0
VERTEX
  5
79
  8
DEFAULT
 10
-2032.346707285297
 20
-1259.880881733839
 30
3.089670835446668
 70
    32
  0
VERTEX
  5
7A
  8
DEFAULT
 10
-2032.346707285297
 20
-1264.680881733839
 30
3.089675791384707
 70
    32
  0
VERTEX
  5
7B
  8
DEFAULT
 10
-2062.346707285296
 20
-1264.680881733839
 30
3.089679454463067
 70
    32
  0
VERTEX
  5
7C
  8
DEFAULT
 10
-2062.346707285297
 20
-1259.880881733839
 30
3.089670835457127
 70
    32
  0
VERTEX
  5
7D
  8
DEFAULT
 10
-2122.346707285297
 20
-1259.880881733839
 30
3.089670835457127
 70
    32
  0
VERTEX
  5
7E
  8
DEFAULT
 10
-2122.346707285297
 20
-1264.680881733839
 30
3.089679454463067
 70
    32
  0
VERTEX
  5
7F
  8
DEFAULT
 10
-2142.346707285297
 20
-1264.68088173384
 30
3.089688073459001
 70
    32
  0
VERTEX
  5
80
  8
DEFAULT
 10
-2142.346707285297
 20
-1434.680881733839
 30
3.089688073459001
 70
    32
  0
VERTEX
  5
81
  8
DEFAULT
 10
-2122.346707285296
 20
-1434.680881733839
 30
3.089678455437934
 70
    32
  0
VERTEX
  5
82
  8
DEFAULT
 10
-2122.346707285297
 20
-1439.48088173384
 30
3.089670835457127
 70
    32
  0
VERTEX
  5
83
  8
DEFAULT
 10
-2062.346707285297
 20
-1439.48088173384
 30
3.089670835457127
 70
    32
  0
VERTEX
  5
84
  8
DEFAULT
 10
-2062.346707285297
 20
-1434.680881733839
 30
3.089675458372767
 70
    32
  0
VERTEX
  5
85
  8
DEFAULT
 10
-2032.346707285297
 20
-1434.680881733839
 30
3.089677084223695
 70
    32
  0
VERTEX
  5
86
  8
DEFAULT
 10
-2032.346707285297
 20
-1439.48088173384
 30
3.089670835446668
 70
    32
  0
VERTEX
  5
87
  8
DEFAULT
 10
-1972.346707285297
 20
-1439.48088173384
 30
3.089670835446668
 70
    32
  0
VERTEX
  5
88
  8
DEFAULT
 10
-1972.346707285297
 20
-1434.680881733839
 30
3.089675791384707
 70
    32
  0
VERTEX
  5
89
  8
DEFAULT
 10
-1942.346707285297
 20
-1434.680881733839
 30
3.089679454463067
 70
    32
  0
VERTEX
  5
8A
  8
DEFAULT
 10
-1942.346707285297
 20
-1439.48088173384
 30
3.089670835446668
 70
    32
  0
VERTEX
  5
8B
  8
DEFAULT
 10
-1882.346707285297
 20
-1439.48088173384
 30
3.089670835446668
 70
    32
  0
SEQEND
  5
8C
  8
DEFAULT
  0
POLYLINE
  5
8D
  8
DEFAULT
 66
     1
 10
0.0
 20
0.0
 30
3.089585061766229
 70
     1
  0
VERTEX
  5
8E
  8
DEFAULT
 10
-2099.037258083777
 20
-1530.087484161038
 30
3.089585061766229
  0
VERTEX
  5
8F
  8
DEFAULT
 10
-1953.430656432546
 20
-1675.694087173004
 30
3.089585061766229
 42
0.1989123685940415
  0
VERTEX
  5
90
  8
DEFAULT
 10
-1932.217452897828
 20
-1684.48088383653
 30
3.089585061766229
  0
VERTEX
  5
91
  8
DEFAULT
 10
-1924.443859851136
 20
-1684.480883836529
 30
3.089585061766229
 42
0.4142135623730938
  0
VERTEX
  5
92
  8
DEFAULT
 10
-1909.443859851136
 20
-1669.48088383653
 30
3.089585061766229
  0
VERTEX
  5
93
  8
DEFAULT
 10
-1909.443859851136
 20
-1469.48088173384
 30
3.089585061766229
 42
0.414213562373102
  0
VERTEX
  5
94
  8
DEFAULT
 10
-1924.443859851136
 20
-1454.480881733839
 30
3.089585061766229
  0
VERTEX
  5
95
  8
DEFAULT
 10
-1929.243859851136
 20
-1454.48088173384
 30
3.089585061766229
 42
0.4142135623730876
  0
VERTEX
  5
96
  8
DEFAULT
 10
-1944.243859851135
 20
-1469.48088173384
 30
3.089585061766229
  0
VERTEX
  5
97
  8
DEFAULT
 10
-1944.243859851136
 20
-1598.267679741094
 30
3.089585061766229
 42
-0.6681786396090231
  0
VERTEX
  5
98
  8
DEFAULT
 10
-1969.850461618495
 20
-1608.874281409331
 30
3.089585061766229
  0
VERTEX
  5
99
  8
DEFAULT
 10
-2115.457063269725
 20
-1463.267678397365
 30
3.089585061766229
 42
0.1989123685940257
  0
VERTEX
  5
9A
  8
DEFAULT
 10
-2136.670266804444
 20
-1454.48088173384
 30
3.089585061766229
  0
VERTEX
  5
9B
  8
DEFAULT
 10
-2144.443859851136
 20
-1454.48088173384
 30
3.089585061766229
 42
0.4142135623731008
  0
VERTEX
  5
9C
  8
DEFAULT
 10
-2159.443859851136
 20
-1469.48088173384
 30
3.089585061766229
  0
VERTEX
  5
9D
  8
DEFAULT
 10
-2159.443859851135
 20
-1669.48088383653
 30
3.089585061766229
 42
0.4142135623731065
  0
VERTEX
  5
9E
  8
DEFAULT
 10
-2144.443859851136
 20
-1684.48088383653
 30
3.089585061766229
  0
VERTEX
  5
9F
  8
DEFAULT
 10
-2139.643859851136
 20
-1684.48088383653
 30
3.089585061766229
 42
0.4142135623730951
  0
VERTEX
  5
A0
  8
DEFAULT
 10
-2124.643859851136
 20
-1669.48088383653
 30
3.089585061766229
  0
VERTEX
  5
A1
  8
DEFAULT
 10
-2124.643859851136
 20
-1540.694085829275
 30
3.089585061766229
 42
-0.6681786396089076
  0
SEQEND
  5
A2
  8
DEFAULT
  0
POLYLINE
  5
A3
  8
DEFAULT
 66
     1
 10
0.0
 20
0.0
 30
3.089585061725074
 70
     1
  0
VERTEX
  5
A4
  8
DEFAULT
 10
-1993.714508860782
 20
-1613.604346882447
 30
3.089585061725074
  0
VERTEX
  5
A5
  8
DEFAULT
 10
-1990.320396311086
 20
-1610.210234332751
 30
3.089585061725074
  0
VERTEX
  5
A6
  8
DEFAULT
 10
-1947.893989439893
 20
-1652.636641203944
 30
3.089585061725074
  0
VERTEX
  5
A7
  8
DEFAULT
 10
-1951.288101989589
 20
-1656.03075375364
 30
3.089585061725074
  0
SEQEND
  5
A8
  8
DEFAULT
  0
POLYLINE
  5
A9
  8
DEFAULT
 66
     1
 10
0.0
 20
0.0
 30
3.089585061725074
 70
     1
  0
VERTEX
  5
AA
  8
DEFAULT
 10
-2057.354119167571
 20
-1549.964736575658
 30
3.089585061725074
  0
VERTEX
  5
AB
  8
DEFAULT
 10
-2053.960006617875
 20
-1546.570624025962
 30
3.089585061725074
  0
VERTEX
  5
AC
  8
DEFAULT
 10
-2011.533599746683
 20
-1588.997030897155
 30
3.089585061725074
  0
VERTEX
  5
AD
  8
DEFAULT
 10
-2014.927712296378
 20
-1592.39114344685
 30
3.089585061725074
  0
SEQEND
  5
AE
  8
DEFAULT
  0
POLYLINE
  5
AF
  8
DEFAULT
 66
     1
 10
0.0
 20
0.0
 30
3.089585061725074
 70
     1
  0
VERTEX
  5
B0
  8
DEFAULT
 10
-2120.99372947436
 20
-1486.325126268868
 30
3.089585061725074
  0
VERTEX
  5
B1
  8
DEFAULT
 10
-2117.599616924665
 20
-1482.931013719173
 30
3.089585061725074
  0
VERTEX
  5
B2
  8
DEFAULT
 10
-2075.173210053472
 20
-1525.357420590366
 30
3.089585061725074
  0
VERTEX
  5
B3
  8
DEFAULT
 10
-2078.567322603167
 20
-1528.751533140061
 30
3.089585061725074
  0
SEQEND
  5
B4
  8
DEFAULT
  0
POLYLINE
  5
B5
  8
DEFAULT
 66
     1
 10
0.0
 20
0.0
 30
3.089585061725074
 70
     1
  0
VERTEX
  5
B6
  8
DEFAULT
 10
-1929.243859851136
 20
-1619.48088383653
 30
3.089585061725074
  0
VERTEX
  5
B7
  8
DEFAULT
 10
-1924.443859851136
 20
-1619.48088383653
 30
3.089585061725074
  0
VERTEX
  5
B8
  8
DEFAULT
 10
-1924.443859851136
 20
-1669.48088383653
 30
3.089585061725074
  0
VERTEX
  5
B9
  8
DEFAULT
 10
-1929.243859851136
 20
-1669.48088383653
 30
3.089585061725074
  0
SEQEND
  5
BA
  8
DEFAULT
  0
POLYLINE
  5
BB
  8
DEFAULT
 66
     1
 10
0.0
 20
0.0
 30
3.089585061725074
 70
     1
  0
VERTEX
  5
BC
  8
DEFAULT
 10
-1929.243859851136
 20
-1544.480891991597
 30
3.089585061725074
  0
VERTEX
  5
BD
  8
DEFAULT
 10
-1924.443859851136
 20
-1544.480891991597
 30
3.089585061725074
  0
VERTEX
  5
BE
  8
DEFAULT
 10
-1924.443859851136
 20
-1594.480891991597
 30
3.089585061725074
  0
VERTEX
  5
BF
  8
DEFAULT
 10
-1929.243859851136
 20
-1594.480891991597
 30
3.089585061725074
  0
SEQEND
  5
C0
  8
DEFAULT
  0
POLYLINE
  5
C1
  8
DEFAULT
 66
     1
 10
0.0
 20
0.0
 30
3.089585061725074
 70
     1
  0
VERTEX
  5
C2
  8
DEFAULT
 10
-1929.243859851136
 20
-1469.48088383653
 30
3.089585061725074
  0
VERTEX
  5
C3
  8
DEFAULT
 10
-1924.443859851136
 20
-1469.48088383653
 30
3.089585061725074
  0
VERTEX
  5
C4
  8
DEFAULT
 10
-1924.443859851136
 20
-1519.48088383653
 30
3.089585061725074
  0
VERTEX
  5
C5
  8
DEFAULT
 10
-1929.243859851136
 20
-1519.48088383653
 30
3.089585061725074
  0
SEQEND
  5
C6
  8
DEFAULT
  0
POLYLINE
  5
C7
  8
DEFAULT
 66
     1
 10
0.0
 20
0.0
 30
3.089585061725074
 70
     1
  0
VERTEX
  5
C8
  8
DEFAULT
 10
-2144.443859851136
 20
-1619.48088383653
 30
3.089585061725074
  0
VERTEX
  5
C9
  8
DEFAULT
 10
-2139.643859851136
 20
-1619.48088383653
 30
3.089585061725074
  0
VERTEX
  5
CA
  8
DEFAULT
 10
-2139.643859851136
 20
-1669.48088383653
 30
3.089585061725074
  0
VERTEX
  5
CB
  8
DEFAULT
 10
-2144.443859851136
 20
-1669.48088383653
 30
3.089585061725074
  0
SEQEND
  5
CC
  8
DEFAULT
  0
POLYLINE
  5
CD
  8
DEFAULT
 66
     1
 10
0.0
 20
0.0
 30
3.089585061725074
 70
     1
  0
VERTEX
  5
CE
  8
DEFAULT
 10
-2144.443859851136
 20
-1544.480891991597
 30
3.089585061725074
  0
VERTEX
  5
CF
  8
DEFAULT
 10
-2139.643859851136
 20
-1544.480891991597
 30
3.089585061725074
  0
VERTEX
  5
D0
  8
DEFAULT
 10
-2139.643859851136
 20
-1594.480891991597
 30
3.089585061725074
  0
VERTEX
  5
D1
  8
DEFAULT
 10
-2144.443859851136
 20
-1594.480891991597
 30
3.089585061725074
  0
SEQEND
  5
D2
  8
DEFAULT
  0
POLYLINE
  5
D3
  8
DEFAULT
 66
     1
 10
0.0
 20
0.0
 30
3.089585061725074
 70
     1
  0
VERTEX
  5
D4
  8
DEFAULT
 10
-2144.443859851136
 20
-1469.48088383653
 30
3.089585061725074
  0
VERTEX
  5
D5
  8
DEFAULT
 10
-2139.643859851136
 20
-1469.48088383653
 30
3.089585061725074
  0
VERTEX
  5
D6
  8
DEFAULT
 10
-2139.643859851136
 20
-1519.48088383653
 30
3.089585061725074
  0
VERTEX
  5
D7
  8
DEFAULT
 10
-2144.443859851136
 20
-1519.48088383653
 30
3.089585061725074
  0
SEQEND
  5
D8
  8
DEFAULT
  0
POLYLINE
  5
D9
  8
DEFAULT
 66
     1
 10
0.0
 20
0.0
 30
3.089412265331021
 70
     1
  0
VERTEX
  5
DA
  8
DEFAULT
 10
-2391.841009742775
 20
-1562.554008274381
 30
3.089412265331021
  0
VERTEX
  5
DB
  8
DEFAULT
 10
-2391.841009742775
 20
-1482.554226758803
 30
3.089412265331021
 42
-0.4142132661046629
  0
VERTEX
  5
DC
  8
DEFAULT
 10
-2376.841009742775
 20
-1467.554226758803
 30
3.089412265331021
  0
VERTEX
  5
DD
  8
DEFAULT
 10
-2226.837190117682
 20
-1467.554226758803
 30
3.089412265331021
 42
-0.4142134636169161
  0
VERTEX
  5
DE
  8
DEFAULT
 10
-2211.837190117682
 20
-1482.554226758803
 30
3.089412265331021
  0
VERTEX
  5
DF
  8
DEFAULT
 10
-2211.837190117681
 20
-1562.554008274381
 30
3.089412265331021
 42
-0.4142134636167777
  0
VERTEX
  5
E0
  8
DEFAULT
 10
-2226.837190117682
 20
-1577.55400827438
 30
3.089412265331021
  0
VERTEX
  5
E1
  8
DEFAULT
 10
-2376.841009742775
 20
-1577.554008274381
 30
3.089412265331021
 42
-0.4142133648607355
  0
SEQEND
  5
E2
  8
DEFAULT
  0
POLYLINE
  5
E3
  8
DEFAULT
 66
     1
 10
0.0
 20
0.0
 30
3.089412265331021
 70
     1
  0
VERTEX
  5
E4
  8
DEFAULT
 10
-2401.839100415464
 20
-1432.754114607317
 30
3.089412265331021
  0
VERTEX
  5
E5
  8
DEFAULT
 10
-2401.839100415464
 20
-1437.554114607316
 30
3.089412265331021
  0
VERTEX
  5
E6
  8
DEFAULT
 10
-2416.839100415464
 20
-1437.554114607317
 30
3.089412265331021
  0
VERTEX
  5
E7
  8
DEFAULT
 10
-2416.839100415464
 20
-1607.554114607316
 30
3.089412265331021
  0
VERTEX
  5
E8
  8
DEFAULT
 10
-2401.839100415464
 20
-1607.554114607316
 30
3.089412265331021
  0
VERTEX
  5
E9
  8
DEFAULT
 10
-2401.839100415464
 20
-1612.354114607317
 30
3.089412265331021
  0
VERTEX
  5
EA
  8
DEFAULT
 10
-2378.339100415464
 20
-1612.354114607317
 30
3.089412265331021
  0
VERTEX
  5
EB
  8
DEFAULT
 10
-2378.339100415464
 20
-1602.554114902502
 30
3.089412265331021
  0
VERTEX
  5
EC
  8
DEFAULT
 10
-2380.839100415464
 20
-1602.554114902502
 30
3.089412265331021
  0
VERTEX
  5
ED
  8
DEFAULT
 10
-2380.839100415464
 20
-1596.55411458461
 30
3.089412265331021
  0
VERTEX
  5
EE
  8
DEFAULT
 10
-2372.839100415464
 20
-1596.55411458461
 30
3.089412265331021
  0
VERTEX
  5
EF
  8
DEFAULT
 10
-2372.839100415464
 20
-1602.554114902502
 30
3.089412265331021
  0
VERTEX
  5
F0
  8
DEFAULT
 10
-2375.339100415464
 20
-1602.554114902502
 30
3.089412265331021
  0
VERTEX
  5
F1
  8
DEFAULT
 10
-2375.339100415464
 20
-1612.354114607317
 30
3.089412265331021
  0
VERTEX
  5
F2
  8
DEFAULT
 10
-2351.839100415464
 20
-1612.354114607317
 30
3.089412265331021
  0
VERTEX
  5
F3
  8
DEFAULT
 10
-2351.839100415464
 20
-1607.554114607316
 30
3.089412265331021
  0
VERTEX
  5
F4
  8
DEFAULT
 10
-2326.839092260397
 20
-1607.554114607316
 30
3.089412265331021
  0
VERTEX
  5
F5
  8
DEFAULT
 10
-2326.839092260397
 20
-1612.354114607317
 30
3.089412265331021
  0
VERTEX
  5
F6
  8
DEFAULT
 10
-2303.339092260397
 20
-1612.354114607317
 30
3.089412265331021
  0
VERTEX
  5
F7
  8
DEFAULT
 10
-2303.339092260397
 20
-1602.554114902502
 30
3.089412265331021
  0
VERTEX
  5
F8
  8
DEFAULT
 10
-2305.839092260397
 20
-1602.554114902502
 30
3.089412265331021
  0
VERTEX
  5
F9
  8
DEFAULT
 10
-2305.839092260397
 20
-1596.55411458461
 30
3.089412265331021
  0
VERTEX
  5
FA
  8
DEFAULT
 10
-2297.839092260397
 20
-1596.55411458461
 30
3.089412265331021
  0
VERTEX
  5
FB
  8
DEFAULT
 10
-2297.839092260397
 20
-1602.554114902502
 30
3.089412265331021
  0
VERTEX
  5
FC
  8
DEFAULT
 10
-2300.339092260397
 20
-1602.554114902502
 30
3.089412265331021
  0
VERTEX
  5
FD
  8
DEFAULT
 10
-2300.339092260397
 20
-1612.354114607317
 30
3.089412265331021
  0
VERTEX
  5
FE
  8
DEFAULT
 10
-2276.839092260397
 20
-1612.354114607317
 30
3.089412265331021
  0
VERTEX
  5
FF
  8
DEFAULT
 10
-2276.839092260397
 20
-1607.554114607316
 30
3.089412265331021
  0
VERTEX
  5
100
  8
DEFAULT
 10
-2251.839100415464
 20
-1607.554114607316
 30
3.089412265331021
  0
VERTEX
  5
101
  8
DEFAULT
 10
-2251.839100415464
 20
-1612.354114607317
 30
3.089412265331021
  0
VERTEX
  5
102
  8
DEFAULT
 10
-2228.339100415464
 20
-1612.354114607317
 30
3.089412265331021
  0
VERTEX
  5
103
  8
DEFAULT
 10
-2228.339100415464
 20
-1602.554114902502
 30
3.089412265331021
  0
VERTEX
  5
104
  8
DEFAULT
 10
-2230.839100415464
 20
-1602.554114902502
 30
3.089412265331021
  0
VERTEX
  5
105
  8
DEFAULT
 10
-2230.839100415464
 20
-1596.55411458461
 30
3.089412265331021
  0
VERTEX
  5
106
  8
DEFAULT
 10
-2222.839100415464
 20
-1596.55411458461
 30
3.089412265331021
  0
VERTEX
  5
107
  8
DEFAULT
 10
-2222.839100415464
 20
-1602.554114902502
 30
3.089412265331021
  0
VERTEX
  5
108
  8
DEFAULT
 10
-2225.339100415464
 20
-1602.554114902502
 30
3.089412265331021
  0
VERTEX
  5
109
  8
DEFAULT
 10
-2225.339100415464
 20
-1612.354114607317
 30
3.089412265331021
  0
VERTEX
  5
10A
  8
DEFAULT
 10
-2201.839100415464
 20
-1612.354114607317
 30
3.089412265331021
  0
VERTEX
  5
10B
  8
DEFAULT
 10
-2201.839100415464
 20
-1607.554114607316
 30
3.089412265331021
  0
VERTEX
  5
10C
  8
DEFAULT
 10
-2186.839100415464
 20
-1607.554114607316
 30
3.089412265331021
  0
VERTEX
  5
10D
  8
DEFAULT
 10
-2186.839100415464
 20
-1437.554114607317
 30
3.089412265331021
  0
VERTEX
  5
10E
  8
DEFAULT
 10
-2201.839100415464
 20
-1437.554114607316
 30
3.089412265331021
  0
VERTEX
  5
10F
  8
DEFAULT
 10
-2201.839100415464
 20
-1432.754114607317
 30
3.089412265331021
  0
VERTEX
  5
110
  8
DEFAULT
 10
-2225.339100415464
 20
-1432.754114607317
 30
3.089412265331021
  0
VERTEX
  5
111
  8
DEFAULT
 10
-2225.339100415464
 20
-1442.554114312132
 30
3.089412265331021
  0
VERTEX
  5
112
  8
DEFAULT
 10
-2222.839100415464
 20
-1442.554114312132
 30
3.089412265331021
  0
VERTEX
  5
113
  8
DEFAULT
 10
-2222.839100415464
 20
-1448.554114630023
 30
3.089412265331021
  0
VERTEX
  5
114
  8
DEFAULT
 10
-2230.839100415464
 20
-1448.554114630023
 30
3.089412265331021
  0
VERTEX
  5
115
  8
DEFAULT
 10
-2230.839100415464
 20
-1442.554114312132
 30
3.089412265331021
  0
VERTEX
  5
116
  8
DEFAULT
 10
-2228.339100415464
 20
-1442.554114312132
 30
3.089412265331021
  0
VERTEX
  5
117
  8
DEFAULT
 10
-2228.339100415464
 20
-1432.754114607317
 30
3.089412265331021
  0
VERTEX
  5
118
  8
DEFAULT
 10
-2251.839100415464
 20
-1432.754114607317
 30
3.089412265331021
  0
VERTEX
  5
119
  8
DEFAULT
 10
-2251.839100415464
 20
-1437.554114607316
 30
3.089412265331021
  0
VERTEX
  5
11A
  8
DEFAULT
 10
-2276.839092260397
 20
-1437.554114607316
 30
3.089412265331021
  0
VERTEX
  5
11B
  8
DEFAULT
 10
-2276.839092260397
 20
-1432.754114607317
 30
3.089412265331021
  0
VERTEX
  5
11C
  8
DEFAULT
 10
-2300.339092260397
 20
-1432.754114607317
 30
3.089412265331021
  0
VERTEX
  5
11D
  8
DEFAULT
 10
-2300.339092260397
 20
-1442.554114312132
 30
3.089412265331021
  0
VERTEX
  5
11E
  8
DEFAULT
 10
-2297.839092260397
 20
-1442.554114312132
 30
3.089412265331021
  0
VERTEX
  5
11F
  8
DEFAULT
 10
-2297.839092260397
 20
-1448.554114630023
 30
3.089412265331021
  0
VERTEX
  5
120
  8
DEFAULT
 10
-2305.839092260397
 20
-1448.554114630023
 30
3.089412265331021
  0
VERTEX
  5
121
  8
DEFAULT
 10
-2305.839092260397
 20
-1442.554114312132
 30
3.089412265331021
  0
VERTEX
  5
122
  8
DEFAULT
 10
-2303.339092260397
 20
-1442.554114312132
 30
3.089412265331021
  0
VERTEX
  5
123
  8
DEFAULT
 10
-2303.339092260397
 20
-1432.754114607317
 30
3.089412265331021
  0
VERTEX
  5
124
  8
DEFAULT
 10
-2326.839092260397
 20
-1432.754114607317
 30
3.089412265331021
  0
VERTEX
  5
125
  8
DEFAULT
 10
-2326.839092260397
 20
-1437.554114607316
 30
3.089412265331021
  0
VERTEX
  5
126
  8
DEFAULT
 10
-2351.839100415464
 20
-1437.554114607316
 30
3.089412265331021
  0
VERTEX
  5
127
  8
DEFAULT
 10
-2351.839100415464
 20
-1432.754114607317
 30
3.089412265331021
  0
VERTEX
  5
128
  8
DEFAULT
 10
-2375.339100415464
 20
-1432.754114607317
 30
3.089412265331021
  0
VERTEX
  5
129
  8
DEFAULT
 10
-2375.339100415464
 20
-1442.554114312132
 30
3.089412265331021
  0
VERTEX
  5
12A
  8
DEFAULT
 10
-2372.839100415464
 20
-1442.554114312132
 30
3.089412265331021
  0
VERTEX
  5
12B
  8
DEFAULT
 10
-2372.839100415464
 20
-1448.554114630023
 30
3.089412265331021
  0
VERTEX
  5
12C
  8
DEFAULT
 10
-2380.839100415464
 20
-1448.554114630023
 30
3.089412265331021
  0
VERTEX
  5
12D
  8
DEFAULT
 10
-2380.839100415464
 20
-1442.554114312132
 30
3.089412265331021
  0
VERTEX
  5
12E
  8
DEFAULT
 10
-2378.339100415464
 20
-1442.554114312132
 30
3.089412265331021
  0
VERTEX
  5
12F
  8
DEFAULT
 10
-2378.339100415464
 20
-1432.754114607317
 30
3.089412265331021
  0
SEQEND
  5
130
  8
DEFAULT
  0
POLYLINE
  5
131
  8
DEFAULT
 66
     1
 10
0.0
 20
0.0
 30
3.089688073466505
 70
     1
  0
VERTEX
  5
132
  8
DEFAULT
 10
-2401.839100900699
 20
-1627.354114607316
 30
3.089688073466505
  0
VERTEX
  5
133
  8
DEFAULT
 10
-2401.839100900699
 20
-1632.154114607316
 30
3.089688073466505
  0
VERTEX
  5
134
  8
DEFAULT
 10
-2416.839100900699
 20
-1632.154114607316
 30
3.089688073466505
  0
VERTEX
  5
135
  8
DEFAULT
 10
-2416.839100900699
 20
-1802.154114607316
 30
3.089688073466505
  0
VERTEX
  5
136
  8
DEFAULT
 10
-2401.839100900699
 20
-1802.154114607316
 30
3.089688073466505
  0
VERTEX
  5
137
  8
DEFAULT
 10
-2401.839100900699
 20
-1806.954114607317
 30
3.089688073466505
  0
VERTEX
  5
138
  8
DEFAULT
 10
-2378.339100900699
 20
-1806.954114607317
 30
3.089688073466505
  0
VERTEX
  5
139
  8
DEFAULT
 10
-2378.339100900699
 20
-1797.154114902502
 30
3.089688073466505
  0
VERTEX
  5
13A
  8
DEFAULT
 10
-2380.839100900699
 20
-1797.154114902502
 30
3.089688073466505
  0
VERTEX
  5
13B
  8
DEFAULT
 10
-2380.839100900699
 20
-1791.15411458461
 30
3.089688073466505
  0
VERTEX
  5
13C
  8
DEFAULT
 10
-2372.839100900699
 20
-1791.15411458461
 30
3.089688073466505
  0
VERTEX
  5
13D
  8
DEFAULT
 10
-2372.839100900699
 20
-1797.154114902502
 30
3.089688073466505
  0
VERTEX
  5
13E
  8
DEFAULT
 10
-2375.339100900699
 20
-1797.154114902502
 30
3.089688073466505
  0
VERTEX
  5
13F
  8
DEFAULT
 10
-2375.339100900699
 20
-1806.954114607317
 30
3.089688073466505
  0
VERTEX
  5
140
  8
DEFAULT
 10
-2351.839100900699
 20
-1806.954114607317
 30
3.089688073466505
  0
VERTEX
  5
141
  8
DEFAULT
 10
-2351.839100900699
 20
-1802.154114607316
 30
3.089688073466505
  0
VERTEX
  5
142
  8
DEFAULT
 10
-2326.839092745632
 20
-1802.154114607316
 30
3.089688073466505
  0
VERTEX
  5
143
  8
DEFAULT
 10
-2326.839092745632
 20
-1806.954114607317
 30
3.089688073466505
  0
VERTEX
  5
144
  8
DEFAULT
 10
-2303.339092745632
 20
-1806.954114607317
 30
3.089688073466505
  0
VERTEX
  5
145
  8
DEFAULT
 10
-2303.339092745632
 20
-1797.154114902502
 30
3.089688073466505
  0
VERTEX
  5
146
  8
DEFAULT
 10
-2305.839092745632
 20
-1797.154114902502
 30
3.089688073466505
  0
VERTEX
  5
147
  8
DEFAULT
 10
-2305.839092745632
 20
-1791.15411458461
 30
3.089688073466505
  0
VERTEX
  5
148
  8
DEFAULT
 10
-2297.839092745632
 20
-1791.15411458461
 30
3.089688073466505
  0
VERTEX
  5
149
  8
DEFAULT
 10
-2297.839092745632
 20
-1797.154114902502
 30
3.089688073466505
  0
VERTEX
  5
14A
  8
DEFAULT
 10
-2300.339092745632
 20
-1797.154114902502
 30
3.089688073466505
  0
VERTEX
  5
14B
  8
DEFAULT
 10
-2300.339092745632
 20
-1806.954114607317
 30
3.089688073466505
  0
VERTEX
  5
14C
  8
DEFAULT
 10
-2276.839092745633
 20
-1806.954114607317
 30
3.089688073466505
  0
VERTEX
  5
14D
  8
DEFAULT
 10
-2276.839092745633
 20
-1802.154114607316
 30
3.089688073466505
  0
VERTEX
  5
14E
  8
DEFAULT
 10
-2251.8391009007
 20
-1802.154114607316
 30
3.089688073466505
  0
VERTEX
  5
14F
  8
DEFAULT
 10
-2251.8391009007
 20
-1806.954114607317
 30
3.089688073466505
  0
VERTEX
  5
150
  8
DEFAULT
 10
-2228.339100900699
 20
-1806.954114607317
 30
3.089688073466505
  0
VERTEX
  5
151
  8
DEFAULT
 10
-2228.339100900699
 20
-1797.154114902502
 30
3.089688073466505
  0
VERTEX
  5
152
  8
DEFAULT
 10
-2230.839100900699
 20
-1797.154114902502
 30
3.089688073466505
  0
VERTEX
  5
153
  8
DEFAULT
 10
-2230.839100900699
 20
-1791.15411458461
 30
3.089688073466505
  0
VERTEX
  5
154
  8
DEFAULT
 10
-2222.8391009007
 20
-1791.15411458461
 30
3.089688073466505
  0
VERTEX
  5
155
  8
DEFAULT
 10
-2222.8391009007
 20
-1797.154114902502
 30
3.089688073466505
  0
VERTEX
  5
156
  8
DEFAULT
 10
-2225.339100900699
 20
-1797.154114902502
 30
3.089688073466505
  0
VERTEX
  5
157
  8
DEFAULT
 10
-2225.339100900699
 20
-1806.954114607317
 30
3.089688073466505
  0
VERTEX
  5
158
  8
DEFAULT
 10
-2201.8391009007
 20
-1806.954114607317
 30
3.089688073466505
  0
VERTEX
  5
159
  8
DEFAULT
 10
-2201.8391009007
 20
-1802.154114607316
 30
3.089688073466505
  0
VERTEX
  5
15A
  8
DEFAULT
 10
-2186.8391009007
 20
-1802.154114607316
 30
3.089688073466505
  0
VERTEX
  5
15B
  8
DEFAULT
 10
-2186.8391009007
 20
-1632.154114607316
 30
3.089688073466505
  0
VERTEX
  5
15C
  8
DEFAULT
 10
-2201.8391009007
 20
-1632.154114607316
 30
3.089688073466505
  0
VERTEX
  5
15D
  8
DEFAULT
 10
-2201.8391009007
 20
-1627.354114607316
 30
3.089688073466505
  0
VERTEX
  5
15E
  8
DEFAULT
 10
-2225.339100900699
 20
-1627.354114607316
 30
3.089688073466505
  0
VERTEX
  5
15F
  8
DEFAULT
 10
-2225.339100900699
 20
-1637.154114312131
 30
3.089688073466505
  0
VERTEX
  5
160
  8
DEFAULT
 10
-2222.8391009007
 20
-1637.154114312131
 30
3.089688073466505
  0
VERTEX
  5
161
  8
DEFAULT
 10
-2222.8391009007
 20
-1643.154114630023
 30
3.089688073466505
  0
VERTEX
  5
162
  8
DEFAULT
 10
-2230.839100900699
 20
-1643.154114630023
 30
3.089688073466505
  0
VERTEX
  5
163
  8
DEFAULT
 10
-2230.839100900699
 20
-1637.154114312131
 30
3.089688073466505
  0
VERTEX
  5
164
  8
DEFAULT
 10
-2228.339100900699
 20
-1637.154114312131
 30
3.089688073466505
  0
VERTEX
  5
165
  8
DEFAULT
 10
-2228.339100900699
 20
-1627.354114607316
 30
3.089688073466505
  0
VERTEX
  5
166
  8
DEFAULT
 10
-2251.8391009007
 20
-1627.354114607316
 30
3.089688073466505
  0
VERTEX
  5
167
  8
DEFAULT
 10
-2251.8391009007
 20
-1632.154114607316
 30
3.089688073466505
  0
VERTEX
  5
168
  8
DEFAULT
 10
-2276.839092745633
 20
-1632.154114607316
 30
3.089688073466505
  0
VERTEX
  5
169
  8
DEFAULT
 10
-2276.839092745633
 20
-1627.354114607316
 30
3.089688073466505
  0
VERTEX
  5
16A
  8
DEFAULT
 10
-2300.339092745632
 20
-1627.354114607316
 30
3.089688073466505
  0
VERTEX
  5
16B
  8
DEFAULT
 10
-2300.339092745632
 20
-1637.154114312131
 30
3.089688073466505
  0
VERTEX
  5
16C
  8
DEFAULT
 10
-2297.839092745632
 20
-1637.154114312131
 30
3.089688073466505
  0
VERTEX
  5
16D
  8
DEFAULT
 10
-2297.839092745632
 20
-1643.154114630023
 30
3.089688073466505
  0
VERTEX
  5
16E
  8
DEFAULT
 10
-2305.839092745632
 20
-1643.154114630023
 30
3.089688073466505
  0
VERTEX
  5
16F
  8
DEFAULT
 10
-2305.839092745632
 20
-1637.154114312131
 30
3.089688073466505
  0
VERTEX
  5
170
  8
DEFAULT
 10
-2303.339092745632
 20
-1637.154114312131
 30
3.089688073466505
  0
VERTEX
  5
171
  8
DEFAULT
 10
-2303.339092745632
 20
-1627.354114607316
 30
3.089688073466505
  0
VERTEX
  5
172
  8
DEFAULT
 10
-2326.839092745632
 20
-1627.354114607316
 30
3.089688073466505
  0
VERTEX
  5
173
  8
DEFAULT
 10
-2326.839092745632
 20
-1632.154114607316
 30
3.089688073466505
  0
VERTEX
  5
174
  8
DEFAULT
 10
-2351.839100900699
 20
-1632.154114607316
 30
3.089688073466505
  0
VERTEX
  5
175
  8
DEFAULT
 10
-2351.839100900699
 20
-1627.354114607316
 30
3.089688073466505
  0
VERTEX
  5
176
  8
DEFAULT
 10
-2375.339100900699
 20
-1627.354114607316
 30
3.089688073466505
  0
VERTEX
  5
177
  8
DEFAULT
 10
-2375.339100900699
 20
-1637.154114312131
 30
3.089688073466505
  0
VERTEX
  5
178
  8
DEFAULT
 10
-2372.839100900699
 20
-1637.154114312131
 30
3.089688073466505
  0
VERTEX
  5
179
  8
DEFAULT
 10
-2372.839100900699
 20
-1643.154114630023
 30
3.089688073466505
  0
VERTEX
  5
17A
  8
DEFAULT
 10
-2380.839100900699
 20
-1643.154114630023
 30
3.089688073466505
  0
VERTEX
  5
17B
  8
DEFAULT
 10
-2380.839100900699
 20
-1637.154114312131
 30
3.089688073466505
  0
VERTEX
  5
17C
  8
DEFAULT
 10
-2378.339100900699
 20
-1637.154114312131
 30
3.089688073466505
  0
VERTEX
  5
17D
  8
DEFAULT
 10
-2378.339100900699
 20
-1627.354114607316
 30
3.089688073466505
  0
SEQEND
  5
17E
  8
DEFAULT
  0
POLYLINE
  5
17F
  8
DEFAULT
 66
     1
 10
0.0
 20
0.0
 30
3.089688073465823
 70
     1
  0
VERTEX
  5
180
  8
DEFAULT
 10
-2391.84101022801
 20
-1757.154008274381
 30
3.089688073465823
  0
VERTEX
  5
181
  8
DEFAULT
 10
-2391.84101022801
 20
-1677.154226758803
 30
3.089688073465823
 42
-0.4142132661046834
  0
VERTEX
  5
182
  8
DEFAULT
 10
-2376.841010228011
 20
-1662.154226758803
 30
3.089688073465823
  0
VERTEX
  5
183
  8
DEFAULT
 10
-2226.837190602917
 20
-1662.154226758803
 30
3.089688073465823
 42
-0.4142134636169113
  0
VERTEX
  5
184
  8
DEFAULT
 10
-2211.837190602917
 20
-1677.154226758803
 30
3.089688073465823
  0
VERTEX
  5
185
  8
DEFAULT
 10
-2211.837190602918
 20
-1757.154008274381
 30
3.089688073465823
 42
-0.41421336486074
  0
VERTEX
  5
186
  8
DEFAULT
 10
-2226.837190602917
 20
-1772.154008274381
 30
3.089688073465823
  0
VERTEX
  5
187
  8
DEFAULT
 10
-2376.84101022801
 20
-1772.15400827438
 30
3.089688073465823
 42
-0.4142131673485133
  0
SEQEND
  5
188
  8
DEFAULT
  0
POLYLINE
  5
189
  8
DEFAULT
 66
     1
 10
0.0
 20
0.0
 30
3.087467312868739
 70
     1
  0
VERTEX
  5
18A
  8
DEFAULT
 10
-2097.346707285297
 20
-1634.91912036885
 30
3.087467312868739
  0
VERTEX
  5
18B
  8
DEFAULT
 10
-2097.346707285297
 20
-1584.91912036885
 30
3.087467312868739
  0
VERTEX
  5
18C
  8
DEFAULT
 10
-2092.546707285297
 20
-1584.91912036885
 30
3.087467312868739
  0
VERTEX
  5
18D
  8
DEFAULT
 10
-2092.546707285297
 20
-1634.91912036885
 30
3.087467312868739
  0
SEQEND
  5
18E
  8
DEFAULT
  0
POLYLINE
  5
18F
  8
DEFAULT
 66
     1
 10
0.0
 20
0.0
 30
3.087467312868739
 70
     1
  0
VERTEX
  5
190
  8
DEFAULT
 10
-2097.346707285297
 20
-1709.919128523917
 30
3.087467312868739
  0
VERTEX
  5
191
  8
DEFAULT
 10
-2097.346707285297
 20
-1659.919128523917
 30
3.087467312868739
  0
VERTEX
  5
192
  8
DEFAULT
 10
-2092.546707285297
 20
-1659.919128523917
 30
3.087467312868739
  0
VERTEX
  5
193
  8
DEFAULT
 10
-2092.546707285297
 20
-1709.919128523917
 30
3.087467312868739
  0
SEQEND
  5
194
  8
DEFAULT
  0
POLYLINE
  5
195
  8
DEFAULT
 66
     1
 10
0.0
 20
0.0
 30
3.087467312868739
 70
     1
  0
VERTEX
  5
196
  8
DEFAULT
 10
-2097.346707285297
 20
-1784.91912036885
 30
3.087467312868739
  0
VERTEX
  5
197
  8
DEFAULT
 10
-2097.346707285297
 20
-1734.91912036885
 30
3.087467312868739
  0
VERTEX
  5
198
  8
DEFAULT
 10
-2092.546707285297
 20
-1734.91912036885
 30
3.087467312868739
  0
VERTEX
  5
199
  8
DEFAULT
 10
-2092.546707285297
 20
-1784.91912036885
 30
3.087467312868739
  0
SEQEND
  5
19A
  8
DEFAULT
  0
POLYLINE
  5
19B
  8
DEFAULT
 66
     1
 10
0.0
 20
0.0
 30
3.087467312868739
 70
     1
  0
VERTEX
  5
19C
  8
DEFAULT
 10
-1882.146707285297
 20
-1634.91912036885
 30
3.087467312868739
  0
VERTEX
  5
19D
  8
DEFAULT
 10
-1882.146707285297
 20
-1584.91912036885
 30
3.087467312868739
  0
VERTEX
  5
19E
  8
DEFAULT
 10
-1877.346707285297
 20
-1584.91912036885
 30
3.087467312868739
  0
VERTEX
  5
19F
  8
DEFAULT
 10
-1877.346707285297
 20
-1634.91912036885
 30
3.087467312868739
  0
SEQEND
  5
1A0
  8
DEFAULT
  0
POLYLINE
  5
1A1
  8
DEFAULT
 66
     1
 10
0.0
 20
0.0
 30
3.087467312868739
 70
     1
  0
VERTEX
  5
1A2
  8
DEFAULT
 10
-1882.146707285297
 20
-1709.919128523917
 30
3.087467312868739
  0
VERTEX
  5
1A3
  8
DEFAULT
 10
-1882.146707285297
 20
-1659.919128523917
 30
3.087467312868739
  0
VERTEX
  5
1A4
  8
DEFAULT
 10
-1877.346707285297
 20
-1659.919128523917
 30
3.087467312868739
  0
VERTEX
  5
1A5
  8
DEFAULT
 10
-1877.346707285297
 20
-1709.919128523917
 30
3.087467312868739
  0
SEQEND
  5
1A6
  8
DEFAULT
  0
POLYLINE
  5
1A7
  8
DEFAULT
 66
     1
 10
0.0
 20
0.0
 30
3.087467312868739
 70
     1
  0
VERTEX
  5
1A8
  8
DEFAULT
 10
-1882.146707285297
 20
-1784.91912036885
 30
3.087467312868739
  0
VERTEX
  5
1A9
  8
DEFAULT
 10
-1882.146707285297
 20
-1734.91912036885
 30
3.087467312868739
  0
VERTEX
  5
1AA
  8
DEFAULT
 10
-1877.346707285297
 20
-1734.91912036885
 30
3.087467312868739
  0
VERTEX
  5
1AB
  8
DEFAULT
 10
-1877.346707285297
 20
-1784.91912036885
 30
3.087467312868739
  0
SEQEND
  5
1AC
  8
DEFAULT
  0
POLYLINE
  5
1AD
  8
DEFAULT
 66
     1
 10
0.0
 20
0.0
 30
3.087467312868739
 70
     1
  0
VERTEX
  5
1AE
  8
DEFAULT
 10
-2031.470170037329
 20
-1644.189769672382
 30
3.087467312868739
  0
VERTEX
  5
1AF
  8
DEFAULT
 10
-2073.896576908522
 20
-1601.763362801189
 30
3.087467312868739
  0
VERTEX
  5
1B0
  8
DEFAULT
 10
-2070.502464358826
 20
-1598.369250251494
 30
3.087467312868739
  0
VERTEX
  5
1B1
  8
DEFAULT
 10
-2028.076057487633
 20
-1640.795657122687
 30
3.087467312868739
  0
SEQEND
  5
1B2
  8
DEFAULT
  0
POLYLINE
  5
1B3
  8
DEFAULT
 66
     1
 10
0.0
 20
0.0
 30
3.087467312868739
 70
     1
  0
VERTEX
  5
1B4
  8
DEFAULT
 10
-1967.83055973054
 20
-1707.829379979171
 30
3.087467312868739
  0
VERTEX
  5
1B5
  8
DEFAULT
 10
-2010.256966601733
 20
-1665.402973107979
 30
3.087467312868739
  0
VERTEX
  5
1B6
  8
DEFAULT
 10
-2006.862854052037
 20
-1662.008860558283
 30
3.087467312868739
  0
VERTEX
  5
1B7
  8
DEFAULT
 10
-1964.436447180844
 20
-1704.435267429476
 30
3.087467312868739
  0
SEQEND
  5
1B8
  8
DEFAULT
  0
POLYLINE
  5
1B9
  8
DEFAULT
 66
     1
 10
0.0
 20
0.0
 30
3.087467312868739
 70
     1
  0
VERTEX
  5
1BA
  8
DEFAULT
 10
-1904.19094942375
 20
-1771.468990285961
 30
3.087467312868739
  0
VERTEX
  5
1BB
  8
DEFAULT
 10
-1946.617356294943
 20
-1729.042583414768
 30
3.087467312868739
  0
VERTEX
  5
1BC
  8
DEFAULT
 10
-1943.223243745248
 20
-1725.648470865072
 30
3.087467312868739
  0
VERTEX
  5
1BD
  8
DEFAULT
 10
-1900.796836874055
 20
-1768.074877736265
 30
3.087467312868739
  0
SEQEND
  5
1BE
  8
DEFAULT
  0
POLYLINE
  5
1BF
  8
DEFAULT
 66
     1
 10
0.0
 20
0.0
 30
3.087467312868739
 70
     1
  0
VERTEX
  5
1C0
  8
DEFAULT
 10
-1885.120300331989
 20
-1799.91912036885
 30
3.087467312868739
  0
VERTEX
  5
1C1
  8
DEFAULT
 10
-1877.346707285297
 20
-1799.91912036885
 30
3.087467312868739
 42
0.4142135623730938
  0
VERTEX
  5
1C2
  8
DEFAULT
 10
-1862.346707285297
 20
-1784.91912036885
 30
3.087467312868739
  0
VERTEX
  5
1C3
  8
DEFAULT
 10
-1862.346707285297
 20
-1584.91911826616
 30
3.087467312868739
 42
0.414213562373102
  0
VERTEX
  5
1C4
  8
DEFAULT
 10
-1877.346707285297
 20
-1569.91911826616
 30
3.087467312868739
  0
VERTEX
  5
1C5
  8
DEFAULT
 10
-1882.146707285297
 20
-1569.91911826616
 30
3.087467312868739
 42
0.4142135623730876
  0
VERTEX
  5
1C6
  8
DEFAULT
 10
-1897.146707285297
 20
-1584.91911826616
 30
3.087467312868739
  0
VERTEX
  5
1C7
  8
DEFAULT
 10
-1897.146707285297
 20
-1713.705916273415
 30
3.087467312868739
 42
-0.6681786396090206
  0
VERTEX
  5
1C8
  8
DEFAULT
 10
-1922.753309052656
 20
-1724.312517941652
 30
3.087467312868739
  0
VERTEX
  5
1C9
  8
DEFAULT
 10
-2068.359910703887
 20
-1578.705914929686
 30
3.087467312868739
 42
0.1989123685940449
  0
VERTEX
  5
1CA
  8
DEFAULT
 10
-2089.573114238605
 20
-1569.91911826616
 30
3.087467312868739
  0
VERTEX
  5
1CB
  8
DEFAULT
 10
-2097.346707285297
 20
-1569.91911826616
 30
3.087467312868739
 42
0.4142135623730951
  0
VERTEX
  5
1CC
  8
DEFAULT
 10
-2112.346707285297
 20
-1584.91911826616
 30
3.087467312868739
  0
VERTEX
  5
1CD
  8
DEFAULT
 10
-2112.346707285297
 20
-1784.91912036885
 30
3.087467312868739
 42
0.4142135623730876
  0
VERTEX
  5
1CE
  8
DEFAULT
 10
-2097.346707285297
 20
-1799.91912036885
 30
3.087467312868739
  0
VERTEX
  5
1CF
  8
DEFAULT
 10
-2092.546707285297
 20
-1799.91912036885
 30
3.087467312868739
 42
0.4142135623730951
  0
VERTEX
  5
1D0
  8
DEFAULT
 10
-2077.546707285297
 20
-1784.91912036885
 30
3.087467312868739
  0
VERTEX
  5
1D1
  8
DEFAULT
 10
-2077.546707285297
 20
-1656.132322361596
 30
3.087467312868739
 42
-0.6681786396089076
  0
VERTEX
  5
1D2
  8
DEFAULT
 10
-2051.940105517938
 20
-1645.525720693358
 30
3.087467312868739
  0
VERTEX
  5
1D3
  8
DEFAULT
 10
-1906.333503866707
 20
-1791.132323705325
 30
3.087467312868739
 42
0.1989123685940351
  0
SEQEND
  5
1D4
  8
DEFAULT
  0
POLYLINE
  5
1D5
  8
DEFAULT
 66
     1
 10
0.0
 20
0.0
 30
1.542802548035694
 70
     1
  0
VERTEX
  5
1D6
  8
DEFAULT
 10
-2446.44520962258
 20
-1828.8
 30
1.542802548035694
  0
VERTEX
  5
1D7
  8
DEFAULT
 10
-1836.845209622581
 20
-1828.8
 30
1.542802548035694
  0
VERTEX
  5
1D8
  8
DEFAULT
 10
-1836.845209622581
 20
-1219.2
 30
1.542802548035694
  0
VERTEX
  5
1D9
  8
DEFAULT
 10
-2446.44520962258
 20
-1219.2
 30
1.542802548035694
  0
SEQEND
  5
1DA
  8
DEFAULT
  0
ENDSEC
  0
EOF
