  0
SECTION
  2
HEADER
  9
$ACADVER
  1
AC1009
  9
$INSBASE
 10
0.0
 20
0.0
 30
0.0
  9
$EXTMIN
 10
0.0
 20
0.0
 30
0.0
  9
$EXTMAX
 10
0.0
 20
0.0
 30
0.0
  0
ENDSEC
  0
SECTION
  2
TABLES
  0
TABLE
  2
VPORT
 70
0
  0
ENDTAB
  0
TABLE
  2
LTYPE
 70
1
  0
LTYPE
  2
CONTINUOUS
 70
0
  3
Solid line
 72
65
 73
0
 40
0.0
  0
ENDTAB
  0
TABLE
  2
LAYER
 70
1
  0
LAYER
  2
0
 70
64
 62
7
  6
continuous
  0
ENDTAB
  0
TABLE
  2
STYLE
 70
1
  0
STYLE
  2
STANDARD
 70
0
 40
0
 41
1.0
 50
0.0
 71
0
 42
1
 3
ARIAL.TTF
 4

  0
ENDTAB
  0
TABLE
  2
VIEW
 70
0
  0
ENDTAB
  0
ENDSEC
  0
SECTION
  2
BLOCKS
  0
BLOCK
  8
0
  2
SHAPESTRING
 70
0
 10
0.0
 20
0.0
 30
0.0
  3
SHAPESTRING
  0
POLYLINE
  8
0
 62
0
 70
1
 66
1
 10
0.0
 20
0.0
 30
0.0
  0
VERTEX
  8
0
 10
22.0000000002
 20
24.0
  0
VERTEX
  8
0
 10
22.0000000002
 20
25.7655172414
  0
VERTEX
  8
0
 10
23.2137931036
 20
25.7655172414
  0
VERTEX
  8
0
 10
23.2137931036
 20
25.5448275862
  0
VERTEX
  8
0
 10
22.2206896553
 20
25.5448275862
  0
VERTEX
  8
0
 10
22.2206896553
 20
25.0482758621
  0
VERTEX
  8
0
 10
23.1586206898
 20
25.0482758621
  0
VERTEX
  8
0
 10
23.1586206898
 20
24.8275862069
  0
VERTEX
  8
0
 10
22.2206896553
 20
24.8275862069
  0
VERTEX
  8
0
 10
22.2206896553
 20
24.2206896552
  0
VERTEX
  8
0
 10
23.2689655174
 20
24.2206896552
  0
VERTEX
  8
0
 10
23.2689655174
 20
24.0
  0
SEQEND
  8
0
  0
POLYLINE
  8
0
 62
0
 70
1
 66
1
 10
0.0
 20
0.0
 30
0.0
  0
VERTEX
  8
0
 10
24.7586206898
 20
24.7224137931
  0
VERTEX
  8
0
 10
24.7327586209
 20
24.4327586207
  0
VERTEX
  8
0
 10
24.6474137933
 20
24.2043103448
  0
VERTEX
  8
0
 10
24.4905172416
 20
24.0543103448
  0
VERTEX
  8
0
 10
24.2508620691
 20
24.0
  0
VERTEX
  8
0
 10
24.1146551726
 20
24.0129310345
  0
VERTEX
  8
0
 10
23.9939655174
 20
24.0543103448
  0
VERTEX
  8
0
 10
23.8948275864
 20
24.1275862069
  0
VERTEX
  8
0
 10
23.8224137933
 20
24.2379310345
  0
VERTEX
  8
0
 10
23.8155172416
 20
24.2379310345
  0
VERTEX
  8
0
 10
23.8172413795
 20
24.2146551724
  0
VERTEX
  8
0
 10
23.8189655174
 20
24.1629310345
  0
VERTEX
  8
0
 10
23.8198275864
 20
24.0931034483
  0
VERTEX
  8
0
 10
23.8206896553
 20
24.0155172414
  0
VERTEX
  8
0
 10
23.8206896553
 20
23.4482758621
  0
VERTEX
  8
0
 10
23.6000000002
 20
23.4482758621
  0
VERTEX
  8
0
 10
23.6000000002
 20
25.1396551724
  0
VERTEX
  8
0
 10
23.5991379312
 20
25.2405172414
  0
VERTEX
  8
0
 10
23.5965517243
 20
25.3284482759
  0
VERTEX
  8
0
 10
23.5939655174
 20
25.3948275862
  0
VERTEX
  8
0
 10
23.5922413795
 20
25.4344827586
  0
VERTEX
  8
0
 10
23.8060344829
 20
25.4344827586
  0
VERTEX
  8
0
 10
23.8086206898
 20
25.4034482759
  0
VERTEX
  8
0
 10
23.8129310347
 20
25.3387931034
  0
VERTEX
  8
0
 10
23.8163793105
 20
25.2568965517
  0
VERTEX
  8
0
 10
23.8181034484
 20
25.175862069
  0
VERTEX
  8
0
 10
23.8232758622
 20
25.175862069
  0
VERTEX
  8
0
 10
23.8965517243
 20
25.2922413793
  0
VERTEX
  8
0
 10
23.9887931036
 20
25.3732758621
  0
VERTEX
  8
0
 10
24.105172414
 20
25.4198275862
  0
VERTEX
  8
0
 10
24.2508620691
 20
25.4344827586
  0
VERTEX
  8
0
 10
24.4905172416
 20
25.3836206897
  0
VERTEX
  8
0
 10
24.6474137933
 20
25.2387931034
  0
VERTEX
  8
0
 10
24.7327586209
 20
25.0129310345
  0
SEQEND
  8
0
  0
POLYLINE
  8
0
 62
0
 70
1
 66
1
 10
0.0
 20
0.0
 30
0.0
  0
VERTEX
  8
0
 10
24.5379310347
 20
24.7267241379
  0
VERTEX
  8
0
 10
24.5215517243
 20
24.9568965517
  0
VERTEX
  8
0
 10
24.4663793105
 20
25.1267241379
  0
VERTEX
  8
0
 10
24.3629310347
 20
25.2327586207
  0
VERTEX
  8
0
 10
24.2008620691
 20
25.2689655172
  0
VERTEX
  8
0
 10
24.0525862071
 20
25.2448275862
  0
VERTEX
  8
0
 10
23.9318965519
 20
25.1577586207
  0
VERTEX
  8
0
 10
23.8508620691
 20
24.9836206897
  0
VERTEX
  8
0
 10
23.8206896553
 20
24.6974137931
  0
VERTEX
  8
0
 10
23.8448275864
 20
24.4474137931
  0
VERTEX
  8
0
 10
23.9181034484
 20
24.2827586207
  0
VERTEX
  8
0
 10
24.0362068967
 20
24.1922413793
  0
VERTEX
  8
0
 10
24.1982758622
 20
24.1655172414
  0
VERTEX
  8
0
 10
24.3603448278
 20
24.2025862069
  0
VERTEX
  8
0
 10
24.4646551726
 20
24.3103448276
  0
VERTEX
  8
0
 10
24.5206896553
 20
24.4862068966
  0
SEQEND
  8
0
  0
POLYLINE
  8
0
 62
0
 70
1
 66
1
 10
0.0
 20
0.0
 30
0.0
  0
VERTEX
  8
0
 10
25.9172413795
 20
24.1655172414
  0
VERTEX
  8
0
 10
26.4137931036
 20
24.1655172414
  0
VERTEX
  8
0
 10
26.4137931036
 20
24.0
  0
VERTEX
  8
0
 10
25.1448275864
 20
24.0
  0
VERTEX
  8
0
 10
25.1448275864
 20
24.1655172414
  0
VERTEX
  8
0
 10
25.6965517243
 20
24.1655172414
  0
VERTEX
  8
0
 10
25.6965517243
 20
25.2689655172
  0
VERTEX
  8
0
 10
25.255172414
 20
25.2689655172
  0
VERTEX
  8
0
 10
25.255172414
 20
25.4344827586
  0
VERTEX
  8
0
 10
25.9172413795
 20
25.4344827586
  0
SEQEND
  8
0
  0
POLYLINE
  8
0
 62
0
 70
1
 66
1
 10
0.0
 20
0.0
 30
0.0
  0
VERTEX
  8
0
 10
25.6413793105
 20
25.6551724138
  0
VERTEX
  8
0
 10
25.6413793105
 20
25.9310344828
  0
VERTEX
  8
0
 10
25.9172413795
 20
25.9310344828
  0
VERTEX
  8
0
 10
25.9172413795
 20
25.6551724138
  0
SEQEND
  8
0
  0
POLYLINE
  8
0
 62
0
 70
1
 66
1
 10
0.0
 20
0.0
 30
0.0
  0
VERTEX
  8
0
 10
26.7448275864
 20
24.7181034483
  0
VERTEX
  8
0
 10
26.8000000002
 20
25.0646551724
  0
VERTEX
  8
0
 10
26.9448275864
 20
25.2844827586
  0
VERTEX
  8
0
 10
27.1500000002
 20
25.4
  0
VERTEX
  8
0
 10
27.3879310347
 20
25.4344827586
  0
VERTEX
  8
0
 10
27.6112068967
 20
25.4017241379
  0
VERTEX
  8
0
 10
27.7810344829
 20
25.3120689655
  0
VERTEX
  8
0
 10
27.8974137933
 20
25.1775862069
  0
VERTEX
  8
0
 10
27.9586206898
 20
25.0112068966
  0
VERTEX
  8
0
 10
27.7379310347
 20
24.9931034483
  0
VERTEX
  8
0
 10
27.628448276
 20
25.1948275862
  0
VERTEX
  8
0
 10
27.3810344829
 20
25.2689655172
  0
VERTEX
  8
0
 10
27.1836206898
 20
25.2327586207
  0
VERTEX
  8
0
 10
27.0560344829
 20
25.1275862069
  0
VERTEX
  8
0
 10
26.9862068967
 20
24.9577586207
  0
VERTEX
  8
0
 10
26.9655172416
 20
24.725
  0
VERTEX
  8
0
 10
26.9862068967
 20
24.4896551724
  0
VERTEX
  8
0
 10
27.055172414
 20
24.3129310345
  0
VERTEX
  8
0
 10
27.1827586209
 20
24.2034482759
  0
VERTEX
  8
0
 10
27.3767241381
 20
24.1655172414
  0
VERTEX
  8
0
 10
27.6189655174
 20
24.2336206897
  0
VERTEX
  8
0
 10
27.7379310347
 20
24.4413793103
  0
VERTEX
  8
0
 10
27.9586206898
 20
24.4267241379
  0
VERTEX
  8
0
 10
27.903448276
 20
24.2655172414
  0
VERTEX
  8
0
 10
27.7870689657
 20
24.1293103448
  0
VERTEX
  8
0
 10
27.6137931036
 20
24.0353448276
  0
VERTEX
  8
0
 10
27.3853448278
 20
24.0
  0
VERTEX
  8
0
 10
27.0870689657
 20
24.0551724138
  0
VERTEX
  8
0
 10
26.8896551726
 20
24.2060344828
  0
VERTEX
  8
0
 10
26.779310345
 20
24.4336206897
  0
SEQEND
  8
0
  0
POLYLINE
  8
0
 62
0
 70
1
 66
1
 10
0.0
 20
0.0
 30
0.0
  0
VERTEX
  8
0
 10
31.2137931036
 20
25.2318965517
  0
VERTEX
  8
0
 10
31.1750000002
 20
25.0181034483
  0
VERTEX
  8
0
 10
31.0586206898
 20
24.8362068966
  0
VERTEX
  8
0
 10
30.8620689657
 20
24.7094827586
  0
VERTEX
  8
0
 10
30.5853448278
 20
24.6620689655
  0
VERTEX
  8
0
 10
30.2206896553
 20
24.6620689655
  0
VERTEX
  8
0
 10
30.2206896553
 20
24.0
  0
VERTEX
  8
0
 10
30.0000000002
 20
24.0
  0
VERTEX
  8
0
 10
30.0000000002
 20
25.7655172414
  0
VERTEX
  8
0
 10
30.5836206898
 20
25.7655172414
  0
VERTEX
  8
0
 10
30.8594827588
 20
25.7267241379
  0
VERTEX
  8
0
 10
31.0560344829
 20
25.6189655172
  0
VERTEX
  8
0
 10
31.1741379312
 20
25.45
  0
SEQEND
  8
0
  0
POLYLINE
  8
0
 62
0
 70
1
 66
1
 10
0.0
 20
0.0
 30
0.0
  0
VERTEX
  8
0
 10
30.9931034484
 20
25.2284482759
  0
VERTEX
  8
0
 10
30.8827586209
 20
25.4637931034
  0
VERTEX
  8
0
 10
30.5517241381
 20
25.5448275862
  0
VERTEX
  8
0
 10
30.2206896553
 20
25.5448275862
  0
VERTEX
  8
0
 10
30.2206896553
 20
24.8827586207
  0
VERTEX
  8
0
 10
30.5620689657
 20
24.8827586207
  0
VERTEX
  8
0
 10
30.753448276
 20
24.9094827586
  0
VERTEX
  8
0
 10
30.8887931036
 20
24.9818965517
  0
VERTEX
  8
0
 10
30.9672413795
 20
25.0922413793
  0
SEQEND
  8
0
  0
POLYLINE
  8
0
 62
0
 70
1
 66
1
 10
0.0
 20
0.0
 30
0.0
  0
VERTEX
  8
0
 10
32.7586206898
 20
24.7181034483
  0
VERTEX
  8
0
 10
32.7163793105
 20
24.4017241379
  0
VERTEX
  8
0
 10
32.5948275864
 20
24.1775862069
  0
VERTEX
  8
0
 10
32.4025862071
 20
24.0439655172
  0
VERTEX
  8
0
 10
32.1456896553
 20
24.0
  0
VERTEX
  8
0
 10
31.8982758622
 20
24.0431034483
  0
VERTEX
  8
0
 10
31.7086206898
 20
24.175862069
  0
VERTEX
  8
0
 10
31.5870689657
 20
24.4
  0
VERTEX
  8
0
 10
31.5448275864
 20
24.7181034483
  0
VERTEX
  8
0
 10
31.703448276
 20
25.2543103448
  0
VERTEX
  8
0
 10
32.153448276
 20
25.4344827586
  0
VERTEX
  8
0
 10
32.6086206898
 20
25.2568965517
  0
SEQEND
  8
0
  0
POLYLINE
  8
0
 62
0
 70
1
 66
1
 10
0.0
 20
0.0
 30
0.0
  0
VERTEX
  8
0
 10
32.5379310347
 20
24.7181034483
  0
VERTEX
  8
0
 10
32.5094827588
 20
24.9862068966
  0
VERTEX
  8
0
 10
32.4310344829
 20
25.1551724138
  0
VERTEX
  8
0
 10
32.3103448278
 20
25.2439655172
  0
VERTEX
  8
0
 10
32.1577586209
 20
25.2689655172
  0
VERTEX
  8
0
 10
32.0000000002
 20
25.2422413793
  0
VERTEX
  8
0
 10
31.8758620691
 20
25.1525862069
  0
VERTEX
  8
0
 10
31.7948275864
 20
24.9827586207
  0
VERTEX
  8
0
 10
31.7655172416
 20
24.7181034483
  0
VERTEX
  8
0
 10
31.7956896553
 20
24.449137931
  0
VERTEX
  8
0
 10
31.878448276
 20
24.2801724138
  0
VERTEX
  8
0
 10
31.9991379312
 20
24.1913793103
  0
VERTEX
  8
0
 10
32.1431034484
 20
24.1655172414
  0
VERTEX
  8
0
 10
32.3008620691
 20
24.1905172414
  0
VERTEX
  8
0
 10
32.4267241381
 20
24.2784482759
  0
VERTEX
  8
0
 10
32.5086206898
 20
24.449137931
  0
SEQEND
  8
0
  0
POLYLINE
  8
0
 62
0
 70
1
 66
1
 10
0.0
 20
0.0
 30
0.0
  0
VERTEX
  8
0
 10
34.3258620691
 20
24.0
  0
VERTEX
  8
0
 10
34.0594827588
 20
24.0
  0
VERTEX
  8
0
 10
33.878448276
 20
24.6301724138
  0
VERTEX
  8
0
 10
33.855172414
 20
24.7120689655
  0
VERTEX
  8
0
 10
33.8310344829
 20
24.8017241379
  0
VERTEX
  8
0
 10
33.8060344829
 20
24.900862069
  0
VERTEX
  8
0
 10
33.780172414
 20
24.8034482759
  0
VERTEX
  8
0
 10
33.754310345
 20
24.7137931034
  0
VERTEX
  8
0
 10
33.728448276
 20
24.625
  0
VERTEX
  8
0
 10
33.5344827588
 20
24.0
  0
VERTEX
  8
0
 10
33.2844827588
 20
24.0
  0
VERTEX
  8
0
 10
33.0344827588
 20
25.4344827586
  0
VERTEX
  8
0
 10
33.2560344829
 20
25.4344827586
  0
VERTEX
  8
0
 10
33.3844827588
 20
24.6267241379
  0
VERTEX
  8
0
 10
33.3965517243
 20
24.5379310345
  0
VERTEX
  8
0
 10
33.4112068967
 20
24.4181034483
  0
VERTEX
  8
0
 10
33.4241379312
 20
24.2931034483
  0
VERTEX
  8
0
 10
33.430172414
 20
24.1931034483
  0
VERTEX
  8
0
 10
33.4586206898
 20
24.3086206897
  0
VERTEX
  8
0
 10
33.4836206898
 20
24.4043103448
  0
VERTEX
  8
0
 10
33.5060344829
 20
24.4801724138
  0
VERTEX
  8
0
 10
33.6827586209
 20
25.0482758621
  0
VERTEX
  8
0
 10
33.9396551726
 20
25.0482758621
  0
VERTEX
  8
0
 10
34.103448276
 20
24.4784482759
  0
VERTEX
  8
0
 10
34.1232758622
 20
24.4043103448
  0
VERTEX
  8
0
 10
34.1465517243
 20
24.3094827586
  0
VERTEX
  8
0
 10
34.1732758622
 20
24.1931034483
  0
VERTEX
  8
0
 10
34.178448276
 20
24.2922413793
  0
VERTEX
  8
0
 10
34.1913793105
 20
24.4155172414
  0
VERTEX
  8
0
 10
34.2077586209
 20
24.5362068966
  0
VERTEX
  8
0
 10
34.2206896553
 20
24.6267241379
  0
VERTEX
  8
0
 10
34.3560344829
 20
25.4344827586
  0
VERTEX
  8
0
 10
34.579310345
 20
25.4344827586
  0
SEQEND
  8
0
  0
POLYLINE
  8
0
 62
0
 70
1
 66
1
 10
0.0
 20
0.0
 30
0.0
  0
VERTEX
  8
0
 10
34.9655172416
 20
24.6620689655
  0
VERTEX
  8
0
 10
34.9905172416
 20
24.4620689655
  0
VERTEX
  8
0
 10
35.0655172416
 20
24.3043103448
  0
VERTEX
  8
0
 10
35.1905172416
 20
24.2017241379
  0
VERTEX
  8
0
 10
35.3629310347
 20
24.1655172414
  0
VERTEX
  8
0
 10
35.4965517243
 20
24.1818965517
  0
VERTEX
  8
0
 10
35.6068965519
 20
24.2275862069
  0
VERTEX
  8
0
 10
35.6887931036
 20
24.2974137931
  0
VERTEX
  8
0
 10
35.7379310347
 20
24.3862068966
  0
VERTEX
  8
0
 10
35.9586206898
 20
24.3284482759
  0
VERTEX
  8
0
 10
35.8956896553
 20
24.2120689655
  0
VERTEX
  8
0
 10
35.7853448278
 20
24.1068965517
  0
VERTEX
  8
0
 10
35.6172413795
 20
24.0301724138
  0
VERTEX
  8
0
 10
35.3827586209
 20
24.0
  0
VERTEX
  8
0
 10
35.1146551726
 20
24.0456896552
  0
VERTEX
  8
0
 10
34.9137931036
 20
24.1827586207
  0
VERTEX
  8
0
 10
34.7879310347
 20
24.4094827586
  0
VERTEX
  8
0
 10
34.7448275864
 20
24.725862069
  0
VERTEX
  8
0
 10
34.7965517243
 20
25.0612068966
  0
VERTEX
  8
0
 10
34.9370689657
 20
25.2793103448
  0
VERTEX
  8
0
 10
35.1413793105
 20
25.3982758621
  0
VERTEX
  8
0
 10
35.3836206898
 20
25.4344827586
  0
VERTEX
  8
0
 10
35.6758620691
 20
25.3801724138
  0
VERTEX
  8
0
 10
35.8706896553
 20
25.2284482759
  0
VERTEX
  8
0
 10
35.980172414
 20
24.9939655172
  0
VERTEX
  8
0
 10
36.0137931036
 20
24.6931034483
  0
VERTEX
  8
0
 10
36.0137931036
 20
24.6620689655
  0
SEQEND
  8
0
  0
POLYLINE
  8
0
 62
0
 70
1
 66
1
 10
0.0
 20
0.0
 30
0.0
  0
VERTEX
  8
0
 10
35.3844827588
 20
25.2689655172
  0
VERTEX
  8
0
 10
35.2482758622
 20
25.249137931
  0
VERTEX
  8
0
 10
35.1163793105
 20
25.1801724138
  0
VERTEX
  8
0
 10
35.0137931036
 20
25.0448275862
  0
VERTEX
  8
0
 10
34.9681034484
 20
24.8275862069
  0
VERTEX
  8
0
 10
35.7931034484
 20
24.8275862069
  0
VERTEX
  8
0
 10
35.7448275864
 20
25.0387931034
  0
VERTEX
  8
0
 10
35.653448276
 20
25.174137931
  0
VERTEX
  8
0
 10
35.530172414
 20
25.2474137931
  0
SEQEND
  8
0
  0
POLYLINE
  8
0
 62
0
 70
1
 66
1
 10
0.0
 20
0.0
 30
0.0
  0
VERTEX
  8
0
 10
37.5586206898
 20
25.1887931034
  0
VERTEX
  8
0
 10
37.4250000002
 20
25.2060344828
  0
VERTEX
  8
0
 10
37.2715517243
 20
25.2137931034
  0
VERTEX
  8
0
 10
37.0672413795
 20
25.1698275862
  0
VERTEX
  8
0
 10
36.9146551726
 20
25.05
  0
VERTEX
  8
0
 10
36.8189655174
 20
24.8732758621
  0
VERTEX
  8
0
 10
36.7862068967
 20
24.6577586207
  0
VERTEX
  8
0
 10
36.7862068967
 20
24.0
  0
VERTEX
  8
0
 10
36.5655172416
 20
24.0
  0
VERTEX
  8
0
 10
36.5655172416
 20
24.9293103448
  0
VERTEX
  8
0
 10
36.5586206898
 20
25.0801724138
  0
VERTEX
  8
0
 10
36.5439655174
 20
25.225862069
  0
VERTEX
  8
0
 10
36.5258620691
 20
25.3482758621
  0
VERTEX
  8
0
 10
36.5103448278
 20
25.4344827586
  0
VERTEX
  8
0
 10
36.7129310347
 20
25.4344827586
  0
VERTEX
  8
0
 10
36.730172414
 20
25.3577586207
  0
VERTEX
  8
0
 10
36.7474137933
 20
25.2672413793
  0
VERTEX
  8
0
 10
36.7612068967
 20
25.1732758621
  0
VERTEX
  8
0
 10
36.7698275864
 20
25.0853448276
  0
VERTEX
  8
0
 10
36.7767241381
 20
25.0853448276
  0
VERTEX
  8
0
 10
36.8560344829
 20
25.2301724138
  0
VERTEX
  8
0
 10
36.955172414
 20
25.3396551724
  0
VERTEX
  8
0
 10
37.0913793105
 20
25.4094827586
  0
VERTEX
  8
0
 10
37.280172414
 20
25.4344827586
  0
VERTEX
  8
0
 10
37.428448276
 20
25.4275862069
  0
VERTEX
  8
0
 10
37.5586206898
 20
25.4120689655
  0
SEQEND
  8
0
  0
POLYLINE
  8
0
 62
0
 70
1
 66
1
 10
0.0
 20
0.0
 30
0.0
  0
VERTEX
  8
0
 10
39.1586206898
 20
24.4215517241
  0
VERTEX
  8
0
 10
39.1198275864
 20
24.2456896552
  0
VERTEX
  8
0
 10
39.0094827588
 20
24.1129310345
  0
VERTEX
  8
0
 10
38.8310344829
 20
24.0293103448
  0
VERTEX
  8
0
 10
38.5887931036
 20
24.0
  0
VERTEX
  8
0
 10
38.3689655174
 20
24.0172413793
  0
VERTEX
  8
0
 10
38.1974137933
 20
24.074137931
  0
VERTEX
  8
0
 10
38.0732758622
 20
24.1810344828
  0
VERTEX
  8
0
 10
38.0000000002
 20
24.3465517241
  0
VERTEX
  8
0
 10
38.2206896553
 20
24.3862068966
  0
VERTEX
  8
0
 10
38.2698275864
 20
24.2689655172
  0
VERTEX
  8
0
 10
38.3508620691
 20
24.2025862069
  0
VERTEX
  8
0
 10
38.4603448278
 20
24.1724137931
  0
VERTEX
  8
0
 10
38.5948275864
 20
24.1655172414
  0
VERTEX
  8
0
 10
38.7318965519
 20
24.1767241379
  0
VERTEX
  8
0
 10
38.8405172416
 20
24.2146551724
  0
VERTEX
  8
0
 10
38.9120689657
 20
24.2844827586
  0
VERTEX
  8
0
 10
38.9379310347
 20
24.3913793103
  0
VERTEX
  8
0
 10
38.904310345
 20
24.4939655172
  0
VERTEX
  8
0
 10
38.8146551726
 20
24.5603448276
  0
VERTEX
  8
0
 10
38.679310345
 20
24.6060344828
  0
VERTEX
  8
0
 10
38.5086206898
 20
24.65
  0
VERTEX
  8
0
 10
38.3439655174
 20
24.6974137931
  0
VERTEX
  8
0
 10
38.1982758622
 20
24.7646551724
  0
VERTEX
  8
0
 10
38.0948275864
 20
24.8706896552
  0
VERTEX
  8
0
 10
38.055172414
 20
25.0336206897
  0
VERTEX
  8
0
 10
38.1896551726
 20
25.3275862069
  0
VERTEX
  8
0
 10
38.580172414
 20
25.4344827586
  0
VERTEX
  8
0
 10
38.7681034484
 20
25.4146551724
  0
VERTEX
  8
0
 10
38.9241379312
 20
25.350862069
  0
VERTEX
  8
0
 10
39.0387931036
 20
25.2387931034
  0
VERTEX
  8
0
 10
39.103448276
 20
25.075862069
  0
VERTEX
  8
0
 10
38.8827586209
 20
25.0482758621
  0
VERTEX
  8
0
 10
38.8456896553
 20
25.1586206897
  0
VERTEX
  8
0
 10
38.7767241381
 20
25.225862069
  0
VERTEX
  8
0
 10
38.6836206898
 20
25.2594827586
  0
VERTEX
  8
0
 10
38.5758620691
 20
25.2689655172
  0
VERTEX
  8
0
 10
38.2758620691
 20
25.0689655172
  0
VERTEX
  8
0
 10
38.303448276
 20
24.9732758621
  0
VERTEX
  8
0
 10
38.3818965519
 20
24.9120689655
  0
VERTEX
  8
0
 10
38.5025862071
 20
24.8706896552
  0
VERTEX
  8
0
 10
38.6560344829
 20
24.8318965517
  0
VERTEX
  8
0
 10
38.829310345
 20
24.7844827586
  0
VERTEX
  8
0
 10
38.9905172416
 20
24.7129310345
  0
VERTEX
  8
0
 10
39.1112068967
 20
24.5982758621
  0
SEQEND
  8
0
  0
POLYLINE
  8
0
 62
0
 70
1
 66
1
 10
0.0
 20
0.0
 30
0.0
  0
VERTEX
  8
0
 10
39.8206896553
 20
25.4344827586
  0
VERTEX
  8
0
 10
39.8206896553
 20
24.5301724138
  0
VERTEX
  8
0
 10
39.8353448278
 20
24.3568965517
  0
VERTEX
  8
0
 10
39.8853448278
 20
24.2439655172
  0
VERTEX
  8
0
 10
39.9767241381
 20
24.1827586207
  0
VERTEX
  8
0
 10
40.1155172416
 20
24.1655172414
  0
VERTEX
  8
0
 10
40.2672413795
 20
24.1948275862
  0
VERTEX
  8
0
 10
40.3827586209
 20
24.2810344828
  0
VERTEX
  8
0
 10
40.4568965519
 20
24.4189655172
  0
VERTEX
  8
0
 10
40.4827586209
 20
24.6086206897
  0
VERTEX
  8
0
 10
40.4827586209
 20
25.4344827586
  0
VERTEX
  8
0
 10
40.703448276
 20
25.4344827586
  0
VERTEX
  8
0
 10
40.703448276
 20
24.3060344828
  0
VERTEX
  8
0
 10
40.703448276
 20
24.2112068966
  0
VERTEX
  8
0
 10
40.705172414
 20
24.1172413793
  0
VERTEX
  8
0
 10
40.7077586209
 20
24.0413793103
  0
VERTEX
  8
0
 10
40.7112068967
 20
24.0
  0
VERTEX
  8
0
 10
40.504310345
 20
24.0
  0
VERTEX
  8
0
 10
40.5017241381
 20
24.0387931034
  0
VERTEX
  8
0
 10
40.4991379312
 20
24.1112068966
  0
VERTEX
  8
0
 10
40.4956896553
 20
24.1939655172
  0
VERTEX
  8
0
 10
40.4948275864
 20
24.2655172414
  0
VERTEX
  8
0
 10
40.4913793105
 20
24.2655172414
  0
VERTEX
  8
0
 10
40.4172413795
 20
24.1551724138
  0
VERTEX
  8
0
 10
40.3241379312
 20
24.0715517241
  0
VERTEX
  8
0
 10
40.2025862071
 20
24.0189655172
  0
VERTEX
  8
0
 10
40.0439655174
 20
24.0
  0
VERTEX
  8
0
 10
39.8431034484
 20
24.0284482759
  0
VERTEX
  8
0
 10
39.705172414
 20
24.1163793103
  0
VERTEX
  8
0
 10
39.6250000002
 20
24.2706896552
  0
VERTEX
  8
0
 10
39.6000000002
 20
24.4956896552
  0
VERTEX
  8
0
 10
39.6000000002
 20
25.4344827586
  0
SEQEND
  8
0
  0
POLYLINE
  8
0
 62
0
 70
1
 66
1
 10
0.0
 20
0.0
 30
0.0
  0
VERTEX
  8
0
 10
42.3586206898
 20
24.7224137931
  0
VERTEX
  8
0
 10
42.3327586209
 20
24.4327586207
  0
VERTEX
  8
0
 10
42.2474137933
 20
24.2043103448
  0
VERTEX
  8
0
 10
42.0905172416
 20
24.0543103448
  0
VERTEX
  8
0
 10
41.8508620691
 20
24.0
  0
VERTEX
  8
0
 10
41.7146551726
 20
24.0129310345
  0
VERTEX
  8
0
 10
41.5939655174
 20
24.0543103448
  0
VERTEX
  8
0
 10
41.4948275864
 20
24.1275862069
  0
VERTEX
  8
0
 10
41.4224137933
 20
24.2379310345
  0
VERTEX
  8
0
 10
41.4155172416
 20
24.2379310345
  0
VERTEX
  8
0
 10
41.4172413795
 20
24.2146551724
  0
VERTEX
  8
0
 10
41.4189655174
 20
24.1629310345
  0
VERTEX
  8
0
 10
41.4198275864
 20
24.0931034483
  0
VERTEX
  8
0
 10
41.4206896553
 20
24.0155172414
  0
VERTEX
  8
0
 10
41.4206896553
 20
23.4482758621
  0
VERTEX
  8
0
 10
41.2000000002
 20
23.4482758621
  0
VERTEX
  8
0
 10
41.2000000002
 20
25.1396551724
  0
VERTEX
  8
0
 10
41.1991379312
 20
25.2405172414
  0
VERTEX
  8
0
 10
41.1965517243
 20
25.3284482759
  0
VERTEX
  8
0
 10
41.1939655174
 20
25.3948275862
  0
VERTEX
  8
0
 10
41.1922413795
 20
25.4344827586
  0
VERTEX
  8
0
 10
41.4060344829
 20
25.4344827586
  0
VERTEX
  8
0
 10
41.4086206898
 20
25.4034482759
  0
VERTEX
  8
0
 10
41.4129310347
 20
25.3387931034
  0
VERTEX
  8
0
 10
41.4163793105
 20
25.2568965517
  0
VERTEX
  8
0
 10
41.4181034484
 20
25.175862069
  0
VERTEX
  8
0
 10
41.4232758622
 20
25.175862069
  0
VERTEX
  8
0
 10
41.4965517243
 20
25.2922413793
  0
VERTEX
  8
0
 10
41.5887931036
 20
25.3732758621
  0
VERTEX
  8
0
 10
41.705172414
 20
25.4198275862
  0
VERTEX
  8
0
 10
41.8508620691
 20
25.4344827586
  0
VERTEX
  8
0
 10
42.0905172416
 20
25.3836206897
  0
VERTEX
  8
0
 10
42.2474137933
 20
25.2387931034
  0
VERTEX
  8
0
 10
42.3327586209
 20
25.0129310345
  0
SEQEND
  8
0
  0
POLYLINE
  8
0
 62
0
 70
1
 66
1
 10
0.0
 20
0.0
 30
0.0
  0
VERTEX
  8
0
 10
42.1379310347
 20
24.7267241379
  0
VERTEX
  8
0
 10
42.1215517243
 20
24.9568965517
  0
VERTEX
  8
0
 10
42.0663793105
 20
25.1267241379
  0
VERTEX
  8
0
 10
41.9629310347
 20
25.2327586207
  0
VERTEX
  8
0
 10
41.8008620691
 20
25.2689655172
  0
VERTEX
  8
0
 10
41.6525862071
 20
25.2448275862
  0
VERTEX
  8
0
 10
41.5318965519
 20
25.1577586207
  0
VERTEX
  8
0
 10
41.4508620691
 20
24.9836206897
  0
VERTEX
  8
0
 10
41.4206896553
 20
24.6974137931
  0
VERTEX
  8
0
 10
41.4448275864
 20
24.4474137931
  0
VERTEX
  8
0
 10
41.5181034484
 20
24.2827586207
  0
VERTEX
  8
0
 10
41.6362068967
 20
24.1922413793
  0
VERTEX
  8
0
 10
41.7982758622
 20
24.1655172414
  0
VERTEX
  8
0
 10
41.9603448278
 20
24.2025862069
  0
VERTEX
  8
0
 10
42.0646551726
 20
24.3103448276
  0
VERTEX
  8
0
 10
42.1206896553
 20
24.4862068966
  0
SEQEND
  8
0
  0
POLYLINE
  8
0
 62
0
 70
1
 66
1
 10
0.0
 20
0.0
 30
0.0
  0
VERTEX
  8
0
 10
43.9586206898
 20
24.7224137931
  0
VERTEX
  8
0
 10
43.9327586209
 20
24.4327586207
  0
VERTEX
  8
0
 10
43.8474137933
 20
24.2043103448
  0
VERTEX
  8
0
 10
43.6905172416
 20
24.0543103448
  0
VERTEX
  8
0
 10
43.4508620691
 20
24.0
  0
VERTEX
  8
0
 10
43.3146551726
 20
24.0129310345
  0
VERTEX
  8
0
 10
43.1939655174
 20
24.0543103448
  0
VERTEX
  8
0
 10
43.0948275864
 20
24.1275862069
  0
VERTEX
  8
0
 10
43.0224137933
 20
24.2379310345
  0
VERTEX
  8
0
 10
43.0155172416
 20
24.2379310345
  0
VERTEX
  8
0
 10
43.0172413795
 20
24.2146551724
  0
VERTEX
  8
0
 10
43.0189655174
 20
24.1629310345
  0
VERTEX
  8
0
 10
43.0198275864
 20
24.0931034483
  0
VERTEX
  8
0
 10
43.0206896553
 20
24.0155172414
  0
VERTEX
  8
0
 10
43.0206896553
 20
23.4482758621
  0
VERTEX
  8
0
 10
42.8000000002
 20
23.4482758621
  0
VERTEX
  8
0
 10
42.8000000002
 20
25.1396551724
  0
VERTEX
  8
0
 10
42.7991379312
 20
25.2405172414
  0
VERTEX
  8
0
 10
42.7965517243
 20
25.3284482759
  0
VERTEX
  8
0
 10
42.7939655174
 20
25.3948275862
  0
VERTEX
  8
0
 10
42.7922413795
 20
25.4344827586
  0
VERTEX
  8
0
 10
43.0060344829
 20
25.4344827586
  0
VERTEX
  8
0
 10
43.0086206898
 20
25.4034482759
  0
VERTEX
  8
0
 10
43.0129310347
 20
25.3387931034
  0
VERTEX
  8
0
 10
43.0163793105
 20
25.2568965517
  0
VERTEX
  8
0
 10
43.0181034484
 20
25.175862069
  0
VERTEX
  8
0
 10
43.0232758622
 20
25.175862069
  0
VERTEX
  8
0
 10
43.0965517243
 20
25.2922413793
  0
VERTEX
  8
0
 10
43.1887931036
 20
25.3732758621
  0
VERTEX
  8
0
 10
43.305172414
 20
25.4198275862
  0
VERTEX
  8
0
 10
43.4508620691
 20
25.4344827586
  0
VERTEX
  8
0
 10
43.6905172416
 20
25.3836206897
  0
VERTEX
  8
0
 10
43.8474137933
 20
25.2387931034
  0
VERTEX
  8
0
 10
43.9327586209
 20
25.0129310345
  0
SEQEND
  8
0
  0
POLYLINE
  8
0
 62
0
 70
1
 66
1
 10
0.0
 20
0.0
 30
0.0
  0
VERTEX
  8
0
 10
43.7379310347
 20
24.7267241379
  0
VERTEX
  8
0
 10
43.7215517243
 20
24.9568965517
  0
VERTEX
  8
0
 10
43.6663793105
 20
25.1267241379
  0
VERTEX
  8
0
 10
43.5629310347
 20
25.2327586207
  0
VERTEX
  8
0
 10
43.4008620691
 20
25.2689655172
  0
VERTEX
  8
0
 10
43.2525862071
 20
25.2448275862
  0
VERTEX
  8
0
 10
43.1318965519
 20
25.1577586207
  0
VERTEX
  8
0
 10
43.0508620691
 20
24.9836206897
  0
VERTEX
  8
0
 10
43.0206896553
 20
24.6974137931
  0
VERTEX
  8
0
 10
43.0448275864
 20
24.4474137931
  0
VERTEX
  8
0
 10
43.1181034484
 20
24.2827586207
  0
VERTEX
  8
0
 10
43.2362068967
 20
24.1922413793
  0
VERTEX
  8
0
 10
43.3982758622
 20
24.1655172414
  0
VERTEX
  8
0
 10
43.5603448278
 20
24.2025862069
  0
VERTEX
  8
0
 10
43.6646551726
 20
24.3103448276
  0
VERTEX
  8
0
 10
43.7206896553
 20
24.4862068966
  0
SEQEND
  8
0
  0
POLYLINE
  8
0
 62
0
 70
1
 66
1
 10
0.0
 20
0.0
 30
0.0
  0
VERTEX
  8
0
 10
45.1172413795
 20
24.1655172414
  0
VERTEX
  8
0
 10
45.6137931036
 20
24.1655172414
  0
VERTEX
  8
0
 10
45.6137931036
 20
24.0
  0
VERTEX
  8
0
 10
44.3448275864
 20
24.0
  0
VERTEX
  8
0
 10
44.3448275864
 20
24.1655172414
  0
VERTEX
  8
0
 10
44.8965517243
 20
24.1655172414
  0
VERTEX
  8
0
 10
44.8965517243
 20
25.7655172414
  0
VERTEX
  8
0
 10
44.5103448278
 20
25.7655172414
  0
VERTEX
  8
0
 10
44.5103448278
 20
25.9310344828
  0
VERTEX
  8
0
 10
45.1172413795
 20
25.9310344828
  0
SEQEND
  8
0
  0
POLYLINE
  8
0
 62
0
 70
1
 66
1
 10
0.0
 20
0.0
 30
0.0
  0
VERTEX
  8
0
 10
46.6939655174
 20
24.0086206897
  0
VERTEX
  8
0
 10
46.5948275864
 20
23.775862069
  0
VERTEX
  8
0
 10
46.479310345
 20
23.599137931
  0
VERTEX
  8
0
 10
46.3387931036
 20
23.4870689655
  0
VERTEX
  8
0
 10
46.1603448278
 20
23.4482758621
  0
VERTEX
  8
0
 10
46.078448276
 20
23.450862069
  0
VERTEX
  8
0
 10
46.0000000002
 20
23.4612068966
  0
VERTEX
  8
0
 10
46.0000000002
 20
23.6215517241
  0
VERTEX
  8
0
 10
46.055172414
 20
23.6163793103
  0
VERTEX
  8
0
 10
46.1086206898
 20
23.6137931034
  0
VERTEX
  8
0
 10
46.3000000002
 20
23.6913793103
  0
VERTEX
  8
0
 10
46.4517241381
 20
23.9362068966
  0
VERTEX
  8
0
 10
46.4750000002
 20
24.0
  0
VERTEX
  8
0
 10
45.8758620691
 20
25.4344827586
  0
VERTEX
  8
0
 10
46.1241379312
 20
25.4344827586
  0
VERTEX
  8
0
 10
46.4594827588
 20
24.5681034483
  0
VERTEX
  8
0
 10
46.4931034484
 20
24.4784482759
  0
VERTEX
  8
0
 10
46.5327586209
 20
24.3732758621
  0
VERTEX
  8
0
 10
46.5663793105
 20
24.2793103448
  0
VERTEX
  8
0
 10
46.5836206898
 20
24.225862069
  0
VERTEX
  8
0
 10
46.6017241381
 20
24.2818965517
  0
VERTEX
  8
0
 10
46.6362068967
 20
24.3732758621
  0
VERTEX
  8
0
 10
46.6758620691
 20
24.4775862069
  0
VERTEX
  8
0
 10
46.7112068967
 20
24.5698275862
  0
VERTEX
  8
0
 10
47.0370689657
 20
25.4344827586
  0
VERTEX
  8
0
 10
47.2827586209
 20
25.4344827586
  0
SEQEND
  8
0
  0
POLYLINE
  8
0
 62
0
 70
1
 66
1
 10
0.0
 20
0.0
 30
0.0
  0
VERTEX
  8
0
 10
49.2000000002
 20
25.9310344828
  0
VERTEX
  8
0
 10
49.4215517243
 20
25.9310344828
  0
VERTEX
  8
0
 10
49.4215517243
 20
25.425
  0
VERTEX
  8
0
 10
49.4172413795
 20
25.2948275862
  0
VERTEX
  8
0
 10
49.4103448278
 20
25.1698275862
  0
VERTEX
  8
0
 10
49.4137931036
 20
25.1698275862
  0
VERTEX
  8
0
 10
49.4862068967
 20
25.2793103448
  0
VERTEX
  8
0
 10
49.580172414
 20
25.3629310345
  0
VERTEX
  8
0
 10
49.7008620691
 20
25.4155172414
  0
VERTEX
  8
0
 10
49.8517241381
 20
25.4344827586
  0
VERTEX
  8
0
 10
50.0422413795
 20
25.4060344828
  0
VERTEX
  8
0
 10
50.1844827588
 20
25.3172413793
  0
VERTEX
  8
0
 10
50.2732758622
 20
25.1637931034
  0
VERTEX
  8
0
 10
50.303448276
 20
24.9387931034
  0
VERTEX
  8
0
 10
50.303448276
 20
24.0
  0
VERTEX
  8
0
 10
50.0827586209
 20
24.0
  0
VERTEX
  8
0
 10
50.0827586209
 20
24.9155172414
  0
VERTEX
  8
0
 10
50.0612068967
 20
25.0887931034
  0
VERTEX
  8
0
 10
50.0008620691
 20
25.1965517241
  0
VERTEX
  8
0
 10
49.9086206898
 20
25.2525862069
  0
VERTEX
  8
0
 10
49.7931034484
 20
25.2689655172
  0
VERTEX
  8
0
 10
49.6474137933
 20
25.2387931034
  0
VERTEX
  8
0
 10
49.529310345
 20
25.1534482759
  0
VERTEX
  8
0
 10
49.4491379312
 20
25.0146551724
  0
VERTEX
  8
0
 10
49.4206896553
 20
24.825862069
  0
VERTEX
  8
0
 10
49.4206896553
 20
24.0
  0
VERTEX
  8
0
 10
49.2000000002
 20
24.0
  0
SEQEND
  8
0
  0
POLYLINE
  8
0
 62
0
 70
1
 66
1
 10
0.0
 20
0.0
 30
0.0
  0
VERTEX
  8
0
 10
51.9586206898
 20
24.7181034483
  0
VERTEX
  8
0
 10
51.9163793105
 20
24.4017241379
  0
VERTEX
  8
0
 10
51.7948275864
 20
24.1775862069
  0
VERTEX
  8
0
 10
51.6025862071
 20
24.0439655172
  0
VERTEX
  8
0
 10
51.3456896553
 20
24.0
  0
VERTEX
  8
0
 10
51.0982758622
 20
24.0431034483
  0
VERTEX
  8
0
 10
50.9086206898
 20
24.175862069
  0
VERTEX
  8
0
 10
50.7870689657
 20
24.4
  0
VERTEX
  8
0
 10
50.7448275864
 20
24.7181034483
  0
VERTEX
  8
0
 10
50.903448276
 20
25.2543103448
  0
VERTEX
  8
0
 10
51.353448276
 20
25.4344827586
  0
VERTEX
  8
0
 10
51.8086206898
 20
25.2568965517
  0
SEQEND
  8
0
  0
POLYLINE
  8
0
 62
0
 70
1
 66
1
 10
0.0
 20
0.0
 30
0.0
  0
VERTEX
  8
0
 10
51.7379310347
 20
24.7181034483
  0
VERTEX
  8
0
 10
51.7094827588
 20
24.9862068966
  0
VERTEX
  8
0
 10
51.6310344829
 20
25.1551724138
  0
VERTEX
  8
0
 10
51.5103448278
 20
25.2439655172
  0
VERTEX
  8
0
 10
51.3577586209
 20
25.2689655172
  0
VERTEX
  8
0
 10
51.2000000002
 20
25.2422413793
  0
VERTEX
  8
0
 10
51.0758620691
 20
25.1525862069
  0
VERTEX
  8
0
 10
50.9948275864
 20
24.9827586207
  0
VERTEX
  8
0
 10
50.9655172416
 20
24.7181034483
  0
VERTEX
  8
0
 10
50.9956896553
 20
24.449137931
  0
VERTEX
  8
0
 10
51.078448276
 20
24.2801724138
  0
VERTEX
  8
0
 10
51.1991379312
 20
24.1913793103
  0
VERTEX
  8
0
 10
51.3431034484
 20
24.1655172414
  0
VERTEX
  8
0
 10
51.5008620691
 20
24.1905172414
  0
VERTEX
  8
0
 10
51.6267241381
 20
24.2784482759
  0
VERTEX
  8
0
 10
51.7086206898
 20
24.449137931
  0
SEQEND
  8
0
  0
POLYLINE
  8
0
 62
0
 70
1
 66
1
 10
0.0
 20
0.0
 30
0.0
  0
VERTEX
  8
0
 10
52.6206896553
 20
25.4344827586
  0
VERTEX
  8
0
 10
52.6206896553
 20
24.5301724138
  0
VERTEX
  8
0
 10
52.6353448278
 20
24.3568965517
  0
VERTEX
  8
0
 10
52.6853448278
 20
24.2439655172
  0
VERTEX
  8
0
 10
52.7767241381
 20
24.1827586207
  0
VERTEX
  8
0
 10
52.9155172416
 20
24.1655172414
  0
VERTEX
  8
0
 10
53.0672413795
 20
24.1948275862
  0
VERTEX
  8
0
 10
53.1827586209
 20
24.2810344828
  0
VERTEX
  8
0
 10
53.2568965519
 20
24.4189655172
  0
VERTEX
  8
0
 10
53.2827586209
 20
24.6086206897
  0
VERTEX
  8
0
 10
53.2827586209
 20
25.4344827586
  0
VERTEX
  8
0
 10
53.503448276
 20
25.4344827586
  0
VERTEX
  8
0
 10
53.503448276
 20
24.3060344828
  0
VERTEX
  8
0
 10
53.503448276
 20
24.2112068966
  0
VERTEX
  8
0
 10
53.505172414
 20
24.1172413793
  0
VERTEX
  8
0
 10
53.5077586209
 20
24.0413793103
  0
VERTEX
  8
0
 10
53.5112068967
 20
24.0
  0
VERTEX
  8
0
 10
53.304310345
 20
24.0
  0
VERTEX
  8
0
 10
53.3017241381
 20
24.0387931034
  0
VERTEX
  8
0
 10
53.2991379312
 20
24.1112068966
  0
VERTEX
  8
0
 10
53.2956896553
 20
24.1939655172
  0
VERTEX
  8
0
 10
53.2948275864
 20
24.2655172414
  0
VERTEX
  8
0
 10
53.2913793105
 20
24.2655172414
  0
VERTEX
  8
0
 10
53.2172413795
 20
24.1551724138
  0
VERTEX
  8
0
 10
53.1241379312
 20
24.0715517241
  0
VERTEX
  8
0
 10
53.0025862071
 20
24.0189655172
  0
VERTEX
  8
0
 10
52.8439655174
 20
24.0
  0
VERTEX
  8
0
 10
52.6431034484
 20
24.0284482759
  0
VERTEX
  8
0
 10
52.505172414
 20
24.1163793103
  0
VERTEX
  8
0
 10
52.4250000002
 20
24.2706896552
  0
VERTEX
  8
0
 10
52.4000000002
 20
24.4956896552
  0
VERTEX
  8
0
 10
52.4000000002
 20
25.4344827586
  0
SEQEND
  8
0
  0
POLYLINE
  8
0
 62
0
 70
1
 66
1
 10
0.0
 20
0.0
 30
0.0
  0
VERTEX
  8
0
 10
55.1586206898
 20
24.4215517241
  0
VERTEX
  8
0
 10
55.1198275864
 20
24.2456896552
  0
VERTEX
  8
0
 10
55.0094827588
 20
24.1129310345
  0
VERTEX
  8
0
 10
54.8310344829
 20
24.0293103448
  0
VERTEX
  8
0
 10
54.5887931036
 20
24.0
  0
VERTEX
  8
0
 10
54.3689655174
 20
24.0172413793
  0
VERTEX
  8
0
 10
54.1974137933
 20
24.074137931
  0
VERTEX
  8
0
 10
54.0732758622
 20
24.1810344828
  0
VERTEX
  8
0
 10
54.0000000002
 20
24.3465517241
  0
VERTEX
  8
0
 10
54.2206896553
 20
24.3862068966
  0
VERTEX
  8
0
 10
54.2698275864
 20
24.2689655172
  0
VERTEX
  8
0
 10
54.3508620691
 20
24.2025862069
  0
VERTEX
  8
0
 10
54.4603448278
 20
24.1724137931
  0
VERTEX
  8
0
 10
54.5948275864
 20
24.1655172414
  0
VERTEX
  8
0
 10
54.7318965519
 20
24.1767241379
  0
VERTEX
  8
0
 10
54.8405172416
 20
24.2146551724
  0
VERTEX
  8
0
 10
54.9120689657
 20
24.2844827586
  0
VERTEX
  8
0
 10
54.9379310347
 20
24.3913793103
  0
VERTEX
  8
0
 10
54.904310345
 20
24.4939655172
  0
VERTEX
  8
0
 10
54.8146551726
 20
24.5603448276
  0
VERTEX
  8
0
 10
54.679310345
 20
24.6060344828
  0
VERTEX
  8
0
 10
54.5086206898
 20
24.65
  0
VERTEX
  8
0
 10
54.3439655174
 20
24.6974137931
  0
VERTEX
  8
0
 10
54.1982758622
 20
24.7646551724
  0
VERTEX
  8
0
 10
54.0948275864
 20
24.8706896552
  0
VERTEX
  8
0
 10
54.055172414
 20
25.0336206897
  0
VERTEX
  8
0
 10
54.1896551726
 20
25.3275862069
  0
VERTEX
  8
0
 10
54.580172414
 20
25.4344827586
  0
VERTEX
  8
0
 10
54.7681034484
 20
25.4146551724
  0
VERTEX
  8
0
 10
54.9241379312
 20
25.350862069
  0
VERTEX
  8
0
 10
55.0387931036
 20
25.2387931034
  0
VERTEX
  8
0
 10
55.103448276
 20
25.075862069
  0
VERTEX
  8
0
 10
54.8827586209
 20
25.0482758621
  0
VERTEX
  8
0
 10
54.8456896553
 20
25.1586206897
  0
VERTEX
  8
0
 10
54.7767241381
 20
25.225862069
  0
VERTEX
  8
0
 10
54.6836206898
 20
25.2594827586
  0
VERTEX
  8
0
 10
54.5758620691
 20
25.2689655172
  0
VERTEX
  8
0
 10
54.2758620691
 20
25.0689655172
  0
VERTEX
  8
0
 10
54.303448276
 20
24.9732758621
  0
VERTEX
  8
0
 10
54.3818965519
 20
24.9120689655
  0
VERTEX
  8
0
 10
54.5025862071
 20
24.8706896552
  0
VERTEX
  8
0
 10
54.6560344829
 20
24.8318965517
  0
VERTEX
  8
0
 10
54.829310345
 20
24.7844827586
  0
VERTEX
  8
0
 10
54.9905172416
 20
24.7129310345
  0
VERTEX
  8
0
 10
55.1112068967
 20
24.5982758621
  0
SEQEND
  8
0
  0
POLYLINE
  8
0
 62
0
 70
1
 66
1
 10
0.0
 20
0.0
 30
0.0
  0
VERTEX
  8
0
 10
56.3172413795
 20
24.1655172414
  0
VERTEX
  8
0
 10
56.8137931036
 20
24.1655172414
  0
VERTEX
  8
0
 10
56.8137931036
 20
24.0
  0
VERTEX
  8
0
 10
55.5448275864
 20
24.0
  0
VERTEX
  8
0
 10
55.5448275864
 20
24.1655172414
  0
VERTEX
  8
0
 10
56.0965517243
 20
24.1655172414
  0
VERTEX
  8
0
 10
56.0965517243
 20
25.2689655172
  0
VERTEX
  8
0
 10
55.655172414
 20
25.2689655172
  0
VERTEX
  8
0
 10
55.655172414
 20
25.4344827586
  0
VERTEX
  8
0
 10
56.3172413795
 20
25.4344827586
  0
SEQEND
  8
0
  0
POLYLINE
  8
0
 62
0
 70
1
 66
1
 10
0.0
 20
0.0
 30
0.0
  0
VERTEX
  8
0
 10
56.0413793105
 20
25.6551724138
  0
VERTEX
  8
0
 10
56.0413793105
 20
25.9310344828
  0
VERTEX
  8
0
 10
56.3172413795
 20
25.9310344828
  0
VERTEX
  8
0
 10
56.3172413795
 20
25.6551724138
  0
SEQEND
  8
0
  0
POLYLINE
  8
0
 62
0
 70
1
 66
1
 10
0.0
 20
0.0
 30
0.0
  0
VERTEX
  8
0
 10
58.0827586209
 20
24.0
  0
VERTEX
  8
0
 10
58.0827586209
 20
24.9155172414
  0
VERTEX
  8
0
 10
58.0612068967
 20
25.0887931034
  0
VERTEX
  8
0
 10
58.0008620691
 20
25.1965517241
  0
VERTEX
  8
0
 10
57.9086206898
 20
25.2525862069
  0
VERTEX
  8
0
 10
57.7931034484
 20
25.2689655172
  0
VERTEX
  8
0
 10
57.6474137933
 20
25.2387931034
  0
VERTEX
  8
0
 10
57.529310345
 20
25.1534482759
  0
VERTEX
  8
0
 10
57.4491379312
 20
25.0146551724
  0
VERTEX
  8
0
 10
57.4206896553
 20
24.825862069
  0
VERTEX
  8
0
 10
57.4206896553
 20
24.0
  0
VERTEX
  8
0
 10
57.2000000002
 20
24.0
  0
VERTEX
  8
0
 10
57.2000000002
 20
25.1284482759
  0
VERTEX
  8
0
 10
57.1991379312
 20
25.2224137931
  0
VERTEX
  8
0
 10
57.1965517243
 20
25.3163793103
  0
VERTEX
  8
0
 10
57.1939655174
 20
25.3931034483
  0
VERTEX
  8
0
 10
57.1922413795
 20
25.4344827586
  0
VERTEX
  8
0
 10
57.4008620691
 20
25.4344827586
  0
VERTEX
  8
0
 10
57.4025862071
 20
25.3956896552
  0
VERTEX
  8
0
 10
57.4060344829
 20
25.3232758621
  0
VERTEX
  8
0
 10
57.4086206898
 20
25.2405172414
  0
VERTEX
  8
0
 10
57.4103448278
 20
25.1698275862
  0
VERTEX
  8
0
 10
57.4137931036
 20
25.1698275862
  0
VERTEX
  8
0
 10
57.4870689657
 20
25.2793103448
  0
VERTEX
  8
0
 10
57.5836206898
 20
25.3629310345
  0
VERTEX
  8
0
 10
57.7068965519
 20
25.4155172414
  0
VERTEX
  8
0
 10
57.8603448278
 20
25.4344827586
  0
VERTEX
  8
0
 10
58.0500000002
 20
25.4060344828
  0
VERTEX
  8
0
 10
58.1887931036
 20
25.3172413793
  0
VERTEX
  8
0
 10
58.2741379312
 20
25.1637931034
  0
VERTEX
  8
0
 10
58.303448276
 20
24.9387931034
  0
VERTEX
  8
0
 10
58.303448276
 20
24.0
  0
SEQEND
  8
0
  0
POLYLINE
  8
0
 62
0
 70
1
 66
1
 10
0.0
 20
0.0
 30
0.0
  0
VERTEX
  8
0
 10
59.3517241381
 20
23.4482758621
  0
VERTEX
  8
0
 10
59.1491379312
 20
23.4732758621
  0
VERTEX
  8
0
 10
58.9982758622
 20
23.5456896552
  0
VERTEX
  8
0
 10
58.8965517243
 20
23.6577586207
  0
VERTEX
  8
0
 10
58.8413793105
 20
23.8017241379
  0
VERTEX
  8
0
 10
59.0620689657
 20
23.8344827586
  0
VERTEX
  8
0
 10
59.1586206898
 20
23.6715517241
  0
VERTEX
  8
0
 10
59.355172414
 20
23.6137931034
  0
VERTEX
  8
0
 10
59.4905172416
 20
23.6362068966
  0
VERTEX
  8
0
 10
59.5931034484
 20
23.7060344828
  0
VERTEX
  8
0
 10
59.6594827588
 20
23.8318965517
  0
VERTEX
  8
0
 10
59.6827586209
 20
24.0206896552
  0
VERTEX
  8
0
 10
59.6827586209
 20
24.2706896552
  0
VERTEX
  8
0
 10
59.680172414
 20
24.2706896552
  0
VERTEX
  8
0
 10
59.6172413795
 20
24.1698275862
  0
VERTEX
  8
0
 10
59.5258620691
 20
24.0827586207
  0
VERTEX
  8
0
 10
59.4008620691
 20
24.0224137931
  0
VERTEX
  8
0
 10
59.2370689657
 20
24.0
  0
VERTEX
  8
0
 10
59.0120689657
 20
24.0431034483
  0
VERTEX
  8
0
 10
58.8594827588
 20
24.175
  0
VERTEX
  8
0
 10
58.7724137933
 20
24.3965517241
  0
VERTEX
  8
0
 10
58.7448275864
 20
24.7086206897
  0
VERTEX
  8
0
 10
58.7724137933
 20
25.0163793103
  0
VERTEX
  8
0
 10
58.8612068967
 20
25.2439655172
  0
VERTEX
  8
0
 10
59.0206896553
 20
25.3853448276
  0
VERTEX
  8
0
 10
59.2612068967
 20
25.4344827586
  0
VERTEX
  8
0
 10
59.5146551726
 20
25.3663793103
  0
VERTEX
  8
0
 10
59.6810344829
 20
25.1732758621
  0
VERTEX
  8
0
 10
59.6844827588
 20
25.1732758621
  0
VERTEX
  8
0
 10
59.6862068967
 20
25.2517241379
  0
VERTEX
  8
0
 10
59.6905172416
 20
25.3344827586
  0
VERTEX
  8
0
 10
59.6948275864
 20
25.4017241379
  0
VERTEX
  8
0
 10
59.7000000002
 20
25.4344827586
  0
VERTEX
  8
0
 10
59.9112068967
 20
25.4344827586
  0
VERTEX
  8
0
 10
59.9086206898
 20
25.3939655172
  0
VERTEX
  8
0
 10
59.9060344829
 20
25.325862069
  0
VERTEX
  8
0
 10
59.904310345
 20
25.2387931034
  0
VERTEX
  8
0
 10
59.903448276
 20
25.1387931034
  0
VERTEX
  8
0
 10
59.903448276
 20
24.05
  0
VERTEX
  8
0
 10
59.7681034484
 20
23.599137931
  0
SEQEND
  8
0
  0
POLYLINE
  8
0
 62
0
 70
1
 66
1
 10
0.0
 20
0.0
 30
0.0
  0
VERTEX
  8
0
 10
59.6827586209
 20
24.7120689655
  0
VERTEX
  8
0
 10
59.6508620691
 20
24.9698275862
  0
VERTEX
  8
0
 10
59.5663793105
 20
25.1431034483
  0
VERTEX
  8
0
 10
59.4465517243
 20
25.2387931034
  0
VERTEX
  8
0
 10
59.3094827588
 20
25.2689655172
  0
VERTEX
  8
0
 10
59.155172414
 20
25.2387931034
  0
VERTEX
  8
0
 10
59.0474137933
 20
25.1413793103
  0
VERTEX
  8
0
 10
58.9853448278
 20
24.9689655172
  0
VERTEX
  8
0
 10
58.9655172416
 20
24.7120689655
  0
VERTEX
  8
0
 10
58.9853448278
 20
24.449137931
  0
VERTEX
  8
0
 10
59.0465517243
 20
24.2810344828
  0
VERTEX
  8
0
 10
59.153448276
 20
24.1913793103
  0
VERTEX
  8
0
 10
59.305172414
 20
24.1655172414
  0
VERTEX
  8
0
 10
59.4431034484
 20
24.1939655172
  0
VERTEX
  8
0
 10
59.5646551726
 20
24.2879310345
  0
VERTEX
  8
0
 10
59.6500000002
 20
24.4568965517
  0
SEQEND
  8
0
  0
POLYLINE
  8
0
 62
0
 70
1
 66
1
 10
0.0
 20
0.0
 30
0.0
  0
VERTEX
  8
0
 10
62.679310345
 20
24.0
  0
VERTEX
  8
0
 10
62.4663793105
 20
24.0
  0
VERTEX
  8
0
 10
61.8896551726
 20
25.4344827586
  0
VERTEX
  8
0
 10
62.1206896553
 20
25.4344827586
  0
VERTEX
  8
0
 10
62.479310345
 20
24.4982758621
  0
VERTEX
  8
0
 10
62.5017241381
 20
24.4267241379
  0
VERTEX
  8
0
 10
62.5267241381
 20
24.3396551724
  0
VERTEX
  8
0
 10
62.5517241381
 20
24.2525862069
  0
VERTEX
  8
0
 10
62.5715517243
 20
24.1827586207
  0
VERTEX
  8
0
 10
62.5931034484
 20
24.2525862069
  0
VERTEX
  8
0
 10
62.6189655174
 20
24.3379310345
  0
VERTEX
  8
0
 10
62.6474137933
 20
24.424137931
  0
VERTEX
  8
0
 10
62.6724137933
 20
24.4956896552
  0
VERTEX
  8
0
 10
63.0500000002
 20
25.4344827586
  0
VERTEX
  8
0
 10
63.2689655174
 20
25.4344827586
  0
SEQEND
  8
0
  0
POLYLINE
  8
0
 62
0
 70
1
 66
1
 10
0.0
 20
0.0
 30
0.0
  0
VERTEX
  8
0
 10
63.6000000002
 20
24.0
  0
VERTEX
  8
0
 10
63.6000000002
 20
24.1655172414
  0
VERTEX
  8
0
 10
64.1517241381
 20
24.1655172414
  0
VERTEX
  8
0
 10
64.1517241381
 20
25.5284482759
  0
VERTEX
  8
0
 10
64.0689655174
 20
25.4482758621
  0
VERTEX
  8
0
 10
63.9327586209
 20
25.3836206897
  0
VERTEX
  8
0
 10
63.7681034484
 20
25.3405172414
  0
VERTEX
  8
0
 10
63.6000000002
 20
25.324137931
  0
VERTEX
  8
0
 10
63.6000000002
 20
25.4896551724
  0
VERTEX
  8
0
 10
63.779310345
 20
25.5103448276
  0
VERTEX
  8
0
 10
63.9439655174
 20
25.5672413793
  0
VERTEX
  8
0
 10
64.080172414
 20
25.6543103448
  0
VERTEX
  8
0
 10
64.1715517243
 20
25.7655172414
  0
VERTEX
  8
0
 10
64.3724137933
 20
25.7655172414
  0
VERTEX
  8
0
 10
64.3724137933
 20
24.1655172414
  0
VERTEX
  8
0
 10
64.8137931036
 20
24.1655172414
  0
VERTEX
  8
0
 10
64.8137931036
 20
24.0
  0
SEQEND
  8
0
  0
POLYLINE
  8
0
 62
0
 70
1
 66
1
 10
0.0
 20
0.0
 30
0.0
  0
VERTEX
  8
0
 10
65.6413793105
 20
24.0
  0
VERTEX
  8
0
 10
65.6413793105
 20
24.3862068966
  0
VERTEX
  8
0
 10
65.9724137933
 20
24.3862068966
  0
VERTEX
  8
0
 10
65.9724137933
 20
24.0
  0
SEQEND
  8
0
  0
POLYLINE
  8
0
 62
0
 70
1
 66
1
 10
0.0
 20
0.0
 30
0.0
  0
VERTEX
  8
0
 10
67.9646551726
 20
25.3120689655
  0
VERTEX
  8
0
 10
68.0137931036
 20
24.8827586207
  0
VERTEX
  8
0
 10
67.9637931036
 20
24.4663793103
  0
VERTEX
  8
0
 10
67.8275862071
 20
24.1939655172
  0
VERTEX
  8
0
 10
67.6250000002
 20
24.0448275862
  0
VERTEX
  8
0
 10
67.3758620691
 20
24.0
  0
VERTEX
  8
0
 10
67.1267241381
 20
24.0448275862
  0
VERTEX
  8
0
 10
66.9267241381
 20
24.1939655172
  0
VERTEX
  8
0
 10
66.7931034484
 20
24.4663793103
  0
VERTEX
  8
0
 10
66.7448275864
 20
24.8827586207
  0
VERTEX
  8
0
 10
66.7931034484
 20
25.3120689655
  0
VERTEX
  8
0
 10
66.9275862071
 20
25.5827586207
  0
VERTEX
  8
0
 10
67.129310345
 20
25.725
  0
VERTEX
  8
0
 10
67.3836206898
 20
25.7655172414
  0
VERTEX
  8
0
 10
67.629310345
 20
25.725
  0
VERTEX
  8
0
 10
67.829310345
 20
25.5827586207
  0
SEQEND
  8
0
  0
POLYLINE
  8
0
 62
0
 70
1
 66
1
 10
0.0
 20
0.0
 30
0.0
  0
VERTEX
  8
0
 10
67.7637931036
 20
24.5431034483
  0
VERTEX
  8
0
 10
67.7931034484
 20
24.8818965517
  0
VERTEX
  8
0
 10
67.7655172416
 20
25.2284482759
  0
VERTEX
  8
0
 10
67.6862068967
 20
25.449137931
  0
VERTEX
  8
0
 10
67.5577586209
 20
25.5655172414
  0
VERTEX
  8
0
 10
67.3844827588
 20
25.6
  0
VERTEX
  8
0
 10
67.203448276
 20
25.5655172414
  0
VERTEX
  8
0
 10
67.0724137933
 20
25.4482758621
  0
VERTEX
  8
0
 10
66.9922413795
 20
25.2275862069
  0
VERTEX
  8
0
 10
66.9655172416
 20
24.8818965517
  0
VERTEX
  8
0
 10
66.9931034484
 20
24.5431034483
  0
VERTEX
  8
0
 10
67.0741379312
 20
24.3224137931
  0
VERTEX
  8
0
 10
67.204310345
 20
24.2017241379
  0
VERTEX
  8
0
 10
67.379310345
 20
24.1655172414
  0
VERTEX
  8
0
 10
67.5517241381
 20
24.2017241379
  0
VERTEX
  8
0
 10
67.6818965519
 20
24.3224137931
  0
SEQEND
  8
0
  0
POLYLINE
  8
0
 62
0
 70
1
 66
1
 10
0.0
 20
0.0
 30
0.0
  0
VERTEX
  8
0
 10
67.2413793105
 20
24.7172413793
  0
VERTEX
  8
0
 10
67.2413793105
 20
25.0482758621
  0
VERTEX
  8
0
 10
67.5172413795
 20
25.0482758621
  0
VERTEX
  8
0
 10
67.5172413795
 20
24.7172413793
  0
SEQEND
  8
0
  0
ENDBLK
  0
ENDSEC
  0
SECTION
  2
ENTITIES
  0
POLYLINE
  8
0
 62
0
 70
1
 66
1
 10
0.0
 20
0.0
 30
0.0
  0
VERTEX
  8
0
 10
0.0
 20
0.0
  0
VERTEX
  8
0
 10
250.0
 20
7.65404249465e-15
  0
VERTEX
  8
0
 10
250.0
 20
114.0
  0
VERTEX
  8
0
 10
-3.49024337756e-15
 20
114.0
  0
SEQEND
  8
0
  0
POLYLINE
  8
0
 62
0
 70
1
 66
1
 10
0.0
 20
0.0
 30
0.0
  0
VERTEX
  8
0
 10
245.0
 20
82.0
  0
VERTEX
  8
0
 10
241.0
 20
82.0
  0
VERTEX
  8
0
 10
241.0
 20
32.0
  0
VERTEX
  8
0
 10
245.0
 20
32.0
  0
SEQEND
  8
0
  0
POLYLINE
  8
0
 62
0
 70
1
 66
1
 10
0.0
 20
0.0
 30
0.0
  0
VERTEX
  8
0
 10
5.0
 20
82.0
  0
VERTEX
  8
0
 10
9.0
 20
82.0
  0
VERTEX
  8
0
 10
9.0
 20
32.0
  0
VERTEX
  8
0
 10
5.0
 20
32.0
  0
SEQEND
  8
0
  0
POLYLINE
  8
0
 62
0
 70
0
 66
1
 10
0.0
 20
0.0
 30
0.0
  0
VERTEX
  8
0
 10
5.0
 20
57.0
  0
VERTEX
  8
0
 10
5.0
 20
82.0
  0
SEQEND
  8
0
  0
POLYLINE
  8
0
 62
0
 70
0
 66
1
 10
0.0
 20
0.0
 30
0.0
  0
VERTEX
  8
0
 10
250.0
 20
228.0
  0
VERTEX
  8
0
 10
250.0
 20
114.0
  0
SEQEND
  8
0
  0
POLYLINE
  8
0
 62
0
 70
0
 66
1
 10
0.0
 20
0.0
 30
0.0
  0
VERTEX
  8
0
 10
245.0
 20
57.0
  0
VERTEX
  8
0
 10
245.0
 20
82.0
  0
SEQEND
  8
0
  0
INSERT
  2
SHAPESTRING
  8
0
 10
0.0
 20
0.0
 30
0.0
  0
POLYLINE
  8
0
 62
0
 70
1
 66
1
 10
0.0
 20
0.0
 30
0.0
  0
VERTEX
  8
0
 10
150.0
 20
10.0
  0
VERTEX
  8
0
 10
100.0
 20
10.0
  0
VERTEX
  8
0
 10
100.0
 20
14.0
  0
VERTEX
  8
0
 10
150.0
 20
14.0
  0
SEQEND
  8
0
  0
POLYLINE
  8
0
 62
0
 70
1
 66
1
 10
0.0
 20
0.0
 30
0.0
  0
VERTEX
  8
0
 10
100.0
 20
104.0
  0
VERTEX
  8
0
 10
150.0
 20
104.0
  0
VERTEX
  8
0
 10
150.0
 20
100.0
  0
VERTEX
  8
0
 10
100.0
 20
100.0
  0
SEQEND
  8
0
  0
POLYLINE
  8
0
 62
0
 70
0
 66
1
 10
0.0
 20
0.0
 30
0.0
  0
VERTEX
  8
0
 10
125.0
 20
104.0
  0
VERTEX
  8
0
 10
100.0
 20
104.0
  0
SEQEND
  8
0
  0
POLYLINE
  8
0
 62
0
 70
1
 66
1
 10
0.0
 20
0.0
 30
0.0
  0
VERTEX
  8
0
 10
245.0
 20
196.0
  0
VERTEX
  8
0
 10
241.0
 20
196.0
  0
VERTEX
  8
0
 10
241.0
 20
146.0
  0
VERTEX
  8
0
 10
245.0
 20
146.0
  0
SEQEND
  8
0
  0
POLYLINE
  8
0
 62
0
 70
0
 66
1
 10
0.0
 20
0.0
 30
0.0
  0
VERTEX
  8
0
 10
-1.04707301327e-14
 20
228.0
  0
VERTEX
  8
0
 10
250.0
 20
228.0
  0
SEQEND
  8
0
  0
POLYLINE
  8
0
 62
0
 70
0
 66
1
 10
0.0
 20
0.0
 30
0.0
  0
VERTEX
  8
0
 10
125.0
 20
218.0
  0
VERTEX
  8
0
 10
100.0
 20
218.0
  0
SEQEND
  8
0
  0
POLYLINE
  8
0
 62
0
 70
1
 66
1
 10
0.0
 20
0.0
 30
0.0
  0
VERTEX
  8
0
 10
100.0
 20
218.0
  0
VERTEX
  8
0
 10
150.0
 20
218.0
  0
VERTEX
  8
0
 10
150.0
 20
214.0
  0
VERTEX
  8
0
 10
100.0
 20
214.0
  0
SEQEND
  8
0
  0
POLYLINE
  8
0
 62
0
 70
1
 66
1
 10
0.0
 20
0.0
 30
0.0
  0
VERTEX
  8
0
 10
150.0
 20
124.0
  0
VERTEX
  8
0
 10
100.0
 20
124.0
  0
VERTEX
  8
0
 10
100.0
 20
128.0
  0
VERTEX
  8
0
 10
150.0
 20
128.0
  0
SEQEND
  8
0
  0
POLYLINE
  8
0
 62
0
 70
0
 66
1
 10
0.0
 20
0.0
 30
0.0
  0
VERTEX
  8
0
 10
245.0
 20
171.0
  0
VERTEX
  8
0
 10
245.0
 20
196.0
  0
SEQEND
  8
0
  0
POLYLINE
  8
0
 62
0
 70
1
 66
1
 10
0.0
 20
0.0
 30
0.0
  0
VERTEX
  8
0
 10
5.0
 20
196.0
  0
VERTEX
  8
0
 10
9.0
 20
196.0
  0
VERTEX
  8
0
 10
9.0
 20
146.0
  0
VERTEX
  8
0
 10
5.0
 20
146.0
  0
SEQEND
  8
0
  0
POLYLINE
  8
0
 62
0
 70
0
 66
1
 10
0.0
 20
0.0
 30
0.0
  0
VERTEX
  8
0
 10
5.0
 20
171.0
  0
VERTEX
  8
0
 10
5.0
 20
196.0
  0
SEQEND
  8
0
  0
POLYLINE
  8
0
 62
0
 70
0
 66
1
 10
0.0
 20
0.0
 30
0.0
  0
VERTEX
  8
0
 10
-3.49024337758e-15
 20
114.0
  0
VERTEX
  8
0
 10
-3.49024337758e-15
 20
228.0
  0
SEQEND
  8
0
  0
ENDSEC
  0
EOF
