ISO-10303-21;
HEADER;
/* Generated by software containing ST-Developer
 * from STEP Tools, Inc. (www.steptools.com) 
 */

FILE_DESCRIPTION(
/* description */ (''),
/* implementation_level */ '2;1');

FILE_NAME(
/* name */ 
'C:\\Users\\Mark\\Desktop\\Inventor Projects\\Puzzles\\Barrel_Puzzle\\
Barrel6.stp',
/* time_stamp */ '2019-07-15T20:26:52-04:00',
/* author */ ('Mark'),
/* organization */ (''),
/* preprocessor_version */ 'ST-DEVELOPER v16.1',
/* originating_system */ 'Autodesk Inventor 2016',
/* authorisation */ '');

FILE_SCHEMA (('AUTOMOTIVE_DESIGN { 1 0 10303 214 3 1 1 }'));
ENDSEC;

DATA;
#10=MECHANICAL_DESIGN_GEOMETRIC_PRESENTATION_REPRESENTATION('',(#13),#171);
#11=SHAPE_REPRESENTATION_RELATIONSHIP('SRR','None',#183,#12);
#12=ADVANCED_BREP_SHAPE_REPRESENTATION('',(#14),#170);
#13=STYLED_ITEM('',(#192),#14);
#14=MANIFOLD_SOLID_BREP('Solid1',#107);
#15=FACE_OUTER_BOUND('',#21,.T.);
#16=FACE_OUTER_BOUND('',#22,.T.);
#17=FACE_OUTER_BOUND('',#23,.T.);
#18=FACE_OUTER_BOUND('',#24,.T.);
#19=FACE_OUTER_BOUND('',#25,.T.);
#20=FACE_OUTER_BOUND('',#26,.T.);
#21=EDGE_LOOP('',(#71,#72,#73,#74));
#22=EDGE_LOOP('',(#75,#76,#77,#78));
#23=EDGE_LOOP('',(#79,#80,#81,#82));
#24=EDGE_LOOP('',(#83,#84,#85,#86));
#25=EDGE_LOOP('',(#87,#88,#89,#90));
#26=EDGE_LOOP('',(#91,#92,#93,#94));
#27=LINE('',#145,#39);
#28=LINE('',#147,#40);
#29=LINE('',#149,#41);
#30=LINE('',#150,#42);
#31=LINE('',#153,#43);
#32=LINE('',#155,#44);
#33=LINE('',#156,#45);
#34=LINE('',#159,#46);
#35=LINE('',#161,#47);
#36=LINE('',#162,#48);
#37=LINE('',#164,#49);
#38=LINE('',#165,#50);
#39=VECTOR('',#119,2.);
#40=VECTOR('',#120,0.17);
#41=VECTOR('',#121,2.);
#42=VECTOR('',#122,0.17);
#43=VECTOR('',#125,0.339999999999999);
#44=VECTOR('',#126,0.339999999999999);
#45=VECTOR('',#127,0.17);
#46=VECTOR('',#130,2.);
#47=VECTOR('',#131,2.);
#48=VECTOR('',#132,0.17);
#49=VECTOR('',#135,0.34);
#50=VECTOR('',#136,0.34);
#51=VERTEX_POINT('',#143);
#52=VERTEX_POINT('',#144);
#53=VERTEX_POINT('',#146);
#54=VERTEX_POINT('',#148);
#55=VERTEX_POINT('',#152);
#56=VERTEX_POINT('',#154);
#57=VERTEX_POINT('',#158);
#58=VERTEX_POINT('',#160);
#59=EDGE_CURVE('',#51,#52,#27,.T.);
#60=EDGE_CURVE('',#52,#53,#28,.T.);
#61=EDGE_CURVE('',#54,#53,#29,.T.);
#62=EDGE_CURVE('',#51,#54,#30,.T.);
#63=EDGE_CURVE('',#55,#51,#31,.T.);
#64=EDGE_CURVE('',#56,#54,#32,.T.);
#65=EDGE_CURVE('',#55,#56,#33,.T.);
#66=EDGE_CURVE('',#57,#55,#34,.T.);
#67=EDGE_CURVE('',#58,#56,#35,.T.);
#68=EDGE_CURVE('',#57,#58,#36,.T.);
#69=EDGE_CURVE('',#52,#57,#37,.T.);
#70=EDGE_CURVE('',#53,#58,#38,.T.);
#71=ORIENTED_EDGE('',*,*,#59,.T.);
#72=ORIENTED_EDGE('',*,*,#60,.T.);
#73=ORIENTED_EDGE('',*,*,#61,.F.);
#74=ORIENTED_EDGE('',*,*,#62,.F.);
#75=ORIENTED_EDGE('',*,*,#63,.T.);
#76=ORIENTED_EDGE('',*,*,#62,.T.);
#77=ORIENTED_EDGE('',*,*,#64,.F.);
#78=ORIENTED_EDGE('',*,*,#65,.F.);
#79=ORIENTED_EDGE('',*,*,#66,.T.);
#80=ORIENTED_EDGE('',*,*,#65,.T.);
#81=ORIENTED_EDGE('',*,*,#67,.F.);
#82=ORIENTED_EDGE('',*,*,#68,.F.);
#83=ORIENTED_EDGE('',*,*,#69,.T.);
#84=ORIENTED_EDGE('',*,*,#68,.T.);
#85=ORIENTED_EDGE('',*,*,#70,.F.);
#86=ORIENTED_EDGE('',*,*,#60,.F.);
#87=ORIENTED_EDGE('',*,*,#70,.T.);
#88=ORIENTED_EDGE('',*,*,#67,.T.);
#89=ORIENTED_EDGE('',*,*,#64,.T.);
#90=ORIENTED_EDGE('',*,*,#61,.T.);
#91=ORIENTED_EDGE('',*,*,#69,.F.);
#92=ORIENTED_EDGE('',*,*,#59,.F.);
#93=ORIENTED_EDGE('',*,*,#63,.F.);
#94=ORIENTED_EDGE('',*,*,#66,.F.);
#95=PLANE('',#109);
#96=PLANE('',#110);
#97=PLANE('',#111);
#98=PLANE('',#112);
#99=PLANE('',#113);
#100=PLANE('',#114);
#101=ADVANCED_FACE('',(#15),#95,.T.);
#102=ADVANCED_FACE('',(#16),#96,.T.);
#103=ADVANCED_FACE('',(#17),#97,.T.);
#104=ADVANCED_FACE('',(#18),#98,.T.);
#105=ADVANCED_FACE('',(#19),#99,.T.);
#106=ADVANCED_FACE('',(#20),#100,.F.);
#107=CLOSED_SHELL('',(#101,#102,#103,#104,#105,#106));
#108=AXIS2_PLACEMENT_3D('placement',#141,#115,#116);
#109=AXIS2_PLACEMENT_3D('',#142,#117,#118);
#110=AXIS2_PLACEMENT_3D('',#151,#123,#124);
#111=AXIS2_PLACEMENT_3D('',#157,#128,#129);
#112=AXIS2_PLACEMENT_3D('',#163,#133,#134);
#113=AXIS2_PLACEMENT_3D('',#166,#137,#138);
#114=AXIS2_PLACEMENT_3D('',#167,#139,#140);
#115=DIRECTION('axis',(0.,0.,1.));
#116=DIRECTION('refdir',(1.,0.,0.));
#117=DIRECTION('center_axis',(-1.,0.,0.));
#118=DIRECTION('ref_axis',(0.,-1.,0.));
#119=DIRECTION('',(0.,-1.,0.));
#120=DIRECTION('',(0.,0.,1.));
#121=DIRECTION('',(0.,-1.,0.));
#122=DIRECTION('',(0.,0.,1.));
#123=DIRECTION('center_axis',(-1.0284604211442E-15,1.,0.));
#124=DIRECTION('ref_axis',(-1.,-1.12798659301916E-15,0.));
#125=DIRECTION('',(-1.,-1.0284604211442E-15,0.));
#126=DIRECTION('',(-1.,-1.0284604211442E-15,0.));
#127=DIRECTION('',(0.,0.,1.));
#128=DIRECTION('center_axis',(1.,2.62257407391769E-16,0.));
#129=DIRECTION('ref_axis',(-2.8199664825479E-16,1.,0.));
#130=DIRECTION('',(-2.62257407391769E-16,1.,0.));
#131=DIRECTION('',(-2.62257407391769E-16,1.,0.));
#132=DIRECTION('',(0.,0.,1.));
#133=DIRECTION('center_axis',(0.,-1.,0.));
#134=DIRECTION('ref_axis',(1.,0.,0.));
#135=DIRECTION('',(1.,0.,0.));
#136=DIRECTION('',(1.,0.,0.));
#137=DIRECTION('center_axis',(0.,0.,1.));
#138=DIRECTION('ref_axis',(1.,0.,0.));
#139=DIRECTION('center_axis',(0.,0.,1.));
#140=DIRECTION('ref_axis',(1.,0.,0.));
#141=CARTESIAN_POINT('',(0.,0.,0.));
#142=CARTESIAN_POINT('Origin',(0.,2.,0.));
#143=CARTESIAN_POINT('',(0.,2.,0.));
#144=CARTESIAN_POINT('',(0.,0.,0.));
#145=CARTESIAN_POINT('',(0.,2.,0.));
#146=CARTESIAN_POINT('',(0.,0.,0.17));
#147=CARTESIAN_POINT('',(0.,0.,0.));
#148=CARTESIAN_POINT('',(0.,2.,0.17));
#149=CARTESIAN_POINT('',(0.,2.,0.17));
#150=CARTESIAN_POINT('',(0.,2.,0.));
#151=CARTESIAN_POINT('Origin',(0.339999999999999,2.,0.));
#152=CARTESIAN_POINT('',(0.339999999999999,2.,0.));
#153=CARTESIAN_POINT('',(0.339999999999999,2.,0.));
#154=CARTESIAN_POINT('',(0.339999999999999,2.,0.17));
#155=CARTESIAN_POINT('',(0.339999999999999,2.,0.17));
#156=CARTESIAN_POINT('',(0.339999999999999,2.,0.));
#157=CARTESIAN_POINT('Origin',(0.34,0.,0.));
#158=CARTESIAN_POINT('',(0.34,0.,0.));
#159=CARTESIAN_POINT('',(0.34,0.,0.));
#160=CARTESIAN_POINT('',(0.34,0.,0.17));
#161=CARTESIAN_POINT('',(0.34,0.,0.17));
#162=CARTESIAN_POINT('',(0.34,0.,0.));
#163=CARTESIAN_POINT('Origin',(0.,0.,0.));
#164=CARTESIAN_POINT('',(0.,0.,0.));
#165=CARTESIAN_POINT('',(0.,0.,0.17));
#166=CARTESIAN_POINT('Origin',(0.17,1.,0.17));
#167=CARTESIAN_POINT('Origin',(0.17,1.,0.));
#168=UNCERTAINTY_MEASURE_WITH_UNIT(LENGTH_MEASURE(0.000393700787401575),
#172,'DISTANCE_ACCURACY_VALUE',
'Maximum model space distance between geometric entities at asserted c
onnectivities');
#169=UNCERTAINTY_MEASURE_WITH_UNIT(LENGTH_MEASURE(1.E-6),#173,
'DISTANCE_ACCURACY_VALUE',
'Maximum model space distance between geometric entities at asserted c
onnectivities');
#170=(
GEOMETRIC_REPRESENTATION_CONTEXT(3)
GLOBAL_UNCERTAINTY_ASSIGNED_CONTEXT((#168))
GLOBAL_UNIT_ASSIGNED_CONTEXT((#172,#178,#175))
REPRESENTATION_CONTEXT('','3D')
);
#171=(
GEOMETRIC_REPRESENTATION_CONTEXT(3)
GLOBAL_UNCERTAINTY_ASSIGNED_CONTEXT((#169))
GLOBAL_UNIT_ASSIGNED_CONTEXT((#173,#178,#175))
REPRESENTATION_CONTEXT('','3D')
);
#172=(
CONVERSION_BASED_UNIT('__CONSTANT UNIT inch',#174)
LENGTH_UNIT()
NAMED_UNIT(#177)
);
#173=(
LENGTH_UNIT()
NAMED_UNIT(*)
SI_UNIT(.MILLI.,.METRE.)
);
#174=LENGTH_MEASURE_WITH_UNIT(LENGTH_MEASURE(25.4),#173);
#175=(
NAMED_UNIT(*)
SI_UNIT($,.STERADIAN.)
SOLID_ANGLE_UNIT()
);
#176=DIMENSIONAL_EXPONENTS(0.,0.,0.,0.,0.,0.,0.);
#177=DIMENSIONAL_EXPONENTS(1.,0.,0.,0.,0.,0.,0.);
#178=(
CONVERSION_BASED_UNIT('degree',#180)
NAMED_UNIT(#176)
PLANE_ANGLE_UNIT()
);
#179=(
NAMED_UNIT(*)
PLANE_ANGLE_UNIT()
SI_UNIT($,.RADIAN.)
);
#180=PLANE_ANGLE_MEASURE_WITH_UNIT(PLANE_ANGLE_MEASURE(0.01745329252),#179);
#181=SHAPE_DEFINITION_REPRESENTATION(#182,#183);
#182=PRODUCT_DEFINITION_SHAPE('',$,#185);
#183=SHAPE_REPRESENTATION('',(#108),#170);
#184=PRODUCT_DEFINITION_CONTEXT('part definition',#189,'design');
#185=PRODUCT_DEFINITION('Barrel6','Barrel6',#186,#184);
#186=PRODUCT_DEFINITION_FORMATION('',$,#191);
#187=PRODUCT_RELATED_PRODUCT_CATEGORY('Barrel6','Barrel6',(#191));
#188=APPLICATION_PROTOCOL_DEFINITION('international standard',
'automotive_design',2009,#189);
#189=APPLICATION_CONTEXT(
'Core Data for Automotive Mechanical Design Process');
#190=PRODUCT_CONTEXT('part definition',#189,'mechanical');
#191=PRODUCT('Barrel6','Barrel6',$,(#190));
#192=PRESENTATION_STYLE_ASSIGNMENT((#193));
#193=SURFACE_STYLE_USAGE(.BOTH.,#194);
#194=SURFACE_SIDE_STYLE('',(#195));
#195=SURFACE_STYLE_FILL_AREA(#196);
#196=FILL_AREA_STYLE('',(#197));
#197=FILL_AREA_STYLE_COLOUR('',#198);
#198=COLOUR_RGB('',0.745098039215686,0.368627450980392,0.184313725490196);
ENDSEC;
END-ISO-10303-21;
