ISO-10303-21;
HEADER;
/* Generated by software containing ST-Developer
 * from STEP Tools, Inc. (www.steptools.com) 
 */

FILE_DESCRIPTION(
/* description */ (''),
/* implementation_level */ '2;1');

FILE_NAME(
/* name */ 
'C:\\Users\\Mark\\Desktop\\Inventor Projects\\snake_puzzle\\3D_Print\\
plug.stp',
/* time_stamp */ '2018-11-17T14:12:04-05:00',
/* author */ ('Mark'),
/* organization */ (''),
/* preprocessor_version */ 'ST-DEVELOPER v16.1',
/* originating_system */ 'Autodesk Inventor 2016',
/* authorisation */ '');

FILE_SCHEMA (('AUTOMOTIVE_DESIGN { 1 0 10303 214 3 1 1 }'));
ENDSEC;

DATA;
#10=MECHANICAL_DESIGN_GEOMETRIC_PRESENTATION_REPRESENTATION('',(#13),#89);
#11=SHAPE_REPRESENTATION_RELATIONSHIP('SRR','None',#101,#12);
#12=ADVANCED_BREP_SHAPE_REPRESENTATION('',(#14),#88);
#13=STYLED_ITEM('',(#110),#14);
#14=MANIFOLD_SOLID_BREP('Solid1',#50);
#15=PLANE('',#57);
#16=PLANE('',#58);
#17=CYLINDRICAL_SURFACE('',#55,0.1865);
#18=FACE_BOUND('',#25,.T.);
#19=FACE_BOUND('',#27,.T.);
#20=FACE_OUTER_BOUND('',#24,.T.);
#21=FACE_OUTER_BOUND('',#26,.T.);
#22=FACE_OUTER_BOUND('',#28,.T.);
#23=FACE_OUTER_BOUND('',#29,.T.);
#24=EDGE_LOOP('',(#39));
#25=EDGE_LOOP('',(#40));
#26=EDGE_LOOP('',(#41));
#27=EDGE_LOOP('',(#42));
#28=EDGE_LOOP('',(#43));
#29=EDGE_LOOP('',(#44));
#30=CIRCLE('',#53,0.1865);
#31=CIRCLE('',#54,0.15525);
#32=CIRCLE('',#56,0.1865);
#33=VERTEX_POINT('',#77);
#34=VERTEX_POINT('',#79);
#35=VERTEX_POINT('',#82);
#36=EDGE_CURVE('',#33,#33,#30,.T.);
#37=EDGE_CURVE('',#34,#34,#31,.T.);
#38=EDGE_CURVE('',#35,#35,#32,.T.);
#39=ORIENTED_EDGE('',*,*,#36,.T.);
#40=ORIENTED_EDGE('',*,*,#37,.T.);
#41=ORIENTED_EDGE('',*,*,#38,.F.);
#42=ORIENTED_EDGE('',*,*,#36,.F.);
#43=ORIENTED_EDGE('',*,*,#37,.F.);
#44=ORIENTED_EDGE('',*,*,#38,.T.);
#45=TOROIDAL_SURFACE('',#52,0.15525,0.03125);
#46=ADVANCED_FACE('',(#20,#18),#45,.T.);
#47=ADVANCED_FACE('',(#21,#19),#17,.T.);
#48=ADVANCED_FACE('',(#22),#15,.T.);
#49=ADVANCED_FACE('',(#23),#16,.F.);
#50=CLOSED_SHELL('',(#46,#47,#48,#49));
#51=AXIS2_PLACEMENT_3D('placement',#75,#59,#60);
#52=AXIS2_PLACEMENT_3D('',#76,#61,#62);
#53=AXIS2_PLACEMENT_3D('',#78,#63,#64);
#54=AXIS2_PLACEMENT_3D('',#80,#65,#66);
#55=AXIS2_PLACEMENT_3D('',#81,#67,#68);
#56=AXIS2_PLACEMENT_3D('',#83,#69,#70);
#57=AXIS2_PLACEMENT_3D('',#84,#71,#72);
#58=AXIS2_PLACEMENT_3D('',#85,#73,#74);
#59=DIRECTION('axis',(0.,0.,1.));
#60=DIRECTION('refdir',(1.,0.,0.));
#61=DIRECTION('center_axis',(0.,0.,1.));
#62=DIRECTION('ref_axis',(1.,0.,0.));
#63=DIRECTION('center_axis',(0.,0.,1.));
#64=DIRECTION('ref_axis',(-1.,0.,0.));
#65=DIRECTION('center_axis',(0.,0.,-1.));
#66=DIRECTION('ref_axis',(-1.,0.,0.));
#67=DIRECTION('center_axis',(0.,0.,1.));
#68=DIRECTION('ref_axis',(-1.,0.,0.));
#69=DIRECTION('center_axis',(0.,0.,-1.));
#70=DIRECTION('ref_axis',(-1.,0.,0.));
#71=DIRECTION('center_axis',(0.,0.,1.));
#72=DIRECTION('ref_axis',(1.,0.,0.));
#73=DIRECTION('center_axis',(0.,0.,1.));
#74=DIRECTION('ref_axis',(1.,0.,0.));
#75=CARTESIAN_POINT('',(0.,0.,0.));
#76=CARTESIAN_POINT('Origin',(0.,0.,0.34375));
#77=CARTESIAN_POINT('',(0.1865,2.28396628040981E-17,0.34375));
#78=CARTESIAN_POINT('Origin',(0.,0.,0.34375));
#79=CARTESIAN_POINT('',(0.15525,-1.90126415567627E-17,0.375));
#80=CARTESIAN_POINT('Origin',(0.,0.,0.375));
#81=CARTESIAN_POINT('Origin',(0.,0.,0.));
#82=CARTESIAN_POINT('',(0.1865,2.28396628040981E-17,0.));
#83=CARTESIAN_POINT('Origin',(0.,0.,0.));
#84=CARTESIAN_POINT('Origin',(-9.59253280233995E-18,-3.84461378433255E-18,
0.375));
#85=CARTESIAN_POINT('Origin',(-9.59253280233995E-18,-3.84461378433255E-18,
0.));
#86=UNCERTAINTY_MEASURE_WITH_UNIT(LENGTH_MEASURE(0.000393700787401575),
#90,'DISTANCE_ACCURACY_VALUE',
'Maximum model space distance between geometric entities at asserted c
onnectivities');
#87=UNCERTAINTY_MEASURE_WITH_UNIT(LENGTH_MEASURE(1.E-6),#91,
'DISTANCE_ACCURACY_VALUE',
'Maximum model space distance between geometric entities at asserted c
onnectivities');
#88=(
GEOMETRIC_REPRESENTATION_CONTEXT(3)
GLOBAL_UNCERTAINTY_ASSIGNED_CONTEXT((#86))
GLOBAL_UNIT_ASSIGNED_CONTEXT((#90,#96,#93))
REPRESENTATION_CONTEXT('','3D')
);
#89=(
GEOMETRIC_REPRESENTATION_CONTEXT(3)
GLOBAL_UNCERTAINTY_ASSIGNED_CONTEXT((#87))
GLOBAL_UNIT_ASSIGNED_CONTEXT((#91,#96,#93))
REPRESENTATION_CONTEXT('','3D')
);
#90=(
CONVERSION_BASED_UNIT('__CONSTANT UNIT inch',#92)
LENGTH_UNIT()
NAMED_UNIT(#95)
);
#91=(
LENGTH_UNIT()
NAMED_UNIT(*)
SI_UNIT(.MILLI.,.METRE.)
);
#92=LENGTH_MEASURE_WITH_UNIT(LENGTH_MEASURE(25.4),#91);
#93=(
NAMED_UNIT(*)
SI_UNIT($,.STERADIAN.)
SOLID_ANGLE_UNIT()
);
#94=DIMENSIONAL_EXPONENTS(0.,0.,0.,0.,0.,0.,0.);
#95=DIMENSIONAL_EXPONENTS(1.,0.,0.,0.,0.,0.,0.);
#96=(
CONVERSION_BASED_UNIT('degree',#98)
NAMED_UNIT(#94)
PLANE_ANGLE_UNIT()
);
#97=(
NAMED_UNIT(*)
PLANE_ANGLE_UNIT()
SI_UNIT($,.RADIAN.)
);
#98=PLANE_ANGLE_MEASURE_WITH_UNIT(PLANE_ANGLE_MEASURE(0.01745329252),#97);
#99=SHAPE_DEFINITION_REPRESENTATION(#100,#101);
#100=PRODUCT_DEFINITION_SHAPE('',$,#103);
#101=SHAPE_REPRESENTATION('',(#51),#88);
#102=PRODUCT_DEFINITION_CONTEXT('part definition',#107,'design');
#103=PRODUCT_DEFINITION('plug','plug',#104,#102);
#104=PRODUCT_DEFINITION_FORMATION('',$,#109);
#105=PRODUCT_RELATED_PRODUCT_CATEGORY('plug','plug',(#109));
#106=APPLICATION_PROTOCOL_DEFINITION('international standard',
'automotive_design',2009,#107);
#107=APPLICATION_CONTEXT(
'Core Data for Automotive Mechanical Design Process');
#108=PRODUCT_CONTEXT('part definition',#107,'mechanical');
#109=PRODUCT('plug','plug',$,(#108));
#110=PRESENTATION_STYLE_ASSIGNMENT((#111));
#111=SURFACE_STYLE_USAGE(.BOTH.,#112);
#112=SURFACE_SIDE_STYLE('',(#113));
#113=SURFACE_STYLE_FILL_AREA(#114);
#114=FILL_AREA_STYLE('',(#115));
#115=FILL_AREA_STYLE_COLOUR('',#116);
#116=COLOUR_RGB('',0.372549019607843,0.,0.729411764705882);
ENDSEC;
END-ISO-10303-21;
