  0
SECTION
  2
HEADER
  9
$ACADVER
  1
AC1024
  9
$ACADMAINTVER
 70
     6
  9
$DWGCODEPAGE
  3
DOS850
  9
$INSBASE
 10
0.0
 20
0.0
 30
0.0
  9
$EXTMIN
 10
0.0
 20
0.0
 30
0.0
  9
$EXTMAX
 10
1000.0
 20
1000.0
 30
1000.0
  9
$LIMMIN
 10
0.0
 20
0.0
  9
$LIMMAX
 10
420.0
 20
297.0
  9
$ORTHOMODE
 70
     0
  9
$REGENMODE
 70
     1
  9
$FILLMODE
 70
     1
  9
$QTEXTMODE
 70
     0
  9
$MIRRTEXT
 70
     1
  9
$LTSCALE
 40
1.0
  9
$ATTMODE
 70
     1
  9
$TEXTSIZE
 40
2.5
  9
$TRACEWID
 40
1.0
  9
$TEXTSTYLE
  7
STANDARD
  9
$CLAYER
  8
0
  9
$CELTYPE
  6
ByLayer
  9
$CECOLOR
 62
   256
  9
$CELTSCALE
 40
1.0
  9
$DISPSILH
 70
     0
  9
$DIMSCALE
 40
1.0
  9
$DIMASZ
 40
2.5
  9
$DIMEXO
 40
0.625
  9
$DIMDLI
 40
3.75
  9
$DIMRND
 40
0.0
  9
$DIMDLE
 40
0.0
  9
$DIMEXE
 40
1.25
  9
$DIMTP
 40
0.0
  9
$DIMTM
 40
0.0
  9
$DIMTXT
 40
2.5
  9
$DIMCEN
 40
2.5
  9
$DIMTSZ
 40
0.0
  9
$DIMTOL
 70
     0
  9
$DIMLIM
 70
     0
  9
$DIMTIH
 70
     0
  9
$DIMTOH
 70
     0
  9
$DIMSE1
 70
     0
  9
$DIMSE2
 70
     0
  9
$DIMTAD
 70
     1
  9
$DIMZIN
 70
     8
  9
$DIMBLK
  1

  9
$DIMASO
 70
     1
  9
$DIMSHO
 70
     1
  9
$DIMPOST
  1

  9
$DIMAPOST
  1

  9
$DIMALT
 70
     0
  9
$DIMALTD
 70
     3
  9
$DIMALTF
 40
0.03937007874016
  9
$DIMLFAC
 40
1.0
  9
$DIMTOFL
 70
     1
  9
$DIMTVP
 40
0.0
  9
$DIMTIX
 70
     0
  9
$DIMSOXD
 70
     0
  9
$DIMSAH
 70
     0
  9
$DIMBLK1
  1

  9
$DIMBLK2
  1

  9
$DIMSTYLE
  2
ISO-25
  9
$DIMCLRD
 70
     0
  9
$DIMCLRE
 70
     0
  9
$DIMCLRT
 70
     0
  9
$DIMTFAC
 40
1.0
  9
$DIMGAP
 40
0.625
  9
$DIMJUST
 70
     0
  9
$DIMSD1
 70
     0
  9
$DIMSD2
 70
     0
  9
$DIMTOLJ
 70
     1
  9
$DIMTZIN
 70
     0
  9
$DIMALTZ
 70
     0
  9
$DIMALTTZ
 70
     0
  9
$DIMUPT
 70
     0
  9
$DIMDEC
 70
     4
  9
$DIMTDEC
 70
     4
  9
$DIMALTU
 70
     2
  9
$DIMALTTD
 70
     2
  9
$DIMTXSTY
  7
STANDARD
  9
$DIMAUNIT
 70
     0
  9
$DIMADEC
 70
     0
  9
$DIMALTRND
 40
0.0
  9
$DIMAZIN
 70
     0
  9
$DIMDSEP
 70
    46
  9
$DIMATFIT
 70
     3
  9
$DIMFRAC
 70
     0
  9
$DIMLDRBLK
  1

  9
$DIMLUNIT
 70
     2
  9
$DIMLWD
 70
    -2
  9
$DIMLWE
 70
    -2
  9
$DIMTMOVE
 70
     2
  9
$DIMFXL
 40
1.0
  9
$DIMFXLON
 70
     0
  9
$DIMJOGANG
 40
0.7853981633974483
  9
$DIMTFILL
 70
     0
  9
$DIMTFILLCLR
 70
     0
  9
$DIMARCSYM
 70
     0
  9
$DIMLTYPE
  6

  9
$DIMLTEX1
  6

  9
$DIMLTEX2
  6

  9
$DIMTXTDIRECTION
 70
     0
  9
$LUNITS
 70
     2
  9
$LUPREC
 70
     4
  9
$SKETCHINC
 40
1.0
  9
$FILLETRAD
 40
10.0
  9
$AUNITS
 70
     0
  9
$AUPREC
 70
     0
  9
$MENU
  1
.
  9
$ELEVATION
 40
0.0
  9
$PELEVATION
 40
0.0
  9
$THICKNESS
 40
0.0
  9
$LIMCHECK
 70
     0
  9
$CHAMFERA
 40
10.0
  9
$CHAMFERB
 40
10.0
  9
$CHAMFERC
 40
1.0
  9
$CHAMFERD
 40
0.0
  9
$SKPOLY
 70
     0
  9
$TDCREATE
 40
2456264.838657408
  9
$TDUCREATE
 40
2456264.796990741
  9
$TDUPDATE
 40
2456264.849651285
  9
$TDUUPDATE
 40
2456264.807984618
  9
$TDINDWG
 40
0.0000000116
  9
$TDUSRTIMER
 40
2456264.799651504
  9
$USRTIMER
 70
     1
  9
$ANGBASE
 50
0.0
  9
$ANGDIR
 70
     0
  9
$PDMODE
 70
     0
  9
$PDSIZE
 40
0.0
  9
$PLINEWID
 40
0.0
  9
$SPLFRAME
 70
     0
  9
$SPLINETYPE
 70
     6
  9
$SPLINESEGS
 70
     8
  9
$HANDSEED
  5
1E7
  9
$SURFTAB1
 70
     6
  9
$SURFTAB2
 70
     6
  9
$SURFTYPE
 70
     6
  9
$SURFU
 70
     6
  9
$SURFV
 70
     6
  9
$UCSBASE
  2

  9
$UCSNAME
  2

  9
$UCSORG
 10
0.0
 20
0.0
 30
0.0
  9
$UCSXDIR
 10
1.0
 20
0.0
 30
0.0
  9
$UCSYDIR
 10
0.0
 20
1.0
 30
0.0
  9
$UCSORTHOREF
  2

  9
$UCSORTHOVIEW
 70
     0
  9
$UCSORGTOP
 10
0.0
 20
0.0
 30
0.0
  9
$UCSORGBOTTOM
 10
0.0
 20
0.0
 30
0.0
  9
$UCSORGLEFT
 10
0.0
 20
0.0
 30
0.0
  9
$UCSORGRIGHT
 10
0.0
 20
0.0
 30
0.0
  9
$UCSORGFRONT
 10
0.0
 20
0.0
 30
0.0
  9
$UCSORGBACK
 10
0.0
 20
0.0
 30
0.0
  9
$PUCSBASE
  2

  9
$PUCSNAME
  2

  9
$PUCSORG
 10
0.0
 20
0.0
 30
0.0
  9
$PUCSXDIR
 10
1.0
 20
0.0
 30
0.0
  9
$PUCSYDIR
 10
0.0
 20
1.0
 30
0.0
  9
$PUCSORTHOREF
  2

  9
$PUCSORTHOVIEW
 70
     0
  9
$PUCSORGTOP
 10
0.0
 20
0.0
 30
0.0
  9
$PUCSORGBOTTOM
 10
0.0
 20
0.0
 30
0.0
  9
$PUCSORGLEFT
 10
0.0
 20
0.0
 30
0.0
  9
$PUCSORGRIGHT
 10
0.0
 20
0.0
 30
0.0
  9
$PUCSORGFRONT
 10
0.0
 20
0.0
 30
0.0
  9
$PUCSORGBACK
 10
0.0
 20
0.0
 30
0.0
  9
$USERI1
 70
     0
  9
$USERI2
 70
     0
  9
$USERI3
 70
     0
  9
$USERI4
 70
     0
  9
$USERI5
 70
     0
  9
$USERR1
 40
0.0
  9
$USERR2
 40
0.0
  9
$USERR3
 40
0.0
  9
$USERR4
 40
0.0
  9
$USERR5
 40
0.0
  9
$WORLDVIEW
 70
     1
  9
$SHADEDGE
 70
     3
  9
$SHADEDIF
 70
    70
  9
$TILEMODE
 70
     1
  9
$MAXACTVP
 70
    64
  9
$PINSBASE
 10
0.0
 20
0.0
 30
0.0
  9
$PLIMCHECK
 70
     0
  9
$PEXTMIN
 10
0.0
 20
0.0
 30
0.0
  9
$PEXTMAX
 10
1000.0
 20
1000.0
 30
0.0
  9
$PLIMMIN
 10
0.0
 20
0.0
  9
$PLIMMAX
 10
0.0
 20
0.0
  9
$UNITMODE
 70
     0
  9
$VISRETAIN
 70
     1
  9
$PLINEGEN
 70
     0
  9
$PSLTSCALE
 70
     1
  9
$TREEDEPTH
 70
  3020
  9
$CMLSTYLE
  2
Standard
  9
$CMLJUST
 70
     0
  9
$CMLSCALE
 40
1.0
  9
$PROXYGRAPHICS
 70
     1
  9
$MEASUREMENT
 70
     0
  9
$CELWEIGHT
370
    -1
  9
$ENDCAPS
280
     0
  9
$JOINSTYLE
280
     0
  9
$LWDISPLAY
290
     0
  9
$INSUNITS
 70
     0
  9
$HYPERLINKBASE
  1

  9
$STYLESHEET
  1

  9
$XEDIT
290
     1
  9
$CEPSNTYPE
380
     0
  9
$PSTYLEMODE
290
     1
  9
$FINGERPRINTGUID
  2
{468A48EA-4FA9-463B-A4D4-93CB5B6A34F3}
  9
$VERSIONGUID
  2
{FAEB1C32-E019-11D5-929B-00C0DF256EC4}
  9
$EXTNAMES
290
     1
  9
$PSVPSCALE
 40
0.0
  9
$OLESTARTUP
290
     0
  9
$SORTENTS
280
   127
  9
$INDEXCTL
280
     0
  9
$HIDETEXT
280
     1
  9
$XCLIPFRAME
280
     2
  9
$HALOGAP
280
     0
  9
$OBSCOLOR
 70
   257
  9
$OBSLTYPE
280
     0
  9
$INTERSECTIONDISPLAY
280
     0
  9
$INTERSECTIONCOLOR
 70
   257
  9
$DIMASSOC
280
     2
  9
$PROJECTNAME
  1

  9
$CAMERADISPLAY
290
     0
  9
$LENSLENGTH
 40
50.0
  9
$CAMERAHEIGHT
 40
0.0
  9
$STEPSPERSEC
 40
2.0
  9
$STEPSIZE
 40
6.0
  9
$3DDWFPREC
 40
2.0
  9
$PSOLWIDTH
 40
0.25
  9
$PSOLHEIGHT
 40
4.0
  9
$LOFTANG1
 40
1.570796326794897
  9
$LOFTANG2
 40
1.570796326794897
  9
$LOFTMAG1
 40
0.0
  9
$LOFTMAG2
 40
0.0
  9
$LOFTPARAM
 70
     7
  9
$LOFTNORMALS
280
     1
  9
$LATITUDE
 40
37.795
  9
$LONGITUDE
 40
-122.394
  9
$NORTHDIRECTION
 40
0.0
  9
$TIMEZONE
 70
 -8000
  9
$LIGHTGLYPHDISPLAY
280
     1
  9
$TILEMODELIGHTSYNCH
280
     1
  9
$SOLIDHIST
280
     1
  9
$SHOWHIST
280
     1
  9
$DWFFRAME
280
     2
  9
$DGNFRAME
280
     2
  9
$REALWORLDSCALE
290
     1
  9
$INTERFERECOLOR
 62
   256
  9
$CSHADOW
280
     0
  9
$SHADOWPLANELOCATION
 40
0.0
  0
ENDSEC
  0
SECTION
  2
CLASSES
  0
CLASS
  1
ACDBDICTIONARYWDFLT
  2
AcDbDictionaryWithDefault
  3
ObjectDBX Classes
 90
        0
 91
        7
280
     0
281
     0
  0
CLASS
  1
MATERIAL
  2
AcDbMaterial
  3
ObjectDBX Classes
 90
     1153
 91
        7
280
     0
281
     0
  0
CLASS
  1
SCALE
  2
AcDbScale
  3
ObjectDBX Classes
 90
     1153
 91
        7
280
     0
281
     0
  0
CLASS
  1
VISUALSTYLE
  2
AcDbVisualStyle
  3
ObjectDBX Classes
 90
     4095
 91
        7
280
     0
281
     0
  0
CLASS
  1
TABLESTYLE
  2
AcDbTableStyle
  3
ObjectDBX Classes
 90
     4095
 91
        7
280
     0
281
     0
  0
CLASS
  1
RASTERVARIABLES
  2
AcDbRasterVariables
  3
ISM
 90
        0
 91
        7
280
     0
281
     0
  0
CLASS
  1
DICTIONARYVAR
  2
AcDbDictionaryVar
  3
ObjectDBX Classes
 90
        0
 91
        7
280
     0
281
     0
  0
CLASS
  1
CELLSTYLEMAP
  2
AcDbCellStyleMap
  3
ObjectDBX Classes
 90
     1152
 91
        7
280
     0
281
     0
  0
ENDSEC
  0
SECTION
  2
TABLES
  0
TABLE
  2
VPORT
  5
145
330
0
100
AcDbSymbolTable
 70
     1
  0
VPORT
  5
15C
330
145
100
AcDbSymbolTableRecord
100
AcDbViewportTableRecord
  2
*ACTIVE
 70
     0
 10
0.0
 20
0.0
 11
1.0
 21
1.0
 12
15.9022640178964
 22
1.181164628831102
 13
0.0
 23
0.0
 14
10.0
 24
10.0
 15
10.0
 25
10.0
 16
0.0
 26
0.0
 36
1.0
 17
0.0
 27
0.0
 37
0.0
 40
53.35049715934909
 41
1.818181818181818
 42
50.0
 43
0.0
 44
0.0
 50
0.0
 51
0.0
 71
    16
 72
   100
 73
     1
 74
     3
 75
     0
 76
     0
 77
     0
 78
     0
281
     0
 65
     0
110
0.0
120
0.0
130
0.0
111
1.0
121
0.0
131
0.0
112
0.0
122
1.0
132
0.0
 79
     0
146
0.0
 60
     3
 61
     5
292
     1
282
     1
141
0.0
142
0.0
 63
   256
  0
ENDTAB
  0
TABLE
  2
LTYPE
  5
142
330
0
100
AcDbSymbolTable
 70
     4
  0
LTYPE
  5
150
330
142
100
AcDbSymbolTableRecord
100
AcDbLinetypeTableRecord
  2
ByBlock
 70
     0
  3

 72
    65
 73
     0
 40
0.0
  0
LTYPE
  5
151
330
142
100
AcDbSymbolTableRecord
100
AcDbLinetypeTableRecord
  2
ByLayer
 70
     0
  3

 72
    65
 73
     0
 40
0.0
  0
LTYPE
  5
152
330
142
100
AcDbSymbolTableRecord
100
AcDbLinetypeTableRecord
  2
CONTINUOUS
 70
     0
  3
Solid line
 72
    65
 73
     0
 40
0.0
  0
LTYPE
  5
15E
330
142
100
AcDbSymbolTableRecord
100
AcDbLinetypeTableRecord
  2
CNS_SOLID
 70
     0
  3

 72
    65
 73
     0
 40
0.0
  0
LTYPE
  5
15F
330
142
100
AcDbSymbolTableRecord
100
AcDbLinetypeTableRecord
  2
CNS_DASHED
 70
     0
  3

 72
    65
 73
     2
 40
2.0
 49
1.0
 74
     0
 49
-1.0
 74
     0
  0
LTYPE
  5
160
330
142
100
AcDbSymbolTableRecord
100
AcDbLinetypeTableRecord
  2
CNS_CENTER
 70
     0
  3

 72
    65
 73
     4
 40
1.5
 49
0.45
 74
     0
 49
-0.5
 74
     0
 49
0.05
 74
     0
 49
-0.5
 74
     0
  0
ENDTAB
  0
TABLE
  2
LAYER
  5
13F
330
0
100
AcDbSymbolTable
 70
     8
  0
LAYER
  5
14D
330
13F
100
AcDbSymbolTableRecord
100
AcDbLayerTableRecord
  2
0
 70
     0
 62
     7
  6
CONTINUOUS
370
    -3
390
14C
347
165
  0
LAYER
  5
166
330
13F
100
AcDbSymbolTableRecord
100
AcDbLayerTableRecord
  2
VIS
 70
     0
 62
     7
  6
CNS_SOLID
370
    -3
390
14C
347
165
  0
LAYER
  5
167
330
13F
100
AcDbSymbolTableRecord
100
AcDbLayerTableRecord
  2
THIN
 70
     0
 62
     7
  6
CNS_SOLID
370
    -3
390
14C
347
165
  0
LAYER
  5
168
330
13F
100
AcDbSymbolTableRecord
100
AcDbLayerTableRecord
  2
HIDDEN
 70
     0
 62
     7
  6
CNS_DASHED
370
    -3
390
14C
347
165
  0
LAYER
  5
169
330
13F
100
AcDbSymbolTableRecord
100
AcDbLayerTableRecord
  2
CENTER
 70
     0
 62
     7
  6
CNS_CENTER
370
    -3
390
14C
347
165
  0
LAYER
  5
16A
330
13F
100
AcDbSymbolTableRecord
100
AcDbLayerTableRecord
  2
CENTER1
 70
     0
 62
     7
  6
CNS_CENTER
370
    -3
390
14C
347
165
  0
LAYER
  5
16B
330
13F
100
AcDbSymbolTableRecord
100
AcDbLayerTableRecord
  2
THREAD
 70
     0
 62
     7
  6
CNS_SOLID
370
    -3
390
14C
347
165
  0
LAYER
  5
16C
330
13F
100
AcDbSymbolTableRecord
100
AcDbLayerTableRecord
  2
ATTRIB
 70
     0
 62
     7
  6
CNS_SOLID
370
    -3
390
14C
347
165
  0
ENDTAB
  0
TABLE
  2
STYLE
  5
140
330
0
100
AcDbSymbolTable
 70
     1
  0
STYLE
  5
14E
330
140
100
AcDbSymbolTableRecord
100
AcDbTextStyleTableRecord
  2
STANDARD
 70
     0
 40
0.0
 41
1.0
 50
0.0
 71
     0
 42
2.5
  3
txt
  4

  0
ENDTAB
  0
TABLE
  2
VIEW
  5
143
330
0
100
AcDbSymbolTable
 70
     0
  0
ENDTAB
  0
TABLE
  2
UCS
  5
144
330
0
100
AcDbSymbolTable
 70
     0
  0
ENDTAB
  0
TABLE
  2
APPID
  5
146
330
0
100
AcDbSymbolTable
 70
     1
  0
APPID
  5
14F
330
146
100
AcDbSymbolTableRecord
100
AcDbRegAppTableRecord
  2
ACAD
 70
     0
  0
ENDTAB
  0
TABLE
  2
DIMSTYLE
  5
147
330
0
100
AcDbSymbolTable
 70
     1
100
AcDbDimStyleTable
  0
DIMSTYLE
105
16F
330
147
100
AcDbSymbolTableRecord
100
AcDbDimStyleTableRecord
  2
ISO-25
 70
     0
 41
2.5
 42
0.625
 43
3.75
 44
1.25
 73
     0
 74
     0
 77
     1
 78
     8
140
2.5
141
2.5
143
0.03937007874016
147
0.625
171
     3
172
     1
178
     0
340
14E
  0
ENDTAB
  0
TABLE
  2
BLOCK_RECORD
  5
13E
330
0
100
AcDbSymbolTable
 70
     0
  0
BLOCK_RECORD
  5
159
330
13E
100
AcDbSymbolTableRecord
100
AcDbBlockTableRecord
  2
*Model_Space
340
15A
 70
     0
280
     1
281
     0
  0
BLOCK_RECORD
  5
157
330
13E
100
AcDbSymbolTableRecord
100
AcDbBlockTableRecord
  2
*Paper_Space
340
158
 70
     0
280
     1
281
     0
  0
ENDTAB
  0
ENDSEC
  0
SECTION
  2
BLOCKS
  0
BLOCK
  5
170
330
159
100
AcDbEntity
  8
0
100
AcDbBlockBegin
  2
*Model_Space
 70
     0
 10
0.0
 20
0.0
 30
0.0
  3
*Model_Space
  1

  0
ENDBLK
  5
21
330
159
100
AcDbEntity
  8
0
100
AcDbBlockEnd
  0
BLOCK
  5
171
330
157
100
AcDbEntity
 67
     1
  8
0
100
AcDbBlockBegin
  2
*Paper_Space
 70
     0
 10
0.0
 20
0.0
 30
0.0
  3
*Paper_Space
  1

  0
ENDBLK
  5
1D
330
157
100
AcDbEntity
 67
     1
  8
0
100
AcDbBlockEnd
  0
ENDSEC
  0
SECTION
  2
ENTITIES
  0
ARC
  5
35
330
159
100
AcDbEntity
  8
HIDDEN
 62
     3
100
AcDbCircle
 10
-0.0000000000000955
 20
-0.000000000000286
 30
0.0
 40
7.8300000000003
100
AcDbArc
 50
66.85779094117109
 51
77.14220905882888
  0
CIRCLE
  5
3A
330
159
100
AcDbEntity
  8
VIS
 62
     1
100
AcDbCircle
 10
0.0000000000000001
 20
0.0
 30
0.0
 40
3.165
  0
ARC
  5
3B
330
159
100
AcDbEntity
  8
HIDDEN
 62
     3
100
AcDbCircle
 10
-1.606680762367862
 20
7.038961352915428
 30
0.0
 40
0.6100000000000004
100
AcDbArc
 50
25.00000000000011
 51
102.8577909411709
  0
LINE
  5
3C
330
159
100
AcDbEntity
  8
HIDDEN
 62
     3
100
AcDbLine
 10
-1.053833012275505
 20
7.296758492577256
 30
0.0
 11
-0.8116724188767411
 21
6.777443424158905
 31
0.0
  0
ARC
  5
3D
330
159
100
AcDbEntity
  8
HIDDEN
 62
     3
100
AcDbCircle
 10
-0.2588246687843832
 20
7.035240563820735
 30
0.0
 40
0.6100000000000025
100
AcDbArc
 50
205.0000000000002
 51
272.1069465812248
  0
ARC
  5
3E
330
159
100
AcDbEntity
  8
HIDDEN
 62
     3
100
AcDbCircle
 10
-0.0000000000000496
 20
0.0000000000001235
 30
0.0
 40
6.429999999999875
100
AcDbArc
 50
87.89305266765905
 51
92.1069465812245
  0
ARC
  5
3F
330
159
100
AcDbEntity
  8
HIDDEN
 62
     3
100
AcDbCircle
 10
0.2588246687843706
 20
7.035240563820744
 30
0.0
 40
0.6100000000000178
100
AcDbArc
 50
267.8930613362733
 51
334.9999999999993
  0
LINE
  5
40
330
159
100
AcDbEntity
  8
HIDDEN
 62
     3
100
AcDbLine
 10
0.8116724188767401
 20
6.777443424158903
 30
0.0
 11
1.053833012275506
 21
7.296758492577256
 31
0.0
  0
ARC
  5
41
330
159
100
AcDbEntity
  8
HIDDEN
 62
     3
100
AcDbCircle
 10
1.606680762367863
 20
7.038961352915427
 30
0.0
 40
0.6100000000000014
100
AcDbArc
 50
77.14220905882912
 51
154.9999999999999
  0
ARC
  5
42
330
159
100
AcDbEntity
  8
HIDDEN
 62
     3
100
AcDbCircle
 10
-0.0000000000000249
 20
0.0000000000000506
 30
0.0
 40
7.829999999999944
100
AcDbArc
 50
102.8577909411708
 51
113.1422090588291
  0
ARC
  5
43
330
159
100
AcDbEntity
  8
HIDDEN
 62
     3
100
AcDbCircle
 10
-5.43722971599126
 20
4.750256099995196
 30
0.0
 40
0.6099999999999997
100
AcDbArc
 50
61.00000000000006
 51
138.8577909411711
  0
LINE
  5
44
330
159
100
AcDbEntity
  8
HIDDEN
 62
     3
100
AcDbLine
 10
-5.141495847640995
 20
5.283774121350228
 30
0.0
 11
-4.64033807370391
 21
5.005977831050981
 31
0.0
  0
ARC
  5
45
330
159
100
AcDbEntity
  8
HIDDEN
 62
     3
100
AcDbCircle
 10
-4.344604205353645
 20
5.539495852406017
 30
0.0
 40
0.6100000000000035
100
AcDbArc
 50
241.0000000000003
 51
308.1069465812246
  0
ARC
  5
46
330
159
100
AcDbEntity
  8
HIDDEN
 62
     3
100
AcDbCircle
 10
0.0000000000001035
 20
-0.0000000000000142
 30
0.0
 40
6.430000000000075
100
AcDbArc
 50
123.8930526676602
 51
128.1069465812256
  0
ARC
  5
47
330
159
100
AcDbEntity
  8
HIDDEN
 62
     3
100
AcDbCircle
 10
-3.925817094133598
 20
5.843762498887904
 30
0.0
 40
0.6100000000000195
100
AcDbArc
 50
303.8930613362735
 51
10.99999999999932
  0
LINE
  5
48
330
159
100
AcDbEntity
  8
HIDDEN
 62
     3
100
AcDbLine
 10
-3.327024512230501
 20
5.960155986067593
 30
0.0
 11
-3.436358215312542
 21
6.522629127339219
 31
0.0
  0
ARC
  5
49
330
159
100
AcDbEntity
  8
HIDDEN
 62
     3
100
AcDbCircle
 10
-2.837565633409466
 20
6.639022614518909
 30
0.0
 40
0.6100000000000015
100
AcDbArc
 50
113.1422090588292
 51
190.9999999999998
  0
ARC
  5
4A
330
159
100
AcDbEntity
  8
HIDDEN
 62
     3
100
AcDbCircle
 10
0.0000000000001821
 20
-0.0000000000001306
 30
0.0
 40
7.830000000000223
100
AcDbArc
 50
138.8577909411711
 51
149.142209058829
  0
ARC
  5
4B
330
159
100
AcDbEntity
  8
HIDDEN
 62
     3
100
AcDbCircle
 10
-7.190941722746931
 20
0.6471144721433169
 30
0.0
 40
0.6100000000000025
100
AcDbArc
 50
97.00000000000026
 51
174.8577909411709
  0
LINE
  5
4C
330
159
100
AcDbEntity
  8
HIDDEN
 62
     3
100
AcDbLine
 10
-7.265282022224074
 20
1.252567624644525
 30
0.0
 11
-6.696552303666399
 21
1.322398853410062
 31
0.0
  0
ARC
  5
4D
330
159
100
AcDbEntity
  8
HIDDEN
 62
     3
100
AcDbCircle
 10
-6.770892603143541
 20
1.927852005911271
 30
0.0
 40
0.6100000000000028
100
AcDbArc
 50
277.0000000000002
 51
344.1069465812247
  0
ARC
  5
4E
330
159
100
AcDbEntity
  8
HIDDEN
 62
     3
100
AcDbCircle
 10
0.0000000000010205
 20
-0.0000000000003451
 30
0.0
 40
6.430000000001075
100
AcDbArc
 50
159.8930526676598
 51
164.1069465812245
  0
ARC
  5
4F
330
159
100
AcDbEntity
  8
HIDDEN
 62
     3
100
AcDbCircle
 10
-6.610930160707873
 20
2.420165781561904
 30
0.0
 40
0.6100000000000204
100
AcDbArc
 50
339.8930613362736
 51
46.99999999999926
  0
LINE
  5
50
330
159
100
AcDbEntity
  8
HIDDEN
 62
     3
100
AcDbLine
 10
-6.19491116106973
 20
2.866291539549608
 30
0.0
 11
-6.613977402171127
 21
3.257077131467665
 31
0.0
  0
ARC
  5
51
330
159
100
AcDbEntity
  8
HIDDEN
 62
     3
100
AcDbCircle
 10
-6.197958402533002
 20
3.703202889455359
 30
0.0
 40
0.6100000000000003
100
AcDbArc
 50
149.1422090588291
 51
227.0
  0
ARC
  5
52
330
159
100
AcDbEntity
  8
HIDDEN
 62
     3
100
AcDbCircle
 10
-0.0000000000000187
 20
0.0000000000000004
 30
0.0
 40
7.829999999999981
100
AcDbArc
 50
174.8577909411709
 51
185.1422090588291
  0
ARC
  5
53
330
159
100
AcDbEntity
  8
HIDDEN
 62
     3
100
AcDbCircle
 10
-6.197958402533
 20
-3.703202889455361
 30
0.0
 40
0.6100000000000017
100
AcDbArc
 50
133.0000000000003
 51
210.8577909411709
  0
LINE
  5
54
330
159
100
AcDbEntity
  8
HIDDEN
 62
     3
100
AcDbLine
 10
-6.613977402171127
 20
-3.257077131467667
 30
0.0
 11
-6.194911161069731
 21
-2.866291539549613
 31
0.0
  0
ARC
  5
55
330
159
100
AcDbEntity
  8
HIDDEN
 62
     3
100
AcDbCircle
 10
-6.610930160707858
 20
-2.420165781561916
 30
0.0
 40
0.6100000000000037
100
AcDbArc
 50
313.0000000000001
 51
20.10694658122463
  0
ARC
  5
56
330
159
100
AcDbEntity
  8
HIDDEN
 62
     3
100
AcDbCircle
 10
0.0000000000019567
 20
0.0000000000006724
 30
0.0
 40
6.430000000002068
100
AcDbArc
 50
195.8930526676605
 51
200.1069465812245
  0
ARC
  5
57
330
159
100
AcDbEntity
  8
HIDDEN
 62
     3
100
AcDbCircle
 10
-6.770892603143544
 20
-1.927852005911285
 30
0.0
 40
0.6100000000000144
100
AcDbArc
 50
15.89306133627307
 51
82.99999999999956
  0
LINE
  5
58
330
159
100
AcDbEntity
  8
HIDDEN
 62
     3
100
AcDbLine
 10
-6.696552303666397
 20
-1.322398853410065
 30
0.0
 11
-7.265282022224074
 21
-1.252567624644527
 31
0.0
  0
ARC
  5
59
330
159
100
AcDbEntity
  8
HIDDEN
 62
     3
100
AcDbCircle
 10
-7.190941722746937
 20
-0.6471144721433234
 30
0.0
 40
0.6099999999999964
100
AcDbArc
 50
185.1422090588287
 51
263.0000000000003
  0
ARC
  5
5A
330
159
100
AcDbEntity
  8
HIDDEN
 62
     3
100
AcDbCircle
 10
0.0000000000002949
 20
0.0000000000002176
 30
0.0
 40
7.830000000000364
100
AcDbArc
 50
210.8577909411712
 51
221.1422090588289
  0
ARC
  5
5B
330
159
100
AcDbEntity
  8
HIDDEN
 62
     3
100
AcDbCircle
 10
-2.837565633409462
 20
-6.639022614518907
 30
0.0
 40
0.6100000000000042
100
AcDbArc
 50
169.0000000000004
 51
246.8577909411707
  0
LINE
  5
5C
330
159
100
AcDbEntity
  8
HIDDEN
 62
     3
100
AcDbLine
 10
-3.436358215312542
 20
-6.522629127339218
 30
0.0
 11
-3.3270245122305
 21
-5.960155986067597
 31
0.0
  0
ARC
  5
5D
330
159
100
AcDbEntity
  8
HIDDEN
 62
     3
100
AcDbCircle
 10
-3.925817094133576
 20
-5.843762498887903
 30
0.0
 40
0.6100000000000011
100
AcDbArc
 50
348.9999999999999
 51
56.1069465812248
  0
ARC
  5
5E
330
159
100
AcDbEntity
  8
HIDDEN
 62
     3
100
AcDbCircle
 10
-0.0000000000002212
 20
-0.0000000000000915
 30
0.0
 40
6.4299999999998
100
AcDbArc
 50
231.8930526676607
 51
236.1069465812261
  0
ARC
  5
5F
330
159
100
AcDbEntity
  8
HIDDEN
 62
     3
100
AcDbCircle
 10
-4.344604205353639
 20
-5.53949585240603
 30
0.0
 40
0.6100000000000163
100
AcDbArc
 50
51.89306133627306
 51
118.9999999999994
  0
LINE
  5
60
330
159
100
AcDbEntity
  8
HIDDEN
 62
     3
100
AcDbLine
 10
-4.640338073703907
 20
-5.005977831050981
 30
0.0
 11
-5.141495847640995
 21
-5.283774121350228
 31
0.0
  0
ARC
  5
61
330
159
100
AcDbEntity
  8
HIDDEN
 62
     3
100
AcDbCircle
 10
-5.43722971599126
 20
-4.750256099995196
 30
0.0
 40
0.6099999999999997
100
AcDbArc
 50
221.1422090588291
 51
299.0000000000001
  0
ARC
  5
62
330
159
100
AcDbEntity
  8
HIDDEN
 62
     3
100
AcDbCircle
 10
0.0000000000000209
 20
0.0000000000000551
 30
0.0
 40
7.830000000000058
100
AcDbArc
 50
246.8577909411709
 51
257.142208868445
  0
ARC
  5
63
330
159
100
AcDbEntity
  8
HIDDEN
 62
     3
100
AcDbCircle
 10
1.606680749534961
 20
-7.038961386773695
 30
0.0
 40
0.6099999999999993
100
AcDbArc
 50
204.9999987925817
 51
282.8577897337527
  0
LINE
  5
64
330
159
100
AcDbEntity
  8
HIDDEN
 62
     3
100
AcDbLine
 10
1.053832994009936
 20
-7.296758514785126
 30
0.0
 11
0.8116724115549186
 21
-6.777443441263623
 31
0.0
  0
ARC
  5
65
330
159
100
AcDbEntity
  8
HIDDEN
 62
     3
100
AcDbCircle
 10
0.2588246560298906
 20
-7.035240569275058
 30
0.0
 40
0.6100000000000044
100
AcDbArc
 50
24.99999879258193
 51
92.10694537380633
  0
ARC
  5
66
330
159
100
AcDbEntity
  8
HIDDEN
 62
     3
100
AcDbCircle
 10
0.0000001355022112
 20
0.0000000000011724
 30
0.0
 40
6.430000000001169
100
AcDbArc
 50
267.8930514602408
 51
272.1069453738054
  0
ARC
  5
67
330
159
100
AcDbEntity
  8
HIDDEN
 62
     3
100
AcDbCircle
 10
-0.2588246815388614
 20
-7.035240558366421
 30
0.0
 40
0.6100000000000165
100
AcDbArc
 50
87.89306012885496
 51
154.9999987925811
  0
LINE
  5
68
330
159
100
AcDbEntity
  8
HIDDEN
 62
     3
100
AcDbLine
 10
-0.8116724261985622
 20
-6.777443407054186
 30
0.0
 11
-1.053833030541075
 21
-7.296758470369386
 31
0.0
  0
ARC
  5
69
330
159
100
AcDbEntity
  8
HIDDEN
 62
     3
100
AcDbCircle
 10
-1.606680775200765
 20
-7.038961319057159
 30
0.0
 40
0.6100000000000044
100
AcDbArc
 50
257.1422078514111
 51
334.9999987925814
  0
ARC
  5
6A
330
159
100
AcDbEntity
  8
HIDDEN
 62
     3
100
AcDbCircle
 10
0.000000000000091
 20
-0.0000000000002576
 30
0.0
 40
7.829999999999727
100
AcDbArc
 50
282.8577907507866
 51
293.1422090588292
  0
ARC
  5
6B
330
159
100
AcDbEntity
  8
HIDDEN
 62
     3
100
AcDbCircle
 10
5.437229715991259
 20
-4.750256099995194
 30
0.0
 40
0.6100000000000035
100
AcDbArc
 50
241.0000000000003
 51
318.8577909411708
  0
LINE
  5
6C
330
159
100
AcDbEntity
  8
HIDDEN
 62
     3
100
AcDbLine
 10
5.141495847640994
 20
-5.28377412135023
 30
0.0
 11
4.64033807370391
 21
-5.005977831050982
 31
0.0
  0
ARC
  5
6D
330
159
100
AcDbEntity
  8
HIDDEN
 62
     3
100
AcDbCircle
 10
4.344604205353645
 20
-5.539495852406017
 30
0.0
 40
0.6100000000000028
100
AcDbArc
 50
61.00000000000022
 51
128.1069465812248
  0
ARC
  5
6E
330
159
100
AcDbEntity
  8
HIDDEN
 62
     3
100
AcDbCircle
 10
-0.0000000000009277
 20
0.0000000000010942
 30
0.0
 40
6.430000000001433
100
AcDbArc
 50
303.893052667661
 51
308.1069465812254
  0
ARC
  5
6F
330
159
100
AcDbEntity
  8
HIDDEN
 62
     3
100
AcDbCircle
 10
3.925817094133592
 20
-5.843762498887904
 30
0.0
 40
0.6100000000000155
100
AcDbArc
 50
123.8930613362732
 51
190.9999999999996
  0
LINE
  5
70
330
159
100
AcDbEntity
  8
HIDDEN
 62
     3
100
AcDbLine
 10
3.3270245122305
 20
-5.960155986067595
 30
0.0
 11
3.436358215312541
 21
-6.522629127339219
 31
0.0
  0
ARC
  5
71
330
159
100
AcDbEntity
  8
HIDDEN
 62
     3
100
AcDbCircle
 10
2.837565633409466
 20
-6.63902261451891
 30
0.0
 40
0.6100000000000002
100
AcDbArc
 50
293.142209058829
 51
10.99999999999994
  0
ARC
  5
72
330
159
100
AcDbEntity
  8
HIDDEN
 62
     3
100
AcDbCircle
 10
0.0000000000000204
 20
-0.0000000000000213
 30
0.0
 40
7.829999999999971
100
AcDbArc
 50
318.8577909411709
 51
329.1422090588292
  0
ARC
  5
73
330
159
100
AcDbEntity
  8
HIDDEN
 62
     3
100
AcDbCircle
 10
7.190941722746932
 20
-0.6471144721433174
 30
0.0
 40
0.6100000000000023
100
AcDbArc
 50
277.0000000000002
 51
354.8577909411708
  0
LINE
  5
74
330
159
100
AcDbEntity
  8
HIDDEN
 62
     3
100
AcDbLine
 10
7.265282022224074
 20
-1.252567624644527
 30
0.0
 11
6.696552303666399
 21
-1.322398853410063
 31
0.0
  0
ARC
  5
75
330
159
100
AcDbEntity
  8
HIDDEN
 62
     3
100
AcDbCircle
 10
6.770892603143541
 20
-1.927852005911271
 30
0.0
 40
0.6100000000000025
100
AcDbArc
 50
97.00000000000017
 51
164.1069465812248
  0
ARC
  5
76
330
159
100
AcDbEntity
  8
HIDDEN
 62
     3
100
AcDbCircle
 10
0.0000000000003197
 20
-0.0000000000000311
 30
0.0
 40
6.429999999999684
100
AcDbArc
 50
339.8930526676588
 51
344.1069465812245
  0
ARC
  5
77
330
159
100
AcDbEntity
  8
HIDDEN
 62
     3
100
AcDbCircle
 10
6.610930160707872
 20
-2.420165781561907
 30
0.0
 40
0.6100000000000187
100
AcDbArc
 50
159.8930613362732
 51
226.9999999999993
  0
LINE
  5
78
330
159
100
AcDbEntity
  8
HIDDEN
 62
     3
100
AcDbLine
 10
6.194911161069729
 20
-2.86629153954961
 30
0.0
 11
6.613977402171127
 21
-3.257077131467666
 31
0.0
  0
ARC
  5
79
330
159
100
AcDbEntity
  8
HIDDEN
 62
     3
100
AcDbCircle
 10
6.197958402532999
 20
-3.703202889455361
 30
0.0
 40
0.6100000000000032
100
AcDbArc
 50
329.1422090588292
 51
46.99999999999977
  0
ARC
  5
7A
330
159
100
AcDbEntity
  8
HIDDEN
 62
     3
100
AcDbCircle
 10
0.0000000000000586
 20
0.0
 30
0.0
 40
7.829999999999942
100
AcDbArc
 50
354.8577909411708
 51
5.142209058829168
  0
ARC
  5
7B
330
159
100
AcDbEntity
  8
HIDDEN
 62
     3
100
AcDbCircle
 10
6.197958402533003
 20
3.70320288945536
 30
0.0
 40
0.6099999999999999
100
AcDbArc
 50
312.9999999999999
 51
30.857790941171
  0
LINE
  5
7C
330
159
100
AcDbEntity
  8
HIDDEN
 62
     3
100
AcDbLine
 10
6.613977402171127
 20
3.257077131467666
 30
0.0
 11
6.194911161069731
 21
2.866291539549612
 31
0.0
  0
ARC
  5
7D
330
159
100
AcDbEntity
  8
HIDDEN
 62
     3
100
AcDbCircle
 10
6.610930160707861
 20
2.420165781561916
 30
0.0
 40
0.6100000000000051
100
AcDbArc
 50
133.0000000000003
 51
200.1069465812246
  0
ARC
  5
7E
330
159
100
AcDbEntity
  8
HIDDEN
 62
     3
100
AcDbCircle
 10
0.000000000000659
 20
0.0000000000001728
 30
0.0
 40
6.429999999999321
100
AcDbArc
 50
15.89305266765967
 51
20.10694658122546
  0
ARC
  5
7F
330
159
100
AcDbEntity
  8
HIDDEN
 62
     3
100
AcDbCircle
 10
6.770892603143549
 20
1.927852005911291
 30
0.0
 40
0.6100000000000222
100
AcDbArc
 50
195.8930613362735
 51
262.9999999999991
  0
LINE
  5
80
330
159
100
AcDbEntity
  8
HIDDEN
 62
     3
100
AcDbLine
 10
6.696552303666397
 20
1.322398853410063
 30
0.0
 11
7.265282022224074
 21
1.252567624644526
 31
0.0
  0
ARC
  5
81
330
159
100
AcDbEntity
  8
HIDDEN
 62
     3
100
AcDbCircle
 10
7.190941722746932
 20
0.6471144721433193
 30
0.0
 40
0.6100000000000002
100
AcDbArc
 50
5.142209058828946
 51
82.99999999999982
  0
ARC
  5
82
330
159
100
AcDbEntity
  8
HIDDEN
 62
     3
100
AcDbCircle
 10
0.0000000000000462
 20
0.0000000000000409
 30
0.0
 40
7.829999999999939
100
AcDbArc
 50
30.85779094117082
 51
41.14220905882909
  0
ARC
  5
83
330
159
100
AcDbEntity
  8
HIDDEN
 62
     3
100
AcDbCircle
 10
2.837565633409466
 20
6.639022614518909
 30
0.0
 40
0.610000000000001
100
AcDbArc
 50
349.0000000000002
 51
66.85779094117095
  0
LINE
  5
84
330
159
100
AcDbEntity
  8
HIDDEN
 62
     3
100
AcDbLine
 10
3.436358215312542
 20
6.522629127339219
 30
0.0
 11
3.3270245122305
 21
5.960155986067598
 31
0.0
  0
ARC
  5
85
330
159
100
AcDbEntity
  8
HIDDEN
 62
     3
100
AcDbCircle
 10
3.925817094133584
 20
5.843762498887908
 30
0.0
 40
0.6100000000000079
100
AcDbArc
 50
169.0000000000004
 51
236.1069465812244
  0
ARC
  5
86
330
159
100
AcDbEntity
  8
HIDDEN
 62
     3
100
AcDbCircle
 10
0.0000000000002176
 20
0.0000000000000826
 30
0.0
 40
6.429999999999811
100
AcDbArc
 50
51.89305266766065
 51
56.10694658122611
  0
ARC
  5
87
330
159
100
AcDbEntity
  8
HIDDEN
 62
     3
100
AcDbCircle
 10
4.344604205353639
 20
5.539495852406032
 30
0.0
 40
0.610000000000017
100
AcDbArc
 50
231.8930613362731
 51
298.9999999999993
  0
LINE
  5
88
330
159
100
AcDbEntity
  8
HIDDEN
 62
     3
100
AcDbLine
 10
4.640338073703907
 20
5.005977831050982
 30
0.0
 11
5.141495847640995
 21
5.283774121350228
 31
0.0
  0
ARC
  5
89
330
159
100
AcDbEntity
  8
HIDDEN
 62
     3
100
AcDbCircle
 10
5.437229715991261
 20
4.750256099995202
 30
0.0
 40
0.6099999999999954
100
AcDbArc
 50
41.14220905882876
 51
119.0000000000003
  0
POINT
  5
8C
330
159
100
AcDbEntity
  8
VIS
 62
     1
100
AcDbPoint
 10
0.0000000000000005
 20
7.83
 30
8.0
210
0.0
220
1.0
230
0.0
  0
POINT
  5
8D
330
159
100
AcDbEntity
  8
VIS
 62
     1
100
AcDbPoint
 10
7.446772522591054
 20
-2.419603065955838
 30
7.999999999999999
210
0.9510565162951536
220
-0.3090169943749473
230
-5.823349263496102E-17
  0
LINE
  5
1B1
330
159
100
AcDbEntity
  8
0
100
AcDbLine
 10
-11.46842953802346
 20
-12.53738135230884
 30
0.0
 11
-11.46842953802346
 21
14.69047193446676
 31
0.0
  0
LINE
  5
1C8
330
159
100
AcDbEntity
  8
0
100
AcDbLine
 10
-9.468429538023459
 20
-12.53738135230884
 30
0.0
 11
-9.468429538023459
 21
14.69047193446676
 31
0.0
  0
LINE
  5
1C9
330
159
100
AcDbEntity
  8
0
100
AcDbLine
 10
-7.468429538023459
 20
-12.53738135230884
 30
0.0
 11
-7.468429538023459
 21
14.69047193446676
 31
0.0
  0
LINE
  5
1CA
330
159
100
AcDbEntity
  8
0
100
AcDbLine
 10
-5.468429538023459
 20
-12.53738135230884
 30
0.0
 11
-5.468429538023459
 21
14.69047193446676
 31
0.0
  0
LINE
  5
1CB
330
159
100
AcDbEntity
  8
0
100
AcDbLine
 10
-3.468429538023459
 20
-12.53738135230884
 30
0.0
 11
-3.468429538023459
 21
14.69047193446676
 31
0.0
  0
LINE
  5
1CC
330
159
100
AcDbEntity
  8
0
100
AcDbLine
 10
-1.468429538023459
 20
-12.53738135230884
 30
0.0
 11
-1.468429538023459
 21
14.69047193446676
 31
0.0
  0
LINE
  5
1CD
330
159
100
AcDbEntity
  8
0
100
AcDbLine
 10
0.5315704619765409
 20
-12.53738135230884
 30
0.0
 11
0.5315704619765409
 21
14.69047193446676
 31
0.0
  0
LINE
  5
1CE
330
159
100
AcDbEntity
  8
0
100
AcDbLine
 10
2.531570461976541
 20
-12.53738135230884
 30
0.0
 11
2.531570461976541
 21
14.69047193446676
 31
0.0
  0
LINE
  5
1CF
330
159
100
AcDbEntity
  8
0
100
AcDbLine
 10
4.531570461976541
 20
-12.53738135230884
 30
0.0
 11
4.531570461976541
 21
14.69047193446676
 31
0.0
  0
LINE
  5
1D0
330
159
100
AcDbEntity
  8
0
100
AcDbLine
 10
6.531570461976541
 20
-12.53738135230884
 30
0.0
 11
6.531570461976541
 21
14.69047193446676
 31
0.0
  0
LINE
  5
1D1
330
159
100
AcDbEntity
  8
0
100
AcDbLine
 10
8.531570461976541
 20
-12.53738135230884
 30
0.0
 11
8.531570461976541
 21
14.69047193446677
 31
0.0
  0
LINE
  5
1D2
330
159
100
AcDbEntity
  8
0
100
AcDbLine
 10
10.53157046197654
 20
-12.53738135230884
 30
0.0
 11
10.53157046197654
 21
14.69047193446677
 31
0.0
  0
LINE
  5
1D3
330
159
100
AcDbEntity
  8
0
100
AcDbLine
 10
12.53157046197654
 20
-12.53738135230884
 30
0.0
 11
12.53157046197654
 21
14.69047193446677
 31
0.0
  0
LINE
  5
1D4
330
159
100
AcDbEntity
  8
0
100
AcDbLine
 10
-11.46842953802346
 20
14.69047193446676
 30
0.0
 11
-9.468429538023459
 21
14.69047193446676
 31
0.0
  0
LINE
  5
1D5
330
159
100
AcDbEntity
  8
0
100
AcDbLine
 10
-7.468429538023459
 20
14.69047193446676
 30
0.0
 11
-5.468429538023459
 21
14.69047193446676
 31
0.0
  0
LINE
  5
1D6
330
159
100
AcDbEntity
  8
0
100
AcDbLine
 10
-3.468429538023459
 20
14.69047193446676
 30
0.0
 11
-1.468429538023459
 21
14.69047193446676
 31
0.0
  0
LINE
  5
1D7
330
159
100
AcDbEntity
  8
0
100
AcDbLine
 10
0.5315704619765409
 20
14.69047193446676
 30
0.0
 11
2.531570461976541
 21
14.69047193446676
 31
0.0
  0
LINE
  5
1D8
330
159
100
AcDbEntity
  8
0
100
AcDbLine
 10
4.531570461976541
 20
14.69047193446676
 30
0.0
 11
6.531570461976541
 21
14.69047193446676
 31
0.0
  0
LINE
  5
1D9
330
159
100
AcDbEntity
  8
0
100
AcDbLine
 10
8.531570461976541
 20
14.69047193446677
 30
0.0
 11
10.53157046197654
 21
14.69047193446677
 31
0.0
  0
LINE
  5
1DA
330
159
100
AcDbEntity
  8
0
100
AcDbLine
 10
-9.468429538023459
 20
-12.53738135230884
 30
0.0
 11
-7.468429538023459
 21
-12.53738135230884
 31
0.0
  0
LINE
  5
1DB
330
159
100
AcDbEntity
  8
0
100
AcDbLine
 10
-5.468429538023459
 20
-12.53738135230884
 30
0.0
 11
-3.468429538023459
 21
-12.53738135230884
 31
0.0
  0
LINE
  5
1DC
330
159
100
AcDbEntity
  8
0
100
AcDbLine
 10
-1.468429538023459
 20
-12.53738135230884
 30
0.0
 11
0.5315704619765409
 21
-12.53738135230884
 31
0.0
  0
LINE
  5
1DD
330
159
100
AcDbEntity
  8
0
100
AcDbLine
 10
2.531570461976541
 20
-12.53738135230884
 30
0.0
 11
4.531570461976541
 21
-12.53738135230884
 31
0.0
  0
LINE
  5
1DE
330
159
100
AcDbEntity
  8
0
100
AcDbLine
 10
6.531570461976541
 20
-12.53738135230884
 30
0.0
 11
8.531570461976541
 21
-12.53738135230884
 31
0.0
  0
LINE
  5
1DF
330
159
100
AcDbEntity
  8
0
100
AcDbLine
 10
10.53157046197654
 20
-12.53738135230884
 30
0.0
 11
12.53157046197654
 21
-12.53738135230884
 31
0.0
  0
ENDSEC
  0
SECTION
  2
OBJECTS
  0
DICTIONARY
  5
149
330
0
100
AcDbDictionary
281
     1
  3
ACAD_GROUP
350
14A
  3
ACAD_IMAGE_VARS
350
1A8
  3
ACAD_LAYOUT
350
156
  3
ACAD_MATERIAL
350
162
  3
ACAD_MLEADERSTYLE
350
1B0
  3
ACAD_MLINESTYLE
350
153
  3
ACAD_PLOTSETTINGS
350
155
  3
ACAD_PLOTSTYLENAME
350
14B
  3
ACAD_SCALELIST
350
172
  3
ACAD_TABLESTYLE
350
1A5
  3
ACAD_VISUALSTYLE
350
194
  3
ACDB_RECOMPOSE_DATA
350
1E6
  3
AcDbVariableDictionary
350
1AA
  3
APPDATA
350
1A7
  0
DICTIONARY
  5
14A
102
{ACAD_REACTORS
330
149
102
}
330
149
100
AcDbDictionary
281
     1
  0
RASTERVARIABLES
  5
1A8
102
{ACAD_REACTORS
330
149
102
}
330
149
100
AcDbRasterVariables
 90
        0
 70
     1
 71
     1
 72
     0
  0
DICTIONARY
  5
156
102
{ACAD_REACTORS
330
149
102
}
330
149
100
AcDbDictionary
281
     1
  3
Model
350
15A
  3
Sheet 1
350
158
  0
DICTIONARY
  5
162
102
{ACAD_REACTORS
330
149
102
}
330
149
100
AcDbDictionary
281
     1
  3
ByBlock
350
164
  3
ByLayer
350
163
  3
Global
350
165
  0
DICTIONARY
  5
1B0
102
{ACAD_REACTORS
330
149
102
}
330
149
100
AcDbDictionary
281
     1
  0
DICTIONARY
  5
153
102
{ACAD_REACTORS
330
149
102
}
330
149
100
AcDbDictionary
281
     1
  3
Standard
350
154
  0
DICTIONARY
  5
155
102
{ACAD_REACTORS
330
149
102
}
330
149
100
AcDbDictionary
281
     1
  0
ACDBDICTIONARYWDFLT
  5
14B
102
{ACAD_REACTORS
330
149
102
}
330
149
100
AcDbDictionary
281
     1
  3
Normal
350
14C
100
AcDbDictionaryWithDefault
340
14C
  0
DICTIONARY
  5
172
102
{ACAD_REACTORS
330
149
102
}
330
149
100
AcDbDictionary
281
     1
  3
A0
350
173
  3
A1
350
174
  3
A2
350
175
  3
A3
350
176
  3
A4
350
177
  3
A5
350
178
  3
A6
350
179
  3
A7
350
17A
  3
A8
350
17B
  3
A9
350
17C
  3
B0
350
17D
  3
B1
350
17E
  3
B2
350
17F
  3
B3
350
180
  3
B4
350
181
  3
B5
350
182
  3
B6
350
183
  3
B7
350
184
  3
B8
350
185
  3
B9
350
186
  3
C0
350
187
  3
C1
350
188
  3
C2
350
189
  3
C3
350
18A
  3
C4
350
18B
  3
C5
350
18C
  3
C6
350
18D
  3
C7
350
18E
  3
C8
350
18F
  3
C9
350
190
  3
D0
350
191
  3
D1
350
192
  3
D2
350
193
  0
DICTIONARY
  5
1A5
102
{ACAD_REACTORS
330
149
102
}
330
149
100
AcDbDictionary
281
     1
  3
Standard
350
1A6
  0
DICTIONARY
  5
194
102
{ACAD_REACTORS
330
149
102
}
330
149
100
AcDbDictionary
281
     1
  3
2dWireframe
350
199
  3
3D Hidden
350
19B
  3
3dWireframe
350
19A
  3
Basic
350
19C
  3
Brighten
350
1A0
  3
ColorChange
350
1A4
  3
Conceptual
350
19E
  3
Dim
350
19F
  3
Facepattern
350
1A3
  3
Flat
350
195
  3
FlatWithEdges
350
196
  3
Gouraud
350
197
  3
GouraudWithEdges
350
198
  3
Linepattern
350
1A2
  3
Realistic
350
19D
  3
Thicken
350
1A1
  0
XRECORD
  5
1E6
102
{ACAD_REACTORS
330
149
102
}
330
149
100
AcDbXrecord
280
     1
 90
        1
330
1A6
  0
DICTIONARY
  5
1AA
102
{ACAD_REACTORS
330
149
102
}
330
149
100
AcDbDictionary
281
     1
  3
CANNOSCALE
350
1AB
  3
CTABLESTYLE
350
1AF
  0
DICTIONARY
  5
1A7
102
{ACAD_REACTORS
330
149
102
}
330
149
100
AcDbDictionary
281
     1
  0
LAYOUT
  5
15A
102
{ACAD_REACTORS
330
156
102
}
330
156
100
AcDbPlotSettings
  1

  2
none_device
  4

  6

 40
0.0
 41
0.0
 42
0.0
 43
0.0
 44
0.0
 45
0.0
 46
0.0
 47
0.0
 48
0.0
 49
0.0
140
0.0
141
0.0
142
1.0
143
1.0
 70
  1712
 72
     0
 73
     0
 74
     0
  7

 75
     0
 76
     0
 77
     2
 78
   300
147
1.0
148
0.0
149
0.0
100
AcDbLayout
  1
Model
 70
     1
 71
     0
 10
0.0
 20
0.0
 11
12.0
 21
9.0
 12
0.0
 22
0.0
 32
0.0
 14
0.0
 24
0.0
 34
0.0
 15
1000.0
 25
1000.0
 35
1000.0
146
0.0
 13
0.0
 23
0.0
 33
0.0
 16
1.0
 26
0.0
 36
0.0
 17
0.0
 27
1.0
 37
0.0
 76
     0
330
159
331
15C
  0
LAYOUT
  5
158
102
{ACAD_REACTORS
330
156
102
}
330
156
100
AcDbPlotSettings
  1

  2
none_device
  4

  6

 40
0.0
 41
0.0
 42
0.0
 43
0.0
 44
0.0
 45
0.0
 46
0.0
 47
0.0
 48
0.0
 49
0.0
140
0.0
141
0.0
142
1.0
143
1.0
 70
   688
 72
     0
 73
     0
 74
     5
  7

 75
    16
 76
     0
 77
     2
 78
   300
147
1.0
148
0.0
149
0.0
100
AcDbLayout
  1
Sheet 1
 70
     1
 71
     1
 10
0.0
 20
0.0
 11
0.0
 21
0.0
 12
0.0
 22
0.0
 32
0.0
 14
0.0
 24
0.0
 34
0.0
 15
1000.0
 25
1000.0
 35
0.0
146
0.0
 13
0.0
 23
0.0
 33
0.0
 16
1.0
 26
0.0
 36
0.0
 17
0.0
 27
1.0
 37
0.0
 76
     0
330
157
  0
MATERIAL
  5
164
102
{ACAD_REACTORS
330
162
102
}
330
162
100
AcDbMaterial
  1
ByBlock
 72
     1
 94
      127
  0
MATERIAL
  5
163
102
{ACAD_REACTORS
330
162
102
}
330
162
100
AcDbMaterial
  1
ByLayer
 72
     1
 94
      127
  0
MATERIAL
  5
165
102
{ACAD_REACTORS
330
162
102
}
330
162
100
AcDbMaterial
  1
Global
 72
     1
 94
      127
  0
MLINESTYLE
  5
154
102
{ACAD_REACTORS
330
153
102
}
330
153
100
AcDbMlineStyle
  2
Standard
 70
     0
  3

 62
   256
 51
90.0
 52
90.0
 71
     2
 49
0.5
 62
   256
  6
BYLAYER
 49
-0.5
 62
   256
  6
BYLAYER
  0
ACDBPLACEHOLDER
  5
14C
102
{ACAD_REACTORS
330
14B
102
}
330
14B
  0
SCALE
  5
173
102
{ACAD_REACTORS
330
172
102
}
330
172
100
AcDbScale
 70
     0
300
1:1
140
1.0
141
1.0
290
     1
  0
SCALE
  5
174
102
{ACAD_REACTORS
330
172
102
}
330
172
100
AcDbScale
 70
     0
300
1:2
140
1.0
141
2.0
290
     0
  0
SCALE
  5
175
102
{ACAD_REACTORS
330
172
102
}
330
172
100
AcDbScale
 70
     0
300
1:4
140
1.0
141
4.0
290
     0
  0
SCALE
  5
176
102
{ACAD_REACTORS
330
172
102
}
330
172
100
AcDbScale
 70
     0
300
1:5
140
1.0
141
5.0
290
     0
  0
SCALE
  5
177
102
{ACAD_REACTORS
330
172
102
}
330
172
100
AcDbScale
 70
     0
300
1:8
140
1.0
141
8.0
290
     0
  0
SCALE
  5
178
102
{ACAD_REACTORS
330
172
102
}
330
172
100
AcDbScale
 70
     0
300
1:10
140
1.0
141
10.0
290
     0
  0
SCALE
  5
179
102
{ACAD_REACTORS
330
172
102
}
330
172
100
AcDbScale
 70
     0
300
1:16
140
1.0
141
16.0
290
     0
  0
SCALE
  5
17A
102
{ACAD_REACTORS
330
172
102
}
330
172
100
AcDbScale
 70
     0
300
1:20
140
1.0
141
20.0
290
     0
  0
SCALE
  5
17B
102
{ACAD_REACTORS
330
172
102
}
330
172
100
AcDbScale
 70
     0
300
1:30
140
1.0
141
30.0
290
     0
  0
SCALE
  5
17C
102
{ACAD_REACTORS
330
172
102
}
330
172
100
AcDbScale
 70
     0
300
1:40
140
1.0
141
40.0
290
     0
  0
SCALE
  5
17D
102
{ACAD_REACTORS
330
172
102
}
330
172
100
AcDbScale
 70
     0
300
1:50
140
1.0
141
50.0
290
     0
  0
SCALE
  5
17E
102
{ACAD_REACTORS
330
172
102
}
330
172
100
AcDbScale
 70
     0
300
1:100
140
1.0
141
100.0
290
     0
  0
SCALE
  5
17F
102
{ACAD_REACTORS
330
172
102
}
330
172
100
AcDbScale
 70
     0
300
2:1
140
2.0
141
1.0
290
     0
  0
SCALE
  5
180
102
{ACAD_REACTORS
330
172
102
}
330
172
100
AcDbScale
 70
     0
300
4:1
140
4.0
141
1.0
290
     0
  0
SCALE
  5
181
102
{ACAD_REACTORS
330
172
102
}
330
172
100
AcDbScale
 70
     0
300
8:1
140
8.0
141
1.0
290
     0
  0
SCALE
  5
182
102
{ACAD_REACTORS
330
172
102
}
330
172
100
AcDbScale
 70
     0
300
10:1
140
10.0
141
1.0
290
     0
  0
SCALE
  5
183
102
{ACAD_REACTORS
330
172
102
}
330
172
100
AcDbScale
 70
     0
300
100:1
140
100.0
141
1.0
290
     0
  0
SCALE
  5
184
102
{ACAD_REACTORS
330
172
102
}
330
172
100
AcDbScale
 70
     0
300
1/128" = 1'-0"
140
0.0078125
141
12.0
290
     0
  0
SCALE
  5
185
102
{ACAD_REACTORS
330
172
102
}
330
172
100
AcDbScale
 70
     0
300
1/64" = 1'-0"
140
0.015625
141
12.0
290
     0
  0
SCALE
  5
186
102
{ACAD_REACTORS
330
172
102
}
330
172
100
AcDbScale
 70
     0
300
1/32" = 1'-0"
140
0.03125
141
12.0
290
     0
  0
SCALE
  5
187
102
{ACAD_REACTORS
330
172
102
}
330
172
100
AcDbScale
 70
     0
300
1/16" = 1'-0"
140
0.0625
141
12.0
290
     0
  0
SCALE
  5
188
102
{ACAD_REACTORS
330
172
102
}
330
172
100
AcDbScale
 70
     0
300
3/32" = 1'-0"
140
0.09375
141
12.0
290
     0
  0
SCALE
  5
189
102
{ACAD_REACTORS
330
172
102
}
330
172
100
AcDbScale
 70
     0
300
1/8" = 1'-0"
140
0.125
141
12.0
290
     0
  0
SCALE
  5
18A
102
{ACAD_REACTORS
330
172
102
}
330
172
100
AcDbScale
 70
     0
300
3/16" = 1'-0"
140
0.1875
141
12.0
290
     0
  0
SCALE
  5
18B
102
{ACAD_REACTORS
330
172
102
}
330
172
100
AcDbScale
 70
     0
300
1/4" = 1'-0"
140
0.25
141
12.0
290
     0
  0
SCALE
  5
18C
102
{ACAD_REACTORS
330
172
102
}
330
172
100
AcDbScale
 70
     0
300
3/8" = 1'-0"
140
0.375
141
12.0
290
     0
  0
SCALE
  5
18D
102
{ACAD_REACTORS
330
172
102
}
330
172
100
AcDbScale
 70
     0
300
1/2" = 1'-0"
140
0.5
141
12.0
290
     0
  0
SCALE
  5
18E
102
{ACAD_REACTORS
330
172
102
}
330
172
100
AcDbScale
 70
     0
300
3/4" = 1'-0"
140
0.75
141
12.0
290
     0
  0
SCALE
  5
18F
102
{ACAD_REACTORS
330
172
102
}
330
172
100
AcDbScale
 70
     0
300
1" = 1'-0"
140
1.0
141
12.0
290
     0
  0
SCALE
  5
190
102
{ACAD_REACTORS
330
172
102
}
330
172
100
AcDbScale
 70
     0
300
1-1/2" = 1'-0"
140
1.5
141
12.0
290
     0
  0
SCALE
  5
191
102
{ACAD_REACTORS
330
172
102
}
330
172
100
AcDbScale
 70
     0
300
3" = 1'-0"
140
3.0
141
12.0
290
     0
  0
SCALE
  5
192
102
{ACAD_REACTORS
330
172
102
}
330
172
100
AcDbScale
 70
     0
300
6" = 1'-0"
140
6.0
141
12.0
290
     0
  0
SCALE
  5
193
102
{ACAD_REACTORS
330
172
102
}
330
172
100
AcDbScale
 70
     0
300
1'-0" = 1'-0"
140
12.0
141
12.0
290
     0
  0
TABLESTYLE
  5
1A6
102
{ACAD_REACTORS
330
1A5
102
}
102
{ACAD_XDICTIONARY
360
1E4
102
}
330
1A5
100
AcDbTableStyle
  3
Standard
 70
     0
 71
     0
 40
0.06
 41
0.06
280
     0
281
     0
  7
STANDARD
140
0.18
170
     2
 62
     0
 63
   257
283
     0
 90
        4
 91
        0
  1

274
    -2
284
     1
 64
     0
275
    -2
285
     1
 65
     0
276
    -2
286
     1
 66
     0
277
    -2
287
     1
 67
     0
278
    -2
288
     1
 68
     0
279
    -2
289
     1
 69
     0
  7
STANDARD
140
0.25
170
     5
 62
     0
 63
   257
283
     0
 90
        4
 91
        0
  1

274
    -2
284
     1
 64
     0
275
    -2
285
     1
 65
     0
276
    -2
286
     1
 66
     0
277
    -2
287
     1
 67
     0
278
    -2
288
     1
 68
     0
279
    -2
289
     1
 69
     0
  7
STANDARD
140
0.18
170
     5
 62
     0
 63
   257
283
     0
 90
        4
 91
        0
  1

274
    -2
284
     1
 64
     0
275
    -2
285
     1
 65
     0
276
    -2
286
     1
 66
     0
277
    -2
287
     1
 67
     0
278
    -2
288
     1
 68
     0
279
    -2
289
     1
 69
     0
  0
VISUALSTYLE
  5
199
102
{ACAD_REACTORS
330
194
102
}
330
194
100
AcDbVisualStyle
  2
2dWireframe
 70
     4
177
     2
291
     0
 71
     0
176
     1
 72
     2
176
     1
 73
     0
176
     1
 90
        0
176
     1
 40
-0.6
176
     1
 41
-30.0
176
     1
 62
     5
 63
     7
421
 16777215
176
     1
 74
     1
176
     1
 91
        4
176
     1
 64
     7
176
     1
 65
   257
176
     1
 75
     1
176
     1
175
     1
176
     1
 42
1.0
176
     1
 92
        0
176
     1
 66
   257
176
     1
 43
1.0
176
     1
 76
     1
176
     1
 77
     6
176
     1
 78
     2
176
     1
 67
     7
176
     1
 79
     5
176
     1
170
     0
176
     1
171
     0
176
     1
290
     0
176
     1
 93
        1
176
     1
 44
0.0
176
     1
173
     0
176
     1
  0
VISUALSTYLE
  5
19B
102
{ACAD_REACTORS
330
194
102
}
330
194
100
AcDbVisualStyle
  2
3D Hidden
 70
     6
177
     2
291
     0
 71
     1
176
     1
 72
     2
176
     1
 73
     2
176
     1
 90
        0
176
     1
 40
-0.6
176
     1
 41
-30.0
176
     1
 62
     5
 63
     7
421
 16777215
176
     1
 74
     2
176
     1
 91
        2
176
     1
 64
     7
176
     1
 65
   257
176
     1
 75
     2
176
     1
175
     1
176
     1
 42
40.0
176
     1
 92
        0
176
     1
 66
   257
176
     1
 43
1.0
176
     1
 76
     1
176
     1
 77
     6
176
     1
 78
     2
176
     1
 67
     7
176
     1
 79
     3
176
     1
170
     0
176
     1
171
     0
176
     1
290
     0
176
     1
 93
        1
176
     1
 44
0.0
176
     1
173
     0
176
     1
  0
VISUALSTYLE
  5
19A
102
{ACAD_REACTORS
330
194
102
}
330
194
100
AcDbVisualStyle
  2
3dWireframe
 70
     5
177
     2
291
     0
 71
     0
176
     1
 72
     2
176
     1
 73
     0
176
     1
 90
        0
176
     1
 40
-0.6
176
     1
 41
-30.0
176
     1
 62
     5
 63
     7
421
 16777215
176
     1
 74
     1
176
     1
 91
        4
176
     1
 64
     7
176
     1
 65
   257
176
     1
 75
     1
176
     1
175
     1
176
     1
 42
1.0
176
     1
 92
        0
176
     1
 66
   257
176
     1
 43
1.0
176
     1
 76
     1
176
     1
 77
     6
176
     1
 78
     2
176
     1
 67
     7
176
     1
 79
     5
176
     1
170
     0
176
     1
171
     0
176
     1
290
     0
176
     1
 93
        1
176
     1
 44
0.0
176
     1
173
     0
176
     1
  0
VISUALSTYLE
  5
19C
102
{ACAD_REACTORS
330
194
102
}
330
194
100
AcDbVisualStyle
  2
Basic
 70
     7
177
     2
291
     1
 71
     1
176
     1
 72
     0
176
     1
 73
     1
176
     1
 90
        0
176
     1
 40
-0.6
176
     1
 41
-30.0
176
     1
 62
     5
 63
     7
421
 16777215
176
     1
 74
     0
176
     1
 91
        4
176
     1
 64
     7
176
     1
 65
   257
176
     1
 75
     1
176
     1
175
     1
176
     1
 42
1.0
176
     1
 92
        8
176
     1
 66
     7
176
     1
 43
1.0
176
     1
 76
     1
176
     1
 77
     6
176
     1
 78
     2
176
     1
 67
     7
176
     1
 79
     5
176
     1
170
     0
176
     1
171
     0
176
     1
290
     0
176
     1
 93
        1
176
     1
 44
0.0
176
     1
173
     0
176
     1
  0
VISUALSTYLE
  5
1A0
102
{ACAD_REACTORS
330
194
102
}
330
194
100
AcDbVisualStyle
  2
Brighten
 70
    12
177
     2
291
     1
 71
     2
176
     1
 72
     2
176
     1
 73
     0
176
     1
 90
        0
176
     1
 40
-0.6
176
     1
 41
-30.0
176
     1
 62
     5
 63
     7
421
 16777215
176
     1
 74
     1
176
     1
 91
        4
176
     1
 64
     7
176
     1
 65
   257
176
     1
 75
     1
176
     1
175
     1
176
     1
 42
1.0
176
     1
 92
        8
176
     1
 66
     7
176
     1
 43
1.0
176
     1
 76
     1
176
     1
 77
     6
176
     1
 78
     2
176
     1
 67
     7
176
     1
 79
     5
176
     1
170
     0
176
     1
171
     0
176
     1
290
     0
176
     1
 93
        1
176
     1
 44
50.0
176
     1
173
     0
176
     1
  0
VISUALSTYLE
  5
1A4
102
{ACAD_REACTORS
330
194
102
}
330
194
100
AcDbVisualStyle
  2
ColorChange
 70
    16
177
     2
291
     1
 71
     2
176
     1
 72
     2
176
     1
 73
     3
176
     1
 90
        0
176
     1
 40
-0.6
176
     1
 41
-30.0
176
     1
 62
     5
 63
     8
421
  8421504
176
     1
 74
     1
176
     1
 91
        4
176
     1
 64
     7
176
     1
 65
   257
176
     1
 75
     1
176
     1
175
     1
176
     1
 42
1.0
176
     1
 92
        8
176
     1
 66
     8
424
  8421504
176
     1
 43
1.0
176
     1
 76
     1
176
     1
 77
     6
176
     1
 78
     2
176
     1
 67
     7
176
     1
 79
     5
176
     1
170
     0
176
     1
171
     0
176
     1
290
     0
176
     1
 93
        1
176
     1
 44
0.0
176
     1
173
     0
176
     1
  0
VISUALSTYLE
  5
19E
102
{ACAD_REACTORS
330
194
102
}
330
194
100
AcDbVisualStyle
  2
Conceptual
 70
     9
177
     2
291
     0
 71
     3
176
     1
 72
     2
176
     1
 73
     0
176
     1
 90
        0
176
     1
 40
-0.6
176
     1
 41
-30.0
176
     1
 62
     5
 63
     7
421
 16777215
176
     1
 74
     2
176
     1
 91
        2
176
     1
 64
     7
176
     1
 65
   257
176
     1
 75
     1
176
     1
175
     1
176
     1
 42
40.0
176
     1
 92
        8
176
     1
 66
     7
176
     1
 43
1.0
176
     1
 76
     1
176
     1
 77
     6
176
     1
 78
     2
176
     1
 67
     7
176
     1
 79
     3
176
     1
170
     0
176
     1
171
     0
176
     1
290
     0
176
     1
 93
        1
176
     1
 44
0.0
176
     1
173
     0
176
     1
  0
VISUALSTYLE
  5
19F
102
{ACAD_REACTORS
330
194
102
}
330
194
100
AcDbVisualStyle
  2
Dim
 70
    11
177
     2
291
     1
 71
     2
176
     1
 72
     2
176
     1
 73
     0
176
     1
 90
        0
176
     1
 40
-0.6
176
     1
 41
-30.0
176
     1
 62
     5
 63
     7
421
 16777215
176
     1
 74
     1
176
     1
 91
        4
176
     1
 64
     7
176
     1
 65
   257
176
     1
 75
     1
176
     1
175
     1
176
     1
 42
1.0
176
     1
 92
        8
176
     1
 66
     7
176
     1
 43
1.0
176
     1
 76
     1
176
     1
 77
     6
176
     1
 78
     2
176
     1
 67
     7
176
     1
 79
     5
176
     1
170
     0
176
     1
171
     0
176
     1
290
     0
176
     1
 93
        1
176
     1
 44
-50.0
176
     1
173
     0
176
     1
  0
VISUALSTYLE
  5
1A3
102
{ACAD_REACTORS
330
194
102
}
330
194
100
AcDbVisualStyle
  2
Facepattern
 70
    15
177
     2
291
     1
 71
     2
176
     1
 72
     2
176
     1
 73
     0
176
     1
 90
        0
176
     1
 40
-0.6
176
     1
 41
-30.0
176
     1
 62
     5
 63
     7
421
 16777215
176
     1
 74
     1
176
     1
 91
        4
176
     1
 64
     7
176
     1
 65
   257
176
     1
 75
     1
176
     1
175
     1
176
     1
 42
1.0
176
     1
 92
        8
176
     1
 66
     7
176
     1
 43
1.0
176
     1
 76
     1
176
     1
 77
     6
176
     1
 78
     2
176
     1
 67
     7
176
     1
 79
     5
176
     1
170
     0
176
     1
171
     0
176
     1
290
     0
176
     1
 93
        1
176
     1
 44
0.0
176
     1
173
     0
176
     1
  0
VISUALSTYLE
  5
195
102
{ACAD_REACTORS
330
194
102
}
330
194
100
AcDbVisualStyle
  2
Flat
 70
     0
177
     2
291
     1
 71
     2
176
     1
 72
     1
176
     1
 73
     1
176
     1
 90
        2
176
     1
 40
-0.6
176
     1
 41
30.0
176
     1
 62
     5
 63
     7
421
 16777215
176
     1
 74
     0
176
     1
 91
        4
176
     1
 64
     7
176
     1
 65
   257
176
     1
 75
     1
176
     1
175
     1
176
     1
 42
1.0
176
     1
 92
        8
176
     1
 66
     7
176
     1
 43
1.0
176
     1
 76
     1
176
     1
 77
     6
176
     1
 78
     2
176
     1
 67
     7
176
     1
 79
     5
176
     1
170
     0
176
     1
171
     0
176
     1
290
     0
176
     1
 93
       13
176
     1
 44
0.0
176
     1
173
     0
176
     1
  0
VISUALSTYLE
  5
196
102
{ACAD_REACTORS
330
194
102
}
330
194
100
AcDbVisualStyle
  2
FlatWithEdges
 70
     1
177
     2
291
     1
 71
     2
176
     1
 72
     1
176
     1
 73
     1
176
     1
 90
        2
176
     1
 40
-0.6
176
     1
 41
30.0
176
     1
 62
     5
 63
     7
421
 16777215
176
     1
 74
     1
176
     1
 91
        4
176
     1
 64
     7
176
     1
 65
   257
176
     1
 75
     1
176
     1
175
     1
176
     1
 42
1.0
176
     1
 92
        0
176
     1
 66
   257
176
     1
 43
1.0
176
     1
 76
     1
176
     1
 77
     6
176
     1
 78
     2
176
     1
 67
     7
176
     1
 79
     5
176
     1
170
     0
176
     1
171
     0
176
     1
290
     0
176
     1
 93
       13
176
     1
 44
0.0
176
     1
173
     0
176
     1
  0
VISUALSTYLE
  5
197
102
{ACAD_REACTORS
330
194
102
}
330
194
100
AcDbVisualStyle
  2
Gouraud
 70
     2
177
     2
291
     1
 71
     2
176
     1
 72
     2
176
     1
 73
     1
176
     1
 90
        2
176
     1
 40
-0.6
176
     1
 41
30.0
176
     1
 62
     5
 63
     7
421
 16777215
176
     1
 74
     0
176
     1
 91
        4
176
     1
 64
     7
176
     1
 65
   257
176
     1
 75
     1
176
     1
175
     1
176
     1
 42
1.0
176
     1
 92
        0
176
     1
 66
     7
176
     1
 43
1.0
176
     1
 76
     1
176
     1
 77
     6
176
     1
 78
     2
176
     1
 67
     7
176
     1
 79
     5
176
     1
170
     0
176
     1
171
     0
176
     1
290
     0
176
     1
 93
       13
176
     1
 44
0.0
176
     1
173
     0
176
     1
  0
VISUALSTYLE
  5
198
102
{ACAD_REACTORS
330
194
102
}
330
194
100
AcDbVisualStyle
  2
GouraudWithEdges
 70
     3
177
     2
291
     1
 71
     2
176
     1
 72
     2
176
     1
 73
     1
176
     1
 90
        2
176
     1
 40
-0.6
176
     1
 41
30.0
176
     1
 62
     5
 63
     7
421
 16777215
176
     1
 74
     1
176
     1
 91
        4
176
     1
 64
     7
176
     1
 65
   257
176
     1
 75
     1
176
     1
175
     1
176
     1
 42
1.0
176
     1
 92
        0
176
     1
 66
   257
176
     1
 43
1.0
176
     1
 76
     1
176
     1
 77
     6
176
     1
 78
     2
176
     1
 67
     7
176
     1
 79
     5
176
     1
170
     0
176
     1
171
     0
176
     1
290
     0
176
     1
 93
       13
176
     1
 44
0.0
176
     1
173
     0
176
     1
  0
VISUALSTYLE
  5
1A2
102
{ACAD_REACTORS
330
194
102
}
330
194
100
AcDbVisualStyle
  2
Linepattern
 70
    14
177
     2
291
     1
 71
     2
176
     1
 72
     2
176
     1
 73
     0
176
     1
 90
        0
176
     1
 40
-0.6
176
     1
 41
-30.0
176
     1
 62
     5
 63
     7
421
 16777215
176
     1
 74
     1
176
     1
 91
        4
176
     1
 64
     7
176
     1
 65
   257
176
     1
 75
     7
176
     1
175
     7
176
     1
 42
1.0
176
     1
 92
        8
176
     1
 66
     7
176
     1
 43
1.0
176
     1
 76
     1
176
     1
 77
     6
176
     1
 78
     2
176
     1
 67
     7
176
     1
 79
     5
176
     1
170
     0
176
     1
171
     0
176
     1
290
     0
176
     1
 93
        1
176
     1
 44
0.0
176
     1
173
     0
176
     1
  0
VISUALSTYLE
  5
19D
102
{ACAD_REACTORS
330
194
102
}
330
194
100
AcDbVisualStyle
  2
Realistic
 70
     8
177
     2
291
     0
 71
     2
176
     1
 72
     2
176
     1
 73
     0
176
     1
 90
        0
176
     1
 40
-0.6
176
     1
 41
-30.0
176
     1
 62
     5
 63
     7
421
 16777215
176
     1
 74
     1
176
     1
 91
        0
176
     1
 64
     7
176
     1
 65
   257
176
     1
 75
     1
176
     1
175
     1
176
     1
 42
1.0
176
     1
 92
        8
176
     1
 66
     8
424
  7895160
176
     1
 43
1.0
176
     1
 76
     1
176
     1
 77
     6
176
     1
 78
     2
176
     1
 67
     7
176
     1
 79
     5
176
     1
170
     0
176
     1
171
     0
176
     1
290
     0
176
     1
 93
       13
176
     1
 44
0.0
176
     1
173
     0
176
     1
  0
VISUALSTYLE
  5
1A1
102
{ACAD_REACTORS
330
194
102
}
330
194
100
AcDbVisualStyle
  2
Thicken
 70
    13
177
     2
291
     1
 71
     2
176
     1
 72
     2
176
     1
 73
     0
176
     1
 90
        0
176
     1
 40
-0.6
176
     1
 41
-30.0
176
     1
 62
     5
 63
     7
421
 16777215
176
     1
 74
     1
176
     1
 91
        4
176
     1
 64
     7
176
     1
 65
   257
176
     1
 75
     1
176
     1
175
     1
176
     1
 42
1.0
176
     1
 92
       12
176
     1
 66
     7
176
     1
 43
1.0
176
     1
 76
     1
176
     1
 77
     6
176
     1
 78
     2
176
     1
 67
     7
176
     1
 79
     5
176
     1
170
     0
176
     1
171
     0
176
     1
290
     0
176
     1
 93
        1
176
     1
 44
0.0
176
     1
173
     0
176
     1
  0
DICTIONARYVAR
  5
1AB
102
{ACAD_REACTORS
330
1AA
102
}
330
1AA
100
DictionaryVariables
280
     0
  1
1:1
  0
DICTIONARYVAR
  5
1AF
102
{ACAD_REACTORS
330
1AA
102
}
330
1AA
100
DictionaryVariables
280
     0
  1
Standard
  0
DICTIONARY
  5
1E4
330
1A6
100
AcDbDictionary
280
     1
281
     1
  3
ACAD_ROUNDTRIP_2008_TABLESTYLE_CELLSTYLEMAP
360
1E5
  0
CELLSTYLEMAP
  5
1E5
102
{ACAD_REACTORS
330
1E4
102
}
330
1E4
100
AcDbCellStyleMap
 90
        3
300
CELLSTYLE
  1
TABLEFORMAT_BEGIN
 90
        5
170
     1
 91
        0
 92
        0
 62
   257
 93
        1
300
CONTENTFORMAT
  1
CONTENTFORMAT_BEGIN
 90
        0
 91
        0
 92
        4
 93
        0
300

 40
0.0
140
1.0
 94
        5
 62
     0
340
14E
144
0.25
309
CONTENTFORMAT_END
171
     1
301
MARGIN
  1
CELLMARGIN_BEGIN
 40
0.06
 40
0.06
 40
0.06
 40
0.06
 40
0.06
 40
0.06
309
CELLMARGIN_END
 94
        6
 95
        1
302
GRIDFORMAT
  1
GRIDFORMAT_BEGIN
 90
        0
 91
        1
 62
     0
 92
       -2
340
150
 93
        0
 40
0.045
309
GRIDFORMAT_END
 95
        2
302
GRIDFORMAT
  1
GRIDFORMAT_BEGIN
 90
        0
 91
        1
 62
     0
 92
       -2
340
150
 93
        0
 40
0.045
309
GRIDFORMAT_END
 95
        4
302
GRIDFORMAT
  1
GRIDFORMAT_BEGIN
 90
        0
 91
        1
 62
     0
 92
       -2
340
150
 93
        0
 40
0.045
309
GRIDFORMAT_END
 95
        8
302
GRIDFORMAT
  1
GRIDFORMAT_BEGIN
 90
        0
 91
        1
 62
     0
 92
       -2
340
150
 93
        0
 40
0.045
309
GRIDFORMAT_END
 95
       16
302
GRIDFORMAT
  1
GRIDFORMAT_BEGIN
 90
        0
 91
        1
 62
     0
 92
       -2
340
150
 93
        0
 40
0.045
309
GRIDFORMAT_END
 95
       32
302
GRIDFORMAT
  1
GRIDFORMAT_BEGIN
 90
        0
 91
        1
 62
     0
 92
       -2
340
150
 93
        0
 40
0.045
309
GRIDFORMAT_END
309
TABLEFORMAT_END
  1
CELLSTYLE_BEGIN
 90
        1
 91
        1
300
_TITLE
309
CELLSTYLE_END
300
CELLSTYLE
  1
TABLEFORMAT_BEGIN
 90
        5
170
     1
 91
        0
 92
        0
 62
   257
 93
        1
300
CONTENTFORMAT
  1
CONTENTFORMAT_BEGIN
 90
        0
 91
        0
 92
        4
 93
        0
300

 40
0.0
140
1.0
 94
        5
 62
     0
340
14E
144
0.18
309
CONTENTFORMAT_END
171
     1
301
MARGIN
  1
CELLMARGIN_BEGIN
 40
0.06
 40
0.06
 40
0.06
 40
0.06
 40
0.06
 40
0.06
309
CELLMARGIN_END
 94
        6
 95
        1
302
GRIDFORMAT
  1
GRIDFORMAT_BEGIN
 90
        0
 91
        1
 62
     0
 92
       -2
340
150
 93
        0
 40
0.045
309
GRIDFORMAT_END
 95
        2
302
GRIDFORMAT
  1
GRIDFORMAT_BEGIN
 90
        0
 91
        1
 62
     0
 92
       -2
340
150
 93
        0
 40
0.045
309
GRIDFORMAT_END
 95
        4
302
GRIDFORMAT
  1
GRIDFORMAT_BEGIN
 90
        0
 91
        1
 62
     0
 92
       -2
340
150
 93
        0
 40
0.045
309
GRIDFORMAT_END
 95
        8
302
GRIDFORMAT
  1
GRIDFORMAT_BEGIN
 90
        0
 91
        1
 62
     0
 92
       -2
340
150
 93
        0
 40
0.045
309
GRIDFORMAT_END
 95
       16
302
GRIDFORMAT
  1
GRIDFORMAT_BEGIN
 90
        0
 91
        1
 62
     0
 92
       -2
340
150
 93
        0
 40
0.045
309
GRIDFORMAT_END
 95
       32
302
GRIDFORMAT
  1
GRIDFORMAT_BEGIN
 90
        0
 91
        1
 62
     0
 92
       -2
340
150
 93
        0
 40
0.045
309
GRIDFORMAT_END
309
TABLEFORMAT_END
  1
CELLSTYLE_BEGIN
 90
        2
 91
        1
300
_HEADER
309
CELLSTYLE_END
300
CELLSTYLE
  1
TABLEFORMAT_BEGIN
 90
        5
170
     1
 91
        0
 92
        0
 62
   257
 93
        1
300
CONTENTFORMAT
  1
CONTENTFORMAT_BEGIN
 90
        0
 91
        0
 92
        4
 93
        0
300

 40
0.0
140
1.0
 94
        2
 62
     0
340
14E
144
0.18
309
CONTENTFORMAT_END
171
     1
301
MARGIN
  1
CELLMARGIN_BEGIN
 40
0.06
 40
0.06
 40
0.06
 40
0.06
 40
0.06
 40
0.06
309
CELLMARGIN_END
 94
        6
 95
        1
302
GRIDFORMAT
  1
GRIDFORMAT_BEGIN
 90
        0
 91
        1
 62
     0
 92
       -2
340
150
 93
        0
 40
0.045
309
GRIDFORMAT_END
 95
        2
302
GRIDFORMAT
  1
GRIDFORMAT_BEGIN
 90
        0
 91
        1
 62
     0
 92
       -2
340
150
 93
        0
 40
0.045
309
GRIDFORMAT_END
 95
        4
302
GRIDFORMAT
  1
GRIDFORMAT_BEGIN
 90
        0
 91
        1
 62
     0
 92
       -2
340
150
 93
        0
 40
0.045
309
GRIDFORMAT_END
 95
        8
302
GRIDFORMAT
  1
GRIDFORMAT_BEGIN
 90
        0
 91
        1
 62
     0
 92
       -2
340
150
 93
        0
 40
0.045
309
GRIDFORMAT_END
 95
       16
302
GRIDFORMAT
  1
GRIDFORMAT_BEGIN
 90
        0
 91
        1
 62
     0
 92
       -2
340
150
 93
        0
 40
0.045
309
GRIDFORMAT_END
 95
       32
302
GRIDFORMAT
  1
GRIDFORMAT_BEGIN
 90
        0
 91
        1
 62
     0
 92
       -2
340
150
 93
        0
 40
0.045
309
GRIDFORMAT_END
309
TABLEFORMAT_END
  1
CELLSTYLE_BEGIN
 90
        3
 91
        2
300
_DATA
309
CELLSTYLE_END
  0
ENDSEC
  0
EOF
